  0
SECTION
  2
HEADER
  9
$ACADVER
  1
AC1014
  9
$ACADMAINTVER
 70
     9
  9
$DWGCODEPAGE
  3
ANSI_932
  9
$INSBASE
 10
0.0
 20
0.0
 30
0.0
  9
$EXTMIN
 10
-822.1150362997851
 20
-606.3197452528254
 30
0.0
  9
$EXTMAX
 10
833.5303692919774
 20
594.9493457222048
 30
0.0
  9
$LIMMIN
 10
-297.0
 20
-210.0
  9
$LIMMAX
 10
297.0
 20
210.0
  9
$ORTHOMODE
 70
     0
  9
$REGENMODE
 70
     1
  9
$FILLMODE
 70
     1
  9
$QTEXTMODE
 70
     0
  9
$MIRRTEXT
 70
     1
  9
$DRAGMODE
 70
     2
  9
$LTSCALE
 40
0.25
  9
$OSMODE
 70
    37
  9
$ATTMODE
 70
     1
  9
$TEXTSIZE
 40
0.2
  9
$TRACEWID
 40
0.05
  9
$TEXTSTYLE
  7
STANDARD
  9
$CLAYER
  8
0
  9
$CELTYPE
  6
BYLAYER
  9
$CECOLOR
 62
   256
  9
$CELTSCALE
 40
1.0
  9
$DELOBJ
 70
     1
  9
$DISPSILH
 70
     0
  9
$DIMSCALE
 40
1.0
  9
$DIMASZ
 40
2.000107526779175
  9
$DIMEXO
 40
1.0
  9
$DIMDLI
 40
10.0
  9
$DIMRND
 40
0.0
  9
$DIMDLE
 40
0.0
  9
$DIMEXE
 40
1.0
  9
$DIMTP
 40
0.0
  9
$DIMTM
 40
0.0
  9
$DIMTXT
 40
3.5
  9
$DIMCEN
 40
0.0
  9
$DIMTSZ
 40
0.0
  9
$DIMTOL
 70
     0
  9
$DIMLIM
 70
     0
  9
$DIMTIH
 70
     0
  9
$DIMTOH
 70
     0
  9
$DIMSE1
 70
     0
  9
$DIMSE2
 70
     0
  9
$DIMTAD
 70
     1
  9
$DIMZIN
 70
     8
  9
$DIMBLK
  1

  9
$DIMASO
 70
     1
  9
$DIMSHO
 70
     1
  9
$DIMPOST
  1

  9
$DIMAPOST
  1

  9
$DIMALT
 70
     0
  9
$DIMALTD
 70
     2
  9
$DIMALTF
 40
0.0393700787401575
  9
$DIMLFAC
 40
1.0
  9
$DIMTOFL
 70
     0
  9
$DIMTVP
 40
0.0
  9
$DIMTIX
 70
     0
  9
$DIMSOXD
 70
     0
  9
$DIMSAH
 70
     0
  9
$DIMBLK1
  1

  9
$DIMBLK2
  1

  9
$DIMSTYLE
  2
STANDARD
  9
$DIMCLRD
 70
     0
  9
$DIMCLRE
 70
     0
  9
$DIMCLRT
 70
     0
  9
$DIMTFAC
 40
0.65
  9
$DIMGAP
 40
0.09
  9
$DIMJUST
 70
     0
  9
$DIMSD1
 70
     0
  9
$DIMSD2
 70
     0
  9
$DIMTOLJ
 70
     0
  9
$DIMTZIN
 70
     0
  9
$DIMALTZ
 70
     0
  9
$DIMALTTZ
 70
     0
  9
$DIMFIT
 70
     3
  9
$DIMUPT
 70
     0
  9
$DIMUNIT
 70
     2
  9
$DIMDEC
 70
     3
  9
$DIMTDEC
 70
     3
  9
$DIMALTU
 70
     2
  9
$DIMALTTD
 70
     3
  9
$DIMTXSTY
  7
STANDARD
  9
$DIMAUNIT
 70
     0
  9
$LUNITS
 70
     2
  9
$LUPREC
 70
     4
  9
$SKETCHINC
 40
0.1
  9
$FILLETRAD
 40
0.5
  9
$AUNITS
 70
     0
  9
$AUPREC
 70
     0
  9
$MENU
  1
.
  9
$ELEVATION
 40
0.0
  9
$PELEVATION
 40
0.0
  9
$THICKNESS
 40
0.0
  9
$LIMCHECK
 70
     0
  9
$CHAMFERA
 40
0.0
  9
$CHAMFERB
 40
0.0
  9
$CHAMFERC
 40
0.0
  9
$CHAMFERD
 40
0.0
  9
$SKPOLY
 70
     0
  9
$TDCREATE
 40
2458505.390343993
  9
$TDUPDATE
 40
2458505.390344271
  9
$TDINDWG
 40
0.0000000116
  9
$TDUSRTIMER
 40
0.0000000116
  9
$USRTIMER
 70
     1
  9
$ANGBASE
 50
0.0
  9
$ANGDIR
 70
     0
  9
$PDMODE
 70
     0
  9
$PDSIZE
 40
1.0
  9
$PLINEWID
 40
0.0
  9
$COORDS
 70
     1
  9
$SPLFRAME
 70
     0
  9
$SPLINETYPE
 70
     6
  9
$SPLINESEGS
 70
     8
  9
$ATTDIA
 70
     0
  9
$ATTREQ
 70
     1
  9
$HANDLING
 70
     1
  9
$HANDSEED
  5
6A4
  9
$SURFTAB1
 70
     6
  9
$SURFTAB2
 70
     6
  9
$SURFTYPE
 70
     6
  9
$SURFU
 70
     6
  9
$SURFV
 70
     6
  9
$UCSNAME
  2

  9
$UCSORG
 10
0.0
 20
0.0
 30
0.0
  9
$UCSXDIR
 10
1.0
 20
0.0
 30
0.0
  9
$UCSYDIR
 10
0.0
 20
1.0
 30
0.0
  9
$PUCSNAME
  2

  9
$PUCSORG
 10
0.0
 20
0.0
 30
0.0
  9
$PUCSXDIR
 10
1.0
 20
0.0
 30
0.0
  9
$PUCSYDIR
 10
0.0
 20
1.0
 30
0.0
  9
$USERI1
 70
     0
  9
$USERI2
 70
     0
  9
$USERI3
 70
     0
  9
$USERI4
 70
     0
  9
$USERI5
 70
     0
  9
$USERR1
 40
0.0
  9
$USERR2
 40
0.0
  9
$USERR3
 40
0.0
  9
$USERR4
 40
0.0
  9
$USERR5
 40
0.0
  9
$WORLDVIEW
 70
     1
  9
$SHADEDGE
 70
     3
  9
$SHADEDIF
 70
    70
  9
$TILEMODE
 70
     1
  9
$MAXACTVP
 70
    64
  9
$PINSBASE
 10
0.0
 20
0.0
 30
0.0
  9
$PLIMCHECK
 70
     0
  9
$PEXTMIN
 10
1.000000000000000E+20
 20
1.000000000000000E+20
 30
1.000000000000000E+20
  9
$PEXTMAX
 10
-1.000000000000000E+20
 20
-1.000000000000000E+20
 30
-1.000000000000000E+20
  9
$PLIMMIN
 10
0.0
 20
0.0
  9
$PLIMMAX
 10
12.0
 20
9.0
  9
$UNITMODE
 70
     0
  9
$VISRETAIN
 70
     0
  9
$PLINEGEN
 70
     1
  9
$PSLTSCALE
 70
     0
  9
$TREEDEPTH
 70
  3020
  9
$PICKSTYLE
 70
     1
  9
$CMLSTYLE
  2
STANDARD
  9
$CMLJUST
 70
     0
  9
$CMLSCALE
 40
1.0
  9
$PROXYGRAPHICS
 70
     0
  9
$MEASUREMENT
 70
     1
  0
ENDSEC
  0
SECTION
  2
CLASSES
  0
CLASS
  1
ACDBDICTIONARYWDFLT
  2
AcDbDictionaryWithDefault
  3
ObjectDBX Classes
 90
        0
280
     0
281
     0
  0
CLASS
  1
VISUALSTYLE
  2
AcDbVisualStyle
  3
ObjectDBX Classes
 90
     4095
280
     0
281
     0
  0
CLASS
  1
MATERIAL
  2
AcDbMaterial
  3
ObjectDBX Classes
 90
     1153
280
     0
281
     0
  0
CLASS
  1
SCALE
  2
AcDbScale
  3
ObjectDBX Classes
 90
     1153
280
     0
281
     0
  0
CLASS
  1
TABLESTYLE
  2
AcDbTableStyle
  3
ObjectDBX Classes
 90
     4095
280
     0
281
     0
  0
CLASS
  1
MLEADERSTYLE
  2
AcDbMLeaderStyle
  3
ACDB_MLEADERSTYLE_CLASS
 90
     4095
280
     0
281
     0
  0
CLASS
  1
SUN
  2
AcDbSun
  3
SCENEOE
 90
     1153
280
     0
281
     0
  0
CLASS
  1
DICTIONARYVAR
  2
AcDbDictionaryVar
  3
ObjectDBX Classes
 90
        0
280
     0
281
     0
  0
CLASS
  1
XRECORD
  2
AcDbXrecord
  3
ObjectDBX Classes
 90
        0
280
     0
281
     0
  0
CLASS
  1
LWPOLYLINE
  2
AcDbPolyline
  3
ObjectDBX Classes
 90
        0
280
     0
281
     1
  0
CLASS
  1
HATCH
  2
AcDbHatch
  3
ObjectDBX Classes
 90
        0
280
     0
281
     1
  0
CLASS
  1
ACDBPLACEHOLDER
  2
AcDbPlaceHolder
  3
ObjectDBX Classes
 90
        0
280
     0
281
     0
  0
CLASS
  1
LAYOUT
  2
AcDbLayout
  3
ObjectDBX Classes
 90
        0
280
     0
281
     0
  0
ENDSEC
  0
SECTION
  2
TABLES
  0
TABLE
  2
VPORT
  5
8
102
{ACAD_XDICTIONARY
360
699
102
}
330
0
100
AcDbSymbolTable
 70
     1
  0
VPORT
  5
29
330
8
100
AcDbSymbolTableRecord
100
AcDbViewportTableRecord
  2
*ACTIVE
 70
     0
 10
0.0
 20
0.0
 11
1.0
 21
1.0
 12
7.194364264700138
 22
-5.685199765310301
 13
0.0
 23
0.0
 14
0.5
 24
0.5
 15
0.5
 25
0.5
 16
0.0
 26
0.0
 36
1.0
 17
0.0
 27
0.0
 37
0.0
 40
408.4314909315102
 41
1.385672539740712
 42
50.0
 43
0.0
 44
0.0
 50
0.0
 51
0.0
 71
     0
 72
  1000
 73
     1
 74
     1
 75
     0
 76
     0
 77
     0
 78
     0
  0
ENDTAB
  0
TABLE
  2
LTYPE
  5
5
330
0
100
AcDbSymbolTable
 70
    67
  0
LTYPE
  5
14
330
5
100
AcDbSymbolTableRecord
100
AcDbLinetypeTableRecord
  2
BYBLOCK
 70
     0
  3

 72
    65
 73
     0
 40
0.0
  0
LTYPE
  5
15
330
5
100
AcDbSymbolTableRecord
100
AcDbLinetypeTableRecord
  2
BYLAYER
 70
     0
  3

 72
    65
 73
     0
 40
0.0
  0
LTYPE
  5
16
330
5
100
AcDbSymbolTableRecord
100
AcDbLinetypeTableRecord
  2
CONTINUOUS
 70
     0
  3
Solid line
 72
    65
 73
     0
 40
0.0
  0
LTYPE
  5
6F
330
5
100
AcDbSymbolTableRecord
100
AcDbLinetypeTableRecord
  2
HIDDENX2
 70
     0
  3
Hidden (2x) ____ ____ ____ ____ ____ ____ ____ 
 72
    65
 73
     2
 40
19.05
 49
12.7
 74
     0
 49
-6.35
 74
     0
  0
LTYPE
  5
70
330
5
100
AcDbSymbolTableRecord
100
AcDbLinetypeTableRecord
  2
HIDDEN
 70
     0
  3
Hidden __ __ __ __ __ __ __ __ __ __ __ __ __ __
 72
    65
 73
     2
 40
9.524999999999999
 49
6.35
 74
     0
 49
-3.175
 74
     0
  0
LTYPE
  5
71
330
5
100
AcDbSymbolTableRecord
100
AcDbLinetypeTableRecord
  2
HIDDEN2
 70
     0
  3
Hidden (.5x) _ _ _ _ _ _ _ _ _ _ _ _ _ _ _ _ _ 
 72
    65
 73
     2
 40
4.762499999999999
 49
3.175
 74
     0
 49
-1.5875
 74
     0
  0
LTYPE
  5
72
330
5
100
AcDbSymbolTableRecord
100
AcDbLinetypeTableRecord
  2
DASHED
 70
     0
  3
Dashed __ __ __ __ __ __ __ __ __ __ __ __ __ _
 72
    65
 73
     2
 40
19.05
 49
12.7
 74
     0
 49
-6.35
 74
     0
  0
LTYPE
  5
73
330
5
100
AcDbSymbolTableRecord
100
AcDbLinetypeTableRecord
  2
DASHED2
 70
     0
  3
Dashed (.5x) _ _ _ _ _ _ _ _ _ _ _ _ _ _ _ _ _ 
 72
    65
 73
     2
 40
9.524999999999999
 49
6.35
 74
     0
 49
-3.175
 74
     0
  0
LTYPE
  5
74
330
5
100
AcDbSymbolTableRecord
100
AcDbLinetypeTableRecord
  2
DASHEDX2
 70
     0
  3
Dashed (2x) ____  ____  ____  ____  ____  ___
 72
    65
 73
     2
 40
38.09999999999999
 49
25.4
 74
     0
 49
-12.7
 74
     0
  0
LTYPE
  5
75
330
5
100
AcDbSymbolTableRecord
100
AcDbLinetypeTableRecord
  2
DOTX2
 70
     0
  3
Dot (2x) .  .  .  .  .  .  .  .  .  .  .  .  .  .
 72
    65
 73
     2
 40
12.7
 49
0.0
 74
     0
 49
-12.7
 74
     0
  0
LTYPE
  5
76
330
5
100
AcDbSymbolTableRecord
100
AcDbLinetypeTableRecord
  2
DOT
 70
     0
  3
Dot . . . . . . . . . . . . . . . . . . . . . . . .
 72
    65
 73
     2
 40
6.35
 49
0.0
 74
     0
 49
-6.35
 74
     0
  0
LTYPE
  5
77
330
5
100
AcDbSymbolTableRecord
100
AcDbLinetypeTableRecord
  2
DOT2
 70
     0
  3
Dot (.5x) ........................................
 72
    65
 73
     2
 40
3.175
 49
0.0
 74
     0
 49
-3.175
 74
     0
  0
LTYPE
  5
78
330
5
100
AcDbSymbolTableRecord
100
AcDbLinetypeTableRecord
  2
CENTERX2
 70
     0
  3
Center (2x) ________  __  ________  __  _____
 72
    65
 73
     4
 40
101.6
 49
63.5
 74
     0
 49
-12.7
 74
     0
 49
12.7
 74
     0
 49
-12.7
 74
     0
  0
LTYPE
  5
79
330
5
100
AcDbSymbolTableRecord
100
AcDbLinetypeTableRecord
  2
CENTER
 70
     0
  3
Center ____ _ ____ _ ____ _ ____ _ ____ _ ____
 72
    65
 73
     4
 40
50.8
 49
31.75
 74
     0
 49
-6.35
 74
     0
 49
6.35
 74
     0
 49
-6.35
 74
     0
  0
LTYPE
  5
7A
330
5
100
AcDbSymbolTableRecord
100
AcDbLinetypeTableRecord
  2
CENTER2
 70
     0
  3
Center (.5x) ___ _ ___ _ ___ _ ___ _ ___ _ ___
 72
    65
 73
     4
 40
28.575
 49
19.05
 74
     0
 49
-3.175
 74
     0
 49
3.175
 74
     0
 49
-3.175
 74
     0
  0
LTYPE
  5
7B
330
5
100
AcDbSymbolTableRecord
100
AcDbLinetypeTableRecord
  2
DASHDOTX2
 70
     0
  3
Dash dot (2x) ____  .  ____  .  ____  .  ___
 72
    65
 73
     4
 40
50.8
 49
25.4
 74
     0
 49
-12.7
 74
     0
 49
0.0
 74
     0
 49
-12.7
 74
     0
  0
LTYPE
  5
7C
330
5
100
AcDbSymbolTableRecord
100
AcDbLinetypeTableRecord
  2
DASHDOT
 70
     0
  3
Dash dot __ . __ . __ . __ . __ . __ . __ . __
 72
    65
 73
     4
 40
25.4
 49
12.7
 74
     0
 49
-6.35
 74
     0
 49
0.0
 74
     0
 49
-6.35
 74
     0
  0
LTYPE
  5
7D
330
5
100
AcDbSymbolTableRecord
100
AcDbLinetypeTableRecord
  2
DASHDOT2
 70
     0
  3
Dash dot (.5x) _._._._._._._._._._._._._._._.
 72
    65
 73
     4
 40
12.7
 49
6.35
 74
     0
 49
-3.175
 74
     0
 49
0.0
 74
     0
 49
-3.175
 74
     0
  0
LTYPE
  5
7E
330
5
100
AcDbSymbolTableRecord
100
AcDbLinetypeTableRecord
  2
DIVIDEX2
 70
     0
  3
Divide (2x) ________  .  .  ________  .  .  _
 72
    65
 73
     6
 40
63.5
 49
25.4
 74
     0
 49
-12.7
 74
     0
 49
0.0
 74
     0
 49
-12.7
 74
     0
 49
0.0
 74
     0
 49
-12.7
 74
     0
  0
LTYPE
  5
7F
330
5
100
AcDbSymbolTableRecord
100
AcDbLinetypeTableRecord
  2
DIVIDE
 70
     0
  3
Divide ____ . . ____ . . ____ . . ____ . . ____
 72
    65
 73
     6
 40
31.75
 49
12.7
 74
     0
 49
-6.35
 74
     0
 49
0.0
 74
     0
 49
-6.35
 74
     0
 49
0.0
 74
     0
 49
-6.35
 74
     0
  0
LTYPE
  5
80
330
5
100
AcDbSymbolTableRecord
100
AcDbLinetypeTableRecord
  2
DIVIDE2
 70
     0
  3
Divide (.5x) __..__..__..__..__..__..__..__.._
 72
    65
 73
     6
 40
15.875
 49
6.35
 74
     0
 49
-3.175
 74
     0
 49
0.0
 74
     0
 49
-3.175
 74
     0
 49
0.0
 74
     0
 49
-3.175
 74
     0
  0
LTYPE
  5
81
330
5
100
AcDbSymbolTableRecord
100
AcDbLinetypeTableRecord
  2
BORDERX2
 70
     0
  3
Border (2x) ____  ____  .  ____  ____  .  ___
 72
    65
 73
     6
 40
88.89999999999999
 49
25.4
 74
     0
 49
-12.7
 74
     0
 49
25.4
 74
     0
 49
-12.7
 74
     0
 49
0.0
 74
     0
 49
-12.7
 74
     0
  0
LTYPE
  5
82
330
5
100
AcDbSymbolTableRecord
100
AcDbLinetypeTableRecord
  2
BORDER
 70
     0
  3
Border __ __ . __ __ . __ __ . __ __ . __ __ .
 72
    65
 73
     6
 40
44.45
 49
12.7
 74
     0
 49
-6.35
 74
     0
 49
12.7
 74
     0
 49
-6.35
 74
     0
 49
0.0
 74
     0
 49
-6.35
 74
     0
  0
LTYPE
  5
83
330
5
100
AcDbSymbolTableRecord
100
AcDbLinetypeTableRecord
  2
BORDER2
 70
     0
  3
Border (.5x) __.__.__.__.__.__.__.__.__.__.__.
 72
    65
 73
     6
 40
22.225
 49
6.35
 74
     0
 49
-3.175
 74
     0
 49
6.35
 74
     0
 49
-3.175
 74
     0
 49
0.0
 74
     0
 49
-3.175
 74
     0
  0
LTYPE
  5
84
330
5
100
AcDbSymbolTableRecord
100
AcDbLinetypeTableRecord
  2
PHANTOMX2
 70
     0
  3
Phantom (2x) ____________    ____    ____   _
 72
    65
 73
     6
 40
127.0
 49
63.5
 74
     0
 49
-12.7
 74
     0
 49
12.7
 74
     0
 49
-12.7
 74
     0
 49
12.7
 74
     0
 49
-12.7
 74
     0
  0
LTYPE
  5
85
330
5
100
AcDbSymbolTableRecord
100
AcDbLinetypeTableRecord
  2
PHANTOM
 70
     0
  3
Phantom ______  __  __  ______  __  __  ______ 
 72
    65
 73
     6
 40
63.5
 49
31.75
 74
     0
 49
-6.35
 74
     0
 49
6.35
 74
     0
 49
-6.35
 74
     0
 49
6.35
 74
     0
 49
-6.35
 74
     0
  0
LTYPE
  5
86
330
5
100
AcDbSymbolTableRecord
100
AcDbLinetypeTableRecord
  2
PHANTOM2
 70
     0
  3
Phantom (.5x) ___ _ _ ___ _ _ ___ _ _ ___ _ _
 72
    65
 73
     6
 40
31.75
 49
15.875
 74
     0
 49
-3.175
 74
     0
 49
3.175
 74
     0
 49
-3.175
 74
     0
 49
3.175
 74
     0
 49
-3.175
 74
     0
  0
LTYPE
  5
87
330
5
100
AcDbSymbolTableRecord
100
AcDbLinetypeTableRecord
  2
ACAD_ISO06W100
 70
     0
  3
ISO long-dash triple-dot ____ ... ____ ... ____
 72
    65
 73
     8
 40
36.0
 49
24.0
 74
     0
 49
-3.0
 74
     0
 49
0.0
 74
     0
 49
-3.0
 74
     0
 49
0.0
 74
     0
 49
-3.0
 74
     0
 49
0.0
 74
     0
 49
-3.0
 74
     0
  0
LTYPE
  5
88
330
5
100
AcDbSymbolTableRecord
100
AcDbLinetypeTableRecord
  2
ACAD_ISO13W100
 70
     0
  3
ISO double-dash double-dot __ __ . . __ __ . . _
 72
    65
 73
     8
 40
36.0
 49
12.0
 74
     0
 49
-3.0
 74
     0
 49
12.0
 74
     0
 49
-3.0
 74
     0
 49
0.0
 74
     0
 49
-3.0
 74
     0
 49
0.0
 74
     0
 49
-3.0
 74
     0
  0
LTYPE
  5
89
330
5
100
AcDbSymbolTableRecord
100
AcDbLinetypeTableRecord
  2
ACAD_ISO14W100
 70
     0
  3
ISO dash triple-dot __ . . . __ . . . __ . . . _
 72
    65
 73
     8
 40
24.0
 49
12.0
 74
     0
 49
-3.0
 74
     0
 49
0.0
 74
     0
 49
-3.0
 74
     0
 49
0.0
 74
     0
 49
-3.0
 74
     0
 49
0.0
 74
     0
 49
-3.0
 74
     0
  0
LTYPE
  5
8A
330
5
100
AcDbSymbolTableRecord
100
AcDbLinetypeTableRecord
  2
ACAD_ISO02W100
 70
     0
  3
ISO dash __ __ __ __ __ __ __ __ __ __ __ __ __
 72
    65
 73
     2
 40
15.0
 49
12.0
 74
     0
 49
-3.0
 74
     0
  0
LTYPE
  5
8B
330
5
100
AcDbSymbolTableRecord
100
AcDbLinetypeTableRecord
  2
ACAD_ISO03W100
 70
     0
  3
ISO dash space __    __    __    __    __    __
 72
    65
 73
     2
 40
30.0
 49
12.0
 74
     0
 49
-18.0
 74
     0
  0
LTYPE
  5
8C
330
5
100
AcDbSymbolTableRecord
100
AcDbLinetypeTableRecord
  2
ACAD_ISO04W100
 70
     0
  3
ISO long-dash dot ____ . ____ . ____ . ____ . _
 72
    65
 73
     4
 40
30.0
 49
24.0
 74
     0
 49
-3.0
 74
     0
 49
0.0
 74
     0
 49
-3.0
 74
     0
  0
LTYPE
  5
8D
330
5
100
AcDbSymbolTableRecord
100
AcDbLinetypeTableRecord
  2
ACAD_ISO05W100
 70
     0
  3
ISO long-dash double-dot ____ .. ____ .. ____ . 
 72
    65
 73
     6
 40
33.0
 49
24.0
 74
     0
 49
-3.0
 74
     0
 49
0.0
 74
     0
 49
-3.0
 74
     0
 49
0.0
 74
     0
 49
-3.0
 74
     0
  0
LTYPE
  5
8E
330
5
100
AcDbSymbolTableRecord
100
AcDbLinetypeTableRecord
  2
ACAD_ISO07W100
 70
     0
  3
ISO dot . . . . . . . . . . . . . . . . . . . . 
 72
    65
 73
     2
 40
3.0
 49
0.0
 74
     0
 49
-3.0
 74
     0
  0
LTYPE
  5
8F
330
5
100
AcDbSymbolTableRecord
100
AcDbLinetypeTableRecord
  2
ACAD_ISO08W100
 70
     0
  3
ISO long-dash short-dash ____ __ ____ __ ____ _
 72
    65
 73
     4
 40
36.0
 49
24.0
 74
     0
 49
-3.0
 74
     0
 49
6.0
 74
     0
 49
-3.0
 74
     0
  0
LTYPE
  5
90
330
5
100
AcDbSymbolTableRecord
100
AcDbLinetypeTableRecord
  2
ACAD_ISO09W100
 70
     0
  3
ISO long-dash double-short-dash ____ __ __ ____
 72
    65
 73
     6
 40
45.0
 49
24.0
 74
     0
 49
-3.0
 74
     0
 49
6.0
 74
     0
 49
-3.0
 74
     0
 49
6.0
 74
     0
 49
-3.0
 74
     0
  0
LTYPE
  5
91
330
5
100
AcDbSymbolTableRecord
100
AcDbLinetypeTableRecord
  2
ACAD_ISO10W100
 70
     0
  3
ISO dash dot __ . __ . __ . __ . __ . __ . __ . 
 72
    65
 73
     4
 40
18.0
 49
12.0
 74
     0
 49
-3.0
 74
     0
 49
0.0
 74
     0
 49
-3.0
 74
     0
  0
LTYPE
  5
92
330
5
100
AcDbSymbolTableRecord
100
AcDbLinetypeTableRecord
  2
ACAD_ISO11W100
 70
     0
  3
ISO double-dash dot __ __ . __ __ . __ __ . __ _
 72
    65
 73
     6
 40
33.0
 49
12.0
 74
     0
 49
-3.0
 74
     0
 49
12.0
 74
     0
 49
-3.0
 74
     0
 49
0.0
 74
     0
 49
-3.0
 74
     0
  0
LTYPE
  5
93
330
5
100
AcDbSymbolTableRecord
100
AcDbLinetypeTableRecord
  2
ACAD_ISO12W100
 70
     0
  3
ISO dash double-dot __ . . __ . . __ . . __ . . 
 72
    65
 73
     6
 40
21.0
 49
12.0
 74
     0
 49
-3.0
 74
     0
 49
0.0
 74
     0
 49
-3.0
 74
     0
 49
0.0
 74
     0
 49
-3.0
 74
     0
  0
LTYPE
  5
94
330
5
100
AcDbSymbolTableRecord
100
AcDbLinetypeTableRecord
  2
ACAD_ISO15W100
 70
     0
  3
ISO double-dash triple-dot __ __ . . . __ __ . .
 72
    65
 73
    10
 40
39.0
 49
12.0
 74
     0
 49
-3.0
 74
     0
 49
12.0
 74
     0
 49
-3.0
 74
     0
 49
0.0
 74
     0
 49
-3.0
 74
     0
 49
0.0
 74
     0
 49
-3.0
 74
     0
 49
0.0
 74
     0
 49
-3.0
 74
     0
  0
LTYPE
  5
95
330
5
100
AcDbSymbolTableRecord
100
AcDbLinetypeTableRecord
  2
JIS_02_0_7
 70
     0
  3
HIDDEN0.75 _ _ _ _ _ _ _ _ _ _ _ _ _ _ _ _ _ 
 72
    65
 73
     2
 40
1.35
 49
0.75
 74
     0
 49
-0.6
 74
     0
  0
LTYPE
  5
96
330
5
100
AcDbSymbolTableRecord
100
AcDbLinetypeTableRecord
  2
JIS_02_1_0
 70
     0
  3
HIDDEN01 _ _ _ _ _ _ _ _ _ _ _ _ _ _ _ _ _ 
 72
    65
 73
     2
 40
2.0
 49
1.0
 74
     0
 49
-1.0
 74
     0
  0
LTYPE
  5
97
330
5
100
AcDbSymbolTableRecord
100
AcDbLinetypeTableRecord
  2
JIS_02_1_2
 70
     0
  3
HIDDEN01.25  _ _ _ _ _ _ _ _ _ _ _ _ _ _ _ _ _ 
 72
    65
 73
     2
 40
2.5
 49
1.25
 74
     0
 49
-1.25
 74
     0
  0
LTYPE
  5
98
330
5
100
AcDbSymbolTableRecord
100
AcDbLinetypeTableRecord
  2
JIS_02_2_0
 70
     0
  3
HIDDEN02 __ __ __ __ __ __ __ __ __ __ __ 
 72
    65
 73
     2
 40
3.0
 49
2.0
 74
     0
 49
-1.0
 74
     0
  0
LTYPE
  5
99
330
5
100
AcDbSymbolTableRecord
100
AcDbLinetypeTableRecord
  2
JIS_02_4_0
 70
     0
  3
HIDDEN04 ____ ____ ____ ____ ____ ____ ____ 
 72
    65
 73
     2
 40
5.5
 49
4.0
 74
     0
 49
-1.5
 74
     0
  0
LTYPE
  5
9A
330
5
100
AcDbSymbolTableRecord
100
AcDbLinetypeTableRecord
  2
JIS_08_11
 70
     0
  3
1SASEN11 ___ _ ___ _ ___ _ ___ _ ___ _ ___
 72
    65
 73
     4
 40
12.8
 49
11.0
 74
     0
 49
-0.6
 74
     0
 49
0.6
 74
     0
 49
-0.6
 74
     0
  0
LTYPE
  5
9B
330
5
100
AcDbSymbolTableRecord
100
AcDbLinetypeTableRecord
  2
JIS_08_15
 70
     0
  3
1SASEN15 ____ _ ____ _ ____ _ ____ _ ____ 
 72
    65
 73
     4
 40
17.25
 49
15.0
 74
     0
 49
-0.75
 74
     0
 49
0.75
 74
     0
 49
-0.75
 74
     0
  0
LTYPE
  5
9C
330
5
100
AcDbSymbolTableRecord
100
AcDbLinetypeTableRecord
  2
JIS_08_25
 70
     0
  3
1SASEN25 ________  __  ________  __  _____
 72
    65
 73
     4
 40
28.0
 49
25.0
 74
     0
 49
-1.125
 74
     0
 49
0.75
 74
     0
 49
-1.125
 74
     0
  0
LTYPE
  5
9D
330
5
100
AcDbSymbolTableRecord
100
AcDbLinetypeTableRecord
  2
JIS_08_37
 70
     0
  3
1SASEN37 ________  __  ________  __  _____
 72
    65
 73
     4
 40
40.5
 49
37.5
 74
     0
 49
-1.125
 74
     0
 49
0.75
 74
     0
 49
-1.125
 74
     0
  0
LTYPE
  5
9E
330
5
100
AcDbSymbolTableRecord
100
AcDbLinetypeTableRecord
  2
JIS_08_50
 70
     0
  3
1SASEN50 _______________  __  ____________
 72
    65
 73
     4
 40
53.0
 49
50.0
 74
     0
 49
-1.125
 74
     0
 49
0.75
 74
     0
 49
-1.125
 74
     0
  0
LTYPE
  5
9F
330
5
100
AcDbSymbolTableRecord
100
AcDbLinetypeTableRecord
  2
JIS_09_08
 70
     0
  3
2SASEN8 __ _ _ __ _ _ __ _ _ __ _ _ __ _ _ 
 72
    65
 73
     6
 40
10.75
 49
8.0
 74
     0
 49
-0.55
 74
     0
 49
0.55
 74
     0
 49
-0.55
 74
     0
 49
0.55
 74
     0
 49
-0.55
 74
     0
  0
LTYPE
  5
A0
330
5
100
AcDbSymbolTableRecord
100
AcDbLinetypeTableRecord
  2
JIS_09_15
 70
     0
  3
2SASEN15 ___ _ _ ___ _ _ ___ _ _ ___ _ _ ___ 
 72
    65
 73
     6
 40
18.9
 49
15.0
 74
     0
 49
-0.9
 74
     0
 49
0.6
 74
     0
 49
-0.9
 74
     0
 49
0.6
 74
     0
 49
-0.9
 74
     0
  0
LTYPE
  5
A1
330
5
100
AcDbSymbolTableRecord
100
AcDbLinetypeTableRecord
  2
JIS_09_29
 70
     0
  3
2SASEN29 ______　__  __  ______　__  __  ___
 72
    65
 73
     6
 40
34.0
 49
29.0
 74
     0
 49
-1.2
 74
     0
 49
0.7
 74
     0
 49
-1.2
 74
     0
 49
0.7
 74
     0
 49
-1.2
 74
     0
  0
LTYPE
  5
A2
330
5
100
AcDbSymbolTableRecord
100
AcDbLinetypeTableRecord
  2
JIS_09_50
 70
     0
  3
2SASEN50 ____________　__  __  _____________
 72
    65
 73
     6
 40
55.0
 49
50.0
 74
     0
 49
-1.2
 74
     0
 49
0.7
 74
     0
 49
-1.2
 74
     0
 49
0.7
 74
     0
 49
-1.2
 74
     0
  0
LTYPE
  5
A3
330
5
100
AcDbSymbolTableRecord
100
AcDbLinetypeTableRecord
  2
SXF_破線
 70
     0
  3
02 dashed -- -- -- -- -- --
 72
    65
 73
     2
 40
7.5
 49
6.0
 74
     0
 49
-1.5
 74
     0
  0
LTYPE
  5
A4
330
5
100
AcDbSymbolTableRecord
100
AcDbLinetypeTableRecord
  2
SXF_跳び破線
 70
     0
  3
03 dashed_spaced --  --  --  --
 72
    65
 73
     2
 40
12.0
 49
6.0
 74
     0
 49
-6.0
 74
     0
  0
LTYPE
  5
A5
330
5
100
AcDbSymbolTableRecord
100
AcDbLinetypeTableRecord
  2
SXF_一点長鎖線
 70
     0
  3
04 long_dashed_dotted ---- . ---- . ----
 72
    65
 73
     4
 40
15.25
 49
12.0
 74
     0
 49
-1.5
 74
     0
 49
0.25
 74
     0
 49
-1.5
 74
     0
  0
LTYPE
  5
A6
330
5
100
AcDbSymbolTableRecord
100
AcDbLinetypeTableRecord
  2
SXF_二点長鎖線
 70
     0
  3
05 long_dashed_double-dotted ---- . . ---- 
 72
    65
 73
     6
 40
17.0
 49
12.0
 74
     0
 49
-1.5
 74
     0
 49
0.25
 74
     0
 49
-1.5
 74
     0
 49
0.25
 74
     0
 49
-1.5
 74
     0
  0
LTYPE
  5
A7
330
5
100
AcDbSymbolTableRecord
100
AcDbLinetypeTableRecord
  2
SXF_三点長鎖線
 70
     0
  3
06 long_dashed_triplicate-dotted ---- ... ---- 
 72
    65
 73
     8
 40
18.75
 49
12.0
 74
     0
 49
-1.5
 74
     0
 49
0.25
 74
     0
 49
-1.5
 74
     0
 49
0.25
 74
     0
 49
-1.5
 74
     0
 49
0.25
 74
     0
 49
-1.5
 74
     0
  0
LTYPE
  5
A8
330
5
100
AcDbSymbolTableRecord
100
AcDbLinetypeTableRecord
  2
SXF_点線
 70
     0
  3
07 dotted . . . . . . . . . . . . 
 72
    65
 73
     2
 40
1.75
 49
0.25
 74
     0
 49
-1.5
 74
     0
  0
LTYPE
  5
A9
330
5
100
AcDbSymbolTableRecord
100
AcDbLinetypeTableRecord
  2
SXF_一点鎖線
 70
     0
  3
08 chain ---- - --- - --- - ---
 72
    65
 73
     4
 40
18.5
 49
12.0
 74
     0
 49
-1.5
 74
     0
 49
3.5
 74
     0
 49
-1.5
 74
     0
  0
LTYPE
  5
AA
330
5
100
AcDbSymbolTableRecord
100
AcDbLinetypeTableRecord
  2
SXF_二点鎖線
 70
     0
  3
09 chain_double_dash ---- - - ---- - - ----
 72
    65
 73
     6
 40
23.5
 49
12.0
 74
     0
 49
-1.5
 74
     0
 49
3.5
 74
     0
 49
-1.5
 74
     0
 49
3.5
 74
     0
 49
-1.5
 74
     0
  0
LTYPE
  5
AB
330
5
100
AcDbSymbolTableRecord
100
AcDbLinetypeTableRecord
  2
SXF_一点短鎖線
 70
     0
  3
10 dashed_dotted -- . -- . -- . --
 72
    65
 73
     4
 40
9.25
 49
6.0
 74
     0
 49
-1.5
 74
     0
 49
0.25
 74
     0
 49
-1.5
 74
     0
  0
LTYPE
  5
AC
330
5
100
AcDbSymbolTableRecord
100
AcDbLinetypeTableRecord
  2
SXF_一点二短鎖線
 70
     0
  3
11 double-dashed_dotted -- -- . -- --
 72
    65
 73
     6
 40
16.75
 49
6.0
 74
     0
 49
-1.5
 74
     0
 49
6.0
 74
     0
 49
-1.5
 74
     0
 49
0.25
 74
     0
 49
-1.5
 74
     0
  0
LTYPE
  5
AD
330
5
100
AcDbSymbolTableRecord
100
AcDbLinetypeTableRecord
  2
SXF_二点短鎖線
 70
     0
  3
12 dashed_double_dotted -- . . -- . . --
 72
    65
 73
     6
 40
11.0
 49
6.0
 74
     0
 49
-1.5
 74
     0
 49
0.25
 74
     0
 49
-1.5
 74
     0
 49
0.25
 74
     0
 49
-1.5
 74
     0
  0
LTYPE
  5
AE
330
5
100
AcDbSymbolTableRecord
100
AcDbLinetypeTableRecord
  2
SXF_二点二短鎖線
 70
     0
  3
13 double-dashed_double-dotted -- -- . . -- --
 72
    65
 73
     8
 40
18.5
 49
6.0
 74
     0
 49
-1.5
 74
     0
 49
6.0
 74
     0
 49
-1.5
 74
     0
 49
0.25
 74
     0
 49
-1.5
 74
     0
 49
0.25
 74
     0
 49
-1.5
 74
     0
  0
LTYPE
  5
AF
330
5
100
AcDbSymbolTableRecord
100
AcDbLinetypeTableRecord
  2
SXF_三点短鎖線
 70
     0
  3
14 dashed triplicate-dotted -- . . . -- . . . --
 72
    65
 73
     8
 40
12.75
 49
6.0
 74
     0
 49
-1.5
 74
     0
 49
0.25
 74
     0
 49
-1.5
 74
     0
 49
0.25
 74
     0
 49
-1.5
 74
     0
 49
0.25
 74
     0
 49
-1.5
 74
     0
  0
LTYPE
  5
B0
330
5
100
AcDbSymbolTableRecord
100
AcDbLinetypeTableRecord
  2
SXF_三点二短鎖線
 70
     0
  3
15 double-dashed triplicate-dotted -- -- . . . -- -- 
 72
    65
 73
    10
 40
20.25
 49
6.0
 74
     0
 49
-1.5
 74
     0
 49
6.0
 74
     0
 49
-1.5
 74
     0
 49
0.25
 74
     0
 49
-1.5
 74
     0
 49
0.25
 74
     0
 49
-1.5
 74
     0
 49
0.25
 74
     0
 49
-1.5
 74
     0
  0
ENDTAB
  0
TABLE
  2
LAYER
  5
2
330
0
100
AcDbSymbolTable
 70
     5
  0
LAYER
  5
10
330
2
100
AcDbSymbolTableRecord
100
AcDbLayerTableRecord
  2
0
 70
     0
 62
     7
  6
CONTINUOUS
  0
LAYER
  5
B1
330
2
100
AcDbSymbolTableRecord
100
AcDbLayerTableRecord
  2
LAYER0003
 70
     0
 62
     7
  6
CONTINUOUS
  0
LAYER
  5
B2
330
2
100
AcDbSymbolTableRecord
100
AcDbLayerTableRecord
  2
LAYER0002
 70
     0
 62
     7
  6
CONTINUOUS
  0
LAYER
  5
B3
330
2
100
AcDbSymbolTableRecord
100
AcDbLayerTableRecord
  2
LAYER0005
 70
     0
 62
     7
  6
CONTINUOUS
  0
LAYER
  5
B4
330
2
100
AcDbSymbolTableRecord
100
AcDbLayerTableRecord
  2
LAYER0007
 70
     0
 62
     7
  6
CONTINUOUS
  0
ENDTAB
  0
TABLE
  2
STYLE
  5
3
330
0
100
AcDbSymbolTable
 70
     2
  0
STYLE
  5
11
330
3
100
AcDbSymbolTableRecord
100
AcDbTextStyleTableRecord
  2
STANDARD
 70
     0
 40
0.0
 41
1.0
 50
0.0
 71
     0
 42
0.2
  3
txt.shx
  4
bigfont.shx
  0
STYLE
  5
56C
330
3
100
AcDbSymbolTableRecord
100
AcDbTextStyleTableRecord
  2
DCSTYLE0
 70
     0
 40
0.0
 41
1.0
 50
0.0
 71
     0
 42
0.2
  3
txt.shx
  4
bigfont
  0
ENDTAB
  0
TABLE
  2
VIEW
  5
6
330
0
100
AcDbSymbolTable
 70
     0
  0
ENDTAB
  0
TABLE
  2
UCS
  5
7
330
0
100
AcDbSymbolTable
 70
     0
  0
ENDTAB
  0
TABLE
  2
APPID
  5
9
330
0
100
AcDbSymbolTable
 70
     3
  0
APPID
  5
12
330
9
100
AcDbSymbolTableRecord
100
AcDbRegAppTableRecord
  2
ACAD
 70
     0
  0
APPID
  5
6E
330
9
100
AcDbSymbolTableRecord
100
AcDbRegAppTableRecord
  2
DAFUSIONOUT
 70
     0
  0
APPID
  5
6A3
330
9
100
AcDbSymbolTableRecord
100
AcDbRegAppTableRecord
  2
ACAD_MLEADERVER
 70
     0
  0
ENDTAB
  0
TABLE
  2
DIMSTYLE
  5
A
330
0
100
AcDbSymbolTable
 70
     1
  0
DIMSTYLE
105
27
330
A
100
AcDbSymbolTableRecord
100
AcDbDimStyleTableRecord
  2
STANDARD
 70
     0
  3

  4

  5

  6

  7

 40
1.0
 41
0.18
 42
0.0625
 43
0.38
 44
0.18
 45
0.0
 46
0.0
 47
0.0
 48
0.0
140
0.18
141
0.09
142
0.0
143
25.4
144
1.0
145
0.0
146
1.0
147
0.09
 71
     0
 72
     0
 73
     1
 74
     1
 75
     0
 76
     0
 77
     0
 78
     0
170
     0
171
     2
172
     0
173
     0
174
     0
175
     0
176
     0
177
     0
178
     0
270
     2
271
     4
272
     4
273
     2
274
     2
340
11
275
     0
280
     0
281
     0
282
     0
283
     1
284
     0
285
     0
286
     0
287
     3
288
     0
  0
ENDTAB
  0
TABLE
  2
BLOCK_RECORD
  5
1
330
0
100
AcDbSymbolTable
 70
     4
  0
BLOCK_RECORD
  5
1F
330
1
100
AcDbSymbolTableRecord
100
AcDbBlockTableRecord
  2
*MODEL_SPACE
  0
BLOCK_RECORD
  5
1B
330
1
100
AcDbSymbolTableRecord
100
AcDbBlockTableRecord
  2
*PAPER_SPACE
  0
BLOCK_RECORD
  5
B6
330
1
100
AcDbSymbolTableRecord
100
AcDbBlockTableRecord
  2
DC_GROUP_1
  0
BLOCK_RECORD
  5
B9
330
1
100
AcDbSymbolTableRecord
100
AcDbBlockTableRecord
  2
DC_GROUP_2
  0
BLOCK_RECORD
  5
BC
330
1
100
AcDbSymbolTableRecord
100
AcDbBlockTableRecord
  2
DC_GROUP_3
  0
BLOCK_RECORD
  5
BF
330
1
100
AcDbSymbolTableRecord
100
AcDbBlockTableRecord
  2
DC_GROUP_4
  0
ENDTAB
  0
ENDSEC
  0
SECTION
  2
BLOCKS
  0
BLOCK
  5
20
330
1F
100
AcDbEntity
  8
0
100
AcDbBlockBegin
  2
*MODEL_SPACE
 70
     0
 10
0.0
 20
0.0
 30
0.0
  3
*MODEL_SPACE
  1

  0
ENDBLK
  5
21
330
1F
100
AcDbEntity
  8
0
100
AcDbBlockEnd
  0
BLOCK
  5
1C
330
1B
100
AcDbEntity
 67
     1
  8
0
100
AcDbBlockBegin
  2
*PAPER_SPACE
 70
     0
 10
0.0
 20
0.0
 30
0.0
  3
*PAPER_SPACE
  1

  0
ENDBLK
  5
1D
330
1B
100
AcDbEntity
 67
     1
  8
0
100
AcDbBlockEnd
  0
BLOCK
  5
B7
330
B6
100
AcDbEntity
  8
0
100
AcDbBlockBegin
  2
DC_GROUP_1
 70
     0
 10
0.0
 20
0.0
 30
0.0
  3
DC_GROUP_1
  1

  0
LINE
  5
C2
330
B6
100
AcDbEntity
  8
LAYER0003
  6
CONTINUOUS
 62
     7
100
AcDbLine
 10
-15.05021174010982
 20
-11.34160347848944
 30
0.0
 11
-15.05021174010982
 21
-11.36160347848942
 31
0.0
  0
LINE
  5
C3
330
B6
100
AcDbEntity
  8
LAYER0003
  6
CONTINUOUS
 62
     7
100
AcDbLine
 10
-15.05021174010982
 20
-11.36160347848942
 30
0.0
 11
-15.05021174010982
 21
-11.3816034784894
 31
0.0
  0
LINE
  5
C4
330
B6
100
AcDbEntity
  8
LAYER0003
  6
CONTINUOUS
 62
     7
100
AcDbLine
 10
-15.05021174010982
 20
-11.3816034784894
 30
0.0
 11
-15.0512117401098
 21
-11.40160347848938
 31
0.0
  0
LINE
  5
C5
330
B6
100
AcDbEntity
  8
LAYER0003
  6
CONTINUOUS
 62
     7
100
AcDbLine
 10
-15.0512117401098
 20
-11.40160347848938
 30
0.0
 11
-15.05221174010978
 21
-11.42160347848937
 31
0.0
  0
LINE
  5
C6
330
B6
100
AcDbEntity
  8
LAYER0003
  6
CONTINUOUS
 62
     7
100
AcDbLine
 10
-15.05221174010978
 20
-11.42160347848937
 30
0.0
 11
-15.05421174010973
 21
-11.44160347848935
 31
0.0
  0
LINE
  5
C7
330
B6
100
AcDbEntity
  8
LAYER0003
  6
CONTINUOUS
 62
     7
100
AcDbLine
 10
-15.05421174010973
 20
-11.44160347848935
 30
0.0
 11
-15.05621174010968
 21
-11.46160347848933
 31
0.0
  0
LINE
  5
C8
330
B6
100
AcDbEntity
  8
LAYER0003
  6
CONTINUOUS
 62
     7
100
AcDbLine
 10
-15.05621174010968
 20
-11.46160347848933
 30
0.0
 11
-15.05821174010963
 21
-11.48160347848931
 31
0.0
  0
LINE
  5
C9
330
B6
100
AcDbEntity
  8
LAYER0003
  6
CONTINUOUS
 62
     7
100
AcDbLine
 10
-15.05821174010963
 20
-11.48160347848931
 30
0.0
 11
-15.06121174010979
 21
-11.50160347848941
 31
0.0
  0
LINE
  5
CA
330
B6
100
AcDbEntity
  8
LAYER0003
  6
CONTINUOUS
 62
     7
100
AcDbLine
 10
-15.06121174010979
 20
-11.50160347848941
 30
0.0
 11
-15.06421174010995
 21
-11.52060347848941
 31
0.0
  0
LINE
  5
CB
330
B6
100
AcDbEntity
  8
LAYER0003
  6
CONTINUOUS
 62
     7
100
AcDbLine
 10
-15.06421174010995
 20
-11.52060347848941
 30
0.0
 11
-15.06721174010965
 21
-11.54060347848939
 31
0.0
  0
LINE
  5
CC
330
B6
100
AcDbEntity
  8
LAYER0003
  6
CONTINUOUS
 62
     7
100
AcDbLine
 10
-15.06721174010965
 20
-11.54060347848939
 30
0.0
 11
-15.07121174010978
 21
-11.56060347848938
 31
0.0
  0
LINE
  5
CD
330
B6
100
AcDbEntity
  8
LAYER0003
  6
CONTINUOUS
 62
     7
100
AcDbLine
 10
-15.07121174010978
 20
-11.56060347848938
 30
0.0
 11
-15.07521174010969
 21
-11.58060347848947
 31
0.0
  0
LINE
  5
CE
330
B6
100
AcDbEntity
  8
LAYER0003
  6
CONTINUOUS
 62
     7
100
AcDbLine
 10
-15.07521174010969
 20
-11.58060347848947
 30
0.0
 11
-15.07921174010982
 21
-11.60060347848945
 31
0.0
  0
LINE
  5
CF
330
B6
100
AcDbEntity
  8
LAYER0003
  6
CONTINUOUS
 62
     7
100
AcDbLine
 10
-15.07921174010982
 20
-11.60060347848945
 30
0.0
 11
-15.08321174010972
 21
-11.61960347848946
 31
0.0
  0
LINE
  5
D0
330
B6
100
AcDbEntity
  8
LAYER0003
  6
CONTINUOUS
 62
     7
100
AcDbLine
 10
-15.08321174010972
 20
-11.61960347848946
 30
0.0
 11
-15.08821174010983
 21
-11.63960347848944
 31
0.0
  0
LINE
  5
D1
330
B6
100
AcDbEntity
  8
LAYER0003
  6
CONTINUOUS
 62
     7
100
AcDbLine
 10
-15.08821174010983
 20
-11.63960347848944
 30
0.0
 11
-15.09421174010969
 21
-11.65860347848945
 31
0.0
  0
LINE
  5
D2
330
B6
100
AcDbEntity
  8
LAYER0003
  6
CONTINUOUS
 62
     7
100
AcDbLine
 10
-15.09421174010969
 20
-11.65860347848945
 30
0.0
 11
-15.10021174010978
 21
-11.67860347848943
 31
0.0
  0
LINE
  5
D3
330
B6
100
AcDbEntity
  8
LAYER0003
  6
CONTINUOUS
 62
     7
100
AcDbLine
 10
-15.10021174010978
 20
-11.67860347848943
 30
0.0
 11
-15.10621174010986
 21
-11.69860347848941
 31
0.0
  0
LINE
  5
D4
330
B6
100
AcDbEntity
  8
LAYER0003
  6
CONTINUOUS
 62
     7
100
AcDbLine
 10
-15.10621174010986
 20
-11.69860347848941
 30
0.0
 11
-15.11221174010972
 21
-11.71760347848942
 31
0.0
  0
LINE
  5
D5
330
B6
100
AcDbEntity
  8
LAYER0003
  6
CONTINUOUS
 62
     7
100
AcDbLine
 10
-15.11221174010972
 20
-11.71760347848942
 30
0.0
 11
-15.11921174010978
 21
-11.73660347848942
 31
0.0
  0
LINE
  5
D6
330
B6
100
AcDbEntity
  8
LAYER0003
  6
CONTINUOUS
 62
     7
100
AcDbLine
 10
-15.11921174010978
 20
-11.73660347848942
 30
0.0
 11
-15.12621174010985
 21
-11.7566034784894
 31
0.0
  0
LINE
  5
D7
330
B6
100
AcDbEntity
  8
LAYER0003
  6
CONTINUOUS
 62
     7
100
AcDbLine
 10
-15.12621174010985
 20
-11.7566034784894
 30
0.0
 11
-15.13321174010968
 21
-11.77560347848941
 31
0.0
  0
LINE
  5
D8
330
B6
100
AcDbEntity
  8
LAYER0003
  6
CONTINUOUS
 62
     7
100
AcDbLine
 10
-15.13321174010968
 20
-11.77560347848941
 30
0.0
 11
-15.14121174010972
 21
-11.79460347848941
 31
0.0
  0
LINE
  5
D9
330
B6
100
AcDbEntity
  8
LAYER0003
  6
CONTINUOUS
 62
     7
100
AcDbLine
 10
-15.14121174010972
 20
-11.79460347848941
 30
0.0
 11
-15.14921174010976
 21
-11.81360347848942
 31
0.0
  0
LINE
  5
DA
330
B6
100
AcDbEntity
  8
LAYER0003
  6
CONTINUOUS
 62
     7
100
AcDbLine
 10
-15.14921174010976
 20
-11.81360347848942
 30
0.0
 11
-15.15721174010979
 21
-11.83260347848931
 31
0.0
  0
LINE
  5
DB
330
B6
100
AcDbEntity
  8
LAYER0003
  6
CONTINUOUS
 62
     7
100
AcDbLine
 10
-15.15721174010979
 20
-11.83260347848931
 30
0.0
 11
-15.16621174010981
 21
-11.85160347848943
 31
0.0
  0
LINE
  5
DC
330
B6
100
AcDbEntity
  8
LAYER0003
  6
CONTINUOUS
 62
     7
100
AcDbLine
 10
-15.16621174010981
 20
-11.85160347848943
 30
0.0
 11
-15.17521174010982
 21
-11.87060347848944
 31
0.0
  0
LINE
  5
DD
330
B6
100
AcDbEntity
  8
LAYER0003
  6
CONTINUOUS
 62
     7
100
AcDbLine
 10
-15.17521174010982
 20
-11.87060347848944
 30
0.0
 11
-15.18421174010984
 21
-11.88960347848967
 31
0.0
  0
LINE
  5
DE
330
B6
100
AcDbEntity
  8
LAYER0003
  6
CONTINUOUS
 62
     7
100
AcDbLine
 10
-15.18421174010984
 20
-11.88960347848967
 30
0.0
 11
-15.19421174010983
 21
-11.90860347848945
 31
0.0
  0
LINE
  5
DF
330
B6
100
AcDbEntity
  8
LAYER0003
  6
CONTINUOUS
 62
     7
100
AcDbLine
 10
-15.19421174010983
 20
-11.90860347848945
 30
0.0
 11
-15.20421174010982
 21
-11.92760347848945
 31
0.0
  0
LINE
  5
E0
330
B6
100
AcDbEntity
  8
LAYER0003
  6
CONTINUOUS
 62
     7
100
AcDbLine
 10
-15.20421174010982
 20
-11.92760347848945
 30
0.0
 11
-15.21421174010981
 21
-11.94560347848937
 31
0.0
  0
LINE
  5
E1
330
B6
100
AcDbEntity
  8
LAYER0003
  6
CONTINUOUS
 62
     7
100
AcDbLine
 10
-15.21421174010981
 20
-11.94560347848937
 30
0.0
 11
-15.22521174010978
 21
-11.96460347848937
 31
0.0
  0
LINE
  5
E2
330
B6
100
AcDbEntity
  8
LAYER0003
  6
CONTINUOUS
 62
     7
100
AcDbLine
 10
-15.22521174010978
 20
-11.96460347848937
 30
0.0
 11
-15.23621174010974
 21
-11.9826034784894
 31
0.0
  0
LINE
  5
E3
330
B6
100
AcDbEntity
  8
LAYER0003
  6
CONTINUOUS
 62
     7
100
AcDbLine
 10
-15.23621174010974
 20
-11.9826034784894
 30
0.0
 11
-15.24721174010971
 21
-12.00060347848932
 31
0.0
  0
LINE
  5
E4
330
B6
100
AcDbEntity
  8
LAYER0003
  6
CONTINUOUS
 62
     7
100
AcDbLine
 10
-15.24721174010971
 20
-12.00060347848932
 30
0.0
 11
-15.25921174010966
 21
-12.01860347848912
 31
0.0
  0
LINE
  5
E5
330
B6
100
AcDbEntity
  8
LAYER0003
  6
CONTINUOUS
 62
     7
100
AcDbLine
 10
-15.25921174010966
 20
-12.01860347848912
 30
0.0
 11
-15.27021174010962
 21
-12.03760347848935
 31
0.0
  0
LINE
  5
E6
330
B6
100
AcDbEntity
  8
LAYER0003
  6
CONTINUOUS
 62
     7
100
AcDbLine
 10
-15.27021174010962
 20
-12.03760347848935
 30
0.0
 11
-15.28321174010977
 21
-12.05560347848938
 31
0.0
  0
LINE
  5
E7
330
B6
100
AcDbEntity
  8
LAYER0003
  6
CONTINUOUS
 62
     7
100
AcDbLine
 10
-15.28321174010977
 20
-12.05560347848938
 30
0.0
 11
-15.29521174010971
 21
-12.07260347848943
 31
0.0
  0
LINE
  5
E8
330
B6
100
AcDbEntity
  8
LAYER0003
  6
CONTINUOUS
 62
     7
100
AcDbLine
 10
-15.29521174010971
 20
-12.07260347848943
 30
0.0
 11
-15.30821174010963
 21
-12.09060347848946
 31
0.0
  0
LINE
  5
E9
330
B6
100
AcDbEntity
  8
LAYER0003
  6
CONTINUOUS
 62
     7
100
AcDbLine
 10
-15.30821174010963
 20
-12.09060347848946
 30
0.0
 11
-15.32121174010978
 21
-12.10860347848938
 31
0.0
  0
LINE
  5
EA
330
B6
100
AcDbEntity
  8
LAYER0003
  6
CONTINUOUS
 62
     7
100
AcDbLine
 10
-15.32121174010978
 20
-12.10860347848938
 30
0.0
 11
-15.33521174010968
 21
-12.12560347848932
 31
0.0
  0
LINE
  5
EB
330
B6
100
AcDbEntity
  8
LAYER0003
  6
CONTINUOUS
 62
     7
100
AcDbLine
 10
-15.33521174010968
 20
-12.12560347848932
 30
0.0
 11
-15.34821174010983
 21
-12.14360347848912
 31
0.0
  0
LINE
  5
EC
330
B6
100
AcDbEntity
  8
LAYER0003
  6
CONTINUOUS
 62
     7
100
AcDbLine
 10
-15.34821174010983
 20
-12.14360347848912
 30
0.0
 11
-15.36221174010972
 21
-12.1606034784894
 31
0.0
  0
LINE
  5
ED
330
B6
100
AcDbEntity
  8
LAYER0003
  6
CONTINUOUS
 62
     7
100
AcDbLine
 10
-15.36221174010972
 20
-12.1606034784894
 30
0.0
 11
-15.37721174010982
 21
-12.17760347848945
 31
0.0
  0
LINE
  5
EE
330
B6
100
AcDbEntity
  8
LAYER0003
  6
CONTINUOUS
 62
     7
100
AcDbLine
 10
-15.37721174010982
 20
-12.17760347848945
 30
0.0
 11
-15.39221174010969
 21
-12.1946034784895
 31
0.0
  0
LINE
  5
EF
330
B6
100
AcDbEntity
  8
LAYER0003
  6
CONTINUOUS
 62
     7
100
AcDbLine
 10
-15.39221174010969
 20
-12.1946034784895
 30
0.0
 11
-15.40621174010982
 21
-12.21160347848933
 31
0.0
  0
LINE
  5
F0
330
B6
100
AcDbEntity
  8
LAYER0003
  6
CONTINUOUS
 62
     7
100
AcDbLine
 10
-15.40621174010982
 20
-12.21160347848933
 30
0.0
 11
-15.42221174010967
 21
-12.22860347848938
 31
0.0
  0
LINE
  5
F1
330
B6
100
AcDbEntity
  8
LAYER0003
  6
CONTINUOUS
 62
     7
100
AcDbLine
 10
-15.42221174010967
 20
-12.22860347848938
 30
0.0
 11
-15.43721174010977
 21
-12.24560347848944
 31
0.0
  0
LINE
  5
F2
330
B6
100
AcDbEntity
  8
LAYER0003
  6
CONTINUOUS
 62
     7
100
AcDbLine
 10
-15.43721174010977
 20
-12.24560347848944
 30
0.0
 11
-15.45321174010962
 21
-12.2616034784894
 31
0.0
  0
LINE
  5
F3
330
B6
100
AcDbEntity
  8
LAYER0003
  6
CONTINUOUS
 62
     7
100
AcDbLine
 10
-15.45321174010962
 20
-12.2616034784894
 30
0.0
 11
-15.46921174010969
 21
-12.27860347848934
 31
0.0
  0
LINE
  5
F4
330
B6
100
AcDbEntity
  8
LAYER0003
  6
CONTINUOUS
 62
     7
100
AcDbLine
 10
-15.46921174010969
 20
-12.27860347848934
 30
0.0
 11
-15.48621174010974
 21
-12.29460347848941
 31
0.0
  0
LINE
  5
F5
330
B6
100
AcDbEntity
  8
LAYER0003
  6
CONTINUOUS
 62
     7
100
AcDbLine
 10
-15.48621174010974
 20
-12.29460347848941
 30
0.0
 11
-15.50221174010982
 21
-12.31060347848938
 31
0.0
  0
LINE
  5
F6
330
B6
100
AcDbEntity
  8
LAYER0003
  6
CONTINUOUS
 62
     7
100
AcDbLine
 10
-15.50221174010982
 20
-12.31060347848938
 30
0.0
 11
-15.51921174010987
 21
-12.32660347848934
 31
0.0
  0
LINE
  5
F7
330
B6
100
AcDbEntity
  8
LAYER0003
  6
CONTINUOUS
 62
     7
100
AcDbLine
 10
-15.51921174010987
 20
-12.32660347848934
 30
0.0
 11
-15.5362117401097
 21
-12.34260347848942
 31
0.0
  0
LINE
  5
F8
330
B6
100
AcDbEntity
  8
LAYER0003
  6
CONTINUOUS
 62
     7
100
AcDbLine
 10
-15.5362117401097
 20
-12.34260347848942
 30
0.0
 11
-15.55421174010973
 21
-12.3576034784894
 31
0.0
  0
LINE
  5
F9
330
B6
100
AcDbEntity
  8
LAYER0003
  6
CONTINUOUS
 62
     7
100
AcDbLine
 10
-15.55421174010973
 20
-12.3576034784894
 30
0.0
 11
-15.57221174010976
 21
-12.37360347848936
 31
0.0
  0
LINE
  5
FA
330
B6
100
AcDbEntity
  8
LAYER0003
  6
CONTINUOUS
 62
     7
100
AcDbLine
 10
-15.57221174010976
 20
-12.37360347848936
 30
0.0
 11
-15.59021174010979
 21
-12.38860347848946
 31
0.0
  0
LINE
  5
FB
330
B6
100
AcDbEntity
  8
LAYER0003
  6
CONTINUOUS
 62
     7
100
AcDbLine
 10
-15.59021174010979
 20
-12.38860347848946
 30
0.0
 11
-15.60821174010982
 21
-12.40360347848934
 31
0.0
  0
LINE
  5
FC
330
B6
100
AcDbEntity
  8
LAYER0003
  6
CONTINUOUS
 62
     7
100
AcDbLine
 10
-15.60821174010982
 20
-12.40360347848934
 30
0.0
 11
-15.62721174010982
 21
-12.41960347848941
 31
0.0
  0
LINE
  5
FD
330
B6
100
AcDbEntity
  8
LAYER0003
  6
CONTINUOUS
 62
     7
100
AcDbLine
 10
-15.62721174010982
 20
-12.41960347848941
 30
0.0
 11
-15.64521174010962
 21
-12.43360347848931
 31
0.0
  0
LINE
  5
FE
330
B6
100
AcDbEntity
  8
LAYER0003
  6
CONTINUOUS
 62
     7
100
AcDbLine
 10
-15.64521174010962
 20
-12.43360347848931
 30
0.0
 11
-15.66521174010983
 21
-12.4486034784893
 31
0.0
  0
LINE
  5
FF
330
B6
100
AcDbEntity
  8
LAYER0003
  6
CONTINUOUS
 62
     7
100
AcDbLine
 10
-15.66521174010983
 20
-12.4486034784893
 30
0.0
 11
-15.68421174010984
 21
-12.4636034784894
 31
0.0
  0
LINE
  5
100
330
B6
100
AcDbEntity
  8
LAYER0003
  6
CONTINUOUS
 62
     7
100
AcDbLine
 10
-15.68421174010984
 20
-12.4636034784894
 30
0.0
 11
-15.70321174010962
 21
-12.47760347848941
 31
0.0
  0
LINE
  5
101
330
B6
100
AcDbEntity
  8
LAYER0003
  6
CONTINUOUS
 62
     7
100
AcDbLine
 10
-15.70321174010962
 20
-12.47760347848941
 30
0.0
 11
-15.72321174010983
 21
-12.49160347848942
 31
0.0
  0
LINE
  5
102
330
B6
100
AcDbEntity
  8
LAYER0003
  6
CONTINUOUS
 62
     7
100
AcDbLine
 10
-15.72321174010983
 20
-12.49160347848942
 30
0.0
 11
-15.74321174010981
 21
-12.50560347848943
 31
0.0
  0
LINE
  5
103
330
B6
100
AcDbEntity
  8
LAYER0003
  6
CONTINUOUS
 62
     7
100
AcDbLine
 10
-15.74321174010981
 20
-12.50560347848943
 30
0.0
 11
-15.76421174010977
 21
-12.51960347848955
 31
0.0
  0
LINE
  5
104
330
B6
100
AcDbEntity
  8
LAYER0003
  6
CONTINUOUS
 62
     7
100
AcDbLine
 10
-15.76421174010977
 20
-12.51960347848955
 30
0.0
 11
-15.78421174010975
 21
-12.53360347848945
 31
0.0
  0
LINE
  5
105
330
B6
100
AcDbEntity
  8
LAYER0003
  6
CONTINUOUS
 62
     7
100
AcDbLine
 10
-15.78421174010975
 20
-12.53360347848945
 30
0.0
 11
-15.8052117401097
 21
-12.54660347848937
 31
0.0
  0
LINE
  5
106
330
B6
100
AcDbEntity
  8
LAYER0003
  6
CONTINUOUS
 62
     7
100
AcDbLine
 10
-15.8052117401097
 20
-12.54660347848937
 30
0.0
 11
-15.82621174010989
 21
-12.56060347848938
 31
0.0
  0
LINE
  5
107
330
B6
100
AcDbEntity
  8
LAYER0003
  6
CONTINUOUS
 62
     7
100
AcDbLine
 10
-15.82621174010989
 20
-12.56060347848938
 30
0.0
 11
-15.84721174010985
 21
-12.57360347848941
 31
0.0
  0
LINE
  5
108
330
B6
100
AcDbEntity
  8
LAYER0003
  6
CONTINUOUS
 62
     7
100
AcDbLine
 10
-15.84721174010985
 20
-12.57360347848941
 30
0.0
 11
-15.86921174010978
 21
-12.58660347848933
 31
0.0
  0
LINE
  5
109
330
B6
100
AcDbEntity
  8
LAYER0003
  6
CONTINUOUS
 62
     7
100
AcDbLine
 10
-15.86921174010978
 20
-12.58660347848933
 30
0.0
 11
-15.89121174010972
 21
-12.59860347848939
 31
0.0
  0
LINE
  5
10A
330
B6
100
AcDbEntity
  8
LAYER0003
  6
CONTINUOUS
 62
     7
100
AcDbLine
 10
-15.89121174010972
 20
-12.59860347848939
 30
0.0
 11
-15.91221174010968
 21
-12.61160347848942
 31
0.0
  0
LINE
  5
10B
330
B6
100
AcDbEntity
  8
LAYER0003
  6
CONTINUOUS
 62
     7
100
AcDbLine
 10
-15.91221174010968
 20
-12.61160347848942
 30
0.0
 11
-15.93521174010981
 21
-12.62360347848936
 31
0.0
  0
LINE
  5
10C
330
B6
100
AcDbEntity
  8
LAYER0003
  6
CONTINUOUS
 62
     7
100
AcDbLine
 10
-15.93521174010981
 20
-12.62360347848936
 30
0.0
 11
-15.95721174010975
 21
-12.6366034784894
 31
0.0
  0
LINE
  5
10D
330
B6
100
AcDbEntity
  8
LAYER0003
  6
CONTINUOUS
 62
     7
100
AcDbLine
 10
-15.95721174010975
 20
-12.6366034784894
 30
0.0
 11
-15.98021174010966
 21
-12.64760347848937
 31
0.0
  0
LINE
  5
10E
330
B6
100
AcDbEntity
  8
LAYER0003
  6
CONTINUOUS
 62
     7
100
AcDbLine
 10
-15.98021174010966
 20
-12.64760347848937
 30
0.0
 11
-16.00221174010982
 21
-12.65960347848942
 31
0.0
  0
LINE
  5
10F
330
B6
100
AcDbEntity
  8
LAYER0003
  6
CONTINUOUS
 62
     7
100
AcDbLine
 10
-16.00221174010982
 20
-12.65960347848942
 30
0.0
 11
-16.02521174010973
 21
-12.67160347848937
 31
0.0
  0
LINE
  5
110
330
B6
100
AcDbEntity
  8
LAYER0003
  6
CONTINUOUS
 62
     7
100
AcDbLine
 10
-16.02521174010973
 20
-12.67160347848937
 30
0.0
 11
-16.04821174010987
 21
-12.68260347848933
 31
0.0
  0
LINE
  5
111
330
B6
100
AcDbEntity
  8
LAYER0003
  6
CONTINUOUS
 62
     7
100
AcDbLine
 10
-16.04821174010987
 20
-12.68260347848933
 30
0.0
 11
-16.07221174010976
 21
-12.69360347848941
 31
0.0
  0
LINE
  5
112
330
B6
100
AcDbEntity
  8
LAYER0003
  6
CONTINUOUS
 62
     7
100
AcDbLine
 10
-16.07221174010976
 20
-12.69360347848941
 30
0.0
 11
-16.09521174010967
 21
-12.70460347848938
 31
0.0
  0
LINE
  5
113
330
B6
100
AcDbEntity
  8
LAYER0003
  6
CONTINUOUS
 62
     7
100
AcDbLine
 10
-16.09521174010967
 20
-12.70460347848938
 30
0.0
 11
-16.11921174010978
 21
-12.71560347848946
 31
0.0
  0
LINE
  5
114
330
B6
100
AcDbEntity
  8
LAYER0003
  6
CONTINUOUS
 62
     7
100
AcDbLine
 10
-16.11921174010978
 20
-12.71560347848946
 30
0.0
 11
-16.14321174010967
 21
-12.72660347848943
 31
0.0
  0
LINE
  5
115
330
B6
100
AcDbEntity
  8
LAYER0003
  6
CONTINUOUS
 62
     7
100
AcDbLine
 10
-16.14321174010967
 20
-12.72660347848943
 30
0.0
 11
-16.16721174010979
 21
-12.73660347848942
 31
0.0
  0
LINE
  5
116
330
B6
100
AcDbEntity
  8
LAYER0003
  6
CONTINUOUS
 62
     7
100
AcDbLine
 10
-16.16721174010979
 20
-12.73660347848942
 30
0.0
 11
-16.1912117401099
 21
-12.74660347848941
 31
0.0
  0
LINE
  5
117
330
B6
100
AcDbEntity
  8
LAYER0003
  6
CONTINUOUS
 62
     7
100
AcDbLine
 10
-16.1912117401099
 20
-12.74660347848941
 30
0.0
 11
-16.21621174010976
 21
-12.7566034784894
 31
0.0
  0
LINE
  5
118
330
B6
100
AcDbEntity
  8
LAYER0003
  6
CONTINUOUS
 62
     7
100
AcDbLine
 10
-16.21621174010976
 20
-12.7566034784894
 30
0.0
 11
-16.24121174010963
 21
-12.76660347848939
 31
0.0
  0
LINE
  5
119
330
B6
100
AcDbEntity
  8
LAYER0003
  6
CONTINUOUS
 62
     7
100
AcDbLine
 10
-16.24121174010963
 20
-12.76660347848939
 30
0.0
 11
-16.26521174010974
 21
-12.77660347848938
 31
0.0
  0
LINE
  5
11A
330
B6
100
AcDbEntity
  8
LAYER0003
  6
CONTINUOUS
 62
     7
100
AcDbLine
 10
-16.26521174010974
 20
-12.77660347848938
 30
0.0
 11
-16.29021174010983
 21
-12.7856034784894
 31
0.0
  0
LINE
  5
11B
330
B6
100
AcDbEntity
  8
LAYER0003
  6
CONTINUOUS
 62
     7
100
AcDbLine
 10
-16.29021174010983
 20
-12.7856034784894
 30
0.0
 11
-16.31621174010967
 21
-12.79460347848941
 31
0.0
  0
LINE
  5
11C
330
B6
100
AcDbEntity
  8
LAYER0003
  6
CONTINUOUS
 62
     7
100
AcDbLine
 10
-16.31621174010967
 20
-12.79460347848941
 30
0.0
 11
-16.34121174010976
 21
-12.80360347848943
 31
0.0
  0
LINE
  5
11D
330
B6
100
AcDbEntity
  8
LAYER0003
  6
CONTINUOUS
 62
     7
100
AcDbLine
 10
-16.34121174010976
 20
-12.80360347848943
 30
0.0
 11
-16.36621174010963
 21
-12.81160347848947
 31
0.0
  0
LINE
  5
11E
330
B6
100
AcDbEntity
  8
LAYER0003
  6
CONTINUOUS
 62
     7
100
AcDbLine
 10
-16.36621174010963
 20
-12.81160347848947
 30
0.0
 11
-16.39221174010969
 21
-12.82060347848937
 31
0.0
  0
LINE
  5
11F
330
B6
100
AcDbEntity
  8
LAYER0003
  6
CONTINUOUS
 62
     7
100
AcDbLine
 10
-16.39221174010969
 20
-12.82060347848937
 30
0.0
 11
-16.41821174010976
 21
-12.82860347848941
 31
0.0
  0
LINE
  5
120
330
B6
100
AcDbEntity
  8
LAYER0003
  6
CONTINUOUS
 62
     7
100
AcDbLine
 10
-16.41821174010976
 20
-12.82860347848941
 30
0.0
 11
-16.44321174010985
 21
-12.83660347848933
 31
0.0
  0
LINE
  5
121
330
B6
100
AcDbEntity
  8
LAYER0003
  6
CONTINUOUS
 62
     7
100
AcDbLine
 10
-16.44321174010985
 20
-12.83660347848933
 30
0.0
 11
-16.46921174010969
 21
-12.84460347848937
 31
0.0
  0
LINE
  5
122
330
B6
100
AcDbEntity
  8
LAYER0003
  6
CONTINUOUS
 62
     7
100
AcDbLine
 10
-16.46921174010969
 20
-12.84460347848937
 30
0.0
 11
-16.49621174010974
 21
-12.85160347848943
 31
0.0
  0
LINE
  5
123
330
B6
100
AcDbEntity
  8
LAYER0003
  6
CONTINUOUS
 62
     7
100
AcDbLine
 10
-16.49621174010974
 20
-12.85160347848943
 30
0.0
 11
-16.5222117401098
 21
-12.85960347848947
 31
0.0
  0
LINE
  5
124
330
B6
100
AcDbEntity
  8
LAYER0003
  6
CONTINUOUS
 62
     7
100
AcDbLine
 10
-16.5222117401098
 20
-12.85960347848947
 30
0.0
 11
-16.54821174010987
 21
-12.86660347848942
 31
0.0
  0
LINE
  5
125
330
B6
100
AcDbEntity
  8
LAYER0003
  6
CONTINUOUS
 62
     7
100
AcDbLine
 10
-16.54821174010987
 20
-12.86660347848942
 30
0.0
 11
-16.57521174010969
 21
-12.87260347848939
 31
0.0
  0
LINE
  5
126
330
B6
100
AcDbEntity
  8
LAYER0003
  6
CONTINUOUS
 62
     7
100
AcDbLine
 10
-16.57521174010969
 20
-12.87260347848939
 30
0.0
 11
-16.60121174010975
 21
-12.87960347848945
 31
0.0
  0
LINE
  5
127
330
B6
100
AcDbEntity
  8
LAYER0003
  6
CONTINUOUS
 62
     7
100
AcDbLine
 10
-16.60121174010975
 20
-12.87960347848945
 30
0.0
 11
-16.6282117401098
 21
-12.88560347848942
 31
0.0
  0
LINE
  5
128
330
B6
100
AcDbEntity
  8
LAYER0003
  6
CONTINUOUS
 62
     7
100
AcDbLine
 10
-16.6282117401098
 20
-12.88560347848942
 30
0.0
 11
-16.65521174010984
 21
-12.89260347848937
 31
0.0
  0
LINE
  5
129
330
B6
100
AcDbEntity
  8
LAYER0003
  6
CONTINUOUS
 62
     7
100
AcDbLine
 10
-16.65521174010984
 20
-12.89260347848937
 30
0.0
 11
-16.68221174010989
 21
-12.89860347848946
 31
0.0
  0
LINE
  5
12A
330
B6
100
AcDbEntity
  8
LAYER0003
  6
CONTINUOUS
 62
     7
100
AcDbLine
 10
-16.68221174010989
 20
-12.89860347848946
 30
0.0
 11
-16.7092117401097
 21
-12.90360347848934
 31
0.0
  0
LINE
  5
12B
330
B6
100
AcDbEntity
  8
LAYER0003
  6
CONTINUOUS
 62
     7
100
AcDbLine
 10
-16.7092117401097
 20
-12.90360347848934
 30
0.0
 11
-16.73621174010974
 21
-12.90960347848942
 31
0.0
  0
LINE
  5
12C
330
B6
100
AcDbEntity
  8
LAYER0003
  6
CONTINUOUS
 62
     7
100
AcDbLine
 10
-16.73621174010974
 20
-12.90960347848942
 30
0.0
 11
-16.76321174010979
 21
-12.91460347848942
 31
0.0
  0
LINE
  5
12D
330
B6
100
AcDbEntity
  8
LAYER0003
  6
CONTINUOUS
 62
     7
100
AcDbLine
 10
-16.76321174010979
 20
-12.91460347848942
 30
0.0
 11
-16.79121174010981
 21
-12.91960347848941
 31
0.0
  0
LINE
  5
12E
330
B6
100
AcDbEntity
  8
LAYER0003
  6
CONTINUOUS
 62
     7
100
AcDbLine
 10
-16.79121174010981
 20
-12.91960347848941
 30
0.0
 11
-16.81821174010985
 21
-12.92460347848941
 31
0.0
  0
LINE
  5
12F
330
B6
100
AcDbEntity
  8
LAYER0003
  6
CONTINUOUS
 62
     7
100
AcDbLine
 10
-16.81821174010985
 20
-12.92460347848941
 30
0.0
 11
-16.84621174010964
 21
-12.92860347848943
 31
0.0
  0
LINE
  5
130
330
B6
100
AcDbEntity
  8
LAYER0003
  6
CONTINUOUS
 62
     7
100
AcDbLine
 10
-16.84621174010964
 20
-12.92860347848943
 30
0.0
 11
-16.87321174010969
 21
-12.93260347848933
 31
0.0
  0
LINE
  5
131
330
B6
100
AcDbEntity
  8
LAYER0003
  6
CONTINUOUS
 62
     7
100
AcDbLine
 10
-16.87321174010969
 20
-12.93260347848933
 30
0.0
 11
-16.90121174010971
 21
-12.93660347848947
 31
0.0
  0
LINE
  5
132
330
B6
100
AcDbEntity
  8
LAYER0003
  6
CONTINUOUS
 62
     7
100
AcDbLine
 10
-16.90121174010971
 20
-12.93660347848947
 30
0.0
 11
-16.92921174010973
 21
-12.94060347848937
 31
0.0
  0
LINE
  5
133
330
B6
100
AcDbEntity
  8
LAYER0003
  6
CONTINUOUS
 62
     7
100
AcDbLine
 10
-16.92921174010973
 20
-12.94060347848937
 30
0.0
 11
-16.95621174010977
 21
-12.9446034784895
 31
0.0
  0
LINE
  5
134
330
B6
100
AcDbEntity
  8
LAYER0003
  6
CONTINUOUS
 62
     7
100
AcDbLine
 10
-16.95621174010977
 20
-12.9446034784895
 30
0.0
 11
-16.98421174010979
 21
-12.94760347848943
 31
0.0
  0
LINE
  5
135
330
B6
100
AcDbEntity
  8
LAYER0003
  6
CONTINUOUS
 62
     7
100
AcDbLine
 10
-16.98421174010979
 20
-12.94760347848943
 30
0.0
 11
-17.01221174010981
 21
-12.95060347848936
 31
0.0
  0
LINE
  5
136
330
B6
100
AcDbEntity
  8
LAYER0003
  6
CONTINUOUS
 62
     7
100
AcDbLine
 10
-17.01221174010981
 20
-12.95060347848936
 30
0.0
 11
-17.04021174010983
 21
-12.95360347848941
 31
0.0
  0
LINE
  5
137
330
B6
100
AcDbEntity
  8
LAYER0003
  6
CONTINUOUS
 62
     7
100
AcDbLine
 10
-17.04021174010983
 20
-12.95360347848941
 30
0.0
 11
-17.06821174010985
 21
-12.95560347848947
 31
0.0
  0
LINE
  5
138
330
B6
100
AcDbEntity
  8
LAYER0003
  6
CONTINUOUS
 62
     7
100
AcDbLine
 10
-17.06821174010985
 20
-12.95560347848947
 30
0.0
 11
-17.09621174010964
 21
-12.9586034784894
 31
0.0
  0
LINE
  5
139
330
B6
100
AcDbEntity
  8
LAYER0003
  6
CONTINUOUS
 62
     7
100
AcDbLine
 10
-17.09621174010964
 20
-12.9586034784894
 30
0.0
 11
-17.12421174010966
 21
-12.96060347848935
 31
0.0
  0
LINE
  5
13A
330
B6
100
AcDbEntity
  8
LAYER0003
  6
CONTINUOUS
 62
     7
100
AcDbLine
 10
-17.12421174010966
 20
-12.96060347848935
 30
0.0
 11
-17.15221174010968
 21
-12.96260347848942
 31
0.0
  0
LINE
  5
13B
330
B6
100
AcDbEntity
  8
LAYER0003
  6
CONTINUOUS
 62
     7
100
AcDbLine
 10
-17.15221174010968
 20
-12.96260347848942
 30
0.0
 11
-17.1802117401097
 21
-12.96360347848928
 31
0.0
  0
LINE
  5
13C
330
B6
100
AcDbEntity
  8
LAYER0003
  6
CONTINUOUS
 62
     7
100
AcDbLine
 10
-17.1802117401097
 20
-12.96360347848928
 30
0.0
 11
-17.2092117401097
 21
-12.96460347848937
 31
0.0
  0
LINE
  5
13D
330
B6
100
AcDbEntity
  8
LAYER0003
  6
CONTINUOUS
 62
     7
100
AcDbLine
 10
-17.2092117401097
 20
-12.96460347848937
 30
0.0
 11
-17.23721174010972
 21
-12.96660347848944
 31
0.0
  0
LINE
  5
13E
330
B6
100
AcDbEntity
  8
LAYER0003
  6
CONTINUOUS
 62
     7
100
AcDbLine
 10
-17.23721174010972
 20
-12.96660347848944
 30
0.0
 11
-17.26521174010974
 21
-12.96660347848944
 31
0.0
  0
LINE
  5
13F
330
B6
100
AcDbEntity
  8
LAYER0003
  6
CONTINUOUS
 62
     7
100
AcDbLine
 10
-17.26521174010974
 20
-12.96660347848944
 30
0.0
 11
-17.29321174010976
 21
-12.96760347848942
 31
0.0
  0
LINE
  5
140
330
B6
100
AcDbEntity
  8
LAYER0003
  6
CONTINUOUS
 62
     7
100
AcDbLine
 10
-17.29321174010976
 20
-12.96760347848942
 30
0.0
 11
-17.32121174010978
 21
-12.96760347848942
 31
0.0
  0
LINE
  5
141
330
B6
100
AcDbEntity
  8
LAYER0003
  6
CONTINUOUS
 62
     7
100
AcDbLine
 10
-17.32121174010978
 20
-12.96760347848942
 30
0.0
 11
-17.35021174010978
 21
-12.96860347848939
 31
0.0
  0
ENDBLK
  5
B8
330
B6
100
AcDbEntity
  8
0
100
AcDbBlockEnd
  0
BLOCK
  5
BA
330
B9
100
AcDbEntity
  8
0
100
AcDbBlockBegin
  2
DC_GROUP_2
 70
     0
 10
0.0
 20
0.0
 30
0.0
  3
DC_GROUP_2
  1

  0
LINE
  5
142
330
B9
100
AcDbEntity
  8
LAYER0003
  6
CONTINUOUS
 62
     7
100
AcDbLine
 10
-30.05021174010985
 20
-11.34160347848944
 30
0.0
 11
-30.04921174010965
 21
-11.36160347848942
 31
0.0
  0
LINE
  5
143
330
B9
100
AcDbEntity
  8
LAYER0003
  6
CONTINUOUS
 62
     7
100
AcDbLine
 10
-30.04921174010965
 20
-11.36160347848942
 30
0.0
 11
-30.04921174010965
 21
-11.3816034784894
 31
0.0
  0
LINE
  5
144
330
B9
100
AcDbEntity
  8
LAYER0003
  6
CONTINUOUS
 62
     7
100
AcDbLine
 10
-30.04921174010965
 20
-11.3816034784894
 30
0.0
 11
-30.0482117401099
 21
-11.40160347848938
 31
0.0
  0
LINE
  5
145
330
B9
100
AcDbEntity
  8
LAYER0003
  6
CONTINUOUS
 62
     7
100
AcDbLine
 10
-30.0482117401099
 20
-11.40160347848938
 30
0.0
 11
-30.0472117401097
 21
-11.42160347848937
 31
0.0
  0
LINE
  5
146
330
B9
100
AcDbEntity
  8
LAYER0003
  6
CONTINUOUS
 62
     7
100
AcDbLine
 10
-30.0472117401097
 20
-11.42160347848937
 30
0.0
 11
-30.04521174010974
 21
-11.44160347848935
 31
0.0
  0
LINE
  5
147
330
B9
100
AcDbEntity
  8
LAYER0003
  6
CONTINUOUS
 62
     7
100
AcDbLine
 10
-30.04521174010974
 20
-11.44160347848935
 30
0.0
 11
-30.04321174010979
 21
-11.46160347848933
 31
0.0
  0
LINE
  5
148
330
B9
100
AcDbEntity
  8
LAYER0003
  6
CONTINUOUS
 62
     7
100
AcDbLine
 10
-30.04321174010979
 20
-11.46160347848933
 30
0.0
 11
-30.04121174010984
 21
-11.48160347848931
 31
0.0
  0
LINE
  5
149
330
B9
100
AcDbEntity
  8
LAYER0003
  6
CONTINUOUS
 62
     7
100
AcDbLine
 10
-30.04121174010984
 20
-11.48160347848931
 30
0.0
 11
-30.03921174010988
 21
-11.50160347848941
 31
0.0
  0
LINE
  5
14A
330
B9
100
AcDbEntity
  8
LAYER0003
  6
CONTINUOUS
 62
     7
100
AcDbLine
 10
-30.03921174010988
 20
-11.50160347848941
 30
0.0
 11
-30.03621174010973
 21
-11.52060347848941
 31
0.0
  0
LINE
  5
14B
330
B9
100
AcDbEntity
  8
LAYER0003
  6
CONTINUOUS
 62
     7
100
AcDbLine
 10
-30.03621174010973
 20
-11.52060347848941
 30
0.0
 11
-30.03221174010982
 21
-11.54060347848939
 31
0.0
  0
LINE
  5
14C
330
B9
100
AcDbEntity
  8
LAYER0003
  6
CONTINUOUS
 62
     7
100
AcDbLine
 10
-30.03221174010982
 20
-11.54060347848939
 30
0.0
 11
-30.02921174010967
 21
-11.56060347848938
 31
0.0
  0
LINE
  5
14D
330
B9
100
AcDbEntity
  8
LAYER0003
  6
CONTINUOUS
 62
     7
100
AcDbLine
 10
-30.02921174010967
 20
-11.56060347848938
 30
0.0
 11
-30.02521174010976
 21
-11.58060347848947
 31
0.0
  0
LINE
  5
14E
330
B9
100
AcDbEntity
  8
LAYER0003
  6
CONTINUOUS
 62
     7
100
AcDbLine
 10
-30.02521174010976
 20
-11.58060347848947
 30
0.0
 11
-30.02021174010965
 21
-11.60060347848945
 31
0.0
  0
LINE
  5
14F
330
B9
100
AcDbEntity
  8
LAYER0003
  6
CONTINUOUS
 62
     7
100
AcDbLine
 10
-30.02021174010965
 20
-11.60060347848945
 30
0.0
 11
-30.01621174010975
 21
-11.61960347848946
 31
0.0
  0
LINE
  5
150
330
B9
100
AcDbEntity
  8
LAYER0003
  6
CONTINUOUS
 62
     7
100
AcDbLine
 10
-30.01621174010975
 20
-11.61960347848946
 30
0.0
 11
-30.01121174010964
 21
-11.63960347848944
 31
0.0
  0
LINE
  5
151
330
B9
100
AcDbEntity
  8
LAYER0003
  6
CONTINUOUS
 62
     7
100
AcDbLine
 10
-30.01121174010964
 20
-11.63960347848944
 30
0.0
 11
-30.00521174010978
 21
-11.65860347848945
 31
0.0
  0
LINE
  5
152
330
B9
100
AcDbEntity
  8
LAYER0003
  6
CONTINUOUS
 62
     7
100
AcDbLine
 10
-30.00521174010978
 20
-11.65860347848945
 30
0.0
 11
-30.00021174010967
 21
-11.67860347848943
 31
0.0
  0
LINE
  5
153
330
B9
100
AcDbEntity
  8
LAYER0003
  6
CONTINUOUS
 62
     7
100
AcDbLine
 10
-30.00021174010967
 20
-11.67860347848943
 30
0.0
 11
-29.99421174010981
 21
-11.69860347848941
 31
0.0
  0
LINE
  5
154
330
B9
100
AcDbEntity
  8
LAYER0003
  6
CONTINUOUS
 62
     7
100
AcDbLine
 10
-29.99421174010981
 20
-11.69860347848941
 30
0.0
 11
-29.98721174010975
 21
-11.71760347848942
 31
0.0
  0
LINE
  5
155
330
B9
100
AcDbEntity
  8
LAYER0003
  6
CONTINUOUS
 62
     7
100
AcDbLine
 10
-29.98721174010975
 20
-11.71760347848942
 30
0.0
 11
-29.98121174010989
 21
-11.73660347848942
 31
0.0
  0
LINE
  5
156
330
B9
100
AcDbEntity
  8
LAYER0003
  6
CONTINUOUS
 62
     7
100
AcDbLine
 10
-29.98121174010989
 20
-11.73660347848942
 30
0.0
 11
-29.97421174010983
 21
-11.7566034784894
 31
0.0
  0
LINE
  5
157
330
B9
100
AcDbEntity
  8
LAYER0003
  6
CONTINUOUS
 62
     7
100
AcDbLine
 10
-29.97421174010983
 20
-11.7566034784894
 30
0.0
 11
-29.96621174010979
 21
-11.77560347848941
 31
0.0
  0
LINE
  5
158
330
B9
100
AcDbEntity
  8
LAYER0003
  6
CONTINUOUS
 62
     7
100
AcDbLine
 10
-29.96621174010979
 20
-11.77560347848941
 30
0.0
 11
-29.95921174010973
 21
-11.79460347848941
 31
0.0
  0
LINE
  5
159
330
B9
100
AcDbEntity
  8
LAYER0003
  6
CONTINUOUS
 62
     7
100
AcDbLine
 10
-29.95921174010973
 20
-11.79460347848941
 30
0.0
 11
-29.95121174010992
 21
-11.81360347848942
 31
0.0
  0
LINE
  5
15A
330
B9
100
AcDbEntity
  8
LAYER0003
  6
CONTINUOUS
 62
     7
100
AcDbLine
 10
-29.95121174010992
 20
-11.81360347848942
 30
0.0
 11
-29.94221174010968
 21
-11.83260347848931
 31
0.0
  0
LINE
  5
15B
330
B9
100
AcDbEntity
  8
LAYER0003
  6
CONTINUOUS
 62
     7
100
AcDbLine
 10
-29.94221174010968
 20
-11.83260347848931
 30
0.0
 11
-29.93421174010987
 21
-11.85160347848943
 31
0.0
  0
LINE
  5
15C
330
B9
100
AcDbEntity
  8
LAYER0003
  6
CONTINUOUS
 62
     7
100
AcDbLine
 10
-29.93421174010987
 20
-11.85160347848943
 30
0.0
 11
-29.92521174010985
 21
-11.87060347848944
 31
0.0
  0
LINE
  5
15D
330
B9
100
AcDbEntity
  8
LAYER0003
  6
CONTINUOUS
 62
     7
100
AcDbLine
 10
-29.92521174010985
 20
-11.87060347848944
 30
0.0
 11
-29.91521174010986
 21
-11.88960347848967
 31
0.0
  0
LINE
  5
15E
330
B9
100
AcDbEntity
  8
LAYER0003
  6
CONTINUOUS
 62
     7
100
AcDbLine
 10
-29.91521174010986
 20
-11.88960347848967
 30
0.0
 11
-29.90621174010985
 21
-11.90860347848945
 31
0.0
  0
LINE
  5
15F
330
B9
100
AcDbEntity
  8
LAYER0003
  6
CONTINUOUS
 62
     7
100
AcDbLine
 10
-29.90621174010985
 20
-11.90860347848945
 30
0.0
 11
-29.89621174010986
 21
-11.92760347848945
 31
0.0
  0
LINE
  5
160
330
B9
100
AcDbEntity
  8
LAYER0003
  6
CONTINUOUS
 62
     7
100
AcDbLine
 10
-29.89621174010986
 20
-11.92760347848945
 30
0.0
 11
-29.88521174010989
 21
-11.94560347848937
 31
0.0
  0
LINE
  5
161
330
B9
100
AcDbEntity
  8
LAYER0003
  6
CONTINUOUS
 62
     7
100
AcDbLine
 10
-29.88521174010989
 20
-11.94560347848937
 30
0.0
 11
-29.87521174010967
 21
-11.96460347848937
 31
0.0
  0
LINE
  5
162
330
B9
100
AcDbEntity
  8
LAYER0003
  6
CONTINUOUS
 62
     7
100
AcDbLine
 10
-29.87521174010967
 20
-11.96460347848937
 30
0.0
 11
-29.8642117401097
 21
-11.9826034784894
 31
0.0
  0
LINE
  5
163
330
B9
100
AcDbEntity
  8
LAYER0003
  6
CONTINUOUS
 62
     7
100
AcDbLine
 10
-29.8642117401097
 20
-11.9826034784894
 30
0.0
 11
-29.85221174010976
 21
-12.00060347848932
 31
0.0
  0
LINE
  5
164
330
B9
100
AcDbEntity
  8
LAYER0003
  6
CONTINUOUS
 62
     7
100
AcDbLine
 10
-29.85221174010976
 20
-12.00060347848932
 30
0.0
 11
-29.84121174010979
 21
-12.01860347848912
 31
0.0
  0
LINE
  5
165
330
B9
100
AcDbEntity
  8
LAYER0003
  6
CONTINUOUS
 62
     7
100
AcDbLine
 10
-29.84121174010979
 20
-12.01860347848912
 30
0.0
 11
-29.82921174010985
 21
-12.03760347848935
 31
0.0
  0
LINE
  5
166
330
B9
100
AcDbEntity
  8
LAYER0003
  6
CONTINUOUS
 62
     7
100
AcDbLine
 10
-29.82921174010985
 20
-12.03760347848935
 30
0.0
 11
-29.81721174010968
 21
-12.05560347848938
 31
0.0
  0
LINE
  5
167
330
B9
100
AcDbEntity
  8
LAYER0003
  6
CONTINUOUS
 62
     7
100
AcDbLine
 10
-29.81721174010968
 20
-12.05560347848938
 30
0.0
 11
-29.80421174010976
 21
-12.07260347848943
 31
0.0
  0
LINE
  5
168
330
B9
100
AcDbEntity
  8
LAYER0003
  6
CONTINUOUS
 62
     7
100
AcDbLine
 10
-29.80421174010976
 20
-12.07260347848943
 30
0.0
 11
-29.79121174010984
 21
-12.09060347848946
 31
0.0
  0
LINE
  5
169
330
B9
100
AcDbEntity
  8
LAYER0003
  6
CONTINUOUS
 62
     7
100
AcDbLine
 10
-29.79121174010984
 20
-12.09060347848946
 30
0.0
 11
-29.77821174010992
 21
-12.10860347848938
 31
0.0
  0
LINE
  5
16A
330
B9
100
AcDbEntity
  8
LAYER0003
  6
CONTINUOUS
 62
     7
100
AcDbLine
 10
-29.77821174010992
 20
-12.10860347848938
 30
0.0
 11
-29.76521174010977
 21
-12.12560347848932
 31
0.0
  0
LINE
  5
16B
330
B9
100
AcDbEntity
  8
LAYER0003
  6
CONTINUOUS
 62
     7
100
AcDbLine
 10
-29.76521174010977
 20
-12.12560347848932
 30
0.0
 11
-29.75121174010987
 21
-12.14360347848912
 31
0.0
  0
LINE
  5
16C
330
B9
100
AcDbEntity
  8
LAYER0003
  6
CONTINUOUS
 62
     7
100
AcDbLine
 10
-29.75121174010987
 20
-12.14360347848912
 30
0.0
 11
-29.73721174010975
 21
-12.1606034784894
 31
0.0
  0
LINE
  5
16D
330
B9
100
AcDbEntity
  8
LAYER0003
  6
CONTINUOUS
 62
     7
100
AcDbLine
 10
-29.73721174010975
 20
-12.1606034784894
 30
0.0
 11
-29.72221174010988
 21
-12.17760347848945
 31
0.0
  0
LINE
  5
16E
330
B9
100
AcDbEntity
  8
LAYER0003
  6
CONTINUOUS
 62
     7
100
AcDbLine
 10
-29.72221174010988
 20
-12.17760347848945
 30
0.0
 11
-29.70821174010975
 21
-12.1946034784895
 31
0.0
  0
LINE
  5
16F
330
B9
100
AcDbEntity
  8
LAYER0003
  6
CONTINUOUS
 62
     7
100
AcDbLine
 10
-29.70821174010975
 20
-12.1946034784895
 30
0.0
 11
-29.69321174010988
 21
-12.21160347848933
 31
0.0
  0
LINE
  5
170
330
B9
100
AcDbEntity
  8
LAYER0003
  6
CONTINUOUS
 62
     7
100
AcDbLine
 10
-29.69321174010988
 20
-12.21160347848933
 30
0.0
 11
-29.67821174010978
 21
-12.22860347848938
 31
0.0
  0
LINE
  5
171
330
B9
100
AcDbEntity
  8
LAYER0003
  6
CONTINUOUS
 62
     7
100
AcDbLine
 10
-29.67821174010978
 20
-12.22860347848938
 30
0.0
 11
-29.6622117401097
 21
-12.24560347848944
 31
0.0
  0
LINE
  5
172
330
B9
100
AcDbEntity
  8
LAYER0003
  6
CONTINUOUS
 62
     7
100
AcDbLine
 10
-29.6622117401097
 20
-12.24560347848944
 30
0.0
 11
-29.64621174010986
 21
-12.2616034784894
 31
0.0
  0
LINE
  5
173
330
B9
100
AcDbEntity
  8
LAYER0003
  6
CONTINUOUS
 62
     7
100
AcDbLine
 10
-29.64621174010986
 20
-12.2616034784894
 30
0.0
 11
-29.63021174010978
 21
-12.27860347848934
 31
0.0
  0
LINE
  5
174
330
B9
100
AcDbEntity
  8
LAYER0003
  6
CONTINUOUS
 62
     7
100
AcDbLine
 10
-29.63021174010978
 20
-12.27860347848934
 30
0.0
 11
-29.6142117401097
 21
-12.29460347848941
 31
0.0
  0
LINE
  5
175
330
B9
100
AcDbEntity
  8
LAYER0003
  6
CONTINUOUS
 62
     7
100
AcDbLine
 10
-29.6142117401097
 20
-12.29460347848941
 30
0.0
 11
-29.59721174010988
 21
-12.31060347848938
 31
0.0
  0
LINE
  5
176
330
B9
100
AcDbEntity
  8
LAYER0003
  6
CONTINUOUS
 62
     7
100
AcDbLine
 10
-29.59721174010988
 20
-12.31060347848938
 30
0.0
 11
-29.58021174010982
 21
-12.32660347848934
 31
0.0
  0
LINE
  5
177
330
B9
100
AcDbEntity
  8
LAYER0003
  6
CONTINUOUS
 62
     7
100
AcDbLine
 10
-29.58021174010982
 20
-12.32660347848934
 30
0.0
 11
-29.56321174010977
 21
-12.34260347848942
 31
0.0
  0
LINE
  5
178
330
B9
100
AcDbEntity
  8
LAYER0003
  6
CONTINUOUS
 62
     7
100
AcDbLine
 10
-29.56321174010977
 20
-12.34260347848942
 30
0.0
 11
-29.54521174010974
 21
-12.3576034784894
 31
0.0
  0
LINE
  5
179
330
B9
100
AcDbEntity
  8
LAYER0003
  6
CONTINUOUS
 62
     7
100
AcDbLine
 10
-29.54521174010974
 20
-12.3576034784894
 30
0.0
 11
-29.52821174010992
 21
-12.37360347848936
 31
0.0
  0
LINE
  5
17A
330
B9
100
AcDbEntity
  8
LAYER0003
  6
CONTINUOUS
 62
     7
100
AcDbLine
 10
-29.52821174010992
 20
-12.37360347848936
 30
0.0
 11
-29.51021174010989
 21
-12.38860347848946
 31
0.0
  0
LINE
  5
17B
330
B9
100
AcDbEntity
  8
LAYER0003
  6
CONTINUOUS
 62
     7
100
AcDbLine
 10
-29.51021174010989
 20
-12.38860347848946
 30
0.0
 11
-29.49121174010966
 21
-12.40360347848934
 31
0.0
  0
LINE
  5
17C
330
B9
100
AcDbEntity
  8
LAYER0003
  6
CONTINUOUS
 62
     7
100
AcDbLine
 10
-29.49121174010966
 20
-12.40360347848934
 30
0.0
 11
-29.47321174010985
 21
-12.41960347848941
 31
0.0
  0
LINE
  5
17D
330
B9
100
AcDbEntity
  8
LAYER0003
  6
CONTINUOUS
 62
     7
100
AcDbLine
 10
-29.47321174010985
 20
-12.41960347848941
 30
0.0
 11
-29.45421174010985
 21
-12.43360347848931
 31
0.0
  0
LINE
  5
17E
330
B9
100
AcDbEntity
  8
LAYER0003
  6
CONTINUOUS
 62
     7
100
AcDbLine
 10
-29.45421174010985
 20
-12.43360347848931
 30
0.0
 11
-29.43521174010984
 21
-12.4486034784893
 31
0.0
  0
LINE
  5
17F
330
B9
100
AcDbEntity
  8
LAYER0003
  6
CONTINUOUS
 62
     7
100
AcDbLine
 10
-29.43521174010984
 20
-12.4486034784893
 30
0.0
 11
-29.41521174010986
 21
-12.4636034784894
 31
0.0
  0
LINE
  5
180
330
B9
100
AcDbEntity
  8
LAYER0003
  6
CONTINUOUS
 62
     7
100
AcDbLine
 10
-29.41521174010986
 20
-12.4636034784894
 30
0.0
 11
-29.39621174010986
 21
-12.47760347848941
 31
0.0
  0
LINE
  5
181
330
B9
100
AcDbEntity
  8
LAYER0003
  6
CONTINUOUS
 62
     7
100
AcDbLine
 10
-29.39621174010986
 20
-12.47760347848941
 30
0.0
 11
-29.37621174010987
 21
-12.49160347848942
 31
0.0
  0
LINE
  5
182
330
B9
100
AcDbEntity
  8
LAYER0003
  6
CONTINUOUS
 62
     7
100
AcDbLine
 10
-29.37621174010987
 20
-12.49160347848942
 30
0.0
 11
-29.35621174010989
 21
-12.50560347848943
 31
0.0
  0
LINE
  5
183
330
B9
100
AcDbEntity
  8
LAYER0003
  6
CONTINUOUS
 62
     7
100
AcDbLine
 10
-29.35621174010989
 20
-12.50560347848943
 30
0.0
 11
-29.33621174010991
 21
-12.51960347848955
 31
0.0
  0
LINE
  5
184
330
B9
100
AcDbEntity
  8
LAYER0003
  6
CONTINUOUS
 62
     7
100
AcDbLine
 10
-29.33621174010991
 20
-12.51960347848955
 30
0.0
 11
-29.31521174010972
 21
-12.53360347848945
 31
0.0
  0
LINE
  5
185
330
B9
100
AcDbEntity
  8
LAYER0003
  6
CONTINUOUS
 62
     7
100
AcDbLine
 10
-29.31521174010972
 20
-12.53360347848945
 30
0.0
 11
-29.29421174010977
 21
-12.54660347848937
 31
0.0
  0
LINE
  5
186
330
B9
100
AcDbEntity
  8
LAYER0003
  6
CONTINUOUS
 62
     7
100
AcDbLine
 10
-29.29421174010977
 20
-12.54660347848937
 30
0.0
 11
-29.27321174010981
 21
-12.56060347848938
 31
0.0
  0
LINE
  5
187
330
B9
100
AcDbEntity
  8
LAYER0003
  6
CONTINUOUS
 62
     7
100
AcDbLine
 10
-29.27321174010981
 20
-12.56060347848938
 30
0.0
 11
-29.25221174010985
 21
-12.57360347848941
 31
0.0
  0
LINE
  5
188
330
B9
100
AcDbEntity
  8
LAYER0003
  6
CONTINUOUS
 62
     7
100
AcDbLine
 10
-29.25221174010985
 20
-12.57360347848941
 30
0.0
 11
-29.23021174010969
 21
-12.58660347848933
 31
0.0
  0
LINE
  5
189
330
B9
100
AcDbEntity
  8
LAYER0003
  6
CONTINUOUS
 62
     7
100
AcDbLine
 10
-29.23021174010969
 20
-12.58660347848933
 30
0.0
 11
-29.20921174010973
 21
-12.59860347848939
 31
0.0
  0
LINE
  5
18A
330
B9
100
AcDbEntity
  8
LAYER0003
  6
CONTINUOUS
 62
     7
100
AcDbLine
 10
-29.20921174010973
 20
-12.59860347848939
 30
0.0
 11
-29.1872117401098
 21
-12.61160347848942
 31
0.0
  0
LINE
  5
18B
330
B9
100
AcDbEntity
  8
LAYER0003
  6
CONTINUOUS
 62
     7
100
AcDbLine
 10
-29.1872117401098
 20
-12.61160347848942
 30
0.0
 11
-29.16521174010986
 21
-12.62360347848936
 31
0.0
  0
LINE
  5
18C
330
B9
100
AcDbEntity
  8
LAYER0003
  6
CONTINUOUS
 62
     7
100
AcDbLine
 10
-29.16521174010986
 20
-12.62360347848936
 30
0.0
 11
-29.14221174010972
 21
-12.6366034784894
 31
0.0
  0
LINE
  5
18D
330
B9
100
AcDbEntity
  8
LAYER0003
  6
CONTINUOUS
 62
     7
100
AcDbLine
 10
-29.14221174010972
 20
-12.6366034784894
 30
0.0
 11
-29.12021174010979
 21
-12.64760347848937
 31
0.0
  0
LINE
  5
18E
330
B9
100
AcDbEntity
  8
LAYER0003
  6
CONTINUOUS
 62
     7
100
AcDbLine
 10
-29.12021174010979
 20
-12.64760347848937
 30
0.0
 11
-29.09721174010988
 21
-12.65960347848942
 31
0.0
  0
LINE
  5
18F
330
B9
100
AcDbEntity
  8
LAYER0003
  6
CONTINUOUS
 62
     7
100
AcDbLine
 10
-29.09721174010988
 20
-12.65960347848942
 30
0.0
 11
-29.07421174010974
 21
-12.67160347848937
 31
0.0
  0
LINE
  5
190
330
B9
100
AcDbEntity
  8
LAYER0003
  6
CONTINUOUS
 62
     7
100
AcDbLine
 10
-29.07421174010974
 20
-12.67160347848937
 30
0.0
 11
-29.05121174010983
 21
-12.68260347848933
 31
0.0
  0
LINE
  5
191
330
B9
100
AcDbEntity
  8
LAYER0003
  6
CONTINUOUS
 62
     7
100
AcDbLine
 10
-29.05121174010983
 20
-12.68260347848933
 30
0.0
 11
-29.02721174010971
 21
-12.69360347848941
 31
0.0
  0
LINE
  5
192
330
B9
100
AcDbEntity
  8
LAYER0003
  6
CONTINUOUS
 62
     7
100
AcDbLine
 10
-29.02721174010971
 20
-12.69360347848941
 30
0.0
 11
-29.0042117401098
 21
-12.70460347848938
 31
0.0
  0
LINE
  5
193
330
B9
100
AcDbEntity
  8
LAYER0003
  6
CONTINUOUS
 62
     7
100
AcDbLine
 10
-29.0042117401098
 20
-12.70460347848938
 30
0.0
 11
-28.98021174010969
 21
-12.71560347848946
 31
0.0
  0
LINE
  5
194
330
B9
100
AcDbEntity
  8
LAYER0003
  6
CONTINUOUS
 62
     7
100
AcDbLine
 10
-28.98021174010969
 20
-12.71560347848946
 30
0.0
 11
-28.9562117401098
 21
-12.72660347848943
 31
0.0
  0
LINE
  5
195
330
B9
100
AcDbEntity
  8
LAYER0003
  6
CONTINUOUS
 62
     7
100
AcDbLine
 10
-28.9562117401098
 20
-12.72660347848943
 30
0.0
 11
-28.93221174010991
 21
-12.73660347848942
 31
0.0
  0
LINE
  5
196
330
B9
100
AcDbEntity
  8
LAYER0003
  6
CONTINUOUS
 62
     7
100
AcDbLine
 10
-28.93221174010991
 20
-12.73660347848942
 30
0.0
 11
-28.9082117401098
 21
-12.74660347848941
 31
0.0
  0
LINE
  5
197
330
B9
100
AcDbEntity
  8
LAYER0003
  6
CONTINUOUS
 62
     7
100
AcDbLine
 10
-28.9082117401098
 20
-12.74660347848941
 30
0.0
 11
-28.88321174010971
 21
-12.7566034784894
 31
0.0
  0
LINE
  5
198
330
B9
100
AcDbEntity
  8
LAYER0003
  6
CONTINUOUS
 62
     7
100
AcDbLine
 10
-28.88321174010971
 20
-12.7566034784894
 30
0.0
 11
-28.85921174010982
 21
-12.76660347848939
 31
0.0
  0
LINE
  5
199
330
B9
100
AcDbEntity
  8
LAYER0003
  6
CONTINUOUS
 62
     7
100
AcDbLine
 10
-28.85921174010982
 20
-12.76660347848939
 30
0.0
 11
-28.83421174010973
 21
-12.77660347848938
 31
0.0
  0
LINE
  5
19A
330
B9
100
AcDbEntity
  8
LAYER0003
  6
CONTINUOUS
 62
     7
100
AcDbLine
 10
-28.83421174010973
 20
-12.77660347848938
 30
0.0
 11
-28.80921174010987
 21
-12.7856034784894
 31
0.0
  0
LINE
  5
19B
330
B9
100
AcDbEntity
  8
LAYER0003
  6
CONTINUOUS
 62
     7
100
AcDbLine
 10
-28.80921174010987
 20
-12.7856034784894
 30
0.0
 11
-28.78421174010978
 21
-12.79460347848941
 31
0.0
  0
LINE
  5
19C
330
B9
100
AcDbEntity
  8
LAYER0003
  6
CONTINUOUS
 62
     7
100
AcDbLine
 10
-28.78421174010978
 20
-12.79460347848941
 30
0.0
 11
-28.75821174010971
 21
-12.80360347848943
 31
0.0
  0
LINE
  5
19D
330
B9
100
AcDbEntity
  8
LAYER0003
  6
CONTINUOUS
 62
     7
100
AcDbLine
 10
-28.75821174010971
 20
-12.80360347848943
 30
0.0
 11
-28.73321174010984
 21
-12.81160347848947
 31
0.0
  0
LINE
  5
19E
330
B9
100
AcDbEntity
  8
LAYER0003
  6
CONTINUOUS
 62
     7
100
AcDbLine
 10
-28.73321174010984
 20
-12.81160347848947
 30
0.0
 11
-28.70721174010978
 21
-12.82060347848937
 31
0.0
  0
LINE
  5
19F
330
B9
100
AcDbEntity
  8
LAYER0003
  6
CONTINUOUS
 62
     7
100
AcDbLine
 10
-28.70721174010978
 20
-12.82060347848937
 30
0.0
 11
-28.68221174010991
 21
-12.82860347848941
 31
0.0
  0
LINE
  5
1A0
330
B9
100
AcDbEntity
  8
LAYER0003
  6
CONTINUOUS
 62
     7
100
AcDbLine
 10
-28.68221174010991
 20
-12.82860347848941
 30
0.0
 11
-28.65621174010985
 21
-12.83660347848933
 31
0.0
  0
LINE
  5
1A1
330
B9
100
AcDbEntity
  8
LAYER0003
  6
CONTINUOUS
 62
     7
100
AcDbLine
 10
-28.65621174010985
 20
-12.83660347848933
 30
0.0
 11
-28.63021174010978
 21
-12.84460347848937
 31
0.0
  0
LINE
  5
1A2
330
B9
100
AcDbEntity
  8
LAYER0003
  6
CONTINUOUS
 62
     7
100
AcDbLine
 10
-28.63021174010978
 20
-12.84460347848937
 30
0.0
 11
-28.60421174010971
 21
-12.85160347848943
 31
0.0
  0
LINE
  5
1A3
330
B9
100
AcDbEntity
  8
LAYER0003
  6
CONTINUOUS
 62
     7
100
AcDbLine
 10
-28.60421174010971
 20
-12.85160347848943
 30
0.0
 11
-28.5772117401099
 21
-12.85960347848947
 31
0.0
  0
LINE
  5
1A4
330
B9
100
AcDbEntity
  8
LAYER0003
  6
CONTINUOUS
 62
     7
100
AcDbLine
 10
-28.5772117401099
 20
-12.85960347848947
 30
0.0
 11
-28.55121174010983
 21
-12.86660347848942
 31
0.0
  0
LINE
  5
1A5
330
B9
100
AcDbEntity
  8
LAYER0003
  6
CONTINUOUS
 62
     7
100
AcDbLine
 10
-28.55121174010983
 20
-12.86660347848942
 30
0.0
 11
-28.52421174010978
 21
-12.87260347848939
 31
0.0
  0
LINE
  5
1A6
330
B9
100
AcDbEntity
  8
LAYER0003
  6
CONTINUOUS
 62
     7
100
AcDbLine
 10
-28.52421174010978
 20
-12.87260347848939
 30
0.0
 11
-28.49821174010972
 21
-12.87960347848945
 31
0.0
  0
LINE
  5
1A7
330
B9
100
AcDbEntity
  8
LAYER0003
  6
CONTINUOUS
 62
     7
100
AcDbLine
 10
-28.49821174010972
 20
-12.87960347848945
 30
0.0
 11
-28.47121174010967
 21
-12.88560347848942
 31
0.0
  0
LINE
  5
1A8
330
B9
100
AcDbEntity
  8
LAYER0003
  6
CONTINUOUS
 62
     7
100
AcDbLine
 10
-28.47121174010967
 20
-12.88560347848942
 30
0.0
 11
-28.44421174010986
 21
-12.89260347848937
 31
0.0
  0
LINE
  5
1A9
330
B9
100
AcDbEntity
  8
LAYER0003
  6
CONTINUOUS
 62
     7
100
AcDbLine
 10
-28.44421174010986
 20
-12.89260347848937
 30
0.0
 11
-28.41721174010981
 21
-12.89860347848946
 31
0.0
  0
LINE
  5
1AA
330
B9
100
AcDbEntity
  8
LAYER0003
  6
CONTINUOUS
 62
     7
100
AcDbLine
 10
-28.41721174010981
 20
-12.89860347848946
 30
0.0
 11
-28.39021174010977
 21
-12.90360347848934
 31
0.0
  0
LINE
  5
1AB
330
B9
100
AcDbEntity
  8
LAYER0003
  6
CONTINUOUS
 62
     7
100
AcDbLine
 10
-28.39021174010977
 20
-12.90360347848934
 30
0.0
 11
-28.36321174010973
 21
-12.90960347848942
 31
0.0
  0
LINE
  5
1AC
330
B9
100
AcDbEntity
  8
LAYER0003
  6
CONTINUOUS
 62
     7
100
AcDbLine
 10
-28.36321174010973
 20
-12.90960347848942
 30
0.0
 11
-28.33621174010991
 21
-12.91460347848942
 31
0.0
  0
LINE
  5
1AD
330
B9
100
AcDbEntity
  8
LAYER0003
  6
CONTINUOUS
 62
     7
100
AcDbLine
 10
-28.33621174010991
 20
-12.91460347848942
 30
0.0
 11
-28.30821174010966
 21
-12.91960347848941
 31
0.0
  0
LINE
  5
1AE
330
B9
100
AcDbEntity
  8
LAYER0003
  6
CONTINUOUS
 62
     7
100
AcDbLine
 10
-28.30821174010966
 20
-12.91960347848941
 30
0.0
 11
-28.28121174010985
 21
-12.92460347848941
 31
0.0
  0
LINE
  5
1AF
330
B9
100
AcDbEntity
  8
LAYER0003
  6
CONTINUOUS
 62
     7
100
AcDbLine
 10
-28.28121174010985
 20
-12.92460347848941
 30
0.0
 11
-28.2542117401098
 21
-12.92860347848943
 31
0.0
  0
LINE
  5
1B0
330
B9
100
AcDbEntity
  8
LAYER0003
  6
CONTINUOUS
 62
     7
100
AcDbLine
 10
-28.2542117401098
 20
-12.92860347848943
 30
0.0
 11
-28.22621174010978
 21
-12.93260347848933
 31
0.0
  0
LINE
  5
1B1
330
B9
100
AcDbEntity
  8
LAYER0003
  6
CONTINUOUS
 62
     7
100
AcDbLine
 10
-28.22621174010978
 20
-12.93260347848933
 30
0.0
 11
-28.19821174010976
 21
-12.93660347848947
 31
0.0
  0
LINE
  5
1B2
330
B9
100
AcDbEntity
  8
LAYER0003
  6
CONTINUOUS
 62
     7
100
AcDbLine
 10
-28.19821174010976
 20
-12.93660347848947
 30
0.0
 11
-28.17121174010972
 21
-12.94060347848937
 31
0.0
  0
LINE
  5
1B3
330
B9
100
AcDbEntity
  8
LAYER0003
  6
CONTINUOUS
 62
     7
100
AcDbLine
 10
-28.17121174010972
 20
-12.94060347848937
 30
0.0
 11
-28.1432117401097
 21
-12.9446034784895
 31
0.0
  0
LINE
  5
1B4
330
B9
100
AcDbEntity
  8
LAYER0003
  6
CONTINUOUS
 62
     7
100
AcDbLine
 10
-28.1432117401097
 20
-12.9446034784895
 30
0.0
 11
-28.11521174010991
 21
-12.94760347848943
 31
0.0
  0
LINE
  5
1B5
330
B9
100
AcDbEntity
  8
LAYER0003
  6
CONTINUOUS
 62
     7
100
AcDbLine
 10
-28.11521174010991
 20
-12.94760347848943
 30
0.0
 11
-28.08721174010966
 21
-12.95060347848936
 31
0.0
  0
LINE
  5
1B6
330
B9
100
AcDbEntity
  8
LAYER0003
  6
CONTINUOUS
 62
     7
100
AcDbLine
 10
-28.08721174010966
 20
-12.95060347848936
 30
0.0
 11
-28.05921174010987
 21
-12.95360347848941
 31
0.0
  0
LINE
  5
1B7
330
B9
100
AcDbEntity
  8
LAYER0003
  6
CONTINUOUS
 62
     7
100
AcDbLine
 10
-28.05921174010987
 20
-12.95360347848941
 30
0.0
 11
-28.03121174010985
 21
-12.95560347848947
 31
0.0
  0
LINE
  5
1B8
330
B9
100
AcDbEntity
  8
LAYER0003
  6
CONTINUOUS
 62
     7
100
AcDbLine
 10
-28.03121174010985
 20
-12.95560347848947
 30
0.0
 11
-28.00321174010983
 21
-12.9586034784894
 31
0.0
  0
LINE
  5
1B9
330
B9
100
AcDbEntity
  8
LAYER0003
  6
CONTINUOUS
 62
     7
100
AcDbLine
 10
-28.00321174010983
 20
-12.9586034784894
 30
0.0
 11
-27.97521174010981
 21
-12.96060347848935
 31
0.0
  0
LINE
  5
1BA
330
B9
100
AcDbEntity
  8
LAYER0003
  6
CONTINUOUS
 62
     7
100
AcDbLine
 10
-27.97521174010981
 20
-12.96060347848935
 30
0.0
 11
-27.94721174010979
 21
-12.96260347848942
 31
0.0
  0
LINE
  5
1BB
330
B9
100
AcDbEntity
  8
LAYER0003
  6
CONTINUOUS
 62
     7
100
AcDbLine
 10
-27.94721174010979
 20
-12.96260347848942
 30
0.0
 11
-27.91921174010977
 21
-12.96360347848928
 31
0.0
  0
LINE
  5
1BC
330
B9
100
AcDbEntity
  8
LAYER0003
  6
CONTINUOUS
 62
     7
100
AcDbLine
 10
-27.91921174010977
 20
-12.96360347848928
 30
0.0
 11
-27.89121174010975
 21
-12.96460347848937
 31
0.0
  0
LINE
  5
1BD
330
B9
100
AcDbEntity
  8
LAYER0003
  6
CONTINUOUS
 62
     7
100
AcDbLine
 10
-27.89121174010975
 20
-12.96460347848937
 30
0.0
 11
-27.86221174010975
 21
-12.96660347848944
 31
0.0
  0
LINE
  5
1BE
330
B9
100
AcDbEntity
  8
LAYER0003
  6
CONTINUOUS
 62
     7
100
AcDbLine
 10
-27.86221174010975
 20
-12.96660347848944
 30
0.0
 11
-27.83421174010973
 21
-12.96660347848944
 31
0.0
  0
LINE
  5
1BF
330
B9
100
AcDbEntity
  8
LAYER0003
  6
CONTINUOUS
 62
     7
100
AcDbLine
 10
-27.83421174010973
 20
-12.96660347848944
 30
0.0
 11
-27.80621174010971
 21
-12.96760347848942
 31
0.0
  0
LINE
  5
1C0
330
B9
100
AcDbEntity
  8
LAYER0003
  6
CONTINUOUS
 62
     7
100
AcDbLine
 10
-27.80621174010971
 20
-12.96760347848942
 30
0.0
 11
-27.77821174010992
 21
-12.96760347848942
 31
0.0
  0
LINE
  5
1C1
330
B9
100
AcDbEntity
  8
LAYER0003
  6
CONTINUOUS
 62
     7
100
AcDbLine
 10
-27.77821174010992
 20
-12.96760347848942
 30
0.0
 11
-27.75021174010967
 21
-12.96860347848939
 31
0.0
  0
ENDBLK
  5
BB
330
B9
100
AcDbEntity
  8
0
100
AcDbBlockEnd
  0
BLOCK
  5
BD
330
BC
100
AcDbEntity
  8
0
100
AcDbBlockBegin
  2
DC_GROUP_3
 70
     0
 10
0.0
 20
0.0
 30
0.0
  3
DC_GROUP_3
  1

  0
LINE
  5
1C2
330
BC
100
AcDbEntity
  8
LAYER0003
  6
CONTINUOUS
 62
     7
100
AcDbLine
 10
-211.108692327077
 20
109.7236631424656
 30
0.0
 11
-211.1286923270769
 21
109.7236631424656
 31
0.0
  0
LINE
  5
1C3
330
BC
100
AcDbEntity
  8
LAYER0003
  6
CONTINUOUS
 62
     7
100
AcDbLine
 10
-211.1286923270769
 20
109.7236631424656
 30
0.0
 11
-211.1486923270769
 21
109.7236631424656
 31
0.0
  0
LINE
  5
1C4
330
BC
100
AcDbEntity
  8
LAYER0003
  6
CONTINUOUS
 62
     7
100
AcDbLine
 10
-211.1486923270769
 20
109.7236631424656
 30
0.0
 11
-211.1686923270769
 21
109.7226631424656
 31
0.0
  0
LINE
  5
1C5
330
BC
100
AcDbEntity
  8
LAYER0003
  6
CONTINUOUS
 62
     7
100
AcDbLine
 10
-211.1686923270769
 20
109.7226631424656
 30
0.0
 11
-211.1886923270769
 21
109.7216631424657
 31
0.0
  0
LINE
  5
1C6
330
BC
100
AcDbEntity
  8
LAYER0003
  6
CONTINUOUS
 62
     7
100
AcDbLine
 10
-211.1886923270769
 20
109.7216631424657
 30
0.0
 11
-211.2086923270769
 21
109.7196631424657
 31
0.0
  0
LINE
  5
1C7
330
BC
100
AcDbEntity
  8
LAYER0003
  6
CONTINUOUS
 62
     7
100
AcDbLine
 10
-211.2086923270769
 20
109.7196631424657
 30
0.0
 11
-211.2286923270769
 21
109.7176631424658
 31
0.0
  0
LINE
  5
1C8
330
BC
100
AcDbEntity
  8
LAYER0003
  6
CONTINUOUS
 62
     7
100
AcDbLine
 10
-211.2286923270769
 20
109.7176631424658
 30
0.0
 11
-211.2486923270768
 21
109.7156631424658
 31
0.0
  0
LINE
  5
1C9
330
BC
100
AcDbEntity
  8
LAYER0003
  6
CONTINUOUS
 62
     7
100
AcDbLine
 10
-211.2486923270768
 20
109.7156631424658
 30
0.0
 11
-211.2686923270769
 21
109.7126631424656
 31
0.0
  0
LINE
  5
1CA
330
BC
100
AcDbEntity
  8
LAYER0003
  6
CONTINUOUS
 62
     7
100
AcDbLine
 10
-211.2686923270769
 20
109.7126631424656
 30
0.0
 11
-211.2876923270769
 21
109.7096631424655
 31
0.0
  0
LINE
  5
1CB
330
BC
100
AcDbEntity
  8
LAYER0003
  6
CONTINUOUS
 62
     7
100
AcDbLine
 10
-211.2876923270769
 20
109.7096631424655
 30
0.0
 11
-211.3076923270769
 21
109.7066631424658
 31
0.0
  0
LINE
  5
1CC
330
BC
100
AcDbEntity
  8
LAYER0003
  6
CONTINUOUS
 62
     7
100
AcDbLine
 10
-211.3076923270769
 20
109.7066631424658
 30
0.0
 11
-211.3276923270769
 21
109.7026631424657
 31
0.0
  0
LINE
  5
1CD
330
BC
100
AcDbEntity
  8
LAYER0003
  6
CONTINUOUS
 62
     7
100
AcDbLine
 10
-211.3276923270769
 20
109.7026631424657
 30
0.0
 11
-211.347692327077
 21
109.6986631424657
 31
0.0
  0
LINE
  5
1CE
330
BC
100
AcDbEntity
  8
LAYER0003
  6
CONTINUOUS
 62
     7
100
AcDbLine
 10
-211.347692327077
 20
109.6986631424657
 30
0.0
 11
-211.367692327077
 21
109.6946631424656
 31
0.0
  0
LINE
  5
1CF
330
BC
100
AcDbEntity
  8
LAYER0003
  6
CONTINUOUS
 62
     7
100
AcDbLine
 10
-211.367692327077
 20
109.6946631424656
 30
0.0
 11
-211.386692327077
 21
109.6906631424657
 31
0.0
  0
LINE
  5
1D0
330
BC
100
AcDbEntity
  8
LAYER0003
  6
CONTINUOUS
 62
     7
100
AcDbLine
 10
-211.386692327077
 20
109.6906631424657
 30
0.0
 11
-211.406692327077
 21
109.6856631424656
 31
0.0
  0
LINE
  5
1D1
330
BC
100
AcDbEntity
  8
LAYER0003
  6
CONTINUOUS
 62
     7
100
AcDbLine
 10
-211.406692327077
 20
109.6856631424656
 30
0.0
 11
-211.425692327077
 21
109.6796631424657
 31
0.0
  0
LINE
  5
1D2
330
BC
100
AcDbEntity
  8
LAYER0003
  6
CONTINUOUS
 62
     7
100
AcDbLine
 10
-211.425692327077
 20
109.6796631424657
 30
0.0
 11
-211.445692327077
 21
109.6736631424657
 31
0.0
  0
LINE
  5
1D3
330
BC
100
AcDbEntity
  8
LAYER0003
  6
CONTINUOUS
 62
     7
100
AcDbLine
 10
-211.445692327077
 20
109.6736631424657
 30
0.0
 11
-211.4656923270769
 21
109.6676631424656
 31
0.0
  0
LINE
  5
1D4
330
BC
100
AcDbEntity
  8
LAYER0003
  6
CONTINUOUS
 62
     7
100
AcDbLine
 10
-211.4656923270769
 20
109.6676631424656
 30
0.0
 11
-211.4846923270769
 21
109.6616631424657
 31
0.0
  0
LINE
  5
1D5
330
BC
100
AcDbEntity
  8
LAYER0003
  6
CONTINUOUS
 62
     7
100
AcDbLine
 10
-211.4846923270769
 20
109.6616631424657
 30
0.0
 11
-211.5036923270769
 21
109.6546631424657
 31
0.0
  0
LINE
  5
1D6
330
BC
100
AcDbEntity
  8
LAYER0003
  6
CONTINUOUS
 62
     7
100
AcDbLine
 10
-211.5036923270769
 20
109.6546631424657
 30
0.0
 11
-211.5236923270769
 21
109.6476631424656
 31
0.0
  0
LINE
  5
1D7
330
BC
100
AcDbEntity
  8
LAYER0003
  6
CONTINUOUS
 62
     7
100
AcDbLine
 10
-211.5236923270769
 20
109.6476631424656
 30
0.0
 11
-211.5426923270769
 21
109.6406631424658
 31
0.0
  0
LINE
  5
1D8
330
BC
100
AcDbEntity
  8
LAYER0003
  6
CONTINUOUS
 62
     7
100
AcDbLine
 10
-211.5426923270769
 20
109.6406631424658
 30
0.0
 11
-211.5616923270769
 21
109.6326631424657
 31
0.0
  0
LINE
  5
1D9
330
BC
100
AcDbEntity
  8
LAYER0003
  6
CONTINUOUS
 62
     7
100
AcDbLine
 10
-211.5616923270769
 20
109.6326631424657
 30
0.0
 11
-211.5806923270769
 21
109.6246631424657
 31
0.0
  0
LINE
  5
1DA
330
BC
100
AcDbEntity
  8
LAYER0003
  6
CONTINUOUS
 62
     7
100
AcDbLine
 10
-211.5806923270769
 20
109.6246631424657
 30
0.0
 11
-211.5996923270768
 21
109.6166631424656
 31
0.0
  0
LINE
  5
1DB
330
BC
100
AcDbEntity
  8
LAYER0003
  6
CONTINUOUS
 62
     7
100
AcDbLine
 10
-211.5996923270768
 20
109.6166631424656
 30
0.0
 11
-211.618692327077
 21
109.6076631424656
 31
0.0
  0
LINE
  5
1DC
330
BC
100
AcDbEntity
  8
LAYER0003
  6
CONTINUOUS
 62
     7
100
AcDbLine
 10
-211.618692327077
 20
109.6076631424656
 30
0.0
 11
-211.637692327077
 21
109.5986631424656
 31
0.0
  0
LINE
  5
1DD
330
BC
100
AcDbEntity
  8
LAYER0003
  6
CONTINUOUS
 62
     7
100
AcDbLine
 10
-211.637692327077
 20
109.5986631424656
 30
0.0
 11
-211.6566923270772
 21
109.5896631424656
 31
0.0
  0
LINE
  5
1DE
330
BC
100
AcDbEntity
  8
LAYER0003
  6
CONTINUOUS
 62
     7
100
AcDbLine
 10
-211.6566923270772
 20
109.5896631424656
 30
0.0
 11
-211.675692327077
 21
109.5796631424656
 31
0.0
  0
LINE
  5
1DF
330
BC
100
AcDbEntity
  8
LAYER0003
  6
CONTINUOUS
 62
     7
100
AcDbLine
 10
-211.675692327077
 20
109.5796631424656
 30
0.0
 11
-211.694692327077
 21
109.5696631424656
 31
0.0
  0
LINE
  5
1E0
330
BC
100
AcDbEntity
  8
LAYER0003
  6
CONTINUOUS
 62
     7
100
AcDbLine
 10
-211.694692327077
 20
109.5696631424656
 30
0.0
 11
-211.7126923270769
 21
109.5596631424656
 31
0.0
  0
LINE
  5
1E1
330
BC
100
AcDbEntity
  8
LAYER0003
  6
CONTINUOUS
 62
     7
100
AcDbLine
 10
-211.7126923270769
 20
109.5596631424656
 30
0.0
 11
-211.7316923270769
 21
109.5486631424657
 31
0.0
  0
LINE
  5
1E2
330
BC
100
AcDbEntity
  8
LAYER0003
  6
CONTINUOUS
 62
     7
100
AcDbLine
 10
-211.7316923270769
 20
109.5486631424657
 30
0.0
 11
-211.7496923270769
 21
109.5376631424657
 31
0.0
  0
LINE
  5
1E3
330
BC
100
AcDbEntity
  8
LAYER0003
  6
CONTINUOUS
 62
     7
100
AcDbLine
 10
-211.7496923270769
 20
109.5376631424657
 30
0.0
 11
-211.7676923270768
 21
109.5266631424657
 31
0.0
  0
LINE
  5
1E4
330
BC
100
AcDbEntity
  8
LAYER0003
  6
CONTINUOUS
 62
     7
100
AcDbLine
 10
-211.7676923270768
 20
109.5266631424657
 30
0.0
 11
-211.7856923270766
 21
109.5146631424658
 31
0.0
  0
LINE
  5
1E5
330
BC
100
AcDbEntity
  8
LAYER0003
  6
CONTINUOUS
 62
     7
100
AcDbLine
 10
-211.7856923270766
 20
109.5146631424658
 30
0.0
 11
-211.8046923270769
 21
109.5036631424658
 31
0.0
  0
LINE
  5
1E6
330
BC
100
AcDbEntity
  8
LAYER0003
  6
CONTINUOUS
 62
     7
100
AcDbLine
 10
-211.8046923270769
 20
109.5036631424658
 30
0.0
 11
-211.8226923270769
 21
109.4906631424657
 31
0.0
  0
LINE
  5
1E7
330
BC
100
AcDbEntity
  8
LAYER0003
  6
CONTINUOUS
 62
     7
100
AcDbLine
 10
-211.8226923270769
 20
109.4906631424657
 30
0.0
 11
-211.839692327077
 21
109.4786631424657
 31
0.0
  0
LINE
  5
1E8
330
BC
100
AcDbEntity
  8
LAYER0003
  6
CONTINUOUS
 62
     7
100
AcDbLine
 10
-211.839692327077
 20
109.4786631424657
 30
0.0
 11
-211.857692327077
 21
109.4656631424658
 31
0.0
  0
LINE
  5
1E9
330
BC
100
AcDbEntity
  8
LAYER0003
  6
CONTINUOUS
 62
     7
100
AcDbLine
 10
-211.857692327077
 20
109.4656631424658
 30
0.0
 11
-211.8756923270769
 21
109.4526631424657
 31
0.0
  0
LINE
  5
1EA
330
BC
100
AcDbEntity
  8
LAYER0003
  6
CONTINUOUS
 62
     7
100
AcDbLine
 10
-211.8756923270769
 20
109.4526631424657
 30
0.0
 11
-211.8926923270768
 21
109.4386631424658
 31
0.0
  0
LINE
  5
1EB
330
BC
100
AcDbEntity
  8
LAYER0003
  6
CONTINUOUS
 62
     7
100
AcDbLine
 10
-211.8926923270768
 20
109.4386631424658
 30
0.0
 11
-211.9106923270766
 21
109.4256631424656
 31
0.0
  0
LINE
  5
1EC
330
BC
100
AcDbEntity
  8
LAYER0003
  6
CONTINUOUS
 62
     7
100
AcDbLine
 10
-211.9106923270766
 20
109.4256631424656
 30
0.0
 11
-211.9276923270769
 21
109.4116631424657
 31
0.0
  0
LINE
  5
1ED
330
BC
100
AcDbEntity
  8
LAYER0003
  6
CONTINUOUS
 62
     7
100
AcDbLine
 10
-211.9276923270769
 20
109.4116631424657
 30
0.0
 11
-211.944692327077
 21
109.3966631424656
 31
0.0
  0
LINE
  5
1EE
330
BC
100
AcDbEntity
  8
LAYER0003
  6
CONTINUOUS
 62
     7
100
AcDbLine
 10
-211.944692327077
 20
109.3966631424656
 30
0.0
 11
-211.961692327077
 21
109.3816631424657
 31
0.0
  0
LINE
  5
1EF
330
BC
100
AcDbEntity
  8
LAYER0003
  6
CONTINUOUS
 62
     7
100
AcDbLine
 10
-211.961692327077
 20
109.3816631424657
 30
0.0
 11
-211.9786923270769
 21
109.3676631424656
 31
0.0
  0
LINE
  5
1F0
330
BC
100
AcDbEntity
  8
LAYER0003
  6
CONTINUOUS
 62
     7
100
AcDbLine
 10
-211.9786923270769
 20
109.3676631424656
 30
0.0
 11
-211.9956923270769
 21
109.3516631424658
 31
0.0
  0
LINE
  5
1F1
330
BC
100
AcDbEntity
  8
LAYER0003
  6
CONTINUOUS
 62
     7
100
AcDbLine
 10
-211.9956923270769
 20
109.3516631424658
 30
0.0
 11
-212.012692327077
 21
109.3366631424657
 31
0.0
  0
LINE
  5
1F2
330
BC
100
AcDbEntity
  8
LAYER0003
  6
CONTINUOUS
 62
     7
100
AcDbLine
 10
-212.012692327077
 20
109.3366631424657
 30
0.0
 11
-212.0286923270769
 21
109.3206631424658
 31
0.0
  0
LINE
  5
1F3
330
BC
100
AcDbEntity
  8
LAYER0003
  6
CONTINUOUS
 62
     7
100
AcDbLine
 10
-212.0286923270769
 20
109.3206631424658
 30
0.0
 11
-212.0456923270769
 21
109.3046631424657
 31
0.0
  0
LINE
  5
1F4
330
BC
100
AcDbEntity
  8
LAYER0003
  6
CONTINUOUS
 62
     7
100
AcDbLine
 10
-212.0456923270769
 20
109.3046631424657
 30
0.0
 11
-212.0616923270769
 21
109.2876631424657
 31
0.0
  0
LINE
  5
1F5
330
BC
100
AcDbEntity
  8
LAYER0003
  6
CONTINUOUS
 62
     7
100
AcDbLine
 10
-212.0616923270769
 20
109.2876631424657
 30
0.0
 11
-212.0776923270769
 21
109.2716631424656
 31
0.0
  0
LINE
  5
1F6
330
BC
100
AcDbEntity
  8
LAYER0003
  6
CONTINUOUS
 62
     7
100
AcDbLine
 10
-212.0776923270769
 20
109.2716631424656
 30
0.0
 11
-212.0936923270769
 21
109.2546631424656
 31
0.0
  0
LINE
  5
1F7
330
BC
100
AcDbEntity
  8
LAYER0003
  6
CONTINUOUS
 62
     7
100
AcDbLine
 10
-212.0936923270769
 20
109.2546631424656
 30
0.0
 11
-212.1096923270769
 21
109.2376631424657
 31
0.0
  0
LINE
  5
1F8
330
BC
100
AcDbEntity
  8
LAYER0003
  6
CONTINUOUS
 62
     7
100
AcDbLine
 10
-212.1096923270769
 20
109.2376631424657
 30
0.0
 11
-212.1246923270769
 21
109.2196631424657
 31
0.0
  0
LINE
  5
1F9
330
BC
100
AcDbEntity
  8
LAYER0003
  6
CONTINUOUS
 62
     7
100
AcDbLine
 10
-212.1246923270769
 20
109.2196631424657
 30
0.0
 11
-212.1406923270769
 21
109.2016631424657
 31
0.0
  0
LINE
  5
1FA
330
BC
100
AcDbEntity
  8
LAYER0003
  6
CONTINUOUS
 62
     7
100
AcDbLine
 10
-212.1406923270769
 20
109.2016631424657
 30
0.0
 11
-212.155692327077
 21
109.1836631424656
 31
0.0
  0
LINE
  5
1FB
330
BC
100
AcDbEntity
  8
LAYER0003
  6
CONTINUOUS
 62
     7
100
AcDbLine
 10
-212.155692327077
 20
109.1836631424656
 30
0.0
 11
-212.1706923270769
 21
109.1656631424656
 31
0.0
  0
LINE
  5
1FC
330
BC
100
AcDbEntity
  8
LAYER0003
  6
CONTINUOUS
 62
     7
100
AcDbLine
 10
-212.1706923270769
 20
109.1656631424656
 30
0.0
 11
-212.1866923270769
 21
109.1466631424656
 31
0.0
  0
LINE
  5
1FD
330
BC
100
AcDbEntity
  8
LAYER0003
  6
CONTINUOUS
 62
     7
100
AcDbLine
 10
-212.1866923270769
 20
109.1466631424656
 30
0.0
 11
-212.2006923270768
 21
109.1286631424658
 31
0.0
  0
LINE
  5
1FE
330
BC
100
AcDbEntity
  8
LAYER0003
  6
CONTINUOUS
 62
     7
100
AcDbLine
 10
-212.2006923270768
 20
109.1286631424658
 30
0.0
 11
-212.2156923270768
 21
109.1086631424656
 31
0.0
  0
LINE
  5
1FF
330
BC
100
AcDbEntity
  8
LAYER0003
  6
CONTINUOUS
 62
     7
100
AcDbLine
 10
-212.2156923270768
 20
109.1086631424656
 30
0.0
 11
-212.2306923270769
 21
109.0896631424656
 31
0.0
  0
LINE
  5
200
330
BC
100
AcDbEntity
  8
LAYER0003
  6
CONTINUOUS
 62
     7
100
AcDbLine
 10
-212.2306923270769
 20
109.0896631424656
 30
0.0
 11
-212.2446923270769
 21
109.0706631424658
 31
0.0
  0
LINE
  5
201
330
BC
100
AcDbEntity
  8
LAYER0003
  6
CONTINUOUS
 62
     7
100
AcDbLine
 10
-212.2446923270769
 20
109.0706631424658
 30
0.0
 11
-212.2586923270769
 21
109.0506631424656
 31
0.0
  0
LINE
  5
202
330
BC
100
AcDbEntity
  8
LAYER0003
  6
CONTINUOUS
 62
     7
100
AcDbLine
 10
-212.2586923270769
 20
109.0506631424656
 30
0.0
 11
-212.272692327077
 21
109.0306631424656
 31
0.0
  0
LINE
  5
203
330
BC
100
AcDbEntity
  8
LAYER0003
  6
CONTINUOUS
 62
     7
100
AcDbLine
 10
-212.272692327077
 20
109.0306631424656
 30
0.0
 11
-212.2866923270771
 21
109.0096631424657
 31
0.0
  0
LINE
  5
204
330
BC
100
AcDbEntity
  8
LAYER0003
  6
CONTINUOUS
 62
     7
100
AcDbLine
 10
-212.2866923270771
 20
109.0096631424657
 30
0.0
 11
-212.300692327077
 21
108.9896631424657
 31
0.0
  0
LINE
  5
205
330
BC
100
AcDbEntity
  8
LAYER0003
  6
CONTINUOUS
 62
     7
100
AcDbLine
 10
-212.300692327077
 20
108.9896631424657
 30
0.0
 11
-212.3136923270769
 21
108.9686631424657
 31
0.0
  0
LINE
  5
206
330
BC
100
AcDbEntity
  8
LAYER0003
  6
CONTINUOUS
 62
     7
100
AcDbLine
 10
-212.3136923270769
 20
108.9686631424657
 30
0.0
 11
-212.3276923270769
 21
108.9476631424655
 31
0.0
  0
LINE
  5
207
330
BC
100
AcDbEntity
  8
LAYER0003
  6
CONTINUOUS
 62
     7
100
AcDbLine
 10
-212.3276923270769
 20
108.9476631424655
 30
0.0
 11
-212.3406923270769
 21
108.9266631424656
 31
0.0
  0
LINE
  5
208
330
BC
100
AcDbEntity
  8
LAYER0003
  6
CONTINUOUS
 62
     7
100
AcDbLine
 10
-212.3406923270769
 20
108.9266631424656
 30
0.0
 11
-212.3536923270769
 21
108.9046631424657
 31
0.0
  0
LINE
  5
209
330
BC
100
AcDbEntity
  8
LAYER0003
  6
CONTINUOUS
 62
     7
100
AcDbLine
 10
-212.3536923270769
 20
108.9046631424657
 30
0.0
 11
-212.3656923270769
 21
108.8826631424657
 31
0.0
  0
LINE
  5
20A
330
BC
100
AcDbEntity
  8
LAYER0003
  6
CONTINUOUS
 62
     7
100
AcDbLine
 10
-212.3656923270769
 20
108.8826631424657
 30
0.0
 11
-212.3786923270769
 21
108.8616631424658
 31
0.0
  0
LINE
  5
20B
330
BC
100
AcDbEntity
  8
LAYER0003
  6
CONTINUOUS
 62
     7
100
AcDbLine
 10
-212.3786923270769
 20
108.8616631424658
 30
0.0
 11
-212.3906923270769
 21
108.8386631424656
 31
0.0
  0
LINE
  5
20C
330
BC
100
AcDbEntity
  8
LAYER0003
  6
CONTINUOUS
 62
     7
100
AcDbLine
 10
-212.3906923270769
 20
108.8386631424656
 30
0.0
 11
-212.4036923270769
 21
108.8166631424657
 31
0.0
  0
LINE
  5
20D
330
BC
100
AcDbEntity
  8
LAYER0003
  6
CONTINUOUS
 62
     7
100
AcDbLine
 10
-212.4036923270769
 20
108.8166631424657
 30
0.0
 11
-212.4146923270769
 21
108.7936631424658
 31
0.0
  0
LINE
  5
20E
330
BC
100
AcDbEntity
  8
LAYER0003
  6
CONTINUOUS
 62
     7
100
AcDbLine
 10
-212.4146923270769
 20
108.7936631424658
 30
0.0
 11
-212.4266923270769
 21
108.7716631424656
 31
0.0
  0
LINE
  5
20F
330
BC
100
AcDbEntity
  8
LAYER0003
  6
CONTINUOUS
 62
     7
100
AcDbLine
 10
-212.4266923270769
 20
108.7716631424656
 30
0.0
 11
-212.4386923270769
 21
108.7486631424657
 31
0.0
  0
LINE
  5
210
330
BC
100
AcDbEntity
  8
LAYER0003
  6
CONTINUOUS
 62
     7
100
AcDbLine
 10
-212.4386923270769
 20
108.7486631424657
 30
0.0
 11
-212.4496923270769
 21
108.7256631424656
 31
0.0
  0
LINE
  5
211
330
BC
100
AcDbEntity
  8
LAYER0003
  6
CONTINUOUS
 62
     7
100
AcDbLine
 10
-212.4496923270769
 20
108.7256631424656
 30
0.0
 11
-212.4606923270769
 21
108.7016631424657
 31
0.0
  0
LINE
  5
212
330
BC
100
AcDbEntity
  8
LAYER0003
  6
CONTINUOUS
 62
     7
100
AcDbLine
 10
-212.4606923270769
 20
108.7016631424657
 30
0.0
 11
-212.4716923270769
 21
108.6786631424658
 31
0.0
  0
LINE
  5
213
330
BC
100
AcDbEntity
  8
LAYER0003
  6
CONTINUOUS
 62
     7
100
AcDbLine
 10
-212.4716923270769
 20
108.6786631424658
 30
0.0
 11
-212.482692327077
 21
108.6546631424657
 31
0.0
  0
LINE
  5
214
330
BC
100
AcDbEntity
  8
LAYER0003
  6
CONTINUOUS
 62
     7
100
AcDbLine
 10
-212.482692327077
 20
108.6546631424657
 30
0.0
 11
-212.493692327077
 21
108.6306631424658
 31
0.0
  0
LINE
  5
215
330
BC
100
AcDbEntity
  8
LAYER0003
  6
CONTINUOUS
 62
     7
100
AcDbLine
 10
-212.493692327077
 20
108.6306631424658
 30
0.0
 11
-212.5036923270769
 21
108.6066631424656
 31
0.0
  0
LINE
  5
216
330
BC
100
AcDbEntity
  8
LAYER0003
  6
CONTINUOUS
 62
     7
100
AcDbLine
 10
-212.5036923270769
 20
108.6066631424656
 30
0.0
 11
-212.5136923270769
 21
108.5826631424655
 31
0.0
  0
LINE
  5
217
330
BC
100
AcDbEntity
  8
LAYER0003
  6
CONTINUOUS
 62
     7
100
AcDbLine
 10
-212.5136923270769
 20
108.5826631424655
 30
0.0
 11
-212.5236923270769
 21
108.5576631424657
 31
0.0
  0
LINE
  5
218
330
BC
100
AcDbEntity
  8
LAYER0003
  6
CONTINUOUS
 62
     7
100
AcDbLine
 10
-212.5236923270769
 20
108.5576631424657
 30
0.0
 11
-212.5336923270769
 21
108.5326631424658
 31
0.0
  0
LINE
  5
219
330
BC
100
AcDbEntity
  8
LAYER0003
  6
CONTINUOUS
 62
     7
100
AcDbLine
 10
-212.5336923270769
 20
108.5326631424658
 30
0.0
 11
-212.5436923270769
 21
108.5086631424657
 31
0.0
  0
LINE
  5
21A
330
BC
100
AcDbEntity
  8
LAYER0003
  6
CONTINUOUS
 62
     7
100
AcDbLine
 10
-212.5436923270769
 20
108.5086631424657
 30
0.0
 11
-212.5526923270769
 21
108.4836631424656
 31
0.0
  0
LINE
  5
21B
330
BC
100
AcDbEntity
  8
LAYER0003
  6
CONTINUOUS
 62
     7
100
AcDbLine
 10
-212.5526923270769
 20
108.4836631424656
 30
0.0
 11
-212.5616923270769
 21
108.4576631424658
 31
0.0
  0
LINE
  5
21C
330
BC
100
AcDbEntity
  8
LAYER0003
  6
CONTINUOUS
 62
     7
100
AcDbLine
 10
-212.5616923270769
 20
108.4576631424658
 30
0.0
 11
-212.570692327077
 21
108.4326631424657
 31
0.0
  0
LINE
  5
21D
330
BC
100
AcDbEntity
  8
LAYER0003
  6
CONTINUOUS
 62
     7
100
AcDbLine
 10
-212.570692327077
 20
108.4326631424657
 30
0.0
 11
-212.578692327077
 21
108.4076631424658
 31
0.0
  0
LINE
  5
21E
330
BC
100
AcDbEntity
  8
LAYER0003
  6
CONTINUOUS
 62
     7
100
AcDbLine
 10
-212.578692327077
 20
108.4076631424658
 30
0.0
 11
-212.5876923270769
 21
108.3816631424657
 31
0.0
  0
LINE
  5
21F
330
BC
100
AcDbEntity
  8
LAYER0003
  6
CONTINUOUS
 62
     7
100
AcDbLine
 10
-212.5876923270769
 20
108.3816631424657
 30
0.0
 11
-212.5956923270769
 21
108.3556631424657
 31
0.0
  0
LINE
  5
220
330
BC
100
AcDbEntity
  8
LAYER0003
  6
CONTINUOUS
 62
     7
100
AcDbLine
 10
-212.5956923270769
 20
108.3556631424657
 30
0.0
 11
-212.6036923270769
 21
108.3306631424656
 31
0.0
  0
LINE
  5
221
330
BC
100
AcDbEntity
  8
LAYER0003
  6
CONTINUOUS
 62
     7
100
AcDbLine
 10
-212.6036923270769
 20
108.3306631424656
 30
0.0
 11
-212.6116923270769
 21
108.3046631424657
 31
0.0
  0
LINE
  5
222
330
BC
100
AcDbEntity
  8
LAYER0003
  6
CONTINUOUS
 62
     7
100
AcDbLine
 10
-212.6116923270769
 20
108.3046631424657
 30
0.0
 11
-212.618692327077
 21
108.2776631424657
 31
0.0
  0
LINE
  5
223
330
BC
100
AcDbEntity
  8
LAYER0003
  6
CONTINUOUS
 62
     7
100
AcDbLine
 10
-212.618692327077
 20
108.2776631424657
 30
0.0
 11
-212.626692327077
 21
108.2516631424656
 31
0.0
  0
LINE
  5
224
330
BC
100
AcDbEntity
  8
LAYER0003
  6
CONTINUOUS
 62
     7
100
AcDbLine
 10
-212.626692327077
 20
108.2516631424656
 30
0.0
 11
-212.6336923270769
 21
108.2256631424656
 31
0.0
  0
LINE
  5
225
330
BC
100
AcDbEntity
  8
LAYER0003
  6
CONTINUOUS
 62
     7
100
AcDbLine
 10
-212.6336923270769
 20
108.2256631424656
 30
0.0
 11
-212.6396923270769
 21
108.1986631424657
 31
0.0
  0
LINE
  5
226
330
BC
100
AcDbEntity
  8
LAYER0003
  6
CONTINUOUS
 62
     7
100
AcDbLine
 10
-212.6396923270769
 20
108.1986631424657
 30
0.0
 11
-212.646692327077
 21
108.1726631424657
 31
0.0
  0
LINE
  5
227
330
BC
100
AcDbEntity
  8
LAYER0003
  6
CONTINUOUS
 62
     7
100
AcDbLine
 10
-212.646692327077
 20
108.1726631424657
 30
0.0
 11
-212.6526923270769
 21
108.1456631424656
 31
0.0
  0
LINE
  5
228
330
BC
100
AcDbEntity
  8
LAYER0003
  6
CONTINUOUS
 62
     7
100
AcDbLine
 10
-212.6526923270769
 20
108.1456631424656
 30
0.0
 11
-212.6596923270769
 21
108.1186631424656
 31
0.0
  0
LINE
  5
229
330
BC
100
AcDbEntity
  8
LAYER0003
  6
CONTINUOUS
 62
     7
100
AcDbLine
 10
-212.6596923270769
 20
108.1186631424656
 30
0.0
 11
-212.665692327077
 21
108.0916631424655
 31
0.0
  0
LINE
  5
22A
330
BC
100
AcDbEntity
  8
LAYER0003
  6
CONTINUOUS
 62
     7
100
AcDbLine
 10
-212.665692327077
 20
108.0916631424655
 30
0.0
 11
-212.6706923270769
 21
108.0646631424657
 31
0.0
  0
LINE
  5
22B
330
BC
100
AcDbEntity
  8
LAYER0003
  6
CONTINUOUS
 62
     7
100
AcDbLine
 10
-212.6706923270769
 20
108.0646631424657
 30
0.0
 11
-212.6766923270769
 21
108.0376631424657
 31
0.0
  0
LINE
  5
22C
330
BC
100
AcDbEntity
  8
LAYER0003
  6
CONTINUOUS
 62
     7
100
AcDbLine
 10
-212.6766923270769
 20
108.0376631424657
 30
0.0
 11
-212.6816923270769
 21
108.0106631424656
 31
0.0
  0
LINE
  5
22D
330
BC
100
AcDbEntity
  8
LAYER0003
  6
CONTINUOUS
 62
     7
100
AcDbLine
 10
-212.6816923270769
 20
108.0106631424656
 30
0.0
 11
-212.6866923270769
 21
107.9826631424656
 31
0.0
  0
LINE
  5
22E
330
BC
100
AcDbEntity
  8
LAYER0003
  6
CONTINUOUS
 62
     7
100
AcDbLine
 10
-212.6866923270769
 20
107.9826631424656
 30
0.0
 11
-212.6916923270769
 21
107.9556631424656
 31
0.0
  0
LINE
  5
22F
330
BC
100
AcDbEntity
  8
LAYER0003
  6
CONTINUOUS
 62
     7
100
AcDbLine
 10
-212.6916923270769
 20
107.9556631424656
 30
0.0
 11
-212.695692327077
 21
107.9276631424658
 31
0.0
  0
LINE
  5
230
330
BC
100
AcDbEntity
  8
LAYER0003
  6
CONTINUOUS
 62
     7
100
AcDbLine
 10
-212.695692327077
 20
107.9276631424658
 30
0.0
 11
-212.6996923270769
 21
107.9006631424657
 31
0.0
  0
LINE
  5
231
330
BC
100
AcDbEntity
  8
LAYER0003
  6
CONTINUOUS
 62
     7
100
AcDbLine
 10
-212.6996923270769
 20
107.9006631424657
 30
0.0
 11
-212.703692327077
 21
107.8726631424657
 31
0.0
  0
LINE
  5
232
330
BC
100
AcDbEntity
  8
LAYER0003
  6
CONTINUOUS
 62
     7
100
AcDbLine
 10
-212.703692327077
 20
107.8726631424657
 30
0.0
 11
-212.7076923270769
 21
107.8446631424657
 31
0.0
  0
LINE
  5
233
330
BC
100
AcDbEntity
  8
LAYER0003
  6
CONTINUOUS
 62
     7
100
AcDbLine
 10
-212.7076923270769
 20
107.8446631424657
 30
0.0
 11
-212.711692327077
 21
107.8176631424657
 31
0.0
  0
LINE
  5
234
330
BC
100
AcDbEntity
  8
LAYER0003
  6
CONTINUOUS
 62
     7
100
AcDbLine
 10
-212.711692327077
 20
107.8176631424657
 30
0.0
 11
-212.714692327077
 21
107.7896631424656
 31
0.0
  0
LINE
  5
235
330
BC
100
AcDbEntity
  8
LAYER0003
  6
CONTINUOUS
 62
     7
100
AcDbLine
 10
-212.714692327077
 20
107.7896631424656
 30
0.0
 11
-212.7176923270769
 21
107.7616631424656
 31
0.0
  0
LINE
  5
236
330
BC
100
AcDbEntity
  8
LAYER0003
  6
CONTINUOUS
 62
     7
100
AcDbLine
 10
-212.7176923270769
 20
107.7616631424656
 30
0.0
 11
-212.7206923270769
 21
107.7336631424656
 31
0.0
  0
LINE
  5
237
330
BC
100
AcDbEntity
  8
LAYER0003
  6
CONTINUOUS
 62
     7
100
AcDbLine
 10
-212.7206923270769
 20
107.7336631424656
 30
0.0
 11
-212.722692327077
 21
107.7056631424656
 31
0.0
  0
LINE
  5
238
330
BC
100
AcDbEntity
  8
LAYER0003
  6
CONTINUOUS
 62
     7
100
AcDbLine
 10
-212.722692327077
 20
107.7056631424656
 30
0.0
 11
-212.7256923270769
 21
107.6776631424658
 31
0.0
  0
LINE
  5
239
330
BC
100
AcDbEntity
  8
LAYER0003
  6
CONTINUOUS
 62
     7
100
AcDbLine
 10
-212.7256923270769
 20
107.6776631424658
 30
0.0
 11
-212.7276923270769
 21
107.6496631424658
 31
0.0
  0
LINE
  5
23A
330
BC
100
AcDbEntity
  8
LAYER0003
  6
CONTINUOUS
 62
     7
100
AcDbLine
 10
-212.7276923270769
 20
107.6496631424658
 30
0.0
 11
-212.7296923270769
 21
107.6216631424657
 31
0.0
  0
LINE
  5
23B
330
BC
100
AcDbEntity
  8
LAYER0003
  6
CONTINUOUS
 62
     7
100
AcDbLine
 10
-212.7296923270769
 20
107.6216631424657
 30
0.0
 11
-212.7306923270768
 21
107.5936631424657
 31
0.0
  0
LINE
  5
23C
330
BC
100
AcDbEntity
  8
LAYER0003
  6
CONTINUOUS
 62
     7
100
AcDbLine
 10
-212.7306923270768
 20
107.5936631424657
 30
0.0
 11
-212.7316923270769
 21
107.5646631424657
 31
0.0
  0
LINE
  5
23D
330
BC
100
AcDbEntity
  8
LAYER0003
  6
CONTINUOUS
 62
     7
100
AcDbLine
 10
-212.7316923270769
 20
107.5646631424657
 30
0.0
 11
-212.733692327077
 21
107.5366631424657
 31
0.0
  0
LINE
  5
23E
330
BC
100
AcDbEntity
  8
LAYER0003
  6
CONTINUOUS
 62
     7
100
AcDbLine
 10
-212.733692327077
 20
107.5366631424657
 30
0.0
 11
-212.733692327077
 21
107.5086631424657
 31
0.0
  0
LINE
  5
23F
330
BC
100
AcDbEntity
  8
LAYER0003
  6
CONTINUOUS
 62
     7
100
AcDbLine
 10
-212.733692327077
 20
107.5086631424657
 30
0.0
 11
-212.7346923270769
 21
107.4806631424657
 31
0.0
  0
LINE
  5
240
330
BC
100
AcDbEntity
  8
LAYER0003
  6
CONTINUOUS
 62
     7
100
AcDbLine
 10
-212.7346923270769
 20
107.4806631424657
 30
0.0
 11
-212.7346923270769
 21
107.4526631424657
 31
0.0
  0
LINE
  5
241
330
BC
100
AcDbEntity
  8
LAYER0003
  6
CONTINUOUS
 62
     7
100
AcDbLine
 10
-212.7346923270769
 20
107.4526631424657
 30
0.0
 11
-212.7356923270769
 21
107.4236631424657
 31
0.0
  0
ENDBLK
  5
BE
330
BC
100
AcDbEntity
  8
0
100
AcDbBlockEnd
  0
BLOCK
  5
C0
330
BF
100
AcDbEntity
  8
0
100
AcDbBlockBegin
  2
DC_GROUP_4
 70
     0
 10
0.0
 20
0.0
 30
0.0
  3
DC_GROUP_4
  1

  0
LINE
  5
242
330
BF
100
AcDbEntity
  8
LAYER0003
  6
CONTINUOUS
 62
     7
100
AcDbLine
 10
-211.108692327077
 20
94.72366314246558
 30
0.0
 11
-211.1286923270769
 21
94.72466314246579
 31
0.0
  0
LINE
  5
243
330
BF
100
AcDbEntity
  8
LAYER0003
  6
CONTINUOUS
 62
     7
100
AcDbLine
 10
-211.1286923270769
 20
94.72466314246579
 30
0.0
 11
-211.1486923270769
 21
94.72466314246579
 31
0.0
  0
LINE
  5
244
330
BF
100
AcDbEntity
  8
LAYER0003
  6
CONTINUOUS
 62
     7
100
AcDbLine
 10
-211.1486923270769
 20
94.72466314246579
 30
0.0
 11
-211.1686923270769
 21
94.72566314246554
 31
0.0
  0
LINE
  5
245
330
BF
100
AcDbEntity
  8
LAYER0003
  6
CONTINUOUS
 62
     7
100
AcDbLine
 10
-211.1686923270769
 20
94.72566314246554
 30
0.0
 11
-211.1886923270769
 21
94.72666314246574
 31
0.0
  0
LINE
  5
246
330
BF
100
AcDbEntity
  8
LAYER0003
  6
CONTINUOUS
 62
     7
100
AcDbLine
 10
-211.1886923270769
 20
94.72666314246574
 30
0.0
 11
-211.2086923270769
 21
94.72866314246569
 31
0.0
  0
LINE
  5
247
330
BF
100
AcDbEntity
  8
LAYER0003
  6
CONTINUOUS
 62
     7
100
AcDbLine
 10
-211.2086923270769
 20
94.72866314246569
 30
0.0
 11
-211.2286923270769
 21
94.73066314246564
 31
0.0
  0
LINE
  5
248
330
BF
100
AcDbEntity
  8
LAYER0003
  6
CONTINUOUS
 62
     7
100
AcDbLine
 10
-211.2286923270769
 20
94.73066314246564
 30
0.0
 11
-211.2486923270768
 21
94.7326631424656
 31
0.0
  0
LINE
  5
249
330
BF
100
AcDbEntity
  8
LAYER0003
  6
CONTINUOUS
 62
     7
100
AcDbLine
 10
-211.2486923270768
 20
94.7326631424656
 30
0.0
 11
-211.2686923270769
 21
94.73466314246555
 31
0.0
  0
LINE
  5
24A
330
BF
100
AcDbEntity
  8
LAYER0003
  6
CONTINUOUS
 62
     7
100
AcDbLine
 10
-211.2686923270769
 20
94.73466314246555
 30
0.0
 11
-211.2876923270769
 21
94.7376631424657
 31
0.0
  0
LINE
  5
24B
330
BF
100
AcDbEntity
  8
LAYER0003
  6
CONTINUOUS
 62
     7
100
AcDbLine
 10
-211.2876923270769
 20
94.7376631424657
 30
0.0
 11
-211.3076923270769
 21
94.74166314246561
 31
0.0
  0
LINE
  5
24C
330
BF
100
AcDbEntity
  8
LAYER0003
  6
CONTINUOUS
 62
     7
100
AcDbLine
 10
-211.3076923270769
 20
94.74166314246561
 30
0.0
 11
-211.3276923270769
 21
94.74466314246577
 31
0.0
  0
LINE
  5
24D
330
BF
100
AcDbEntity
  8
LAYER0003
  6
CONTINUOUS
 62
     7
100
AcDbLine
 10
-211.3276923270769
 20
94.74466314246577
 30
0.0
 11
-211.347692327077
 21
94.74866314246567
 31
0.0
  0
LINE
  5
24E
330
BF
100
AcDbEntity
  8
LAYER0003
  6
CONTINUOUS
 62
     7
100
AcDbLine
 10
-211.347692327077
 20
94.74866314246567
 30
0.0
 11
-211.367692327077
 21
94.75366314246578
 31
0.0
  0
LINE
  5
24F
330
BF
100
AcDbEntity
  8
LAYER0003
  6
CONTINUOUS
 62
     7
100
AcDbLine
 10
-211.367692327077
 20
94.75366314246578
 30
0.0
 11
-211.386692327077
 21
94.75766314246569
 31
0.0
  0
LINE
  5
250
330
BF
100
AcDbEntity
  8
LAYER0003
  6
CONTINUOUS
 62
     7
100
AcDbLine
 10
-211.386692327077
 20
94.75766314246569
 30
0.0
 11
-211.406692327077
 21
94.7626631424658
 31
0.0
  0
LINE
  5
251
330
BF
100
AcDbEntity
  8
LAYER0003
  6
CONTINUOUS
 62
     7
100
AcDbLine
 10
-211.406692327077
 20
94.7626631424658
 30
0.0
 11
-211.425692327077
 21
94.76866314246566
 31
0.0
  0
LINE
  5
252
330
BF
100
AcDbEntity
  8
LAYER0003
  6
CONTINUOUS
 62
     7
100
AcDbLine
 10
-211.425692327077
 20
94.76866314246566
 30
0.0
 11
-211.445692327077
 21
94.77366314246576
 31
0.0
  0
LINE
  5
253
330
BF
100
AcDbEntity
  8
LAYER0003
  6
CONTINUOUS
 62
     7
100
AcDbLine
 10
-211.445692327077
 20
94.77366314246576
 30
0.0
 11
-211.4656923270769
 21
94.77966314246562
 31
0.0
  0
LINE
  5
254
330
BF
100
AcDbEntity
  8
LAYER0003
  6
CONTINUOUS
 62
     7
100
AcDbLine
 10
-211.4656923270769
 20
94.77966314246562
 30
0.0
 11
-211.4846923270769
 21
94.78666314246568
 31
0.0
  0
LINE
  5
255
330
BF
100
AcDbEntity
  8
LAYER0003
  6
CONTINUOUS
 62
     7
100
AcDbLine
 10
-211.4846923270769
 20
94.78666314246568
 30
0.0
 11
-211.5036923270769
 21
94.79266314246554
 31
0.0
  0
LINE
  5
256
330
BF
100
AcDbEntity
  8
LAYER0003
  6
CONTINUOUS
 62
     7
100
AcDbLine
 10
-211.5036923270769
 20
94.79266314246554
 30
0.0
 11
-211.5236923270769
 21
94.7996631424656
 31
0.0
  0
LINE
  5
257
330
BF
100
AcDbEntity
  8
LAYER0003
  6
CONTINUOUS
 62
     7
100
AcDbLine
 10
-211.5236923270769
 20
94.7996631424656
 30
0.0
 11
-211.5426923270769
 21
94.80766314246564
 31
0.0
  0
LINE
  5
258
330
BF
100
AcDbEntity
  8
LAYER0003
  6
CONTINUOUS
 62
     7
100
AcDbLine
 10
-211.5426923270769
 20
94.80766314246564
 30
0.0
 11
-211.5616923270769
 21
94.8146631424657
 31
0.0
  0
LINE
  5
259
330
BF
100
AcDbEntity
  8
LAYER0003
  6
CONTINUOUS
 62
     7
100
AcDbLine
 10
-211.5616923270769
 20
94.8146631424657
 30
0.0
 11
-211.5806923270769
 21
94.82266314246552
 31
0.0
  0
LINE
  5
25A
330
BF
100
AcDbEntity
  8
LAYER0003
  6
CONTINUOUS
 62
     7
100
AcDbLine
 10
-211.5806923270769
 20
94.82266314246552
 30
0.0
 11
-211.5996923270768
 21
94.83166314246576
 31
0.0
  0
LINE
  5
25B
330
BF
100
AcDbEntity
  8
LAYER0003
  6
CONTINUOUS
 62
     7
100
AcDbLine
 10
-211.5996923270768
 20
94.83166314246576
 30
0.0
 11
-211.618692327077
 21
94.83966314246557
 31
0.0
  0
LINE
  5
25C
330
BF
100
AcDbEntity
  8
LAYER0003
  6
CONTINUOUS
 62
     7
100
AcDbLine
 10
-211.618692327077
 20
94.83966314246557
 30
0.0
 11
-211.637692327077
 21
94.84866314246558
 31
0.0
  0
LINE
  5
25D
330
BF
100
AcDbEntity
  8
LAYER0003
  6
CONTINUOUS
 62
     7
100
AcDbLine
 10
-211.637692327077
 20
94.84866314246558
 30
0.0
 11
-211.6566923270772
 21
94.85866314246557
 31
0.0
  0
LINE
  5
25E
330
BF
100
AcDbEntity
  8
LAYER0003
  6
CONTINUOUS
 62
     7
100
AcDbLine
 10
-211.6566923270772
 20
94.85866314246557
 30
0.0
 11
-211.675692327077
 21
94.86766314246559
 31
0.0
  0
LINE
  5
25F
330
BF
100
AcDbEntity
  8
LAYER0003
  6
CONTINUOUS
 62
     7
100
AcDbLine
 10
-211.675692327077
 20
94.86766314246559
 30
0.0
 11
-211.694692327077
 21
94.87766314246558
 31
0.0
  0
LINE
  5
260
330
BF
100
AcDbEntity
  8
LAYER0003
  6
CONTINUOUS
 62
     7
100
AcDbLine
 10
-211.694692327077
 20
94.87766314246558
 30
0.0
 11
-211.7126923270769
 21
94.88866314246555
 31
0.0
  0
LINE
  5
261
330
BF
100
AcDbEntity
  8
LAYER0003
  6
CONTINUOUS
 62
     7
100
AcDbLine
 10
-211.7126923270769
 20
94.88866314246555
 30
0.0
 11
-211.7316923270769
 21
94.89866314246576
 31
0.0
  0
LINE
  5
262
330
BF
100
AcDbEntity
  8
LAYER0003
  6
CONTINUOUS
 62
     7
100
AcDbLine
 10
-211.7316923270769
 20
94.89866314246576
 30
0.0
 11
-211.7496923270769
 21
94.90966314246573
 31
0.0
  0
LINE
  5
263
330
BF
100
AcDbEntity
  8
LAYER0003
  6
CONTINUOUS
 62
     7
100
AcDbLine
 10
-211.7496923270769
 20
94.90966314246573
 30
0.0
 11
-211.7676923270768
 21
94.92166314246568
 31
0.0
  0
LINE
  5
264
330
BF
100
AcDbEntity
  8
LAYER0003
  6
CONTINUOUS
 62
     7
100
AcDbLine
 10
-211.7676923270768
 20
94.92166314246568
 30
0.0
 11
-211.7856923270766
 21
94.93266314246564
 31
0.0
  0
LINE
  5
265
330
BF
100
AcDbEntity
  8
LAYER0003
  6
CONTINUOUS
 62
     7
100
AcDbLine
 10
-211.7856923270766
 20
94.93266314246564
 30
0.0
 11
-211.8046923270769
 21
94.94466314246559
 31
0.0
  0
LINE
  5
266
330
BF
100
AcDbEntity
  8
LAYER0003
  6
CONTINUOUS
 62
     7
100
AcDbLine
 10
-211.8046923270769
 20
94.94466314246559
 30
0.0
 11
-211.8226923270769
 21
94.95666314246576
 31
0.0
  0
LINE
  5
267
330
BF
100
AcDbEntity
  8
LAYER0003
  6
CONTINUOUS
 62
     7
100
AcDbLine
 10
-211.8226923270769
 20
94.95666314246576
 30
0.0
 11
-211.839692327077
 21
94.96966314246568
 31
0.0
  0
LINE
  5
268
330
BF
100
AcDbEntity
  8
LAYER0003
  6
CONTINUOUS
 62
     7
100
AcDbLine
 10
-211.839692327077
 20
94.96966314246568
 30
0.0
 11
-211.857692327077
 21
94.9826631424656
 31
0.0
  0
LINE
  5
269
330
BF
100
AcDbEntity
  8
LAYER0003
  6
CONTINUOUS
 62
     7
100
AcDbLine
 10
-211.857692327077
 20
94.9826631424656
 30
0.0
 11
-211.8756923270769
 21
94.99566314246552
 31
0.0
  0
LINE
  5
26A
330
BF
100
AcDbEntity
  8
LAYER0003
  6
CONTINUOUS
 62
     7
100
AcDbLine
 10
-211.8756923270769
 20
94.99566314246552
 30
0.0
 11
-211.8926923270768
 21
95.00866314246566
 31
0.0
  0
LINE
  5
26B
330
BF
100
AcDbEntity
  8
LAYER0003
  6
CONTINUOUS
 62
     7
100
AcDbLine
 10
-211.8926923270768
 20
95.00866314246566
 30
0.0
 11
-211.9106923270766
 21
95.02266314246556
 31
0.0
  0
LINE
  5
26C
330
BF
100
AcDbEntity
  8
LAYER0003
  6
CONTINUOUS
 62
     7
100
AcDbLine
 10
-211.9106923270766
 20
95.02266314246556
 30
0.0
 11
-211.9276923270769
 21
95.03666314246568
 31
0.0
  0
LINE
  5
26D
330
BF
100
AcDbEntity
  8
LAYER0003
  6
CONTINUOUS
 62
     7
100
AcDbLine
 10
-211.9276923270769
 20
95.03666314246568
 30
0.0
 11
-211.944692327077
 21
95.05166314246556
 31
0.0
  0
LINE
  5
26E
330
BF
100
AcDbEntity
  8
LAYER0003
  6
CONTINUOUS
 62
     7
100
AcDbLine
 10
-211.944692327077
 20
95.05166314246556
 30
0.0
 11
-211.961692327077
 21
95.06566314246568
 31
0.0
  0
LINE
  5
26F
330
BF
100
AcDbEntity
  8
LAYER0003
  6
CONTINUOUS
 62
     7
100
AcDbLine
 10
-211.961692327077
 20
95.06566314246568
 30
0.0
 11
-211.9786923270769
 21
95.08066314246555
 31
0.0
  0
LINE
  5
270
330
BF
100
AcDbEntity
  8
LAYER0003
  6
CONTINUOUS
 62
     7
100
AcDbLine
 10
-211.9786923270769
 20
95.08066314246555
 30
0.0
 11
-211.9956923270769
 21
95.09566314246565
 31
0.0
  0
LINE
  5
271
330
BF
100
AcDbEntity
  8
LAYER0003
  6
CONTINUOUS
 62
     7
100
AcDbLine
 10
-211.9956923270769
 20
95.09566314246565
 30
0.0
 11
-212.012692327077
 21
95.11166314246573
 31
0.0
  0
LINE
  5
272
330
BF
100
AcDbEntity
  8
LAYER0003
  6
CONTINUOUS
 62
     7
100
AcDbLine
 10
-212.012692327077
 20
95.11166314246573
 30
0.0
 11
-212.0286923270769
 21
95.12766314246558
 31
0.0
  0
LINE
  5
273
330
BF
100
AcDbEntity
  8
LAYER0003
  6
CONTINUOUS
 62
     7
100
AcDbLine
 10
-212.0286923270769
 20
95.12766314246558
 30
0.0
 11
-212.0456923270769
 21
95.14366314246566
 31
0.0
  0
LINE
  5
274
330
BF
100
AcDbEntity
  8
LAYER0003
  6
CONTINUOUS
 62
     7
100
AcDbLine
 10
-212.0456923270769
 20
95.14366314246566
 30
0.0
 11
-212.0616923270769
 21
95.15966314246573
 31
0.0
  0
LINE
  5
275
330
BF
100
AcDbEntity
  8
LAYER0003
  6
CONTINUOUS
 62
     7
100
AcDbLine
 10
-212.0616923270769
 20
95.15966314246573
 30
0.0
 11
-212.0776923270769
 21
95.17666314246556
 31
0.0
  0
LINE
  5
276
330
BF
100
AcDbEntity
  8
LAYER0003
  6
CONTINUOUS
 62
     7
100
AcDbLine
 10
-212.0776923270769
 20
95.17666314246556
 30
0.0
 11
-212.0936923270769
 21
95.19366314246561
 31
0.0
  0
LINE
  5
277
330
BF
100
AcDbEntity
  8
LAYER0003
  6
CONTINUOUS
 62
     7
100
AcDbLine
 10
-212.0936923270769
 20
95.19366314246561
 30
0.0
 11
-212.1096923270769
 21
95.21066314246566
 31
0.0
  0
LINE
  5
278
330
BF
100
AcDbEntity
  8
LAYER0003
  6
CONTINUOUS
 62
     7
100
AcDbLine
 10
-212.1096923270769
 20
95.21066314246566
 30
0.0
 11
-212.1246923270769
 21
95.22866314246569
 31
0.0
  0
LINE
  5
279
330
BF
100
AcDbEntity
  8
LAYER0003
  6
CONTINUOUS
 62
     7
100
AcDbLine
 10
-212.1246923270769
 20
95.22866314246569
 30
0.0
 11
-212.1406923270769
 21
95.24566314246552
 31
0.0
  0
LINE
  5
27A
330
BF
100
AcDbEntity
  8
LAYER0003
  6
CONTINUOUS
 62
     7
100
AcDbLine
 10
-212.1406923270769
 20
95.24566314246552
 30
0.0
 11
-212.155692327077
 21
95.26366314246555
 31
0.0
  0
LINE
  5
27B
330
BF
100
AcDbEntity
  8
LAYER0003
  6
CONTINUOUS
 62
     7
100
AcDbLine
 10
-212.155692327077
 20
95.26366314246555
 30
0.0
 11
-212.1706923270769
 21
95.28266314246578
 31
0.0
  0
LINE
  5
27C
330
BF
100
AcDbEntity
  8
LAYER0003
  6
CONTINUOUS
 62
     7
100
AcDbLine
 10
-212.1706923270769
 20
95.28266314246578
 30
0.0
 11
-212.1866923270769
 21
95.30066314246558
 31
0.0
  0
LINE
  5
27D
330
BF
100
AcDbEntity
  8
LAYER0003
  6
CONTINUOUS
 62
     7
100
AcDbLine
 10
-212.1866923270769
 20
95.30066314246558
 30
0.0
 11
-212.2006923270768
 21
95.31966314246559
 31
0.0
  0
LINE
  5
27E
330
BF
100
AcDbEntity
  8
LAYER0003
  6
CONTINUOUS
 62
     7
100
AcDbLine
 10
-212.2006923270768
 20
95.31966314246559
 30
0.0
 11
-212.2156923270768
 21
95.33866314246559
 31
0.0
  0
LINE
  5
27F
330
BF
100
AcDbEntity
  8
LAYER0003
  6
CONTINUOUS
 62
     7
100
AcDbLine
 10
-212.2156923270768
 20
95.33866314246559
 30
0.0
 11
-212.2306923270769
 21
95.35866314246557
 31
0.0
  0
LINE
  5
280
330
BF
100
AcDbEntity
  8
LAYER0003
  6
CONTINUOUS
 62
     7
100
AcDbLine
 10
-212.2306923270769
 20
95.35866314246557
 30
0.0
 11
-212.2446923270769
 21
95.37766314246558
 31
0.0
  0
LINE
  5
281
330
BF
100
AcDbEntity
  8
LAYER0003
  6
CONTINUOUS
 62
     7
100
AcDbLine
 10
-212.2446923270769
 20
95.37766314246558
 30
0.0
 11
-212.2586923270769
 21
95.39766314246556
 31
0.0
  0
LINE
  5
282
330
BF
100
AcDbEntity
  8
LAYER0003
  6
CONTINUOUS
 62
     7
100
AcDbLine
 10
-212.2586923270769
 20
95.39766314246556
 30
0.0
 11
-212.272692327077
 21
95.41766314246554
 31
0.0
  0
LINE
  5
283
330
BF
100
AcDbEntity
  8
LAYER0003
  6
CONTINUOUS
 62
     7
100
AcDbLine
 10
-212.272692327077
 20
95.41766314246554
 30
0.0
 11
-212.2866923270771
 21
95.43766314246552
 31
0.0
  0
LINE
  5
284
330
BF
100
AcDbEntity
  8
LAYER0003
  6
CONTINUOUS
 62
     7
100
AcDbLine
 10
-212.2866923270771
 20
95.43766314246552
 30
0.0
 11
-212.300692327077
 21
95.45866314246571
 31
0.0
  0
LINE
  5
285
330
BF
100
AcDbEntity
  8
LAYER0003
  6
CONTINUOUS
 62
     7
100
AcDbLine
 10
-212.300692327077
 20
95.45866314246571
 30
0.0
 11
-212.3136923270769
 21
95.47966314246567
 31
0.0
  0
LINE
  5
286
330
BF
100
AcDbEntity
  8
LAYER0003
  6
CONTINUOUS
 62
     7
100
AcDbLine
 10
-212.3136923270769
 20
95.47966314246567
 30
0.0
 11
-212.3276923270769
 21
95.50066314246563
 31
0.0
  0
LINE
  5
287
330
BF
100
AcDbEntity
  8
LAYER0003
  6
CONTINUOUS
 62
     7
100
AcDbLine
 10
-212.3276923270769
 20
95.50066314246563
 30
0.0
 11
-212.3406923270769
 21
95.52166314246558
 31
0.0
  0
LINE
  5
288
330
BF
100
AcDbEntity
  8
LAYER0003
  6
CONTINUOUS
 62
     7
100
AcDbLine
 10
-212.3406923270769
 20
95.52166314246558
 30
0.0
 11
-212.3536923270769
 21
95.54366314246575
 31
0.0
  0
LINE
  5
289
330
BF
100
AcDbEntity
  8
LAYER0003
  6
CONTINUOUS
 62
     7
100
AcDbLine
 10
-212.3536923270769
 20
95.54366314246575
 30
0.0
 11
-212.3656923270769
 21
95.5646631424657
 31
0.0
  0
LINE
  5
28A
330
BF
100
AcDbEntity
  8
LAYER0003
  6
CONTINUOUS
 62
     7
100
AcDbLine
 10
-212.3656923270769
 20
95.5646631424657
 30
0.0
 11
-212.3786923270769
 21
95.58666314246564
 31
0.0
  0
LINE
  5
28B
330
BF
100
AcDbEntity
  8
LAYER0003
  6
CONTINUOUS
 62
     7
100
AcDbLine
 10
-212.3786923270769
 20
95.58666314246564
 30
0.0
 11
-212.3906923270769
 21
95.60866314246557
 31
0.0
  0
LINE
  5
28C
330
BF
100
AcDbEntity
  8
LAYER0003
  6
CONTINUOUS
 62
     7
100
AcDbLine
 10
-212.3906923270769
 20
95.60866314246557
 30
0.0
 11
-212.4036923270769
 21
95.63166314246571
 31
0.0
  0
LINE
  5
28D
330
BF
100
AcDbEntity
  8
LAYER0003
  6
CONTINUOUS
 62
     7
100
AcDbLine
 10
-212.4036923270769
 20
95.63166314246571
 30
0.0
 11
-212.4146923270769
 21
95.65366314246565
 31
0.0
  0
LINE
  5
28E
330
BF
100
AcDbEntity
  8
LAYER0003
  6
CONTINUOUS
 62
     7
100
AcDbLine
 10
-212.4146923270769
 20
95.65366314246565
 30
0.0
 11
-212.4266923270769
 21
95.67666314246556
 31
0.0
  0
LINE
  5
28F
330
BF
100
AcDbEntity
  8
LAYER0003
  6
CONTINUOUS
 62
     7
100
AcDbLine
 10
-212.4266923270769
 20
95.67666314246556
 30
0.0
 11
-212.4386923270769
 21
95.6996631424657
 31
0.0
  0
LINE
  5
290
330
BF
100
AcDbEntity
  8
LAYER0003
  6
CONTINUOUS
 62
     7
100
AcDbLine
 10
-212.4386923270769
 20
95.6996631424657
 30
0.0
 11
-212.4496923270769
 21
95.7226631424656
 31
0.0
  0
LINE
  5
291
330
BF
100
AcDbEntity
  8
LAYER0003
  6
CONTINUOUS
 62
     7
100
AcDbLine
 10
-212.4496923270769
 20
95.7226631424656
 30
0.0
 11
-212.4606923270769
 21
95.74666314246572
 31
0.0
  0
LINE
  5
292
330
BF
100
AcDbEntity
  8
LAYER0003
  6
CONTINUOUS
 62
     7
100
AcDbLine
 10
-212.4606923270769
 20
95.74666314246572
 30
0.0
 11
-212.4716923270769
 21
95.76966314246563
 31
0.0
  0
LINE
  5
293
330
BF
100
AcDbEntity
  8
LAYER0003
  6
CONTINUOUS
 62
     7
100
AcDbLine
 10
-212.4716923270769
 20
95.76966314246563
 30
0.0
 11
-212.482692327077
 21
95.79366314246575
 31
0.0
  0
LINE
  5
294
330
BF
100
AcDbEntity
  8
LAYER0003
  6
CONTINUOUS
 62
     7
100
AcDbLine
 10
-212.482692327077
 20
95.79366314246575
 30
0.0
 11
-212.493692327077
 21
95.81766314246563
 31
0.0
  0
LINE
  5
295
330
BF
100
AcDbEntity
  8
LAYER0003
  6
CONTINUOUS
 62
     7
100
AcDbLine
 10
-212.493692327077
 20
95.81766314246563
 30
0.0
 11
-212.5036923270769
 21
95.84166314246552
 31
0.0
  0
LINE
  5
296
330
BF
100
AcDbEntity
  8
LAYER0003
  6
CONTINUOUS
 62
     7
100
AcDbLine
 10
-212.5036923270769
 20
95.84166314246552
 30
0.0
 11
-212.5136923270769
 21
95.86566314246564
 31
0.0
  0
LINE
  5
297
330
BF
100
AcDbEntity
  8
LAYER0003
  6
CONTINUOUS
 62
     7
100
AcDbLine
 10
-212.5136923270769
 20
95.86566314246564
 30
0.0
 11
-212.5236923270769
 21
95.89066314246573
 31
0.0
  0
LINE
  5
298
330
BF
100
AcDbEntity
  8
LAYER0003
  6
CONTINUOUS
 62
     7
100
AcDbLine
 10
-212.5236923270769
 20
95.89066314246573
 30
0.0
 11
-212.5336923270769
 21
95.91466314246561
 31
0.0
  0
LINE
  5
299
330
BF
100
AcDbEntity
  8
LAYER0003
  6
CONTINUOUS
 62
     7
100
AcDbLine
 10
-212.5336923270769
 20
95.91466314246561
 30
0.0
 11
-212.5436923270769
 21
95.9396631424657
 31
0.0
  0
LINE
  5
29A
330
BF
100
AcDbEntity
  8
LAYER0003
  6
CONTINUOUS
 62
     7
100
AcDbLine
 10
-212.5436923270769
 20
95.9396631424657
 30
0.0
 11
-212.5526923270769
 21
95.96466314246557
 31
0.0
  0
LINE
  5
29B
330
BF
100
AcDbEntity
  8
LAYER0003
  6
CONTINUOUS
 62
     7
100
AcDbLine
 10
-212.5526923270769
 20
95.96466314246557
 30
0.0
 11
-212.5616923270769
 21
95.98966314246566
 31
0.0
  0
LINE
  5
29C
330
BF
100
AcDbEntity
  8
LAYER0003
  6
CONTINUOUS
 62
     7
100
AcDbLine
 10
-212.5616923270769
 20
95.98966314246566
 30
0.0
 11
-212.570692327077
 21
96.01566314246573
 31
0.0
  0
LINE
  5
29D
330
BF
100
AcDbEntity
  8
LAYER0003
  6
CONTINUOUS
 62
     7
100
AcDbLine
 10
-212.570692327077
 20
96.01566314246573
 30
0.0
 11
-212.578692327077
 21
96.04066314246559
 31
0.0
  0
LINE
  5
29E
330
BF
100
AcDbEntity
  8
LAYER0003
  6
CONTINUOUS
 62
     7
100
AcDbLine
 10
-212.578692327077
 20
96.04066314246559
 30
0.0
 11
-212.5876923270769
 21
96.06666314246566
 31
0.0
  0
LINE
  5
29F
330
BF
100
AcDbEntity
  8
LAYER0003
  6
CONTINUOUS
 62
     7
100
AcDbLine
 10
-212.5876923270769
 20
96.06666314246566
 30
0.0
 11
-212.5956923270769
 21
96.09166314246552
 31
0.0
  0
LINE
  5
2A0
330
BF
100
AcDbEntity
  8
LAYER0003
  6
CONTINUOUS
 62
     7
100
AcDbLine
 10
-212.5956923270769
 20
96.09166314246552
 30
0.0
 11
-212.6036923270769
 21
96.11766314246559
 31
0.0
  0
LINE
  5
2A1
330
BF
100
AcDbEntity
  8
LAYER0003
  6
CONTINUOUS
 62
     7
100
AcDbLine
 10
-212.6036923270769
 20
96.11766314246559
 30
0.0
 11
-212.6116923270769
 21
96.14366314246566
 31
0.0
  0
LINE
  5
2A2
330
BF
100
AcDbEntity
  8
LAYER0003
  6
CONTINUOUS
 62
     7
100
AcDbLine
 10
-212.6116923270769
 20
96.14366314246566
 30
0.0
 11
-212.618692327077
 21
96.16966314246572
 31
0.0
  0
LINE
  5
2A3
330
BF
100
AcDbEntity
  8
LAYER0003
  6
CONTINUOUS
 62
     7
100
AcDbLine
 10
-212.618692327077
 20
96.16966314246572
 30
0.0
 11
-212.626692327077
 21
96.19666314246554
 31
0.0
  0
LINE
  5
2A4
330
BF
100
AcDbEntity
  8
LAYER0003
  6
CONTINUOUS
 62
     7
100
AcDbLine
 10
-212.626692327077
 20
96.19666314246554
 30
0.0
 11
-212.6336923270769
 21
96.2226631424656
 31
0.0
  0
LINE
  5
2A5
330
BF
100
AcDbEntity
  8
LAYER0003
  6
CONTINUOUS
 62
     7
100
AcDbLine
 10
-212.6336923270769
 20
96.2226631424656
 30
0.0
 11
-212.6396923270769
 21
96.24966314246565
 31
0.0
  0
LINE
  5
2A6
330
BF
100
AcDbEntity
  8
LAYER0003
  6
CONTINUOUS
 62
     7
100
AcDbLine
 10
-212.6396923270769
 20
96.24966314246565
 30
0.0
 11
-212.646692327077
 21
96.27566314246572
 31
0.0
  0
LINE
  5
2A7
330
BF
100
AcDbEntity
  8
LAYER0003
  6
CONTINUOUS
 62
     7
100
AcDbLine
 10
-212.646692327077
 20
96.27566314246572
 30
0.0
 11
-212.6526923270769
 21
96.30266314246576
 31
0.0
  0
LINE
  5
2A8
330
BF
100
AcDbEntity
  8
LAYER0003
  6
CONTINUOUS
 62
     7
100
AcDbLine
 10
-212.6526923270769
 20
96.30266314246576
 30
0.0
 11
-212.6596923270769
 21
96.32966314246558
 31
0.0
  0
LINE
  5
2A9
330
BF
100
AcDbEntity
  8
LAYER0003
  6
CONTINUOUS
 62
     7
100
AcDbLine
 10
-212.6596923270769
 20
96.32966314246558
 30
0.0
 11
-212.665692327077
 21
96.35666314246562
 31
0.0
  0
LINE
  5
2AA
330
BF
100
AcDbEntity
  8
LAYER0003
  6
CONTINUOUS
 62
     7
100
AcDbLine
 10
-212.665692327077
 20
96.35666314246562
 30
0.0
 11
-212.6706923270769
 21
96.38366314246566
 31
0.0
  0
LINE
  5
2AB
330
BF
100
AcDbEntity
  8
LAYER0003
  6
CONTINUOUS
 62
     7
100
AcDbLine
 10
-212.6706923270769
 20
96.38366314246566
 30
0.0
 11
-212.6766923270769
 21
96.41066314246571
 31
0.0
  0
LINE
  5
2AC
330
BF
100
AcDbEntity
  8
LAYER0003
  6
CONTINUOUS
 62
     7
100
AcDbLine
 10
-212.6766923270769
 20
96.41066314246571
 30
0.0
 11
-212.6816923270769
 21
96.43766314246552
 31
0.0
  0
LINE
  5
2AD
330
BF
100
AcDbEntity
  8
LAYER0003
  6
CONTINUOUS
 62
     7
100
AcDbLine
 10
-212.6816923270769
 20
96.43766314246552
 30
0.0
 11
-212.6866923270769
 21
96.46566314246577
 31
0.0
  0
LINE
  5
2AE
330
BF
100
AcDbEntity
  8
LAYER0003
  6
CONTINUOUS
 62
     7
100
AcDbLine
 10
-212.6866923270769
 20
96.46566314246577
 30
0.0
 11
-212.6916923270769
 21
96.49266314246559
 31
0.0
  0
LINE
  5
2AF
330
BF
100
AcDbEntity
  8
LAYER0003
  6
CONTINUOUS
 62
     7
100
AcDbLine
 10
-212.6916923270769
 20
96.49266314246559
 30
0.0
 11
-212.695692327077
 21
96.51966314246563
 31
0.0
  0
LINE
  5
2B0
330
BF
100
AcDbEntity
  8
LAYER0003
  6
CONTINUOUS
 62
     7
100
AcDbLine
 10
-212.695692327077
 20
96.51966314246563
 30
0.0
 11
-212.6996923270769
 21
96.54766314246565
 31
0.0
  0
LINE
  5
2B1
330
BF
100
AcDbEntity
  8
LAYER0003
  6
CONTINUOUS
 62
     7
100
AcDbLine
 10
-212.6996923270769
 20
96.54766314246565
 30
0.0
 11
-212.703692327077
 21
96.57566314246567
 31
0.0
  0
LINE
  5
2B2
330
BF
100
AcDbEntity
  8
LAYER0003
  6
CONTINUOUS
 62
     7
100
AcDbLine
 10
-212.703692327077
 20
96.57566314246567
 30
0.0
 11
-212.7076923270769
 21
96.60266314246572
 31
0.0
  0
LINE
  5
2B3
330
BF
100
AcDbEntity
  8
LAYER0003
  6
CONTINUOUS
 62
     7
100
AcDbLine
 10
-212.7076923270769
 20
96.60266314246572
 30
0.0
 11
-212.711692327077
 21
96.63066314246574
 31
0.0
  0
LINE
  5
2B4
330
BF
100
AcDbEntity
  8
LAYER0003
  6
CONTINUOUS
 62
     7
100
AcDbLine
 10
-212.711692327077
 20
96.63066314246574
 30
0.0
 11
-212.714692327077
 21
96.65866314246553
 31
0.0
  0
LINE
  5
2B5
330
BF
100
AcDbEntity
  8
LAYER0003
  6
CONTINUOUS
 62
     7
100
AcDbLine
 10
-212.714692327077
 20
96.65866314246553
 30
0.0
 11
-212.7176923270769
 21
96.68666314246578
 31
0.0
  0
LINE
  5
2B6
330
BF
100
AcDbEntity
  8
LAYER0003
  6
CONTINUOUS
 62
     7
100
AcDbLine
 10
-212.7176923270769
 20
96.68666314246578
 30
0.0
 11
-212.7206923270769
 21
96.71466314246557
 31
0.0
  0
LINE
  5
2B7
330
BF
100
AcDbEntity
  8
LAYER0003
  6
CONTINUOUS
 62
     7
100
AcDbLine
 10
-212.7206923270769
 20
96.71466314246557
 30
0.0
 11
-212.722692327077
 21
96.74266314246559
 31
0.0
  0
LINE
  5
2B8
330
BF
100
AcDbEntity
  8
LAYER0003
  6
CONTINUOUS
 62
     7
100
AcDbLine
 10
-212.722692327077
 20
96.74266314246559
 30
0.0
 11
-212.7256923270769
 21
96.77066314246561
 31
0.0
  0
LINE
  5
2B9
330
BF
100
AcDbEntity
  8
LAYER0003
  6
CONTINUOUS
 62
     7
100
AcDbLine
 10
-212.7256923270769
 20
96.77066314246561
 30
0.0
 11
-212.7276923270769
 21
96.79866314246563
 31
0.0
  0
LINE
  5
2BA
330
BF
100
AcDbEntity
  8
LAYER0003
  6
CONTINUOUS
 62
     7
100
AcDbLine
 10
-212.7276923270769
 20
96.79866314246563
 30
0.0
 11
-212.7296923270769
 21
96.82666314246565
 31
0.0
  0
LINE
  5
2BB
330
BF
100
AcDbEntity
  8
LAYER0003
  6
CONTINUOUS
 62
     7
100
AcDbLine
 10
-212.7296923270769
 20
96.82666314246565
 30
0.0
 11
-212.7306923270768
 21
96.85466314246567
 31
0.0
  0
LINE
  5
2BC
330
BF
100
AcDbEntity
  8
LAYER0003
  6
CONTINUOUS
 62
     7
100
AcDbLine
 10
-212.7306923270768
 20
96.85466314246567
 30
0.0
 11
-212.7316923270769
 21
96.88266314246569
 31
0.0
  0
LINE
  5
2BD
330
BF
100
AcDbEntity
  8
LAYER0003
  6
CONTINUOUS
 62
     7
100
AcDbLine
 10
-212.7316923270769
 20
96.88266314246569
 30
0.0
 11
-212.733692327077
 21
96.91166314246568
 31
0.0
  0
LINE
  5
2BE
330
BF
100
AcDbEntity
  8
LAYER0003
  6
CONTINUOUS
 62
     7
100
AcDbLine
 10
-212.733692327077
 20
96.91166314246568
 30
0.0
 11
-212.733692327077
 21
96.9396631424657
 31
0.0
  0
LINE
  5
2BF
330
BF
100
AcDbEntity
  8
LAYER0003
  6
CONTINUOUS
 62
     7
100
AcDbLine
 10
-212.733692327077
 20
96.9396631424657
 30
0.0
 11
-212.7346923270769
 21
96.96766314246572
 31
0.0
  0
LINE
  5
2C0
330
BF
100
AcDbEntity
  8
LAYER0003
  6
CONTINUOUS
 62
     7
100
AcDbLine
 10
-212.7346923270769
 20
96.96766314246572
 30
0.0
 11
-212.7346923270769
 21
96.99566314246552
 31
0.0
  0
LINE
  5
2C1
330
BF
100
AcDbEntity
  8
LAYER0003
  6
CONTINUOUS
 62
     7
100
AcDbLine
 10
-212.7346923270769
 20
96.99566314246552
 30
0.0
 11
-212.7356923270769
 21
97.02366314246576
 31
0.0
  0
ENDBLK
  5
C1
330
BF
100
AcDbEntity
  8
0
100
AcDbBlockEnd
  0
ENDSEC
  0
SECTION
  2
ENTITIES
  0
LINE
  5
2C2
330
1F
100
AcDbEntity
  8
LAYER0003
  6
CONTINUOUS
 62
     3
100
AcDbLine
 10
-154.7291400958643
 20
-32.46205124727678
 30
0.0
 11
-229.7291400958643
 21
-32.46205124727678
 31
0.0
  0
LINE
  5
2C3
330
1F
100
AcDbEntity
  8
LAYER0003
  6
CONTINUOUS
 62
     3
100
AcDbLine
 10
-154.7291400958643
 20
-32.46205124727678
 30
0.0
 11
-154.7291400958643
 21
-34.46205124727678
 31
0.0
  0
LINE
  5
2C4
330
1F
100
AcDbEntity
  8
LAYER0003
  6
CONTINUOUS
 62
     3
100
AcDbLine
 10
-229.7291400958643
 20
-32.46205124727678
 30
0.0
 11
-229.7291400958643
 21
-34.46205124727678
 31
0.0
  0
LINE
  5
2C5
330
1F
100
AcDbEntity
  8
LAYER0003
  6
CONTINUOUS
 62
     3
100
AcDbLine
 10
-224.2291400958643
 20
-184.9620512472768
 30
0.0
 11
-160.2291400958643
 21
-184.9620512472768
 31
0.0
  0
LINE
  5
2C6
330
1F
100
AcDbEntity
  8
LAYER0003
  6
CONTINUOUS
 62
     3
100
AcDbLine
 10
-160.2291400958643
 20
-184.9620512472768
 30
0.0
 11
-160.2291400958643
 21
-143.9620512472768
 31
0.0
  0
LINE
  5
2C7
330
1F
100
AcDbEntity
  8
LAYER0003
  6
CONTINUOUS
 62
     3
100
AcDbLine
 10
-160.2291400958643
 20
-143.9620512472768
 30
0.0
 11
-224.2291400958643
 21
-143.9620512472768
 31
0.0
  0
LINE
  5
2C8
330
1F
100
AcDbEntity
  8
LAYER0003
  6
CONTINUOUS
 62
     3
100
AcDbLine
 10
-224.2291400958643
 20
-143.9620512472768
 30
0.0
 11
-224.2291400958643
 21
-184.9620512472768
 31
0.0
  0
LINE
  5
2C9
330
1F
100
AcDbEntity
  8
LAYER0003
  6
CONTINUOUS
 62
     3
100
AcDbLine
 10
-181.7291400958643
 20
-143.9620512472768
 30
0.0
 11
-181.7291400958643
 21
-123.4620512472768
 31
0.0
  0
LINE
  5
2CA
330
1F
100
AcDbEntity
  8
LAYER0003
  6
CONTINUOUS
 62
     3
100
AcDbLine
 10
-181.7291400958643
 20
-123.4620512472768
 30
0.0
 11
-202.7291400958643
 21
-123.4620512472768
 31
0.0
  0
LINE
  5
2CB
330
1F
100
AcDbEntity
  8
LAYER0003
  6
CONTINUOUS
 62
     3
100
AcDbLine
 10
-202.7291400958643
 20
-123.4620512472768
 30
0.0
 11
-202.7291400958643
 21
-143.9620512472768
 31
0.0
  0
LINE
  5
2CC
330
1F
100
AcDbEntity
  8
LAYER0003
  6
CONTINUOUS
 62
     3
100
AcDbLine
 10
61.9501507846195
 20
-50.96205124727675
 30
0.0
 11
61.9501507846195
 21
-178.4620512472767
 31
0.0
  0
LINE
  5
2CD
330
1F
100
AcDbEntity
  8
LAYER0003
  6
CONTINUOUS
 62
     3
100
AcDbLine
 10
-43.04984921538053
 20
-67.46205124727675
 30
0.0
 11
-43.04984921538053
 21
-85.46205124727675
 31
0.0
  0
LINE
  5
2CE
330
1F
100
AcDbEntity
  8
LAYER0003
  6
CONTINUOUS
 62
     3
100
AcDbLine
 10
4.950150784619446
 20
-194.4620512472767
 30
0.0
 11
-14.04984921538055
 21
-194.4620512472767
 31
0.0
  0
LINE
  5
2CF
330
1F
100
AcDbEntity
  8
LAYER0003
  6
CONTINUOUS
 62
     3
100
AcDbLine
 10
47.9501507846195
 20
-32.46205124727675
 30
0.0
 11
6.950150784619503
 21
-32.46205124727675
 31
0.0
  0
LINE
  5
2D0
330
1F
100
AcDbEntity
  8
LAYER0003
  6
CONTINUOUS
 62
     3
100
AcDbLine
 10
-3.049849215380497
 20
-34.46205124727675
 30
0.0
 11
-3.049849215380554
 21
-194.4620512472767
 31
0.0
  0
LINE
  5
2D1
330
1F
100
AcDbEntity
  8
LAYER0003
  6
CONTINUOUS
 62
     3
100
AcDbLine
 10
-14.0498492153805
 20
-34.46205124727675
 30
0.0
 11
45.9501507846195
 21
-34.46205124727675
 31
0.0
  0
LINE
  5
2D2
330
1F
100
AcDbEntity
  8
LAYER0003
  6
CONTINUOUS
 62
     3
100
AcDbLine
 10
-42.04984921538053
 20
-66.46205124727675
 30
0.0
 11
-37.04984921538053
 21
-66.46205124727675
 31
0.0
  0
LINE
  5
2D3
330
1F
100
AcDbEntity
  8
LAYER0003
  6
CONTINUOUS
 62
     3
100
AcDbLine
 10
-42.04984921538053
 20
-86.46205124727675
 30
0.0
 11
-37.04984921538053
 21
-86.46205124727675
 31
0.0
  0
LINE
  5
2D4
330
1F
100
AcDbEntity
  8
LAYER0003
  6
CONTINUOUS
 62
     3
100
AcDbLine
 10
-37.04984921538053
 20
-49.58013073727673
 30
0.0
 11
-37.04984921538053
 21
-66.46205124727675
 31
0.0
  0
ARC
  5
2D5
330
1F
100
AcDbEntity
  8
LAYER0003
  6
CONTINUOUS
 62
     3
100
AcDbCircle
 10
-42.04984921538053
 20
-67.46205124727675
 30
0.0
 40
1.0
100
AcDbArc
 50
90.00000000000001
 51
180.0
  0
ARC
  5
2D6
330
1F
100
AcDbEntity
  8
LAYER0003
  6
CONTINUOUS
 62
     3
100
AcDbCircle
 10
-42.04984921538053
 20
-85.46205124727675
 30
0.0
 40
1.0
100
AcDbArc
 50
180.0
 51
270.0
  0
LINE
  5
2D7
330
1F
100
AcDbEntity
  8
LAYER0003
  6
CONTINUOUS
 62
     3
100
AcDbLine
 10
-36.07924827538053
 20
-48.58056298727675
 30
0.0
 11
-16.99105111538051
 21
-48.01914541727675
 31
0.0
  0
LINE
  5
2D8
330
1F
100
AcDbEntity
  8
LAYER0003
  6
CONTINUOUS
 62
     3
100
AcDbLine
 10
-36.08517648538054
 20
-113.7299925872768
 30
0.0
 11
-16.99105111538051
 21
-114.4049570772767
 31
0.0
  0
LINE
  5
2D9
330
1F
100
AcDbEntity
  8
LAYER0003
  6
CONTINUOUS
 62
     3
100
AcDbLine
 10
-37.04984921538053
 20
-66.46205124727675
 30
0.0
 11
-37.04984921538053
 21
-112.7306167872767
 31
0.0
  0
ARC
  5
2DA
330
1F
100
AcDbEntity
  8
LAYER0003
  6
CONTINUOUS
 62
     3
100
AcDbCircle
 10
-17.04984921538055
 20
-116.4040925772767
 30
0.0
 40
2.0
100
AcDbArc
 50
0.0
 51
88.31531568000007
  0
LINE
  5
2DB
330
1F
100
AcDbEntity
  8
LAYER0003
  6
CONTINUOUS
 62
     3
100
AcDbLine
 10
28.95015078461945
 20
-191.9620512472767
 30
0.0
 11
6.886642454619455
 21
-191.9620512472767
 31
0.0
  0
LINE
  5
2DC
330
1F
100
AcDbEntity
  8
LAYER0003
  6
CONTINUOUS
 62
     3
100
AcDbLine
 10
62.9501507846195
 20
-177.9620512472767
 30
0.0
 11
61.9501507846195
 21
-177.9620512472767
 31
0.0
  0
LINE
  5
2DD
330
1F
100
AcDbEntity
  8
LAYER0003
  6
CONTINUOUS
 62
     3
100
AcDbLine
 10
62.9501507846195
 20
-165.9620512472767
 30
0.0
 11
61.9501507846195
 21
-165.9620512472767
 31
0.0
  0
LINE
  5
2DE
330
1F
100
AcDbEntity
  8
LAYER0003
  6
CONTINUOUS
 62
     3
100
AcDbLine
 10
62.9501507846195
 20
-165.9620512472767
 30
0.0
 11
62.9501507846195
 21
-177.9620512472767
 31
0.0
  0
ARC
  5
2DF
330
1F
100
AcDbEntity
  8
LAYER0003
  6
CONTINUOUS
 62
     3
100
AcDbCircle
 10
31.95015078461945
 20
-159.4620512472767
 30
0.0
 40
20.0
100
AcDbArc
 50
270.0
 51
90.0
  0
LINE
  5
2E0
330
1F
100
AcDbEntity
  8
LAYER0003
  6
CONTINUOUS
 62
     3
100
AcDbLine
 10
7.950150784619446
 20
-179.4620512472767
 30
0.0
 11
31.95015078461945
 21
-179.4620512472767
 31
0.0
  0
LINE
  5
2E1
330
1F
100
AcDbEntity
  8
LAYER0003
  6
CONTINUOUS
 62
     3
100
AcDbLine
 10
6.950150784619446
 20
-139.4620512472767
 30
0.0
 11
31.95015078461945
 21
-139.4620512472767
 31
0.0
  0
ARC
  5
2E2
330
1F
100
AcDbEntity
  8
LAYER0003
  6
CONTINUOUS
 62
     3
100
AcDbCircle
 10
-14.0498492153805
 20
-35.46205124727675
 30
0.0
 40
1.0
100
AcDbArc
 50
90.00000000000001
 51
180.0
  0
ARC
  5
2E3
330
1F
100
AcDbEntity
  8
LAYER0003
  6
CONTINUOUS
 62
     3
100
AcDbCircle
 10
-14.04984921538055
 20
-193.4620512472767
 30
0.0
 40
1.0
100
AcDbArc
 50
180.0
 51
270.0
  0
LINE
  5
2E4
330
1F
100
AcDbEntity
  8
LAYER0003
  6
CONTINUOUS
 62
     3
100
AcDbLine
 10
6.950150784619503
 20
-47.41328012727675
 30
0.0
 11
57.9501507846195
 21
-47.41328012727675
 31
0.0
  0
ARC
  5
2E5
330
1F
100
AcDbEntity
  8
LAYER0003
  6
CONTINUOUS
 62
     3
100
AcDbCircle
 10
4.950150784619446
 20
-192.4620512472767
 30
0.0
 40
2.0
100
AcDbArc
 50
270.0
 51
0.0
  0
LINE
  5
2E6
330
1F
100
AcDbEntity
  8
LAYER0003
  6
CONTINUOUS
 62
     3
100
AcDbLine
 10
45.9501507846195
 20
-32.46205124727675
 30
0.0
 11
45.9501507846195
 21
-45.41328012727675
 31
0.0
  0
ARC
  5
2E7
330
1F
100
AcDbEntity
  8
LAYER0003
  6
CONTINUOUS
 62
     3
100
AcDbCircle
 10
57.92786201461945
 20
-51.46708996727673
 30
0.0
 40
4.05387112
100
AcDbArc
 50
7.156608249999901
 51
89.68497797000015
  0
LINE
  5
2E8
330
1F
100
AcDbEntity
  8
LAYER0003
  6
CONTINUOUS
 62
     3
100
AcDbLine
 10
6.950150784619446
 20
-182.4620512472767
 30
0.0
 11
57.9501507846195
 21
-182.4620512472767
 31
0.0
  0
LINE
  5
2E9
330
1F
100
AcDbEntity
  8
LAYER0003
  6
CONTINUOUS
 62
     3
100
AcDbLine
 10
28.95015078461945
 20
-182.4620512472767
 30
0.0
 11
28.95015078461945
 21
-191.9620512472767
 31
0.0
  0
ARC
  5
2EA
330
1F
100
AcDbEntity
  8
LAYER0003
  6
CONTINUOUS
 62
     3
100
AcDbCircle
 10
57.9501507846195
 20
-178.4620512472767
 30
0.0
 40
4.0
100
AcDbArc
 50
270.0
 51
0.0
  0
LINE
  5
2EB
330
1F
100
AcDbEntity
  8
LAYER0003
  6
CONTINUOUS
 62
     3
100
AcDbLine
 10
62.9501507846195
 20
-62.96205124727675
 30
0.0
 11
62.9501507846195
 21
-50.96205124727675
 31
0.0
  0
LINE
  5
2EC
330
1F
100
AcDbEntity
  8
LAYER0003
  6
CONTINUOUS
 62
     3
100
AcDbLine
 10
62.9501507846195
 20
-62.96205124727675
 30
0.0
 11
61.9501507846195
 21
-62.96205124727675
 31
0.0
  0
LINE
  5
2ED
330
1F
100
AcDbEntity
  8
LAYER0003
  6
CONTINUOUS
 62
     3
100
AcDbLine
 10
62.9501507846195
 20
-50.96205124727675
 30
0.0
 11
61.9501507846195
 21
-50.96205124727675
 31
0.0
  0
ARC
  5
2EE
330
1F
100
AcDbEntity
  8
LAYER0003
  6
CONTINUOUS
 62
     3
100
AcDbCircle
 10
47.9501507846195
 20
-45.41328012727675
 30
0.0
 40
2.0
100
AcDbArc
 50
180.0
 51
270.0
  0
LINE
  5
2EF
330
1F
100
AcDbEntity
  8
LAYER0003
  6
CONTINUOUS
 62
     3
100
AcDbLine
 10
-15.0498492153805
 20
-35.46205124727675
 30
0.0
 11
-15.04984921538055
 21
-193.4620512472767
 31
0.0
  0
LINE
  5
2F0
330
1F
100
AcDbEntity
  8
LAYER0003
  6
CONTINUOUS
 62
     3
100
AcDbLine
 10
6.950150784619503
 20
-32.46205124727675
 30
0.0
 11
6.950150784619446
 21
-192.4620512472767
 31
0.0
  0
LINE
  5
2F1
330
1F
100
AcDbEntity
  8
LAYER0003
  6
CONTINUOUS
 62
     3
100
AcDbLine
 10
-207.2291400958643
 20
81.72362273719482
 30
0.0
 11
-177.2291400958643
 21
81.72362273719479
 31
0.0
  0
LINE
  5
2F2
330
1F
100
AcDbEntity
  8
LAYER0003
  6
CONTINUOUS
 62
     3
100
AcDbLine
 10
-167.6199577158643
 20
186.7236227371949
 30
0.0
 11
-216.8383224658643
 21
186.7236227371949
 31
0.0
  0
LINE
  5
2F3
330
1F
100
AcDbEntity
  8
LAYER0003
  6
CONTINUOUS
 62
     3
100
AcDbLine
 10
-154.2291400958642
 20
132.7236227371948
 30
0.0
 11
-154.2291400958643
 21
175.7236227371949
 31
0.0
  0
LINE
  5
2F4
330
1F
100
AcDbEntity
  8
LAYER0003
  6
CONTINUOUS
 62
     3
100
AcDbLine
 10
-230.2291400958642
 20
132.7236227371948
 30
0.0
 11
-230.2291400958643
 21
175.7236227371949
 31
0.0
  0
LINE
  5
2F5
330
1F
100
AcDbEntity
  8
LAYER0003
  6
CONTINUOUS
 62
     3
100
AcDbLine
 10
-147.2291400958642
 20
110.7236227371948
 30
0.0
 11
-147.2291400958642
 21
130.7236227371948
 31
0.0
  0
LINE
  5
2F6
330
1F
100
AcDbEntity
  8
LAYER0003
  6
CONTINUOUS
 62
     3
100
AcDbLine
 10
-237.2291400958642
 20
110.7236227371948
 30
0.0
 11
-237.2291400958642
 21
130.7236227371948
 31
0.0
  0
LINE
  5
2F7
330
1F
100
AcDbEntity
  8
LAYER0003
  6
CONTINUOUS
 62
     3
100
AcDbLine
 10
-220.2291400958642
 20
88.72362273719479
 30
0.0
 11
-220.2291400958642
 21
109.7236227371948
 31
0.0
  0
LINE
  5
2F8
330
1F
100
AcDbEntity
  8
LAYER0003
  6
CONTINUOUS
 62
     3
100
AcDbLine
 10
-177.2291400958643
 20
81.72362273719479
 30
0.0
 11
-177.2291400958643
 21
87.72362273719479
 31
0.0
  0
LINE
  5
2F9
330
1F
100
AcDbEntity
  8
LAYER0003
  6
CONTINUOUS
 62
     3
100
AcDbLine
 10
-207.2291400958643
 20
81.72362273719482
 30
0.0
 11
-207.2291400958643
 21
87.72362273719482
 31
0.0
  0
LINE
  5
2FA
330
1F
100
AcDbEntity
  8
LAYER0003
  6
CONTINUOUS
 62
     3
100
AcDbLine
 10
-215.7291400958643
 20
187.7236227371949
 30
0.0
 11
-203.7291400958643
 21
187.7236227371948
 31
0.0
  0
LINE
  5
2FB
330
1F
100
AcDbEntity
  8
LAYER0003
  6
CONTINUOUS
 62
     3
100
AcDbLine
 10
-215.7291400958643
 20
187.7236227371949
 30
0.0
 11
-215.7291400958643
 21
186.7236227371949
 31
0.0
  0
LINE
  5
2FC
330
1F
100
AcDbEntity
  8
LAYER0003
  6
CONTINUOUS
 62
     3
100
AcDbLine
 10
-203.7291400958643
 20
187.7236227371948
 30
0.0
 11
-203.7291400958643
 21
186.7236227371948
 31
0.0
  0
LINE
  5
2FD
330
1F
100
AcDbEntity
  8
LAYER0003
  6
CONTINUOUS
 62
     3
100
AcDbLine
 10
-180.7291400958643
 20
187.7236227371948
 30
0.0
 11
-168.7291400958643
 21
187.7236227371949
 31
0.0
  0
LINE
  5
2FE
330
1F
100
AcDbEntity
  8
LAYER0003
  6
CONTINUOUS
 62
     3
100
AcDbLine
 10
-180.7291400958643
 20
187.7236227371948
 30
0.0
 11
-180.7291400958643
 21
186.7236227371948
 31
0.0
  0
LINE
  5
2FF
330
1F
100
AcDbEntity
  8
LAYER0003
  6
CONTINUOUS
 62
     3
100
AcDbLine
 10
-168.7291400958643
 20
187.7236227371949
 30
0.0
 11
-168.7291400958643
 21
186.7236227371949
 31
0.0
  0
LINE
  5
300
330
1F
100
AcDbEntity
  8
LAYER0003
  6
CONTINUOUS
 62
     3
100
AcDbLine
 10
-221.0134754032639
 20
172.724025667195
 30
0.0
 11
-220.8377132558643
 21
182.7934323571948
 31
0.0
  0
LINE
  5
301
330
1F
100
AcDbEntity
  8
LAYER0003
  6
CONTINUOUS
 62
     3
100
AcDbLine
 10
-155.2291400958643
 20
176.7236227371949
 30
0.0
 11
-163.5146180158643
 21
176.7236227371949
 31
0.0
  0
LINE
  5
302
330
1F
100
AcDbEntity
  8
LAYER0003
  6
CONTINUOUS
 62
     3
100
AcDbLine
 10
-220.9436621758642
 20
176.7236227371949
 30
0.0
 11
-229.2291400958642
 21
176.7236227371949
 31
0.0
  0
ARC
  5
303
330
1F
100
AcDbEntity
  8
LAYER0003
  6
CONTINUOUS
 62
     3
100
AcDbCircle
 10
-229.2291400958643
 20
175.7236227371949
 30
0.0
 40
1.0
100
AcDbArc
 50
90.0
 51
180.0
  0
ARC
  5
304
330
1F
100
AcDbEntity
  8
LAYER0003
  6
CONTINUOUS
 62
     3
100
AcDbCircle
 10
-155.2291400958643
 20
175.7236227371949
 30
0.0
 40
1.0
100
AcDbArc
 50
0.0000000000000053
 51
90.0
  0
ARC
  5
305
330
1F
100
AcDbEntity
  8
LAYER0003
  6
CONTINUOUS
 62
     3
100
AcDbCircle
 10
-153.2291400958642
 20
132.7236227371948
 30
0.0
 40
1.0
100
AcDbArc
 50
180.0
 51
270.0
  0
ARC
  5
306
330
1F
100
AcDbEntity
  8
LAYER0003
  6
CONTINUOUS
 62
     3
100
AcDbCircle
 10
-231.2291400958642
 20
132.7236227371948
 30
0.0
 40
1.0
100
AcDbArc
 50
270.0
 51
0.0
  0
ARC
  5
307
330
1F
100
AcDbEntity
  8
LAYER0003
  6
CONTINUOUS
 62
     3
100
AcDbCircle
 10
-236.2291400958642
 20
130.7236227371948
 30
0.0
 40
1.0
100
AcDbArc
 50
90.0
 51
180.0
  0
ARC
  5
308
330
1F
100
AcDbEntity
  8
LAYER0003
  6
CONTINUOUS
 62
     3
100
AcDbCircle
 10
-148.2291400958642
 20
130.7236227371948
 30
0.0
 40
1.0
100
AcDbArc
 50
0.0000000000000053
 51
90.0
  0
ARC
  5
309
330
1F
100
AcDbEntity
  8
LAYER0003
  6
CONTINUOUS
 62
     3
100
AcDbCircle
 10
-148.2291400958642
 20
110.7236227371948
 30
0.0
 40
1.0
100
AcDbArc
 50
270.0
 51
0.0
  0
ARC
  5
30A
330
1F
100
AcDbEntity
  8
LAYER0003
  6
CONTINUOUS
 62
     3
100
AcDbCircle
 10
-236.2291400958642
 20
110.7236227371948
 30
0.0
 40
1.0
100
AcDbArc
 50
180.0
 51
270.0
  0
ARC
  5
30B
330
1F
100
AcDbEntity
  8
LAYER0003
  6
CONTINUOUS
 62
     3
100
AcDbCircle
 10
-219.2291400958642
 20
88.72362273719479
 30
0.0
 40
1.0
100
AcDbArc
 50
180.0
 51
270.0
  0
ARC
  5
30C
330
1F
100
AcDbEntity
  8
LAYER0003
  6
CONTINUOUS
 62
     3
100
AcDbCircle
 10
-165.2291400958642
 20
88.72362273719479
 30
0.0
 40
1.0
100
AcDbArc
 50
270.0
 51
0.0
  0
ARC
  5
30D
330
1F
100
AcDbEntity
  8
LAYER0003
  6
CONTINUOUS
 62
     3
100
AcDbCircle
 10
-36.04984921538053
 20
-49.58013073727673
 30
0.0
 40
1.0
100
AcDbArc
 50
91.6846843199999
 51
180.0
  0
ARC
  5
30E
330
1F
100
AcDbEntity
  8
LAYER0003
  6
CONTINUOUS
 62
     3
100
AcDbCircle
 10
-36.04984921538053
 20
-112.7306167872767
 30
0.0
 40
1.0
100
AcDbArc
 50
180.0
 51
267.9754757300001
  0
LINE
  5
30F
330
1F
100
AcDbEntity
  8
LAYER0003
  6
CONTINUOUS
 62
     3
100
AcDbLine
 10
-163.4448047884647
 20
172.724025667195
 30
0.0
 11
-163.6205669358643
 21
182.7934323571948
 31
0.0
  0
ARC
  5
310
330
1F
100
AcDbEntity
  8
LAYER0003
  6
CONTINUOUS
 62
     3
100
AcDbCircle
 10
-167.6199577158643
 20
182.7236227371949
 30
0.0
 40
4.0
100
AcDbArc
 50
1.000000000000153
 51
90.0
  0
ARC
  5
311
330
1F
100
AcDbEntity
  8
LAYER0003
  6
CONTINUOUS
 62
     3
100
AcDbCircle
 10
-216.8383224658643
 20
182.7236227371949
 30
0.0
 40
4.0
100
AcDbArc
 50
90.0
 51
178.9999999999999
  0
LINE
  5
312
330
1F
100
AcDbEntity
  8
LAYER0003
  6
CONTINUOUS
 62
     3
100
AcDbLine
 10
6.950150784619503
 20
-66.91328012727675
 30
0.0
 11
57.9501507846195
 21
-66.91328012727675
 31
0.0
  0
ARC
  5
313
330
1F
100
AcDbEntity
  8
LAYER0003
  6
CONTINUOUS
 62
     3
100
AcDbCircle
 10
57.92786201461945
 20
-70.96708996727676
 30
0.0
 40
4.05387112
100
AcDbArc
 50
7.156608249999901
 51
89.68497797000015
  0
CIRCLE
  5
314
330
1F
100
AcDbEntity
  8
LAYER0003
  6
CONTINUOUS
 62
     3
100
AcDbCircle
 10
-152.2291400958643
 20
-186.9620512472768
 30
0.0
 40
5.5
  0
CIRCLE
  5
315
330
1F
100
AcDbEntity
  8
LAYER0003
  6
CONTINUOUS
 62
     3
100
AcDbCircle
 10
-152.2291400958643
 20
-114.4620512472768
 30
0.0
 40
5.5
  0
CIRCLE
  5
316
330
1F
100
AcDbEntity
  8
LAYER0003
  6
CONTINUOUS
 62
     3
100
AcDbCircle
 10
-152.2291400958643
 20
-41.96205124727678
 30
0.0
 40
5.5
  0
CIRCLE
  5
317
330
1F
100
AcDbEntity
  8
LAYER0003
  6
CONTINUOUS
 62
     3
100
AcDbCircle
 10
-232.2291400958643
 20
-41.96205124727678
 30
0.0
 40
5.5
  0
CIRCLE
  5
318
330
1F
100
AcDbEntity
  8
LAYER0003
  6
CONTINUOUS
 62
     3
100
AcDbCircle
 10
-232.2291400958643
 20
-114.4620512472768
 30
0.0
 40
5.5
  0
CIRCLE
  5
319
330
1F
100
AcDbEntity
  8
LAYER0003
  6
CONTINUOUS
 62
     3
100
AcDbCircle
 10
-232.2291400958643
 20
-186.9620512472768
 30
0.0
 40
5.5
  0
CIRCLE
  5
31A
330
1F
100
AcDbEntity
  8
LAYER0003
  6
CONTINUOUS
 62
     3
100
AcDbCircle
 10
-236.2291400958643
 20
-91.96205124727678
 30
0.0
 40
2.1
  0
CIRCLE
  5
31B
330
1F
100
AcDbEntity
  8
LAYER0003
  6
CONTINUOUS
 62
     3
100
AcDbCircle
 10
-236.2291400958643
 20
-136.9620512472768
 30
0.0
 40
2.1
  0
LINE
  5
31C
330
1F
100
AcDbEntity
  8
LAYER0003
  6
CONTINUOUS
 62
     3
100
AcDbLine
 10
22.95015078461945
 20
-139.0620512472768
 30
0.0
 11
6.950150784619446
 21
-139.0620512472768
 31
0.0
  0
LINE
  5
31D
330
1F
100
AcDbEntity
  8
LAYER0003
  6
CONTINUOUS
 62
     3
100
AcDbLine
 10
22.95015078461945
 20
-134.8620512472768
 30
0.0
 11
6.950150784619446
 21
-134.8620512472768
 31
0.0
  0
LINE
  5
31E
330
1F
100
AcDbEntity
  8
LAYER0003
  6
CONTINUOUS
 62
     3
100
AcDbLine
 10
22.95015078461945
 20
-94.06205124727677
 30
0.0
 11
6.950150784619446
 21
-94.06205124727677
 31
0.0
  0
LINE
  5
31F
330
1F
100
AcDbEntity
  8
LAYER0003
  6
CONTINUOUS
 62
     3
100
AcDbLine
 10
22.95015078461945
 20
-89.86205124727675
 30
0.0
 11
6.950150784619446
 21
-89.86205124727675
 31
0.0
  0
LINE
  5
320
330
1F
100
AcDbEntity
  8
LAYER0003
  6
CONTINUOUS
 62
     3
100
AcDbLine
 10
22.95015078461945
 20
-89.86205124727675
 30
0.0
 11
22.95015078461945
 21
-94.06205124727677
 31
0.0
  0
LINE
  5
321
330
1F
100
AcDbEntity
  8
LAYER0003
  6
CONTINUOUS
 62
     3
100
AcDbLine
 10
22.95015078461945
 20
-134.8620512472768
 30
0.0
 11
22.95015078461945
 21
-139.0620512472768
 31
0.0
  0
CIRCLE
  5
322
330
1F
100
AcDbEntity
  8
LAYER0003
  6
CONTINUOUS
 62
     3
100
AcDbCircle
 10
-184.7291400958643
 20
-79.46205124727678
 30
0.0
 40
4.0
  0
CIRCLE
  5
323
330
1F
100
AcDbEntity
  8
LAYER0003
  6
CONTINUOUS
 62
     3
100
AcDbCircle
 10
-199.7291400958643
 20
-79.46205124727678
 30
0.0
 40
4.0
  0
CIRCLE
  5
324
330
1F
100
AcDbEntity
  8
LAYER0003
  6
CONTINUOUS
 62
     3
100
AcDbCircle
 10
-184.7291400958643
 20
-79.46205124727678
 30
0.0
 40
3.5
  0
CIRCLE
  5
325
330
1F
100
AcDbEntity
  8
LAYER0003
  6
CONTINUOUS
 62
     3
100
AcDbCircle
 10
-199.7291400958643
 20
-79.46205124727678
 30
0.0
 40
3.5
  0
LINE
  5
326
330
1F
100
AcDbEntity
  8
LAYER0003
  6
CONTINUOUS
 62
     3
100
AcDbLine
 10
-174.7291400958643
 20
-66.46205124727678
 30
0.0
 11
-174.7291400958643
 21
-86.46205124727678
 31
0.0
  0
LINE
  5
327
330
1F
100
AcDbEntity
  8
LAYER0003
  6
CONTINUOUS
 62
     3
100
AcDbLine
 10
-209.7291400958643
 20
-66.46205124727678
 30
0.0
 11
-209.7291400958643
 21
-86.46205124727678
 31
0.0
  0
LINE
  5
328
330
1F
100
AcDbEntity
  8
LAYER0003
  6
CONTINUOUS
 62
     3
100
AcDbLine
 10
-174.7291400958643
 20
-66.46205124727678
 30
0.0
 11
-209.7291400958643
 21
-66.46205124727678
 31
0.0
  0
LINE
  5
329
330
1F
100
AcDbEntity
  8
LAYER0003
  6
CONTINUOUS
 62
     3
100
AcDbLine
 10
-174.7291400958643
 20
-86.46205124727678
 30
0.0
 11
-209.7291400958643
 21
-86.46205124727678
 31
0.0
  0
ARC
  5
32A
330
1F
100
AcDbEntity
  8
LAYER0003
  6
CONTINUOUS
 62
     3
100
AcDbCircle
 10
7.950150784619446
 20
-180.4620512472767
 30
0.0
 40
1.0
100
AcDbArc
 50
90.00000000000001
 51
180.0
  0
LINE
  5
32B
330
1F
100
AcDbEntity
  8
LAYER0003
  6
CONTINUOUS
 62
     3
100
AcDbLine
 10
-232.1291400958642
 20
142.2236377171948
 30
0.0
 11
-232.1291400958643
 21
131.7236227371948
 31
0.0
  0
LINE
  5
32C
330
1F
100
AcDbEntity
  8
LAYER0003
  6
CONTINUOUS
 62
     3
100
AcDbLine
 10
-236.3291400958643
 20
142.2286502771948
 30
0.0
 11
-236.3291400958642
 21
131.7236227371948
 31
0.0
  0
LINE
  5
32D
330
1F
100
AcDbEntity
  8
LAYER0003
  6
CONTINUOUS
 62
     3
100
AcDbLine
 10
-236.3291400958642
 20
108.7236227371948
 30
0.0
 11
-232.1291400958642
 21
108.7236227371948
 31
0.0
  0
LINE
  5
32E
330
1F
100
AcDbEntity
  8
LAYER0003
  6
CONTINUOUS
 62
     3
100
AcDbLine
 10
-236.3291400958642
 20
108.7236227371948
 30
0.0
 11
-236.3291400958642
 21
109.7236227371948
 31
0.0
  0
LINE
  5
32F
330
1F
100
AcDbEntity
  8
LAYER0003
  6
CONTINUOUS
 62
     3
100
AcDbLine
 10
-232.1291400958642
 20
108.7236227371948
 30
0.0
 11
-232.1291400958642
 21
109.7236227371948
 31
0.0
  0
LINE
  5
330
330
1F
100
AcDbEntity
  8
LAYER0003
  6
CONTINUOUS
 62
     3
100
AcDbLine
 10
-16.04984921538055
 20
-134.8620512472768
 30
0.0
 11
-16.04984921538055
 21
-139.0620512472768
 31
0.0
  0
LINE
  5
331
330
1F
100
AcDbEntity
  8
LAYER0003
  6
CONTINUOUS
 62
     3
100
AcDbLine
 10
-16.04984921538055
 20
-134.8620512472768
 30
0.0
 11
-15.04984921538055
 21
-134.8620512472768
 31
0.0
  0
LINE
  5
332
330
1F
100
AcDbEntity
  8
LAYER0003
  6
CONTINUOUS
 62
     3
100
AcDbLine
 10
-16.04984921538055
 20
-139.0620512472768
 30
0.0
 11
-15.04984921538055
 21
-139.0620512472768
 31
0.0
  0
LINE
  5
333
330
1F
100
AcDbEntity
  8
LAYER0003
  6
CONTINUOUS
 62
     3
100
AcDbLine
 10
-16.04984921538055
 20
-89.86205124727675
 30
0.0
 11
-16.04984921538055
 21
-94.06205124727677
 31
0.0
  0
LINE
  5
334
330
1F
100
AcDbEntity
  8
LAYER0003
  6
CONTINUOUS
 62
     3
100
AcDbLine
 10
-16.04984921538055
 20
-89.86205124727675
 30
0.0
 11
-15.04984921538055
 21
-89.86205124727675
 31
0.0
  0
LINE
  5
335
330
1F
100
AcDbEntity
  8
LAYER0003
  6
CONTINUOUS
 62
     3
100
AcDbLine
 10
-16.04984921538055
 20
-94.06205124727677
 30
0.0
 11
-15.04984921538055
 21
-94.06205124727677
 31
0.0
  0
LINE
  5
336
330
1F
100
AcDbEntity
  8
LAYER0003
  6
CONTINUOUS
 62
     3
100
AcDbLine
 10
32.9501507846195
 20
36.53794875272326
 30
0.0
 11
22.9501507846195
 21
36.53794875272326
 31
0.0
  0
LINE
  5
337
330
1F
100
AcDbEntity
  8
LAYER0003
  6
CONTINUOUS
 62
     3
100
AcDbLine
 10
-1.049849215380497
 20
28.53794875272326
 30
0.0
 11
18.9501507846195
 21
28.53794875272326
 31
0.0
  0
LINE
  5
338
330
1F
100
AcDbEntity
  8
LAYER0003
  6
CONTINUOUS
 62
     3
100
AcDbLine
 10
-1.049849215380497
 20
-13.46205124727674
 30
0.0
 11
5.950150784619503
 21
-13.46205124727674
 31
0.0
  0
LINE
  5
339
330
1F
100
AcDbEntity
  8
LAYER0003
  6
CONTINUOUS
 62
     3
100
AcDbLine
 10
-1.049849215380497
 20
28.53794875272326
 30
0.0
 11
-1.049849215380497
 21
-13.46205124727674
 31
0.0
  0
LINE
  5
33A
330
1F
100
AcDbEntity
  8
LAYER0003
  6
CONTINUOUS
 62
     3
100
AcDbLine
 10
-2.049849215380497
 20
27.53794875272326
 30
0.0
 11
-2.049849215380497
 21
22.53794875272326
 31
0.0
  0
LINE
  5
33B
330
1F
100
AcDbEntity
  8
LAYER0003
  6
CONTINUOUS
 62
     3
100
AcDbLine
 10
-2.049849215380497
 20
20.97297759272326
 30
0.0
 11
-2.049849215380497
 21
17.43744369272324
 31
0.0
  0
LINE
  5
33C
330
1F
100
AcDbEntity
  8
LAYER0003
  6
CONTINUOUS
 62
     3
100
AcDbLine
 10
-2.049849215380497
 20
8.53794875272326
 30
0.0
 11
-2.049849215380497
 21
6.53794875272326
 31
0.0
  0
LINE
  5
33D
330
1F
100
AcDbEntity
  8
LAYER0003
  6
CONTINUOUS
 62
     3
100
AcDbLine
 10
-2.049849215380497
 20
-2.361546187276751
 30
0.0
 11
-2.049849215380497
 21
-5.897080087276741
 31
0.0
  0
LINE
  5
33E
330
1F
100
AcDbEntity
  8
LAYER0003
  6
CONTINUOUS
 62
     3
100
AcDbLine
 10
-2.049849215380497
 20
-7.46205124727674
 30
0.0
 11
-2.049849215380497
 21
-12.46205124727674
 31
0.0
  0
LINE
  5
33F
330
1F
100
AcDbEntity
  8
LAYER0003
  6
CONTINUOUS
 62
     3
100
AcDbLine
 10
-2.049849215380497
 20
27.53794875272326
 30
0.0
 11
-1.049849215380497
 21
27.53794875272326
 31
0.0
  0
LINE
  5
340
330
1F
100
AcDbEntity
  8
LAYER0003
  6
CONTINUOUS
 62
     3
100
AcDbLine
 10
-2.049849215380497
 20
22.53794875272326
 30
0.0
 11
-1.049849215380497
 21
22.53794875272326
 31
0.0
  0
LINE
  5
341
330
1F
100
AcDbEntity
  8
LAYER0003
  6
CONTINUOUS
 62
     3
100
AcDbLine
 10
-2.049849215380497
 20
20.97297759272326
 30
0.0
 11
-1.049849215380497
 21
20.97297759272326
 31
0.0
  0
LINE
  5
342
330
1F
100
AcDbEntity
  8
LAYER0003
  6
CONTINUOUS
 62
     3
100
AcDbLine
 10
-2.049849215380497
 20
19.55876403272325
 30
0.0
 11
-1.049849215380497
 21
19.55876403272325
 31
0.0
  0
LINE
  5
343
330
1F
100
AcDbEntity
  8
LAYER0003
  6
CONTINUOUS
 62
     3
100
AcDbLine
 10
-2.049849215380497
 20
17.43744369272324
 30
0.0
 11
-1.049849215380497
 21
17.43744369272324
 31
0.0
  0
LINE
  5
344
330
1F
100
AcDbEntity
  8
LAYER0003
  6
CONTINUOUS
 62
     3
100
AcDbLine
 10
-2.049849215380497
 20
8.53794875272326
 30
0.0
 11
-1.049849215380497
 21
8.53794875272326
 31
0.0
  0
LINE
  5
345
330
1F
100
AcDbEntity
  8
LAYER0003
  6
CONTINUOUS
 62
     3
100
AcDbLine
 10
-2.049849215380497
 20
6.53794875272326
 30
0.0
 11
-1.049849215380497
 21
6.53794875272326
 31
0.0
  0
LINE
  5
346
330
1F
100
AcDbEntity
  8
LAYER0003
  6
CONTINUOUS
 62
     3
100
AcDbLine
 10
-2.049849215380497
 20
-2.361546187276751
 30
0.0
 11
-1.049849215380497
 21
-2.361546187276751
 31
0.0
  0
LINE
  5
347
330
1F
100
AcDbEntity
  8
LAYER0003
  6
CONTINUOUS
 62
     3
100
AcDbLine
 10
-2.049849215380497
 20
-4.482866527276734
 30
0.0
 11
-1.049849215380497
 21
-4.482866527276734
 31
0.0
  0
LINE
  5
348
330
1F
100
AcDbEntity
  8
LAYER0003
  6
CONTINUOUS
 62
     3
100
AcDbLine
 10
-2.049849215380497
 20
-5.897080087276741
 30
0.0
 11
-1.049849215380497
 21
-5.897080087276741
 31
0.0
  0
LINE
  5
349
330
1F
100
AcDbEntity
  8
LAYER0003
  6
CONTINUOUS
 62
     3
100
AcDbLine
 10
-2.049849215380497
 20
-7.46205124727674
 30
0.0
 11
-1.049849215380497
 21
-7.46205124727674
 31
0.0
  0
LINE
  5
34A
330
1F
100
AcDbEntity
  8
LAYER0003
  6
CONTINUOUS
 62
     3
100
AcDbLine
 10
-2.049849215380497
 20
-12.46205124727674
 30
0.0
 11
-1.049849215380497
 21
-12.46205124727674
 31
0.0
  0
LINE
  5
34B
330
1F
100
AcDbEntity
  8
LAYER0003
  6
CONTINUOUS
 62
     3
100
AcDbLine
 10
10.9501507846195
 20
-14.46205124727674
 30
0.0
 11
18.9501507846195
 21
-14.46205124727674
 31
0.0
  0
LINE
  5
34C
330
1F
100
AcDbEntity
  8
LAYER0003
  6
CONTINUOUS
 62
     3
100
AcDbLine
 10
36.9501507846195
 20
-14.46205124727674
 30
0.0
 11
44.9501507846195
 21
-14.46205124727674
 31
0.0
  0
LINE
  5
34D
330
1F
100
AcDbEntity
  8
LAYER0003
  6
CONTINUOUS
 62
     3
100
AcDbLine
 10
34.9501507846195
 20
34.53794875272326
 30
0.0
 11
34.9501507846195
 21
-12.46205124727674
 31
0.0
  0
ARC
  5
34E
330
1F
100
AcDbEntity
  8
LAYER0003
  6
CONTINUOUS
 62
     3
100
AcDbCircle
 10
32.9501507846195
 20
34.53794875272326
 30
0.0
 40
2.0
100
AcDbArc
 50
0.0
 51
90.0
  0
ARC
  5
34F
330
1F
100
AcDbEntity
  8
LAYER0003
  6
CONTINUOUS
 62
     3
100
AcDbCircle
 10
36.9501507846195
 20
-12.46205124727674
 30
0.0
 40
2.0
100
AcDbArc
 50
180.0
 51
270.0
  0
LINE
  5
350
330
1F
100
AcDbEntity
  8
LAYER0003
  6
CONTINUOUS
 62
     3
100
AcDbLine
 10
20.9501507846195
 20
34.53794875272326
 30
0.0
 11
20.9501507846195
 21
-12.46205124727674
 31
0.0
  0
ARC
  5
351
330
1F
100
AcDbEntity
  8
LAYER0003
  6
CONTINUOUS
 62
     3
100
AcDbCircle
 10
22.9501507846195
 20
34.53794875272326
 30
0.0
 40
2.0
100
AcDbArc
 50
90.00000000000001
 51
180.0
  0
ARC
  5
352
330
1F
100
AcDbEntity
  8
LAYER0003
  6
CONTINUOUS
 62
     3
100
AcDbCircle
 10
18.9501507846195
 20
30.53794875272326
 30
0.0
 40
2.0
100
AcDbArc
 50
270.0
 51
0.0
  0
ARC
  5
353
330
1F
100
AcDbEntity
  8
LAYER0003
  6
CONTINUOUS
 62
     3
100
AcDbCircle
 10
18.9501507846195
 20
-12.46205124727674
 30
0.0
 40
2.0
100
AcDbArc
 50
270.0
 51
0.0
  0
LINE
  5
354
330
1F
100
AcDbEntity
  8
LAYER0003
  6
CONTINUOUS
 62
     3
100
AcDbLine
 10
39.9501507846195
 20
16.53794875272326
 30
0.0
 11
39.9501507846195
 21
-6.46205124727674
 31
0.0
  0
LINE
  5
355
330
1F
100
AcDbEntity
  8
LAYER0003
  6
CONTINUOUS
 62
     3
100
AcDbLine
 10
44.9501507846195
 20
18.53794875272326
 30
0.0
 11
44.9501507846195
 21
-3.46205124727674
 31
0.0
  0
LINE
  5
356
330
1F
100
AcDbEntity
  8
LAYER0003
  6
CONTINUOUS
 62
     3
100
AcDbLine
 10
48.9501507846195
 20
-13.46205124727674
 30
0.0
 11
48.9501507846195
 21
-3.46205124727674
 31
0.0
  0
LINE
  5
357
330
1F
100
AcDbEntity
  8
LAYER0003
  6
CONTINUOUS
 62
     3
100
AcDbLine
 10
48.9501507846195
 20
18.53794875272326
 30
0.0
 11
48.9501507846195
 21
28.53794875272326
 31
0.0
  0
LINE
  5
358
330
1F
100
AcDbEntity
  8
LAYER0003
  6
CONTINUOUS
 62
     3
100
AcDbLine
 10
48.9501507846195
 20
28.53794875272326
 30
0.0
 11
36.9501507846195
 21
28.53794875272326
 31
0.0
  0
ARC
  5
359
330
1F
100
AcDbEntity
  8
LAYER0003
  6
CONTINUOUS
 62
     3
100
AcDbCircle
 10
36.9501507846195
 20
30.53794875272326
 30
0.0
 40
2.0
100
AcDbArc
 50
180.0
 51
270.0
  0
LINE
  5
35A
330
1F
100
AcDbEntity
  8
LAYER0003
  6
CONTINUOUS
 62
     3
100
AcDbLine
 10
48.9501507846195
 20
18.53794875272326
 30
0.0
 11
41.9501507846195
 21
18.53794875272326
 31
0.0
  0
ARC
  5
35B
330
1F
100
AcDbEntity
  8
LAYER0003
  6
CONTINUOUS
 62
     3
100
AcDbCircle
 10
41.9501507846195
 20
16.53794875272326
 30
0.0
 40
2.0
100
AcDbArc
 50
90.00000000000001
 51
180.0
  0
LINE
  5
35C
330
1F
100
AcDbEntity
  8
LAYER0003
  6
CONTINUOUS
 62
     3
100
AcDbLine
 10
48.9501507846195
 20
-3.46205124727674
 30
0.0
 11
41.9501507846195
 21
-3.46205124727674
 31
0.0
  0
ARC
  5
35D
330
1F
100
AcDbEntity
  8
LAYER0003
  6
CONTINUOUS
 62
     3
100
AcDbCircle
 10
41.9501507846195
 20
-1.46205124727674
 30
0.0
 40
2.0
100
AcDbArc
 50
180.0
 51
270.0
  0
ARC
  5
35E
330
1F
100
AcDbEntity
  8
LAYER0003
  6
CONTINUOUS
 62
     3
100
AcDbCircle
 10
44.9501507846195
 20
-17.46205124727674
 30
0.0
 40
3.0
100
AcDbArc
 50
0.0
 51
90.0
  0
ARC
  5
35F
330
1F
100
AcDbEntity
  8
LAYER0003
  6
CONTINUOUS
 62
     3
100
AcDbCircle
 10
10.9501507846195
 20
-17.46205124727674
 30
0.0
 40
3.0
100
AcDbArc
 50
90.00000000000001
 51
180.0
  0
ARC
  5
360
330
1F
100
AcDbEntity
  8
LAYER0003
  6
CONTINUOUS
 62
     3
100
AcDbCircle
 10
5.950150784619503
 20
-15.46205124727674
 30
0.0
 40
2.0
100
AcDbArc
 50
0.0
 51
90.0
  0
ARC
  5
361
330
1F
100
AcDbEntity
  8
LAYER0003
  6
CONTINUOUS
 62
     3
100
AcDbCircle
 10
49.49850827461944
 20
-15.38540873727674
 30
0.0
 40
2.0
100
AcDbArc
 50
105.9130788900003
 51
204.5400054500003
  0
LINE
  5
362
330
1F
100
AcDbEntity
  8
LAYER0003
  6
CONTINUOUS
 62
     3
100
AcDbLine
 10
39.9501507846195
 20
18.83638663272325
 30
0.0
 11
36.9501507846195
 21
18.83638663272325
 31
0.0
  0
ARC
  5
363
330
1F
100
AcDbEntity
  8
LAYER0003
  6
CONTINUOUS
 62
     3
100
AcDbCircle
 10
36.9501507846195
 20
16.83638663272325
 30
0.0
 40
2.0
100
AcDbArc
 50
90.00000000000001
 51
180.0
  0
LINE
  5
364
330
1F
100
AcDbEntity
  8
LAYER0003
  6
CONTINUOUS
 62
     3
100
AcDbLine
 10
-4.049849215380497
 20
14.53794875272326
 30
0.0
 11
-4.049849215380497
 21
-5.96205124727674
 31
0.0
  0
LINE
  5
365
330
1F
100
AcDbEntity
  8
LAYER0003
  6
CONTINUOUS
 62
     3
100
AcDbLine
 10
-14.0498492153805
 20
3.737948752723248
 30
0.0
 11
-13.84984921538051
 21
3.53794875272326
 31
0.0
  0
LINE
  5
366
330
1F
100
AcDbEntity
  8
LAYER0003
  6
CONTINUOUS
 62
     3
100
AcDbLine
 10
-14.0498492153805
 20
11.33794875272324
 30
0.0
 11
-13.84984921538051
 21
11.53794875272326
 31
0.0
  0
LINE
  5
367
330
1F
100
AcDbEntity
  8
LAYER0003
  6
CONTINUOUS
 62
     3
100
AcDbLine
 10
-8.049849215380497
 20
11.53794875272326
 30
0.0
 11
-13.84984921538051
 21
11.53794875272326
 31
0.0
  0
LINE
  5
368
330
1F
100
AcDbEntity
  8
LAYER0003
  6
CONTINUOUS
 62
     3
100
AcDbLine
 10
-8.049849215380497
 20
3.53794875272326
 30
0.0
 11
-13.84984921538051
 21
3.53794875272326
 31
0.0
  0
LINE
  5
369
330
1F
100
AcDbEntity
  8
LAYER0003
  6
CONTINUOUS
 62
     3
100
AcDbLine
 10
-4.049849215380497
 20
14.53794875272326
 30
0.0
 11
-1.049849215380497
 21
14.53794875272326
 31
0.0
  0
LINE
  5
36A
330
1F
100
AcDbEntity
  8
LAYER0003
  6
CONTINUOUS
 62
     3
100
AcDbLine
 10
-4.049849215380497
 20
0.5379487527232598
 30
0.0
 11
-1.049849215380497
 21
0.5379487527232598
 31
0.0
  0
LINE
  5
36B
330
1F
100
AcDbEntity
  8
LAYER0003
  6
CONTINUOUS
 62
     3
100
AcDbLine
 10
48.65015078461943
 20
10.03794875272326
 30
0.0
 11
48.65015078461943
 21
5.03794875272326
 31
0.0
  0
LINE
  5
36C
330
1F
100
AcDbEntity
  8
LAYER0003
  6
CONTINUOUS
 62
     3
100
AcDbLine
 10
48.65015078461943
 20
5.03794875272326
 30
0.0
 11
48.15015078461943
 21
4.53794875272326
 31
0.0
  0
LINE
  5
36D
330
1F
100
AcDbEntity
  8
LAYER0003
  6
CONTINUOUS
 62
     3
100
AcDbLine
 10
48.65015078461943
 20
10.03794875272326
 30
0.0
 11
48.15015078461943
 21
10.53794875272326
 31
0.0
  0
LINE
  5
36E
330
1F
100
AcDbEntity
  8
LAYER0003
  6
CONTINUOUS
 62
     3
100
AcDbLine
 10
46.65015078461943
 20
12.43794875272327
 30
0.0
 11
46.65015078461943
 21
3.508290752723248
 31
0.0
  0
LINE
  5
36F
330
1F
100
AcDbEntity
  8
LAYER0003
  6
CONTINUOUS
 62
     3
100
AcDbLine
 10
45.9501507846195
 20
10.53794875272326
 30
0.0
 11
45.9501507846195
 21
4.53794875272326
 31
0.0
  0
LINE
  5
370
330
1F
100
AcDbEntity
  8
LAYER0003
  6
CONTINUOUS
 62
     3
100
AcDbLine
 10
46.65015078461943
 20
10.53794875272326
 30
0.0
 11
48.15015078461943
 21
10.53794875272326
 31
0.0
  0
LINE
  5
371
330
1F
100
AcDbEntity
  8
LAYER0003
  6
CONTINUOUS
 62
     3
100
AcDbLine
 10
46.65015078461943
 20
4.53794875272326
 30
0.0
 11
48.15015078461943
 21
4.53794875272326
 31
0.0
  0
LINE
  5
372
330
1F
100
AcDbEntity
  8
LAYER0003
  6
CONTINUOUS
 62
     3
100
AcDbLine
 10
45.9501507846195
 20
10.53794875272326
 30
0.0
 11
44.9501507846195
 21
10.53794875272326
 31
0.0
  0
LINE
  5
373
330
1F
100
AcDbEntity
  8
LAYER0003
  6
CONTINUOUS
 62
     3
100
AcDbLine
 10
45.9501507846195
 20
4.53794875272326
 30
0.0
 11
44.9501507846195
 21
4.53794875272326
 31
0.0
  0
LINE
  5
374
330
1F
100
AcDbEntity
  8
LAYER0003
  6
CONTINUOUS
 62
     3
100
AcDbLine
 10
46.05015078461946
 20
9.53794875272326
 30
0.0
 11
45.9501507846195
 21
9.53794875272326
 31
0.0
  0
LINE
  5
375
330
1F
100
AcDbEntity
  8
LAYER0003
  6
CONTINUOUS
 62
     3
100
AcDbLine
 10
46.05015078461946
 20
5.53794875272326
 30
0.0
 11
45.9501507846195
 21
5.53794875272326
 31
0.0
  0
LINE
  5
376
330
1F
100
AcDbEntity
  8
LAYER0003
  6
CONTINUOUS
 62
     3
100
AcDbLine
 10
46.65015078461943
 20
12.43794875272327
 30
0.0
 11
46.05015078461946
 21
12.43794875272327
 31
0.0
  0
LINE
  5
377
330
1F
100
AcDbEntity
  8
LAYER0003
  6
CONTINUOUS
 62
     3
100
AcDbLine
 10
46.65015078461943
 20
3.508290752723248
 30
0.0
 11
46.05015078461946
 21
3.508290752723248
 31
0.0
  0
LINE
  5
378
330
1F
100
AcDbEntity
  8
LAYER0003
  6
CONTINUOUS
 62
     3
100
AcDbLine
 10
46.05015078461946
 20
12.43794875272327
 30
0.0
 11
46.05015078461946
 21
3.508290752723248
 31
0.0
  0
LINE
  5
379
330
1F
100
AcDbEntity
  8
LAYER0003
  6
CONTINUOUS
 62
     3
100
AcDbLine
 10
-8.049849215380497
 20
14.53794875272326
 30
0.0
 11
-8.049849215380497
 21
-5.96205124727674
 31
0.0
  0
LINE
  5
37A
330
1F
100
AcDbEntity
  8
LAYER0003
  6
CONTINUOUS
 62
     3
100
AcDbLine
 10
-8.049849215380497
 20
-5.96205124727674
 30
0.0
 11
-4.049849215380497
 21
-5.96205124727674
 31
0.0
  0
LINE
  5
37B
330
1F
100
AcDbEntity
  8
LAYER0003
  6
CONTINUOUS
 62
     3
100
AcDbLine
 10
-8.049849215380497
 20
14.53794875272326
 30
0.0
 11
-4.049849215380497
 21
14.53794875272326
 31
0.0
  0
LINE
  5
37C
330
1F
100
AcDbEntity
  8
LAYER0003
  6
CONTINUOUS
 62
     3
100
AcDbLine
 10
-18.34984921538071
 20
12.53794875272326
 30
0.0
 11
-17.34984921538068
 21
12.53794875272326
 31
0.0
  0
LINE
  5
37D
330
1F
100
AcDbEntity
  8
LAYER0003
  6
CONTINUOUS
 62
     3
100
AcDbLine
 10
-18.34984921538071
 20
2.53794875272326
 30
0.0
 11
-17.34984921538068
 21
2.53794875272326
 31
0.0
  0
LINE
  5
37E
330
1F
100
AcDbEntity
  8
LAYER0003
  6
CONTINUOUS
 62
     3
100
AcDbLine
 10
39.9501507846195
 20
-10.34275276727674
 30
0.0
 11
39.9501507846195
 21
-10.86205124727675
 31
0.0
  0
LINE
  5
37F
330
1F
100
AcDbEntity
  8
LAYER0003
  6
CONTINUOUS
 62
     3
100
AcDbLine
 10
-15.0498492153805
 20
12.53794875272326
 30
0.0
 11
-14.0498492153805
 21
12.53794875272326
 31
0.0
  0
LINE
  5
380
330
1F
100
AcDbEntity
  8
LAYER0003
  6
CONTINUOUS
 62
     3
100
AcDbLine
 10
-15.0498492153805
 20
2.53794875272326
 30
0.0
 11
-14.0498492153805
 21
2.53794875272326
 31
0.0
  0
LINE
  5
381
330
1F
100
AcDbEntity
  8
LAYER0003
  6
CONTINUOUS
 62
     3
100
AcDbLine
 10
-14.0498492153805
 20
12.53794875272326
 30
0.0
 11
-14.0498492153805
 21
2.53794875272326
 31
0.0
  0
LINE
  5
382
330
1F
100
AcDbEntity
  8
LAYER0003
  6
CONTINUOUS
 62
     3
100
AcDbLine
 10
48.15015078461943
 20
10.53794875272326
 30
0.0
 11
48.15015078461943
 21
4.53794875272326
 31
0.0
  0
LINE
  5
383
330
1F
100
AcDbEntity
  8
LAYER0003
  6
CONTINUOUS
 62
     3
100
AcDbLine
 10
47.9501507846195
 20
-32.46205124727675
 30
0.0
 11
47.9501507846195
 21
-17.46205124727674
 31
0.0
  0
LINE
  5
384
330
1F
100
AcDbEntity
  8
LAYER0003
  6
CONTINUOUS
 62
     3
100
AcDbLine
 10
7.950150784619503
 20
-32.46205124727675
 30
0.0
 11
7.950150784619503
 21
7.53794875272326
 31
0.0
  0
LINE
  5
385
330
1F
100
AcDbEntity
  8
LAYER0003
  6
CONTINUOUS
 62
     3
100
AcDbLine
 10
-160.2291400958643
 20
-14.46205124727677
 30
0.0
 11
-182.8713234058643
 21
-14.46205124727677
 31
0.0
  0
LINE
  5
386
330
1F
100
AcDbEntity
  8
LAYER0003
  6
CONTINUOUS
 62
     3
100
AcDbLine
 10
-201.5869567858643
 20
-14.46205124727677
 30
0.0
 11
-224.2291400958643
 21
-14.46205124727677
 31
0.0
  0
ARC
  5
387
330
1F
100
AcDbEntity
  8
LAYER0003
  6
CONTINUOUS
 62
     3
100
AcDbCircle
 10
-203.5869567858643
 20
-12.46205124727677
 30
0.0
 40
2.0
100
AcDbArc
 50
270.0
 51
60.40815421000026
  0
ARC
  5
388
330
1F
100
AcDbEntity
  8
LAYER0003
  6
CONTINUOUS
 62
     3
100
AcDbCircle
 10
-180.8713234058643
 20
-12.46205124727677
 30
0.0
 40
2.0
100
AcDbArc
 50
119.5918457899998
 51
270.0
  0
ARC
  5
389
330
1F
100
AcDbEntity
  8
LAYER0003
  6
CONTINUOUS
 62
     3
100
AcDbCircle
 10
-160.2291400958643
 20
-17.46205124727677
 30
0.0
 40
3.0
100
AcDbArc
 50
0.0
 51
90.0
  0
ARC
  5
38A
330
1F
100
AcDbEntity
  8
LAYER0003
  6
CONTINUOUS
 62
     3
100
AcDbCircle
 10
-224.2291400958643
 20
-17.46205124727677
 30
0.0
 40
3.0
100
AcDbArc
 50
90.0
 51
180.0
  0
ARC
  5
38B
330
1F
100
AcDbEntity
  8
LAYER0003
  6
CONTINUOUS
 62
     3
100
AcDbCircle
 10
-192.2291400958643
 20
7.537948752723231
 30
0.0
 40
29.0
100
AcDbArc
 50
13.30032347
 51
26.91998738000001
  0
ARC
  5
38C
330
1F
100
AcDbEntity
  8
LAYER0003
  6
CONTINUOUS
 62
     3
100
AcDbCircle
 10
-192.2291400958643
 20
7.537948752723231
 30
0.0
 40
29.0
100
AcDbArc
 50
63.08001262
 51
166.6996765299999
  0
LINE
  5
38D
330
1F
100
AcDbEntity
  8
LAYER0003
  6
CONTINUOUS
 62
     3
100
AcDbLine
 10
-157.2291400958643
 20
-14.46205124727677
 30
0.0
 11
-164.0069904458643
 21
14.20955046272324
 31
0.0
  0
LINE
  5
38E
330
1F
100
AcDbEntity
  8
LAYER0003
  6
CONTINUOUS
 62
     3
100
AcDbLine
 10
-227.2291400958643
 20
-14.46205124727677
 30
0.0
 11
-220.4512897358643
 21
14.20955046272324
 31
0.0
  0
LINE
  5
38F
330
1F
100
AcDbEntity
  8
LAYER0003
  6
CONTINUOUS
 62
     3
100
AcDbLine
 10
-177.2291400958643
 20
8.537948752723231
 30
0.0
 11
-177.2291400958643
 21
6.537948752723231
 31
0.0
  0
LINE
  5
390
330
1F
100
AcDbEntity
  8
LAYER0003
  6
CONTINUOUS
 62
     3
100
AcDbLine
 10
-172.2291400958643
 20
8.537948752723231
 30
0.0
 11
-172.2291400958643
 21
6.537948752723231
 31
0.0
  0
LINE
  5
391
330
1F
100
AcDbEntity
  8
LAYER0003
  6
CONTINUOUS
 62
     3
100
AcDbLine
 10
-177.2291400958643
 20
8.537948752723231
 30
0.0
 11
-172.2291400958643
 21
8.537948752723231
 31
0.0
  0
LINE
  5
392
330
1F
100
AcDbEntity
  8
LAYER0003
  6
CONTINUOUS
 62
     3
100
AcDbLine
 10
-177.2291400958643
 20
6.537948752723231
 30
0.0
 11
-172.2291400958643
 21
6.537948752723231
 31
0.0
  0
LINE
  5
393
330
1F
100
AcDbEntity
  8
LAYER0003
  6
CONTINUOUS
 62
     3
100
AcDbLine
 10
-193.2291400958643
 20
22.53794875272323
 30
0.0
 11
-191.2291400958643
 21
22.53794875272323
 31
0.0
  0
LINE
  5
394
330
1F
100
AcDbEntity
  8
LAYER0003
  6
CONTINUOUS
 62
     3
100
AcDbLine
 10
-193.2291400958643
 20
27.53794875272323
 30
0.0
 11
-191.2291400958643
 21
27.53794875272323
 31
0.0
  0
LINE
  5
395
330
1F
100
AcDbEntity
  8
LAYER0003
  6
CONTINUOUS
 62
     3
100
AcDbLine
 10
-193.2291400958643
 20
22.53794875272323
 30
0.0
 11
-193.2291400958643
 21
27.53794875272323
 31
0.0
  0
LINE
  5
396
330
1F
100
AcDbEntity
  8
LAYER0003
  6
CONTINUOUS
 62
     3
100
AcDbLine
 10
-191.2291400958643
 20
22.53794875272323
 30
0.0
 11
-191.2291400958643
 21
27.53794875272323
 31
0.0
  0
LINE
  5
397
330
1F
100
AcDbEntity
  8
LAYER0003
  6
CONTINUOUS
 62
     3
100
AcDbLine
 10
-207.2291400958643
 20
6.537948752723231
 30
0.0
 11
-207.2291400958643
 21
8.537948752723231
 31
0.0
  0
LINE
  5
398
330
1F
100
AcDbEntity
  8
LAYER0003
  6
CONTINUOUS
 62
     3
100
AcDbLine
 10
-212.2291400958643
 20
6.537948752723231
 30
0.0
 11
-212.2291400958643
 21
8.537948752723231
 31
0.0
  0
LINE
  5
399
330
1F
100
AcDbEntity
  8
LAYER0003
  6
CONTINUOUS
 62
     3
100
AcDbLine
 10
-207.2291400958643
 20
6.537948752723231
 30
0.0
 11
-212.2291400958643
 21
6.537948752723231
 31
0.0
  0
LINE
  5
39A
330
1F
100
AcDbEntity
  8
LAYER0003
  6
CONTINUOUS
 62
     3
100
AcDbLine
 10
-207.2291400958643
 20
8.537948752723231
 30
0.0
 11
-212.2291400958643
 21
8.537948752723231
 31
0.0
  0
LINE
  5
39B
330
1F
100
AcDbEntity
  8
LAYER0003
  6
CONTINUOUS
 62
     3
100
AcDbLine
 10
-191.2291400958643
 20
-7.462051247276769
 30
0.0
 11
-193.2291400958643
 21
-7.462051247276769
 31
0.0
  0
LINE
  5
39C
330
1F
100
AcDbEntity
  8
LAYER0003
  6
CONTINUOUS
 62
     3
100
AcDbLine
 10
-191.2291400958643
 20
-12.46205124727677
 30
0.0
 11
-193.2291400958643
 21
-12.46205124727677
 31
0.0
  0
LINE
  5
39D
330
1F
100
AcDbEntity
  8
LAYER0003
  6
CONTINUOUS
 62
     3
100
AcDbLine
 10
-191.2291400958643
 20
-7.462051247276769
 30
0.0
 11
-191.2291400958643
 21
-12.46205124727677
 31
0.0
  0
LINE
  5
39E
330
1F
100
AcDbEntity
  8
LAYER0003
  6
CONTINUOUS
 62
     3
100
AcDbLine
 10
-193.2291400958643
 20
-7.462051247276769
 30
0.0
 11
-193.2291400958643
 21
-12.46205124727677
 31
0.0
  0
LINE
  5
39F
330
1F
100
AcDbEntity
  8
LAYER0003
  6
CONTINUOUS
 62
     3
100
AcDbLine
 10
-203.5428485958643
 20
17.43744369272321
 30
0.0
 11
-202.1286350358643
 21
18.85165725272322
 31
0.0
  0
LINE
  5
3A0
330
1F
100
AcDbEntity
  8
LAYER0003
  6
CONTINUOUS
 62
     3
100
AcDbLine
 10
-205.6641689358643
 20
19.55876403272323
 30
0.0
 11
-204.2499553758643
 21
20.97297759272323
 31
0.0
  0
LINE
  5
3A1
330
1F
100
AcDbEntity
  8
LAYER0003
  6
CONTINUOUS
 62
     3
100
AcDbLine
 10
-203.5428485958643
 20
17.43744369272321
 30
0.0
 11
-205.6641689358643
 21
19.55876403272323
 31
0.0
  0
LINE
  5
3A2
330
1F
100
AcDbEntity
  8
LAYER0003
  6
CONTINUOUS
 62
     3
100
AcDbLine
 10
-202.1286350358643
 20
18.85165725272322
 30
0.0
 11
-204.2499553758643
 21
20.97297759272323
 31
0.0
  0
LINE
  5
3A3
330
1F
100
AcDbEntity
  8
LAYER0003
  6
CONTINUOUS
 62
     3
100
AcDbLine
 10
-180.9154315958643
 20
-2.36154618727678
 30
0.0
 11
-182.3296451558643
 21
-3.775759747276787
 31
0.0
  0
LINE
  5
3A4
330
1F
100
AcDbEntity
  8
LAYER0003
  6
CONTINUOUS
 62
     3
100
AcDbLine
 10
-178.7941112558643
 20
-4.482866527276762
 30
0.0
 11
-180.2083248158643
 21
-5.89708008727677
 31
0.0
  0
LINE
  5
3A5
330
1F
100
AcDbEntity
  8
LAYER0003
  6
CONTINUOUS
 62
     3
100
AcDbLine
 10
-180.9154315958643
 20
-2.36154618727678
 30
0.0
 11
-178.7941112558643
 21
-4.482866527276762
 31
0.0
  0
LINE
  5
3A6
330
1F
100
AcDbEntity
  8
LAYER0003
  6
CONTINUOUS
 62
     3
100
AcDbLine
 10
-182.3296451558643
 20
-3.775759747276787
 30
0.0
 11
-180.2083248158643
 21
-5.89708008727677
 31
0.0
  0
LINE
  5
3A7
330
1F
100
AcDbEntity
  8
LAYER0003
  6
CONTINUOUS
 62
     3
100
AcDbLine
 10
-171.2291400958643
 20
7.537948752723231
 30
0.0
 11
-171.2291400958643
 21
-12.46205124727677
 31
0.0
  0
ARC
  5
3A8
330
1F
100
AcDbEntity
  8
LAYER0003
  6
CONTINUOUS
 62
     3
100
AcDbCircle
 10
-169.2291400958643
 20
-12.46205124727677
 30
0.0
 40
2.0
100
AcDbArc
 50
180.0
 51
270.0
  0
LINE
  5
3A9
330
1F
100
AcDbEntity
  8
LAYER0003
  6
CONTINUOUS
 62
     3
100
AcDbLine
 10
-213.2291400958643
 20
7.537948752723231
 30
0.0
 11
-213.2291400958643
 21
-12.46205124727677
 31
0.0
  0
ARC
  5
3AA
330
1F
100
AcDbEntity
  8
LAYER0003
  6
CONTINUOUS
 62
     3
100
AcDbCircle
 10
-215.2291400958643
 20
-12.46205124727677
 30
0.0
 40
2.0
100
AcDbArc
 50
270.0
 51
0.0
  0
LINE
  5
3AB
330
1F
100
AcDbEntity
  8
LAYER0003
  6
CONTINUOUS
 62
     3
100
AcDbLine
 10
-193.9969070458643
 20
5.770181802723222
 30
0.0
 11
-190.4613731458643
 21
9.30571570272324
 31
0.0
  0
LINE
  5
3AC
330
1F
100
AcDbEntity
  8
LAYER0003
  6
CONTINUOUS
 62
     3
100
AcDbLine
 10
-193.9969070458643
 20
9.30571570272324
 30
0.0
 11
-190.4613731458643
 21
5.770181802723222
 31
0.0
  0
CIRCLE
  5
3AD
330
1F
100
AcDbEntity
  8
LAYER0003
  6
CONTINUOUS
 62
     3
100
AcDbCircle
 10
-192.2291400958643
 20
7.537948752723231
 30
0.0
 40
5.0
  0
LINE
  5
3AE
330
1F
100
AcDbEntity
  8
LAYER0003
  6
CONTINUOUS
 62
     3
100
AcDbLine
 10
-157.2291400958643
 20
-32.46205124727678
 30
0.0
 11
-157.2291400958643
 21
-14.46205124727677
 31
0.0
  0
LINE
  5
3AF
330
1F
100
AcDbEntity
  8
LAYER0003
  6
CONTINUOUS
 62
     3
100
AcDbLine
 10
-227.2291400958643
 20
-32.46205124727678
 30
0.0
 11
-227.2291400958643
 21
-14.46205124727677
 31
0.0
  0
LINE
  5
3B0
330
1F
100
AcDbEntity
  8
LAYER0003
  6
CONTINUOUS
 62
     3
100
AcDbLine
 10
-239.7291400958642
 20
-41.96205124727678
 30
0.0
 11
-239.7291400958642
 21
-186.9620512472768
 31
0.0
  0
ARC
  5
3B1
330
1F
100
AcDbEntity
  8
LAYER0003
  6
CONTINUOUS
 62
     3
100
AcDbCircle
 10
-232.2291400958643
 20
-186.9620512472768
 30
0.0
 40
7.5
100
AcDbArc
 50
180.0
 51
270.0
  0
LINE
  5
3B2
330
1F
100
AcDbEntity
  8
LAYER0003
  6
CONTINUOUS
 62
     3
100
AcDbLine
 10
-232.2291400958643
 20
-194.4620512472768
 30
0.0
 11
-152.2291400958643
 21
-194.4620512472768
 31
0.0
  0
ARC
  5
3B3
330
1F
100
AcDbEntity
  8
LAYER0003
  6
CONTINUOUS
 62
     3
100
AcDbCircle
 10
-152.2291400958643
 20
-186.9620512472768
 30
0.0
 40
7.5
100
AcDbArc
 50
270.0
 51
0.0
  0
LINE
  5
3B4
330
1F
100
AcDbEntity
  8
LAYER0003
  6
CONTINUOUS
 62
     3
100
AcDbLine
 10
-144.7291400958643
 20
-186.9620512472768
 30
0.0
 11
-144.7291400958643
 21
-41.96205124727678
 31
0.0
  0
ARC
  5
3B5
330
1F
100
AcDbEntity
  8
LAYER0003
  6
CONTINUOUS
 62
     3
100
AcDbCircle
 10
-152.2291400958643
 20
-41.96205124727678
 30
0.0
 40
7.5
100
AcDbArc
 50
0.0
 51
90.0
  0
LINE
  5
3B6
330
1F
100
AcDbEntity
  8
LAYER0003
  6
CONTINUOUS
 62
     3
100
AcDbLine
 10
-152.2291400958643
 20
-34.46205124727678
 30
0.0
 11
-232.2291400958643
 21
-34.46205124727678
 31
0.0
  0
ARC
  5
3B7
330
1F
100
AcDbEntity
  8
LAYER0003
  6
CONTINUOUS
 62
     3
100
AcDbCircle
 10
-232.2291400958643
 20
-41.96205124727678
 30
0.0
 40
7.5
100
AcDbArc
 50
90.0
 51
180.0
  0
LINE
  5
3B8
330
1F
100
AcDbEntity
  8
LAYER0003
  6
CONTINUOUS
 62
     3
100
AcDbLine
 10
-219.2291400958643
 20
-111.9620512472768
 30
0.0
 11
-219.2291400958643
 21
-50.46205124727678
 31
0.0
  0
ARC
  5
3B9
330
1F
100
AcDbEntity
  8
LAYER0003
  6
CONTINUOUS
 62
     3
100
AcDbCircle
 10
-217.7291400958643
 20
-50.46205124727678
 30
0.0
 40
1.5
100
AcDbArc
 50
90.0
 51
180.0
  0
LINE
  5
3BA
330
1F
100
AcDbEntity
  8
LAYER0003
  6
CONTINUOUS
 62
     3
100
AcDbLine
 10
-217.7291400958643
 20
-48.96205124727678
 30
0.0
 11
-166.7291400958643
 21
-48.96205124727678
 31
0.0
  0
ARC
  5
3BB
330
1F
100
AcDbEntity
  8
LAYER0003
  6
CONTINUOUS
 62
     3
100
AcDbCircle
 10
-166.7291400958643
 20
-50.46205124727678
 30
0.0
 40
1.5
100
AcDbArc
 50
0.0
 51
90.0
  0
LINE
  5
3BC
330
1F
100
AcDbEntity
  8
LAYER0003
  6
CONTINUOUS
 62
     3
100
AcDbLine
 10
-165.2291400958643
 20
-50.46205124727678
 30
0.0
 11
-165.2291400958643
 21
-111.9620512472768
 31
0.0
  0
ARC
  5
3BD
330
1F
100
AcDbEntity
  8
LAYER0003
  6
CONTINUOUS
 62
     3
100
AcDbCircle
 10
-166.7291400958643
 20
-111.9620512472768
 30
0.0
 40
1.5
100
AcDbArc
 50
270.0
 51
0.0
  0
LINE
  5
3BE
330
1F
100
AcDbEntity
  8
LAYER0003
  6
CONTINUOUS
 62
     3
100
AcDbLine
 10
-166.7291400958643
 20
-113.4620512472768
 30
0.0
 11
-217.7291400958643
 21
-113.4620512472768
 31
0.0
  0
ARC
  5
3BF
330
1F
100
AcDbEntity
  8
LAYER0003
  6
CONTINUOUS
 62
     3
100
AcDbCircle
 10
-217.7291400958643
 20
-111.9620512472768
 30
0.0
 40
1.5
100
AcDbArc
 50
180.0
 51
270.0
  0
LINE
  5
3C0
330
1F
100
AcDbEntity
  8
LAYER0003
  6
CONTINUOUS
 62
     3
100
AcDbLine
 10
-220.2291400958643
 20
-111.9620512472768
 30
0.0
 11
-220.2291400958643
 21
-50.46205124727678
 31
0.0
  0
ARC
  5
3C1
330
1F
100
AcDbEntity
  8
LAYER0003
  6
CONTINUOUS
 62
     3
100
AcDbCircle
 10
-217.7291400958643
 20
-50.46205124727678
 30
0.0
 40
2.5
100
AcDbArc
 50
90.0
 51
180.0
  0
LINE
  5
3C2
330
1F
100
AcDbEntity
  8
LAYER0003
  6
CONTINUOUS
 62
     3
100
AcDbLine
 10
-217.7291400958643
 20
-47.96205124727678
 30
0.0
 11
-166.7291400958643
 21
-47.96205124727678
 31
0.0
  0
ARC
  5
3C3
330
1F
100
AcDbEntity
  8
LAYER0003
  6
CONTINUOUS
 62
     3
100
AcDbCircle
 10
-166.7291400958643
 20
-50.46205124727678
 30
0.0
 40
2.5
100
AcDbArc
 50
0.0
 51
90.0
  0
LINE
  5
3C4
330
1F
100
AcDbEntity
  8
LAYER0003
  6
CONTINUOUS
 62
     3
100
AcDbLine
 10
-164.2291400958643
 20
-50.46205124727678
 30
0.0
 11
-164.2291400958643
 21
-111.9620512472768
 31
0.0
  0
ARC
  5
3C5
330
1F
100
AcDbEntity
  8
LAYER0003
  6
CONTINUOUS
 62
     3
100
AcDbCircle
 10
-166.7291400958643
 20
-111.9620512472768
 30
0.0
 40
2.5
100
AcDbArc
 50
270.0
 51
0.0
  0
LINE
  5
3C6
330
1F
100
AcDbEntity
  8
LAYER0003
  6
CONTINUOUS
 62
     3
100
AcDbLine
 10
-166.7291400958643
 20
-114.4620512472768
 30
0.0
 11
-217.7291400958643
 21
-114.4620512472768
 31
0.0
  0
ARC
  5
3C7
330
1F
100
AcDbEntity
  8
LAYER0003
  6
CONTINUOUS
 62
     3
100
AcDbCircle
 10
-217.7291400958643
 20
-111.9620512472768
 30
0.0
 40
2.5
100
AcDbArc
 50
180.0
 51
270.0
  0
LINE
  5
3C8
330
1F
100
AcDbEntity
  8
LAYER0003
  6
CONTINUOUS
 62
     3
100
AcDbLine
 10
12.15015078461949
 20
-13.46205124727674
 30
0.0
 11
19.75015078461946
 21
-13.46205124727674
 31
0.0
  0
LINE
  5
3C9
330
1F
100
AcDbEntity
  8
LAYER0003
  6
CONTINUOUS
 62
     3
100
AcDbLine
 10
19.75015078461946
 20
-13.46205124727674
 30
0.0
 11
19.75015078461946
 21
-14.46205124727674
 31
0.0
  0
LINE
  5
3CA
330
1F
100
AcDbEntity
  8
LAYER0003
  6
CONTINUOUS
 62
     3
100
AcDbLine
 10
12.15015078461949
 20
-13.46205124727674
 30
0.0
 11
12.15015078461949
 21
-14.46205124727674
 31
0.0
  0
LINE
  5
3CB
330
1F
100
AcDbEntity
  8
LAYER0003
  6
CONTINUOUS
 62
     3
100
AcDbLine
 10
12.15015078461949
 20
-14.46205124727674
 30
0.0
 11
19.75015078461946
 21
-14.46205124727674
 31
0.0
  0
LINE
  5
3CC
330
1F
100
AcDbEntity
  8
LAYER0003
  6
CONTINUOUS
 62
     3
100
AcDbLine
 10
16.08412537461948
 20
-13.46205124727674
 30
0.0
 11
15.81617618461946
 21
-14.46205124727674
 31
0.0
  0
LINE
  5
3CD
330
1F
100
AcDbEntity
  8
LAYER0003
  6
CONTINUOUS
 62
     3
100
AcDbLine
 10
12.4501507846195
 20
-13.46205124727674
 30
0.0
 11
12.4501507846195
 21
-12.63363509727673
 31
0.0
  0
ARC
  5
3CE
330
1F
100
AcDbEntity
  8
LAYER0003
  6
CONTINUOUS
 62
     3
100
AcDbCircle
 10
13.9501507846195
 20
-12.63363509727673
 30
0.0
 40
1.5
100
AcDbArc
 50
105.4660099499999
 51
180.0
  0
ARC
  5
3CF
330
1F
100
AcDbEntity
  8
LAYER0003
  6
CONTINUOUS
 62
     3
100
AcDbCircle
 10
15.9501507846195
 20
-19.86205124727675
 30
0.0
 40
9.0
100
AcDbArc
 50
74.53399004999997
 51
105.46600995
  0
ARC
  5
3D0
330
1F
100
AcDbEntity
  8
LAYER0003
  6
CONTINUOUS
 62
     3
100
AcDbCircle
 10
17.9501507846195
 20
-12.63363509727673
 30
0.0
 40
1.5
100
AcDbArc
 50
0.0
 51
74.5339900500001
  0
LINE
  5
3D1
330
1F
100
AcDbEntity
  8
LAYER0003
  6
CONTINUOUS
 62
     3
100
AcDbLine
 10
19.4501507846195
 20
-12.63363509727673
 30
0.0
 11
19.4501507846195
 21
-13.46205124727674
 31
0.0
  0
LINE
  5
3D2
330
1F
100
AcDbEntity
  8
LAYER0003
  6
CONTINUOUS
 62
     3
100
AcDbLine
 10
15.9501507846195
 20
-10.86205124727675
 30
0.0
 11
15.9501507846195
 21
-12.26205124727675
 31
0.0
  0
LINE
  5
3D3
330
1F
100
AcDbEntity
  8
LAYER0003
  6
CONTINUOUS
 62
     3
100
AcDbLine
 10
36.15015078461949
 20
-13.46205124727674
 30
0.0
 11
43.75015078461945
 21
-13.46205124727674
 31
0.0
  0
LINE
  5
3D4
330
1F
100
AcDbEntity
  8
LAYER0003
  6
CONTINUOUS
 62
     3
100
AcDbLine
 10
43.75015078461945
 20
-13.46205124727674
 30
0.0
 11
43.75015078461945
 21
-14.46205124727674
 31
0.0
  0
LINE
  5
3D5
330
1F
100
AcDbEntity
  8
LAYER0003
  6
CONTINUOUS
 62
     3
100
AcDbLine
 10
36.15015078461949
 20
-13.46205124727674
 30
0.0
 11
36.15015078461949
 21
-14.46205124727674
 31
0.0
  0
LINE
  5
3D6
330
1F
100
AcDbEntity
  8
LAYER0003
  6
CONTINUOUS
 62
     3
100
AcDbLine
 10
36.15015078461949
 20
-14.46205124727674
 30
0.0
 11
43.75015078461945
 21
-14.46205124727674
 31
0.0
  0
LINE
  5
3D7
330
1F
100
AcDbEntity
  8
LAYER0003
  6
CONTINUOUS
 62
     3
100
AcDbLine
 10
40.08412537461948
 20
-13.46205124727674
 30
0.0
 11
39.81617618461946
 21
-14.46205124727674
 31
0.0
  0
LINE
  5
3D8
330
1F
100
AcDbEntity
  8
LAYER0003
  6
CONTINUOUS
 62
     3
100
AcDbLine
 10
36.4501507846195
 20
-13.46205124727674
 30
0.0
 11
36.4501507846195
 21
-12.63363509727673
 31
0.0
  0
ARC
  5
3D9
330
1F
100
AcDbEntity
  8
LAYER0003
  6
CONTINUOUS
 62
     3
100
AcDbCircle
 10
37.9501507846195
 20
-12.63363509727673
 30
0.0
 40
1.5
100
AcDbArc
 50
105.4660099499999
 51
180.0
  0
ARC
  5
3DA
330
1F
100
AcDbEntity
  8
LAYER0003
  6
CONTINUOUS
 62
     3
100
AcDbCircle
 10
39.9501507846195
 20
-19.86205124727675
 30
0.0
 40
9.0
100
AcDbArc
 50
74.53399004999997
 51
105.46600995
  0
ARC
  5
3DB
330
1F
100
AcDbEntity
  8
LAYER0003
  6
CONTINUOUS
 62
     3
100
AcDbCircle
 10
41.9501507846195
 20
-12.63363509727673
 30
0.0
 40
1.5
100
AcDbArc
 50
0.0
 51
74.5339900500001
  0
LINE
  5
3DC
330
1F
100
AcDbEntity
  8
LAYER0003
  6
CONTINUOUS
 62
     3
100
AcDbLine
 10
43.4501507846195
 20
-12.63363509727673
 30
0.0
 11
43.4501507846195
 21
-13.46205124727674
 31
0.0
  0
LINE
  5
3DD
330
1F
100
AcDbEntity
  8
LAYER0003
  6
CONTINUOUS
 62
     3
100
AcDbLine
 10
39.9501507846195
 20
-10.86205124727675
 30
0.0
 11
39.9501507846195
 21
-12.26205124727675
 31
0.0
  0
LINE
  5
3DE
330
1F
100
AcDbEntity
  8
LAYER0003
  6
CONTINUOUS
 62
     3
100
AcDbLine
 10
-18.34984921538071
 20
2.53794875272326
 30
0.0
 11
-18.34984921538071
 21
12.53794875272326
 31
0.0
  0
LINE
  5
3DF
330
1F
100
AcDbEntity
  8
LAYER0003
  6
CONTINUOUS
 62
     3
100
AcDbLine
 10
-18.34984921538071
 20
12.15674875272325
 30
0.0
 11
-21.43485003538071
 21
12.15674875272325
 31
0.0
  0
LINE
  5
3E0
330
1F
100
AcDbEntity
  8
LAYER0003
  6
CONTINUOUS
 62
     3
100
AcDbLine
 10
-18.34984921538071
 20
2.919148752723267
 30
0.0
 11
-21.43485003538071
 21
2.919148752723267
 31
0.0
  0
LINE
  5
3E1
330
1F
100
AcDbEntity
  8
LAYER0003
  6
CONTINUOUS
 62
     3
100
AcDbLine
 10
-21.43485003538071
 20
12.15674875272325
 30
0.0
 11
-21.84984921538071
 21
11.43794875272327
 31
0.0
  0
LINE
  5
3E2
330
1F
100
AcDbEntity
  8
LAYER0003
  6
CONTINUOUS
 62
     3
100
AcDbLine
 10
-21.43485003538071
 20
2.919148752723267
 30
0.0
 11
-21.84984921538071
 21
3.637948752723254
 31
0.0
  0
LINE
  5
3E3
330
1F
100
AcDbEntity
  8
LAYER0003
  6
CONTINUOUS
 62
     3
100
AcDbLine
 10
-21.84984921538071
 20
3.637948752723254
 30
0.0
 11
-21.84984921538071
 21
11.43794875272327
 31
0.0
  0
ARC
  5
3E4
330
1F
100
AcDbEntity
  8
LAYER0003
  6
CONTINUOUS
 62
     3
100
AcDbCircle
 10
-15.21664022538072
 20
7.53794875272326
 30
0.0
 40
6.63320899
100
AcDbArc
 50
159.6253525400001
 51
200.3746474599999
  0
ARC
  5
3E5
330
1F
100
AcDbEntity
  8
LAYER0003
  6
CONTINUOUS
 62
     3
100
AcDbCircle
 10
-19.43485021538071
 20
4.073848752723258
 30
0.0
 40
2.3094008
100
AcDbArc
 50
150.0000094400002
 51
209.9999905599998
  0
ARC
  5
3E6
330
1F
100
AcDbEntity
  8
LAYER0003
  6
CONTINUOUS
 62
     3
100
AcDbCircle
 10
-19.43485021538071
 20
11.00204875272326
 30
0.0
 40
2.3094008
100
AcDbArc
 50
150.0000094400002
 51
209.9999905599998
  0
LINE
  5
3E7
330
1F
100
AcDbEntity
  8
LAYER0003
  6
CONTINUOUS
 62
     3
100
AcDbLine
 10
-18.34984921538071
 20
9.847348752723242
 30
0.0
 11
-21.43485003538071
 21
9.847348752723242
 31
0.0
  0
LINE
  5
3E8
330
1F
100
AcDbEntity
  8
LAYER0003
  6
CONTINUOUS
 62
     3
100
AcDbLine
 10
-18.34984921538071
 20
5.228548752723249
 30
0.0
 11
-21.43485003538071
 21
5.228548752723249
 31
0.0
  0
LINE
  5
3E9
330
1F
100
AcDbEntity
  8
LAYER0003
  6
CONTINUOUS
 62
     3
100
AcDbLine
 10
-187.6103400958643
 20
7.537948752723231
 30
0.0
 11
-189.9197400958643
 21
11.53794689272323
 31
0.0
  0
LINE
  5
3EA
330
1F
100
AcDbEntity
  8
LAYER0003
  6
CONTINUOUS
 62
     3
100
AcDbLine
 10
-189.9197400958643
 20
11.53794689272323
 30
0.0
 11
-194.5385400958643
 21
11.53794689272323
 31
0.0
  0
LINE
  5
3EB
330
1F
100
AcDbEntity
  8
LAYER0003
  6
CONTINUOUS
 62
     3
100
AcDbLine
 10
-194.5385400958643
 20
11.53794689272323
 30
0.0
 11
-196.8479400958643
 21
7.537948752723231
 31
0.0
  0
LINE
  5
3EC
330
1F
100
AcDbEntity
  8
LAYER0003
  6
CONTINUOUS
 62
     3
100
AcDbLine
 10
-196.8479400958643
 20
7.537948752723231
 30
0.0
 11
-194.5385400958643
 21
3.537950622723237
 31
0.0
  0
LINE
  5
3ED
330
1F
100
AcDbEntity
  8
LAYER0003
  6
CONTINUOUS
 62
     3
100
AcDbLine
 10
-194.5385400958643
 20
3.537950622723237
 30
0.0
 11
-189.9197400958643
 21
3.537950622723237
 31
0.0
  0
LINE
  5
3EE
330
1F
100
AcDbEntity
  8
LAYER0003
  6
CONTINUOUS
 62
     3
100
AcDbLine
 10
-189.9197400958643
 20
3.537950622723237
 30
0.0
 11
-187.6103400958643
 21
7.537948752723231
 31
0.0
  0
CIRCLE
  5
3EF
330
1F
100
AcDbEntity
  8
LAYER0003
  6
CONTINUOUS
 62
     3
100
AcDbCircle
 10
-192.2291400958643
 20
7.537948752723231
 30
0.0
 40
3.9
  0
LINE
  5
3F0
330
1F
100
AcDbEntity
  8
LAYER0003
  6
CONTINUOUS
 62
     3
100
AcDbLine
 10
-215.4291400958643
 20
-13.46205124727677
 30
0.0
 11
-223.0291400958643
 21
-13.46205124727677
 31
0.0
  0
LINE
  5
3F1
330
1F
100
AcDbEntity
  8
LAYER0003
  6
CONTINUOUS
 62
     3
100
AcDbLine
 10
-223.0291400958643
 20
-13.46205124727677
 30
0.0
 11
-223.0291400958643
 21
-14.46205124727677
 31
0.0
  0
LINE
  5
3F2
330
1F
100
AcDbEntity
  8
LAYER0003
  6
CONTINUOUS
 62
     3
100
AcDbLine
 10
-215.4291400958643
 20
-13.46205124727677
 30
0.0
 11
-215.4291400958643
 21
-14.46205124727677
 31
0.0
  0
LINE
  5
3F3
330
1F
100
AcDbEntity
  8
LAYER0003
  6
CONTINUOUS
 62
     3
100
AcDbLine
 10
-219.3631146858643
 20
-13.46205124727677
 30
0.0
 11
-219.0951654958643
 21
-14.46205124727677
 31
0.0
  0
LINE
  5
3F4
330
1F
100
AcDbEntity
  8
LAYER0003
  6
CONTINUOUS
 62
     3
100
AcDbLine
 10
-215.7291400958643
 20
-13.46205124727677
 30
0.0
 11
-215.7291400958643
 21
-12.63363509727676
 31
0.0
  0
ARC
  5
3F5
330
1F
100
AcDbEntity
  8
LAYER0003
  6
CONTINUOUS
 62
     3
100
AcDbCircle
 10
-217.2291400958643
 20
-12.63363509727676
 30
0.0
 40
1.5
100
AcDbArc
 50
0.0
 51
74.53399004999997
  0
ARC
  5
3F6
330
1F
100
AcDbEntity
  8
LAYER0003
  6
CONTINUOUS
 62
     3
100
AcDbCircle
 10
-219.2291400958643
 20
-19.86205124727677
 30
0.0
 40
9.0
100
AcDbArc
 50
74.53399005
 51
105.46600995
  0
ARC
  5
3F7
330
1F
100
AcDbEntity
  8
LAYER0003
  6
CONTINUOUS
 62
     3
100
AcDbCircle
 10
-221.2291400958643
 20
-12.63363509727676
 30
0.0
 40
1.5
100
AcDbArc
 50
105.46600995
 51
180.0
  0
LINE
  5
3F8
330
1F
100
AcDbEntity
  8
LAYER0003
  6
CONTINUOUS
 62
     3
100
AcDbLine
 10
-222.7291400958643
 20
-12.63363509727676
 30
0.0
 11
-222.7291400958643
 21
-13.46205124727677
 31
0.0
  0
LINE
  5
3F9
330
1F
100
AcDbEntity
  8
LAYER0003
  6
CONTINUOUS
 62
     3
100
AcDbLine
 10
-219.2291400958643
 20
-10.86205124727677
 30
0.0
 11
-219.2291400958643
 21
-12.26205124727678
 31
0.0
  0
LINE
  5
3FA
330
1F
100
AcDbEntity
  8
LAYER0003
  6
CONTINUOUS
 62
     3
100
AcDbLine
 10
-161.4291400958643
 20
-13.46205124727677
 30
0.0
 11
-169.0291400958643
 21
-13.46205124727677
 31
0.0
  0
LINE
  5
3FB
330
1F
100
AcDbEntity
  8
LAYER0003
  6
CONTINUOUS
 62
     3
100
AcDbLine
 10
-169.0291400958643
 20
-13.46205124727677
 30
0.0
 11
-169.0291400958643
 21
-14.46205124727677
 31
0.0
  0
LINE
  5
3FC
330
1F
100
AcDbEntity
  8
LAYER0003
  6
CONTINUOUS
 62
     3
100
AcDbLine
 10
-161.4291400958643
 20
-13.46205124727677
 30
0.0
 11
-161.4291400958643
 21
-14.46205124727677
 31
0.0
  0
LINE
  5
3FD
330
1F
100
AcDbEntity
  8
LAYER0003
  6
CONTINUOUS
 62
     3
100
AcDbLine
 10
-165.3631146858643
 20
-13.46205124727677
 30
0.0
 11
-165.0951654958643
 21
-14.46205124727677
 31
0.0
  0
LINE
  5
3FE
330
1F
100
AcDbEntity
  8
LAYER0003
  6
CONTINUOUS
 62
     3
100
AcDbLine
 10
-161.7291400958643
 20
-13.46205124727677
 30
0.0
 11
-161.7291400958643
 21
-12.63363509727676
 31
0.0
  0
ARC
  5
3FF
330
1F
100
AcDbEntity
  8
LAYER0003
  6
CONTINUOUS
 62
     3
100
AcDbCircle
 10
-163.2291400958643
 20
-12.63363509727676
 30
0.0
 40
1.5
100
AcDbArc
 50
0.0
 51
74.5339900500001
  0
ARC
  5
400
330
1F
100
AcDbEntity
  8
LAYER0003
  6
CONTINUOUS
 62
     3
100
AcDbCircle
 10
-165.2291400958643
 20
-19.86205124727677
 30
0.0
 40
9.0
100
AcDbArc
 50
74.53399004999997
 51
105.46600995
  0
ARC
  5
401
330
1F
100
AcDbEntity
  8
LAYER0003
  6
CONTINUOUS
 62
     3
100
AcDbCircle
 10
-167.2291400958643
 20
-12.63363509727676
 30
0.0
 40
1.5
100
AcDbArc
 50
105.4660099499999
 51
180.0
  0
LINE
  5
402
330
1F
100
AcDbEntity
  8
LAYER0003
  6
CONTINUOUS
 62
     3
100
AcDbLine
 10
-168.7291400958643
 20
-12.63363509727676
 30
0.0
 11
-168.7291400958643
 21
-13.46205124727677
 31
0.0
  0
LINE
  5
403
330
1F
100
AcDbEntity
  8
LAYER0003
  6
CONTINUOUS
 62
     3
100
AcDbLine
 10
-165.2291400958643
 20
-10.86205124727677
 30
0.0
 11
-165.2291400958643
 21
-12.26205124727678
 31
0.0
  0
ARC
  5
404
330
1F
100
AcDbEntity
  8
LAYER0003
  6
CONTINUOUS
 62
     3
100
AcDbCircle
 10
-192.2291400958643
 20
7.537948752723231
 30
0.0
 40
21.0
100
AcDbArc
 50
70.37693353
 51
199.6230664747223
  0
ARC
  5
405
330
1F
100
AcDbEntity
  8
LAYER0003
  6
CONTINUOUS
 62
     3
100
AcDbCircle
 10
-192.2291400958643
 20
7.537948752723231
 30
0.0
 40
21.0
100
AcDbArc
 50
207.2472098380334
 51
242.7527901619629
  0
ARC
  5
406
330
1F
100
AcDbEntity
  8
LAYER0003
  6
CONTINUOUS
 62
     3
100
AcDbCircle
 10
-192.2291400958643
 20
7.537948752723231
 30
0.0
 40
21.0
100
AcDbArc
 50
250.3769335250265
 51
19.62306646999994
  0
LINE
  5
407
330
1F
100
AcDbEntity
  8
LAYER0003
  6
CONTINUOUS
 62
     3
100
AcDbLine
 10
168.6444730880567
 20
-32.46205124727678
 30
0.0
 11
238.6444730880567
 21
-32.46205124727678
 31
0.0
  0
CIRCLE
  5
408
330
1F
100
AcDbEntity
  8
LAYER0003
  6
CONTINUOUS
 62
     3
100
AcDbCircle
 10
247.6444730880567
 20
-91.96205124727678
 30
0.0
 40
2.1
  0
CIRCLE
  5
409
330
1F
100
AcDbEntity
  8
LAYER0003
  6
CONTINUOUS
 62
     3
100
AcDbCircle
 10
247.6444730880567
 20
-136.9620512472768
 30
0.0
 40
2.1
  0
ARC
  5
40A
330
1F
100
AcDbEntity
  8
LAYER0003
  6
CONTINUOUS
 62
     3
100
AcDbCircle
 10
171.6444730880567
 20
-17.46205124727677
 30
0.0
 40
3.0
100
AcDbArc
 50
90.00000000000001
 51
180.0
  0
ARC
  5
40B
330
1F
100
AcDbEntity
  8
LAYER0003
  6
CONTINUOUS
 62
     3
100
AcDbCircle
 10
235.6444730880567
 20
-17.46205124727677
 30
0.0
 40
3.0
100
AcDbArc
 50
0.0
 51
90.0
  0
ARC
  5
40C
330
1F
100
AcDbEntity
  8
LAYER0003
  6
CONTINUOUS
 62
     3
100
AcDbCircle
 10
203.6444730880567
 20
7.537948752723231
 30
0.0
 40
29.0
100
AcDbArc
 50
153.08001262
 51
166.69967653
  0
ARC
  5
40D
330
1F
100
AcDbEntity
  8
LAYER0003
  6
CONTINUOUS
 62
     3
100
AcDbCircle
 10
203.6444730880567
 20
7.537948752723231
 30
0.0
 40
29.0
100
AcDbArc
 50
13.30032347000005
 51
153.0800126243383
  0
LINE
  5
40E
330
1F
100
AcDbEntity
  8
LAYER0003
  6
CONTINUOUS
 62
     3
100
AcDbLine
 10
168.6444730880567
 20
-14.46205124727677
 30
0.0
 11
175.4223234380567
 21
14.20955046272324
 31
0.0
  0
LINE
  5
40F
330
1F
100
AcDbEntity
  8
LAYER0003
  6
CONTINUOUS
 62
     3
100
AcDbLine
 10
238.6444730880567
 20
-14.46205124727677
 30
0.0
 11
231.8666227280567
 21
14.20955046272324
 31
0.0
  0
LINE
  5
410
330
1F
100
AcDbEntity
  8
LAYER0003
  6
CONTINUOUS
 62
     3
100
AcDbLine
 10
182.6444730880567
 20
7.537948752723231
 30
0.0
 11
182.6444730880567
 21
-12.46205124727677
 31
0.0
  0
ARC
  5
411
330
1F
100
AcDbEntity
  8
LAYER0003
  6
CONTINUOUS
 62
     3
100
AcDbCircle
 10
180.6444730880567
 20
-12.46205124727677
 30
0.0
 40
2.0
100
AcDbArc
 50
270.0
 51
0.0
  0
LINE
  5
412
330
1F
100
AcDbEntity
  8
LAYER0003
  6
CONTINUOUS
 62
     3
100
AcDbLine
 10
224.6444730880567
 20
7.537948752723231
 30
0.0
 11
224.6444730880567
 21
-12.46205124727677
 31
0.0
  0
ARC
  5
413
330
1F
100
AcDbEntity
  8
LAYER0003
  6
CONTINUOUS
 62
     3
100
AcDbCircle
 10
226.6444730880567
 20
-12.46205124727677
 30
0.0
 40
2.0
100
AcDbArc
 50
180.0
 51
270.0
  0
LINE
  5
414
330
1F
100
AcDbEntity
  8
LAYER0003
  6
CONTINUOUS
 62
     3
100
AcDbLine
 10
168.6444730880567
 20
-14.46205124727677
 30
0.0
 11
168.6444730880567
 21
-46.59014946643578
 31
0.0
  0
LINE
  5
415
330
1F
100
AcDbEntity
  8
LAYER0003
  6
CONTINUOUS
 62
     3
100
AcDbLine
 10
238.6444730880567
 20
-14.46205124727677
 30
0.0
 11
238.6444730880567
 21
-46.59014946643574
 31
0.0
  0
LINE
  5
416
330
1F
100
AcDbEntity
  8
LAYER0003
  6
CONTINUOUS
 62
     3
100
AcDbLine
 10
251.1444730880567
 20
-41.96205124727678
 30
0.0
 11
251.1444730880567
 21
-186.9620512472768
 31
0.0
  0
ARC
  5
417
330
1F
100
AcDbEntity
  8
LAYER0003
  6
CONTINUOUS
 62
     3
100
AcDbCircle
 10
243.6444730880567
 20
-186.9620512472768
 30
0.0
 40
7.5
100
AcDbArc
 50
270.0
 51
0.0
  0
LINE
  5
418
330
1F
100
AcDbEntity
  8
LAYER0003
  6
CONTINUOUS
 62
     3
100
AcDbLine
 10
243.6444730880567
 20
-194.4620512472768
 30
0.0
 11
163.6444730880567
 21
-194.4620512472768
 31
0.0
  0
ARC
  5
419
330
1F
100
AcDbEntity
  8
LAYER0003
  6
CONTINUOUS
 62
     3
100
AcDbCircle
 10
163.6444730880567
 20
-186.9620512472768
 30
0.0
 40
7.5
100
AcDbArc
 50
180.0
 51
270.0
  0
ARC
  5
41A
330
1F
100
AcDbEntity
  8
LAYER0003
  6
CONTINUOUS
 62
     3
100
AcDbCircle
 10
163.6444730880567
 20
-41.96205124727678
 30
0.0
 40
7.5
100
AcDbArc
 50
90.00000000000001
 51
180.0
  0
ARC
  5
41B
330
1F
100
AcDbEntity
  8
LAYER0003
  6
CONTINUOUS
 62
     3
100
AcDbCircle
 10
243.6444730880567
 20
-41.96205124727678
 30
0.0
 40
7.5
100
AcDbArc
 50
0.0
 51
90.0
  0
LINE
  5
41C
330
1F
100
AcDbEntity
  8
LAYER0003
  6
CONTINUOUS
 62
     3
100
AcDbLine
 10
226.8444730880566
 20
-13.46205124727677
 30
0.0
 11
234.4444730880567
 21
-13.46205124727677
 31
0.0
  0
LINE
  5
41D
330
1F
100
AcDbEntity
  8
LAYER0003
  6
CONTINUOUS
 62
     3
100
AcDbLine
 10
234.4444730880567
 20
-13.46205124727677
 30
0.0
 11
234.4444730880567
 21
-14.46205124727677
 31
0.0
  0
LINE
  5
41E
330
1F
100
AcDbEntity
  8
LAYER0003
  6
CONTINUOUS
 62
     3
100
AcDbLine
 10
226.8444730880566
 20
-13.46205124727677
 30
0.0
 11
226.8444730880566
 21
-14.46205124727677
 31
0.0
  0
LINE
  5
41F
330
1F
100
AcDbEntity
  8
LAYER0003
  6
CONTINUOUS
 62
     3
100
AcDbLine
 10
230.7784476780567
 20
-13.46205124727677
 30
0.0
 11
230.5104984880567
 21
-14.46205124727677
 31
0.0
  0
LINE
  5
420
330
1F
100
AcDbEntity
  8
LAYER0003
  6
CONTINUOUS
 62
     3
100
AcDbLine
 10
227.1444730880567
 20
-13.46205124727677
 30
0.0
 11
227.1444730880567
 21
-12.63363509727676
 31
0.0
  0
ARC
  5
421
330
1F
100
AcDbEntity
  8
LAYER0003
  6
CONTINUOUS
 62
     3
100
AcDbCircle
 10
228.6444730880567
 20
-12.63363509727676
 30
0.0
 40
1.5
100
AcDbArc
 50
105.46600995
 51
180.0
  0
ARC
  5
422
330
1F
100
AcDbEntity
  8
LAYER0003
  6
CONTINUOUS
 62
     3
100
AcDbCircle
 10
230.6444730880567
 20
-19.86205124727677
 30
0.0
 40
9.0
100
AcDbArc
 50
74.53399005
 51
105.46600995
  0
ARC
  5
423
330
1F
100
AcDbEntity
  8
LAYER0003
  6
CONTINUOUS
 62
     3
100
AcDbCircle
 10
232.6444730880567
 20
-12.63363509727676
 30
0.0
 40
1.5
100
AcDbArc
 50
0.0
 51
74.53399004999994
  0
LINE
  5
424
330
1F
100
AcDbEntity
  8
LAYER0003
  6
CONTINUOUS
 62
     3
100
AcDbLine
 10
234.1444730880567
 20
-12.63363509727676
 30
0.0
 11
234.1444730880567
 21
-13.46205124727677
 31
0.0
  0
LINE
  5
425
330
1F
100
AcDbEntity
  8
LAYER0003
  6
CONTINUOUS
 62
     3
100
AcDbLine
 10
230.6444730880567
 20
-10.86205124727677
 30
0.0
 11
230.6444730880567
 21
-12.26205124727678
 31
0.0
  0
LINE
  5
426
330
1F
100
AcDbEntity
  8
LAYER0003
  6
CONTINUOUS
 62
     3
100
AcDbLine
 10
172.8444730880566
 20
-13.46205124727677
 30
0.0
 11
180.4444730880567
 21
-13.46205124727677
 31
0.0
  0
LINE
  5
427
330
1F
100
AcDbEntity
  8
LAYER0003
  6
CONTINUOUS
 62
     3
100
AcDbLine
 10
180.4444730880567
 20
-13.46205124727677
 30
0.0
 11
180.4444730880567
 21
-14.46205124727677
 31
0.0
  0
LINE
  5
428
330
1F
100
AcDbEntity
  8
LAYER0003
  6
CONTINUOUS
 62
     3
100
AcDbLine
 10
172.8444730880566
 20
-13.46205124727677
 30
0.0
 11
172.8444730880566
 21
-14.46205124727677
 31
0.0
  0
LINE
  5
429
330
1F
100
AcDbEntity
  8
LAYER0003
  6
CONTINUOUS
 62
     3
100
AcDbLine
 10
176.7784476780567
 20
-13.46205124727677
 30
0.0
 11
176.5104984880567
 21
-14.46205124727677
 31
0.0
  0
LINE
  5
42A
330
1F
100
AcDbEntity
  8
LAYER0003
  6
CONTINUOUS
 62
     3
100
AcDbLine
 10
173.1444730880567
 20
-13.46205124727677
 30
0.0
 11
173.1444730880567
 21
-12.63363509727676
 31
0.0
  0
ARC
  5
42B
330
1F
100
AcDbEntity
  8
LAYER0003
  6
CONTINUOUS
 62
     3
100
AcDbCircle
 10
174.6444730880567
 20
-12.63363509727676
 30
0.0
 40
1.5
100
AcDbArc
 50
105.4660099499999
 51
180.0
  0
ARC
  5
42C
330
1F
100
AcDbEntity
  8
LAYER0003
  6
CONTINUOUS
 62
     3
100
AcDbCircle
 10
176.6444730880567
 20
-19.86205124727677
 30
0.0
 40
9.0
100
AcDbArc
 50
74.53399004999996
 51
105.46600995
  0
ARC
  5
42D
330
1F
100
AcDbEntity
  8
LAYER0003
  6
CONTINUOUS
 62
     3
100
AcDbCircle
 10
178.6444730880567
 20
-12.63363509727676
 30
0.0
 40
1.5
100
AcDbArc
 50
0.0
 51
74.5339900500001
  0
LINE
  5
42E
330
1F
100
AcDbEntity
  8
LAYER0003
  6
CONTINUOUS
 62
     3
100
AcDbLine
 10
180.1444730880567
 20
-12.63363509727676
 30
0.0
 11
180.1444730880567
 21
-13.46205124727677
 31
0.0
  0
LINE
  5
42F
330
1F
100
AcDbEntity
  8
LAYER0003
  6
CONTINUOUS
 62
     3
100
AcDbLine
 10
176.6444730880567
 20
-10.86205124727677
 30
0.0
 11
176.6444730880567
 21
-12.26205124727678
 31
0.0
  0
LINE
  5
430
330
1F
100
AcDbEntity
  8
LAYER0003
  6
CONTINUOUS
 62
     3
100
AcDbLine
 10
156.1444730880567
 20
-186.9620512472768
 30
0.0
 11
156.1444730880567
 21
-177.5654841272768
 31
0.0
  0
LINE
  5
431
330
1F
100
AcDbEntity
  8
LAYER0003
  6
CONTINUOUS
 62
     3
100
AcDbLine
 10
156.1444730880567
 20
-141.5654991272768
 30
0.0
 11
156.1444730880567
 21
-41.96205124727678
 31
0.0
  0
ARC
  5
432
330
1F
100
AcDbEntity
  8
LAYER0003
  6
CONTINUOUS
 62
     3
100
AcDbCircle
 10
203.6444730880567
 20
7.537948752723231
 30
0.0
 40
5.0
100
AcDbArc
 50
292.5000000000002
 51
247.4999999999998
  0
LINE
  5
433
330
1F
100
AcDbEntity
  8
LAYER0003
  6
CONTINUOUS
 62
     3
100
AcDbLine
 10
163.6444730880567
 20
-34.46205124727678
 30
0.0
 11
168.6444730880567
 21
-34.46205124727678
 31
0.0
  0
LINE
  5
434
330
1F
100
AcDbEntity
  8
LAYER0003
  6
CONTINUOUS
 62
     3
100
AcDbLine
 10
238.6444730880567
 20
-34.46205124727678
 30
0.0
 11
243.6444730880567
 21
-34.46205124727678
 31
0.0
  0
ARC
  5
435
330
1F
100
AcDbEntity
  8
LAYER0003
  6
CONTINUOUS
 62
     3
100
AcDbCircle
 10
203.6444730880567
 20
7.537948752723231
 30
0.0
 40
21.0
100
AcDbArc
 50
0.0
 51
32.54901099750798
  0
ARC
  5
436
330
1F
100
AcDbEntity
  8
LAYER0003
  6
CONTINUOUS
 62
     3
100
AcDbCircle
 10
203.6444730880567
 20
7.537948752723231
 30
0.0
 40
21.0
100
AcDbArc
 50
57.45098900249202
 51
122.549010997508
  0
ARC
  5
437
330
1F
100
AcDbEntity
  8
LAYER0003
  6
CONTINUOUS
 62
     3
100
AcDbCircle
 10
203.6444730880567
 20
7.537948752723231
 30
0.0
 40
21.0
100
AcDbArc
 50
147.450989002492
 51
180.0
  0
LINE
  5
438
330
1F
100
AcDbEntity
  8
LAYER0003
  6
CONTINUOUS
 62
     3
100
AcDbLine
 10
-196.0291400958643
 20
110.7240256671949
 30
0.0
 11
-196.2291400958643
 21
110.9240256671949
 31
0.0
  0
LINE
  5
439
330
1F
100
AcDbEntity
  8
LAYER0003
  6
CONTINUOUS
 62
     3
100
AcDbLine
 10
-188.4291400958643
 20
110.7240256671949
 30
0.0
 11
-188.2291400958643
 21
110.9240256671949
 31
0.0
  0
LINE
  5
43A
330
1F
100
AcDbEntity
  8
LAYER0003
  6
CONTINUOUS
 62
     3
100
AcDbLine
 10
-188.2291400958643
 20
116.7240256671949
 30
0.0
 11
-188.2291400958643
 21
110.9240256671949
 31
0.0
  0
LINE
  5
43B
330
1F
100
AcDbEntity
  8
LAYER0003
  6
CONTINUOUS
 62
     3
100
AcDbLine
 10
-196.2291400958643
 20
116.7240256671949
 30
0.0
 11
-196.2291400958643
 21
110.9240256671949
 31
0.0
  0
LINE
  5
43C
330
1F
100
AcDbEntity
  8
LAYER0003
  6
CONTINUOUS
 62
     3
100
AcDbLine
 10
-185.2291400958643
 20
116.7240256671949
 30
0.0
 11
-199.2291400958643
 21
116.7240256671949
 31
0.0
  0
LINE
  5
43D
330
1F
100
AcDbEntity
  8
LAYER0003
  6
CONTINUOUS
 62
     3
100
AcDbLine
 10
-187.2291400958643
 20
106.4240256671947
 30
0.0
 11
-187.2291400958643
 21
107.4240256671948
 31
0.0
  0
LINE
  5
43E
330
1F
100
AcDbEntity
  8
LAYER0003
  6
CONTINUOUS
 62
     3
100
AcDbLine
 10
-197.2291400958643
 20
106.4240256671947
 30
0.0
 11
-197.2291400958643
 21
107.4240256671948
 31
0.0
  0
LINE
  5
43F
330
1F
100
AcDbEntity
  8
LAYER0003
  6
CONTINUOUS
 62
     3
100
AcDbLine
 10
-187.2291400958643
 20
109.7240256671949
 30
0.0
 11
-187.2291400958643
 21
110.7240256671949
 31
0.0
  0
LINE
  5
440
330
1F
100
AcDbEntity
  8
LAYER0003
  6
CONTINUOUS
 62
     3
100
AcDbLine
 10
-197.2291400958643
 20
109.7240256671949
 30
0.0
 11
-197.2291400958643
 21
110.7240256671949
 31
0.0
  0
LINE
  5
441
330
1F
100
AcDbEntity
  8
LAYER0003
  6
CONTINUOUS
 62
     3
100
AcDbLine
 10
-187.2291400958643
 20
110.7240256671949
 30
0.0
 11
-197.2291400958643
 21
110.7240256671949
 31
0.0
  0
LINE
  5
442
330
1F
100
AcDbEntity
  8
LAYER0003
  6
CONTINUOUS
 62
     3
100
AcDbLine
 10
-197.2291400958643
 20
106.4240256671947
 30
0.0
 11
-187.2291400958643
 21
106.4240256671947
 31
0.0
  0
LINE
  5
443
330
1F
100
AcDbEntity
  8
LAYER0003
  6
CONTINUOUS
 62
     3
100
AcDbLine
 10
-187.6103400958642
 20
106.4240256671947
 30
0.0
 11
-187.6103400958642
 21
103.3390248471947
 31
0.0
  0
LINE
  5
444
330
1F
100
AcDbEntity
  8
LAYER0003
  6
CONTINUOUS
 62
     3
100
AcDbLine
 10
-196.8479400958642
 20
106.4240256671947
 30
0.0
 11
-196.8479400958642
 21
103.3390248471947
 31
0.0
  0
LINE
  5
445
330
1F
100
AcDbEntity
  8
LAYER0003
  6
CONTINUOUS
 62
     3
100
AcDbLine
 10
-187.6103400958642
 20
103.3390248471947
 30
0.0
 11
-188.3291400958642
 21
102.9240256671947
 31
0.0
  0
LINE
  5
446
330
1F
100
AcDbEntity
  8
LAYER0003
  6
CONTINUOUS
 62
     3
100
AcDbLine
 10
-196.8479400958642
 20
103.3390248471947
 30
0.0
 11
-196.1291400958642
 21
102.9240256671947
 31
0.0
  0
LINE
  5
447
330
1F
100
AcDbEntity
  8
LAYER0003
  6
CONTINUOUS
 62
     3
100
AcDbLine
 10
-196.1291400958642
 20
102.9240256671947
 30
0.0
 11
-188.3291400958642
 21
102.9240256671947
 31
0.0
  0
ARC
  5
448
330
1F
100
AcDbEntity
  8
LAYER0003
  6
CONTINUOUS
 62
     3
100
AcDbCircle
 10
-192.2291400958643
 20
109.5572346571947
 30
0.0
 40
6.63320899
100
AcDbArc
 50
249.6253525400001
 51
290.3746474599999
  0
ARC
  5
449
330
1F
100
AcDbEntity
  8
LAYER0003
  6
CONTINUOUS
 62
     3
100
AcDbCircle
 10
-195.6932400958642
 20
105.3390246671947
 30
0.0
 40
2.3094008
100
AcDbArc
 50
240.0000094400002
 51
299.9999905599998
  0
ARC
  5
44A
330
1F
100
AcDbEntity
  8
LAYER0003
  6
CONTINUOUS
 62
     3
100
AcDbCircle
 10
-188.7650400958642
 20
105.3390246671947
 30
0.0
 40
2.3094008
100
AcDbArc
 50
240.0000094400002
 51
299.9999905599998
  0
LINE
  5
44B
330
1F
100
AcDbEntity
  8
LAYER0003
  6
CONTINUOUS
 62
     3
100
AcDbLine
 10
-189.9197400958643
 20
106.4240256671947
 30
0.0
 11
-189.9197400958643
 21
103.3390248471947
 31
0.0
  0
LINE
  5
44C
330
1F
100
AcDbEntity
  8
LAYER0003
  6
CONTINUOUS
 62
     3
100
AcDbLine
 10
-194.5385400958642
 20
106.4240256671947
 30
0.0
 11
-194.5385400958642
 21
103.3390248471947
 31
0.0
  0
LINE
  5
44D
330
1F
100
AcDbEntity
  8
LAYER0003
  6
CONTINUOUS
 62
     3
100
AcDbLine
 10
-185.2291400958643
 20
120.7240256671949
 30
0.0
 11
-185.2291400958643
 21
123.7240256671949
 31
0.0
  0
LINE
  5
44E
330
1F
100
AcDbEntity
  8
LAYER0003
  6
CONTINUOUS
 62
     3
100
AcDbLine
 10
-199.2291400958643
 20
123.7240256671949
 30
0.0
 11
-199.2291400958643
 21
116.7240256671949
 31
0.0
  0
LINE
  5
44F
330
1F
100
AcDbEntity
  8
LAYER0003
  6
CONTINUOUS
 62
     3
100
AcDbLine
 10
-185.2291400958643
 20
116.7240256671949
 30
0.0
 11
-185.2291400958643
 21
120.7240256671949
 31
0.0
  0
LINE
  5
450
330
1F
100
AcDbEntity
  8
LAYER0003
  6
CONTINUOUS
 62
     3
100
AcDbLine
 10
-185.2291400958643
 20
120.7240256671949
 30
0.0
 11
-199.2291400958643
 21
120.7240256671949
 31
0.0
  0
LINE
  5
451
330
1F
100
AcDbEntity
  8
LAYER0003
  6
CONTINUOUS
 62
     3
100
AcDbLine
 10
-164.2291400958642
 20
97.02402566719509
 30
0.0
 11
-164.2291400958642
 21
109.7236227371948
 31
0.0
  0
LINE
  5
452
330
1F
100
AcDbEntity
  8
LAYER0003
  6
CONTINUOUS
 62
     3
100
AcDbLine
 10
-164.2291400958642
 20
88.72362273719479
 30
0.0
 11
-164.2291400958642
 21
93.22402566719491
 31
0.0
  0
LINE
  5
453
330
1F
100
AcDbEntity
  8
LAYER0003
  6
CONTINUOUS
 62
     3
100
AcDbLine
 10
-168.5159366603074
 20
87.72362273719479
 30
0.0
 11
-165.2291400958643
 21
87.72362273719479
 31
0.0
  0
LINE
  5
454
330
1F
100
AcDbEntity
  8
LAYER0003
  6
CONTINUOUS
 62
     3
100
AcDbLine
 10
-219.2291400958643
 20
87.72362273719479
 30
0.0
 11
-173.5159366603075
 21
87.72362273719479
 31
0.0
  0
LINE
  5
455
330
1F
100
AcDbEntity
  8
LAYER0003
  6
CONTINUOUS
 62
     3
100
AcDbLine
 10
-148.2291400958642
 20
109.7236227371948
 30
0.0
 11
-183.2291400958638
 21
109.7236227371948
 31
0.0
  0
LINE
  5
456
330
1F
100
AcDbEntity
  8
LAYER0003
  6
CONTINUOUS
 62
     3
100
AcDbLine
 10
-211.1088911535778
 20
109.7236227371948
 30
0.0
 11
-236.2291400958642
 21
109.7236227371948
 31
0.0
  0
LINE
  5
457
330
1F
100
AcDbEntity
  8
LAYER0003
  6
CONTINUOUS
 62
     3
100
AcDbLine
 10
-194.7291400958643
 20
168.4240256671949
 30
0.0
 11
-189.7291400958643
 21
168.4240256671949
 31
0.0
  0
LINE
  5
458
330
1F
100
AcDbEntity
  8
LAYER0003
  6
CONTINUOUS
 62
     3
100
AcDbLine
 10
-189.7291400958643
 20
168.4240256671949
 30
0.0
 11
-189.2291400958643
 21
167.9240256671949
 31
0.0
  0
LINE
  5
459
330
1F
100
AcDbEntity
  8
LAYER0003
  6
CONTINUOUS
 62
     3
100
AcDbLine
 10
-194.7291400958643
 20
168.4240256671949
 30
0.0
 11
-195.2291400958643
 21
167.9240256671949
 31
0.0
  0
LINE
  5
45A
330
1F
100
AcDbEntity
  8
LAYER0003
  6
CONTINUOUS
 62
     3
100
AcDbLine
 10
-196.2587980958643
 20
166.4240256671949
 30
0.0
 11
-188.1994820958643
 21
166.4240256671949
 31
0.0
  0
LINE
  5
45B
330
1F
100
AcDbEntity
  8
LAYER0003
  6
CONTINUOUS
 62
     3
100
AcDbLine
 10
-195.2291400958643
 20
165.724025667195
 30
0.0
 11
-189.2291400958643
 21
165.724025667195
 31
0.0
  0
LINE
  5
45C
330
1F
100
AcDbEntity
  8
LAYER0003
  6
CONTINUOUS
 62
     3
100
AcDbLine
 10
-195.2291400958643
 20
166.4240256671949
 30
0.0
 11
-195.2291400958643
 21
167.9240256671949
 31
0.0
  0
LINE
  5
45D
330
1F
100
AcDbEntity
  8
LAYER0003
  6
CONTINUOUS
 62
     3
100
AcDbLine
 10
-189.2291400958643
 20
166.4240256671949
 30
0.0
 11
-189.2291400958643
 21
167.9240256671949
 31
0.0
  0
LINE
  5
45E
330
1F
100
AcDbEntity
  8
LAYER0003
  6
CONTINUOUS
 62
     3
100
AcDbLine
 10
-195.2291400958643
 20
165.724025667195
 30
0.0
 11
-195.2291400958643
 21
164.724025667195
 31
0.0
  0
LINE
  5
45F
330
1F
100
AcDbEntity
  8
LAYER0003
  6
CONTINUOUS
 62
     3
100
AcDbLine
 10
-189.2291400958643
 20
165.724025667195
 30
0.0
 11
-189.2291400958643
 21
164.724025667195
 31
0.0
  0
LINE
  5
460
330
1F
100
AcDbEntity
  8
LAYER0003
  6
CONTINUOUS
 62
     3
100
AcDbLine
 10
-194.2291400958643
 20
165.8240256671949
 30
0.0
 11
-194.2291400958643
 21
165.724025667195
 31
0.0
  0
LINE
  5
461
330
1F
100
AcDbEntity
  8
LAYER0003
  6
CONTINUOUS
 62
     3
100
AcDbLine
 10
-190.2291400958643
 20
165.8240256671949
 30
0.0
 11
-190.2291400958643
 21
165.724025667195
 31
0.0
  0
LINE
  5
462
330
1F
100
AcDbEntity
  8
LAYER0003
  6
CONTINUOUS
 62
     3
100
AcDbLine
 10
-188.1994820958643
 20
166.4240256671949
 30
0.0
 11
-188.1994820958643
 21
165.8240256671949
 31
0.0
  0
LINE
  5
463
330
1F
100
AcDbEntity
  8
LAYER0003
  6
CONTINUOUS
 62
     3
100
AcDbLine
 10
-196.2587980958643
 20
165.8240256671949
 30
0.0
 11
-188.1994820958643
 21
165.8240256671949
 31
0.0
  0
LINE
  5
464
330
1F
100
AcDbEntity
  8
LAYER0003
  6
CONTINUOUS
 62
     3
100
AcDbLine
 10
-195.2291400958643
 20
167.9240256671949
 30
0.0
 11
-189.2291400958643
 21
167.9240256671949
 31
0.0
  0
LINE
  5
465
330
1F
100
AcDbEntity
  8
LAYER0003
  6
CONTINUOUS
 62
     3
100
AcDbLine
 10
-196.2587980958643
 20
166.4240256671949
 30
0.0
 11
-196.2587980958643
 21
165.8240256671949
 31
0.0
  0
LINE
  5
466
330
1F
100
AcDbEntity
  8
LAYER0003
  6
CONTINUOUS
 62
     3
100
AcDbLine
 10
-198.2291400958643
 20
173.724025667195
 30
0.0
 11
-198.2291400958643
 21
166.724025667195
 31
0.0
  0
ARC
  5
467
330
1F
100
AcDbEntity
  8
LAYER0003
  6
CONTINUOUS
 62
     3
100
AcDbCircle
 10
-196.2291400958643
 20
166.724025667195
 30
0.0
 40
2.0
100
AcDbArc
 50
180.0
 51
270.0
  0
LINE
  5
468
330
1F
100
AcDbEntity
  8
LAYER0003
  6
CONTINUOUS
 62
     3
100
AcDbLine
 10
-186.2291400958643
 20
173.724025667195
 30
0.0
 11
-186.2291400958643
 21
166.724025667195
 31
0.0
  0
ARC
  5
469
330
1F
100
AcDbEntity
  8
LAYER0003
  6
CONTINUOUS
 62
     3
100
AcDbCircle
 10
-188.2291400958643
 20
166.724025667195
 30
0.0
 40
2.0
100
AcDbArc
 50
270.0
 51
0.0
  0
LINE
  5
46A
330
1F
100
AcDbEntity
  8
LAYER0003
  6
CONTINUOUS
 62
     3
100
AcDbLine
 10
-148.2291400958642
 20
131.7236227371948
 30
0.0
 11
-171.2291400958643
 21
131.7236227371948
 31
0.0
  0
LINE
  5
46B
330
1F
100
AcDbEntity
  8
LAYER0003
  6
CONTINUOUS
 62
     3
100
AcDbLine
 10
-213.2291400958643
 20
131.7236227371948
 30
0.0
 11
-236.2291400958642
 21
131.7236227371948
 31
0.0
  0
LINE
  5
46C
330
1F
100
AcDbEntity
  8
LAYER0003
  6
CONTINUOUS
 62
     3
100
AcDbLine
 10
-147.2291400958642
 20
121.723622737195
 30
0.0
 11
-185.2291400958643
 21
121.7236227371949
 31
0.0
  0
LINE
  5
46D
330
1F
100
AcDbEntity
  8
LAYER0003
  6
CONTINUOUS
 62
     3
100
AcDbLine
 10
-199.2291400958643
 20
121.7236227371948
 30
0.0
 11
-237.2291400958642
 21
121.7236227371948
 31
0.0
  0
LINE
  5
46E
330
1F
100
AcDbEntity
  8
0
  6
CENTER
 62
     4
100
AcDbLine
 10
-192.2291400958643
 20
-202.2907801418438
 30
0.0
 11
-192.2291400958643
 21
48.25097043457976
 31
0.0
  0
LINE
  5
46F
330
1F
100
AcDbEntity
  8
0
  6
CENTER
 62
     4
100
AcDbLine
 10
-114.2250457558643
 20
-114.4620512472767
 30
0.0
 11
-270.2332344358642
 21
-114.4620512472768
 31
0.0
  0
LINE
  5
470
330
1F
100
AcDbEntity
  8
0
  6
CENTER
 62
     4
100
AcDbLine
 10
-152.2291400958643
 20
-194.1445096072767
 30
0.0
 11
-152.2291400958643
 21
-179.7795928772767
 31
0.0
  0
LINE
  5
471
330
1F
100
AcDbEntity
  8
0
  6
CENTER
 62
     4
100
AcDbLine
 10
-145.0466817258643
 20
-186.9620512472768
 30
0.0
 11
-159.4115984558643
 21
-186.9620512472768
 31
0.0
  0
LINE
  5
472
330
1F
100
AcDbEntity
  8
0
  6
CENTER
 62
     4
100
AcDbLine
 10
-152.2291400958643
 20
-121.6445096072768
 30
0.0
 11
-152.2291400958643
 21
-107.2795928772768
 31
0.0
  0
LINE
  5
473
330
1F
100
AcDbEntity
  8
0
  6
CENTER
 62
     4
100
AcDbLine
 10
-152.2291400958643
 20
-49.14450960727677
 30
0.0
 11
-152.2291400958643
 21
-34.77959287727677
 31
0.0
  0
LINE
  5
474
330
1F
100
AcDbEntity
  8
0
  6
CENTER
 62
     4
100
AcDbLine
 10
-232.2291400958643
 20
-49.14450960727677
 30
0.0
 11
-232.2291400958643
 21
-34.77959287727677
 31
0.0
  0
LINE
  5
475
330
1F
100
AcDbEntity
  8
0
  6
CENTER
 62
     4
100
AcDbLine
 10
-232.2291400958643
 20
-121.6445096072768
 30
0.0
 11
-232.2291400958643
 21
-107.2795928772768
 31
0.0
  0
LINE
  5
476
330
1F
100
AcDbEntity
  8
0
  6
CENTER
 62
     4
100
AcDbLine
 10
-232.2291400958643
 20
-194.1445096072767
 30
0.0
 11
-232.2291400958643
 21
-179.7795928772768
 31
0.0
  0
LINE
  5
477
330
1F
100
AcDbEntity
  8
0
  6
CENTER
 62
     4
100
AcDbLine
 10
-145.0466817258643
 20
-41.96205124727678
 30
0.0
 11
-159.4115984558643
 21
-41.96205124727678
 31
0.0
  0
LINE
  5
478
330
1F
100
AcDbEntity
  8
0
  6
CENTER
 62
     4
100
AcDbLine
 10
-225.0466817258643
 20
-41.96205124727678
 30
0.0
 11
-239.4115984558642
 21
-41.96205124727678
 31
0.0
  0
LINE
  5
479
330
1F
100
AcDbEntity
  8
0
  6
CENTER
 62
     4
100
AcDbLine
 10
-225.0466817258643
 20
-186.9620512472768
 30
0.0
 11
-239.4115984558642
 21
-186.9620512472768
 31
0.0
  0
LINE
  5
47A
330
1F
100
AcDbEntity
  8
0
  6
CENTER
 62
     4
100
AcDbLine
 10
-236.2291400958643
 20
-94.69694446727678
 30
0.0
 11
-236.2291400958643
 21
-89.2271580272768
 31
0.0
  0
LINE
  5
47B
330
1F
100
AcDbEntity
  8
0
  6
CENTER
 62
     4
100
AcDbLine
 10
-233.4942468758643
 20
-91.96205124727678
 30
0.0
 11
-238.9640333158643
 21
-91.96205124727678
 31
0.0
  0
LINE
  5
47C
330
1F
100
AcDbEntity
  8
0
  6
CENTER
 62
     4
100
AcDbLine
 10
-236.2291400958643
 20
-139.6969444672768
 30
0.0
 11
-236.2291400958643
 21
-134.2271580272768
 31
0.0
  0
LINE
  5
47D
330
1F
100
AcDbEntity
  8
0
  6
CENTER
 62
     4
100
AcDbLine
 10
-233.4942468758643
 20
-136.9620512472768
 30
0.0
 11
-238.9640333158643
 21
-136.9620512472768
 31
0.0
  0
LINE
  5
47E
330
1F
100
AcDbEntity
  8
0
  6
CENTER
 62
     4
100
AcDbLine
 10
-177.5466817258643
 20
-79.46205124727678
 30
0.0
 11
-191.9115984558643
 21
-79.46205124727678
 31
0.0
  0
LINE
  5
47F
330
1F
100
AcDbEntity
  8
0
  6
CENTER
 62
     4
100
AcDbLine
 10
-199.7291400958643
 20
-85.85328042727679
 30
0.0
 11
-199.7291400958643
 21
-73.07082206727677
 31
0.0
  0
LINE
  5
480
330
1F
100
AcDbEntity
  8
0
  6
CENTER
 62
     4
100
AcDbLine
 10
-192.5466817258643
 20
-79.46205124727678
 30
0.0
 11
-206.9115984558643
 21
-79.46205124727678
 31
0.0
  0
LINE
  5
481
330
1F
100
AcDbEntity
  8
0
  6
CENTER
 62
     4
100
AcDbLine
 10
-184.7291400958643
 20
-85.85328042727679
 30
0.0
 11
-184.7291400958643
 21
-73.07082206727677
 31
0.0
  0
LINE
  5
482
330
1F
100
AcDbEntity
  8
0
  6
CENTER
 62
     4
100
AcDbLine
 10
-152.2291400958643
 20
-159.4620512472768
 30
0.0
 11
-78.43235517586427
 21
-159.4620512472767
 31
0.0
  0
LINE
  5
483
330
1F
100
AcDbEntity
  8
0
  6
CENTER
 62
     4
100
AcDbLine
 10
-50.04984921538053
 20
-79.46205124727675
 30
0.0
 11
-30.04984921538053
 21
-79.46205124727675
 31
0.0
  0
LINE
  5
484
330
1F
100
AcDbEntity
  8
0
  6
CENTER
 62
     4
100
AcDbLine
 10
55.23905615461945
 20
-171.9620512472767
 30
0.0
 11
69.23850276461945
 21
-171.9620512472767
 31
0.0
  0
LINE
  5
485
330
1F
100
AcDbEntity
  8
0
  6
CENTER
 62
     4
100
AcDbLine
 10
27.9501507846195
 20
-54.58924700727675
 30
0.0
 11
27.9501507846195
 21
39.26886551272325
 31
0.0
  0
LINE
  5
486
330
1F
100
AcDbEntity
  8
0
  6
CENTER
 62
     4
100
AcDbLine
 10
-16.36140080538052
 20
-56.96205124727675
 30
0.0
 11
70.29290635461945
 21
-56.96205124727675
 31
0.0
  0
LINE
  5
487
330
1F
100
AcDbEntity
  8
0
  6
CENTER
 62
     4
100
AcDbLine
 10
-192.2291400958643
 20
71.13334276719478
 30
0.0
 11
-192.2291400958643
 21
194.5263153971948
 31
0.0
  0
LINE
  5
488
330
1F
100
AcDbEntity
  8
0
  6
CENTER
 62
     4
100
AcDbLine
 10
-209.7291400958643
 20
180.0125281071948
 30
0.0
 11
-209.7291400958643
 21
194.0119747171948
 31
0.0
  0
LINE
  5
489
330
1F
100
AcDbEntity
  8
0
  6
CENTER
 62
     4
100
AcDbLine
 10
-174.7291400958643
 20
180.0125281071948
 30
0.0
 11
-174.7291400958643
 21
194.0119747171948
 31
0.0
  0
LINE
  5
48A
330
1F
100
AcDbEntity
  8
0
  6
CENTER
 62
     4
100
AcDbLine
 10
-234.2291400958642
 20
106.0293065171947
 30
0.0
 11
-234.2291400958643
 21
152.2963727871949
 31
0.0
  0
LINE
  5
48B
330
1F
100
AcDbEntity
  8
0
  6
CENTER
 62
     4
100
AcDbLine
 10
-18.74416543538054
 20
-136.9620512472767
 30
0.0
 11
27.52290083461947
 21
-136.9620512472767
 31
0.0
  0
LINE
  5
48C
330
1F
100
AcDbEntity
  8
0
  6
CENTER
 62
     4
100
AcDbLine
 10
-18.74416543538054
 20
-91.96205124727675
 30
0.0
 11
27.52290083461947
 21
-91.96205124727675
 31
0.0
  0
LINE
  5
48D
330
1F
100
AcDbEntity
  8
0
  6
CENTER
 62
     4
100
AcDbLine
 10
-25.97261048538052
 20
7.53794875272326
 30
0.0
 11
60.34586061461948
 21
7.53794875272326
 31
0.0
  0
LINE
  5
48E
330
1F
100
AcDbEntity
  8
0
  6
CENTER
 62
     4
100
AcDbLine
 10
-208.925935669017
 20
-9.158846820516224
 30
0.0
 11
-151.3739584931896
 21
48.39313035683788
 31
0.0
  0
LINE
  5
48F
330
1F
100
AcDbEntity
  8
0
  6
CENTER
 62
     4
100
AcDbLine
 10
31.95015078461945
 20
-139.9620512472767
 30
0.0
 11
31.95015078461945
 21
-178.9620512472767
 31
0.0
  0
LINE
  5
490
330
1F
100
AcDbEntity
  8
0
  6
CENTER
 62
     4
100
AcDbLine
 10
51.4501507846195
 20
-159.4620512472767
 30
0.0
 11
12.45015078461945
 21
-159.4620512472767
 31
0.0
  0
ARC
  5
491
330
1F
100
AcDbEntity
  8
0
  6
CENTER
 62
     4
100
AcDbCircle
 10
-192.2291400958643
 20
7.537948753079441
 30
0.0
 40
34.99999999974048
100
AcDbArc
 50
27.6803251145854
 51
132.3532159115301
  0
LINE
  5
492
330
1F
100
AcDbEntity
  8
0
  6
CENTER
 62
     4
100
AcDbLine
 10
203.6444730880567
 20
-202.2907801418438
 30
0.0
 11
203.6444730880567
 21
48.25097043457976
 31
0.0
  0
LINE
  5
493
330
1F
100
AcDbEntity
  8
0
  6
CENTER
 62
     4
100
AcDbLine
 10
125.6403787480567
 20
-114.4620512472767
 30
0.0
 11
281.6485674280567
 21
-114.4620512472768
 31
0.0
  0
LINE
  5
494
330
1F
100
AcDbEntity
  8
0
  6
CENTER
 62
     4
100
AcDbLine
 10
163.6444730880567
 20
-194.1445096072767
 30
0.0
 11
163.6444730880567
 21
-179.7795928772767
 31
0.0
  0
LINE
  5
495
330
1F
100
AcDbEntity
  8
0
  6
CENTER
 62
     4
100
AcDbLine
 10
156.4620147180567
 20
-186.9620512472768
 30
0.0
 11
170.8269314480567
 21
-186.9620512472768
 31
0.0
  0
LINE
  5
496
330
1F
100
AcDbEntity
  8
0
  6
CENTER
 62
     4
100
AcDbLine
 10
163.6444730880567
 20
-121.6445096072768
 30
0.0
 11
163.6444730880567
 21
-107.2795928772768
 31
0.0
  0
LINE
  5
497
330
1F
100
AcDbEntity
  8
0
  6
CENTER
 62
     4
100
AcDbLine
 10
163.6444730880567
 20
-49.14450960727677
 30
0.0
 11
163.6444730880567
 21
-34.77959287727677
 31
0.0
  0
LINE
  5
498
330
1F
100
AcDbEntity
  8
0
  6
CENTER
 62
     4
100
AcDbLine
 10
243.6444730880567
 20
-49.14450960727677
 30
0.0
 11
243.6444730880567
 21
-34.77959287727677
 31
0.0
  0
LINE
  5
499
330
1F
100
AcDbEntity
  8
0
  6
CENTER
 62
     4
100
AcDbLine
 10
243.6444730880567
 20
-121.6445096072768
 30
0.0
 11
243.6444730880567
 21
-107.2795928772768
 31
0.0
  0
LINE
  5
49A
330
1F
100
AcDbEntity
  8
0
  6
CENTER
 62
     4
100
AcDbLine
 10
243.6444730880567
 20
-194.1445096072767
 30
0.0
 11
243.6444730880567
 21
-179.7795928772768
 31
0.0
  0
LINE
  5
49B
330
1F
100
AcDbEntity
  8
0
  6
CENTER
 62
     4
100
AcDbLine
 10
156.4620147180567
 20
-41.96205124727678
 30
0.0
 11
170.8269314480567
 21
-41.96205124727678
 31
0.0
  0
LINE
  5
49C
330
1F
100
AcDbEntity
  8
0
  6
CENTER
 62
     4
100
AcDbLine
 10
236.4620147180567
 20
-41.96205124727678
 30
0.0
 11
250.8269314480567
 21
-41.96205124727678
 31
0.0
  0
LINE
  5
49D
330
1F
100
AcDbEntity
  8
0
  6
CENTER
 62
     4
100
AcDbLine
 10
236.4620147180567
 20
-186.9620512472768
 30
0.0
 11
250.8269314480567
 21
-186.9620512472768
 31
0.0
  0
LINE
  5
49E
330
1F
100
AcDbEntity
  8
0
  6
CENTER
 62
     4
100
AcDbLine
 10
247.6444730880567
 20
-94.69694446727678
 30
0.0
 11
247.6444730880567
 21
-89.2271580272768
 31
0.0
  0
LINE
  5
49F
330
1F
100
AcDbEntity
  8
0
  6
CENTER
 62
     4
100
AcDbLine
 10
244.9095798680567
 20
-91.96205124727678
 30
0.0
 11
250.3793663080567
 21
-91.96205124727678
 31
0.0
  0
LINE
  5
4A0
330
1F
100
AcDbEntity
  8
0
  6
CENTER
 62
     4
100
AcDbLine
 10
247.6444730880567
 20
-139.6969444672768
 30
0.0
 11
247.6444730880567
 21
-134.2271580272768
 31
0.0
  0
LINE
  5
4A1
330
1F
100
AcDbEntity
  8
0
  6
CENTER
 62
     4
100
AcDbLine
 10
244.9095798680567
 20
-136.9620512472768
 30
0.0
 11
250.3793663080567
 21
-136.9620512472768
 31
0.0
  0
LINE
  5
4A2
330
1F
100
AcDbEntity
  8
0
  6
CENTER
 62
     4
100
AcDbLine
 10
173.1444730880567
 20
-159.4620512472768
 30
0.0
 11
89.84768816805666
 21
-159.4620512472767
 31
0.0
  0
ARC
  5
4A3
330
1F
100
AcDbEntity
  8
LAYER0003
  6
CONTINUOUS
 62
     7
100
AcDbCircle
 10
-17.0498492153805
 20
-46.02000990727677
 30
0.0
 40
2.0
100
AcDbArc
 50
271.6846843199999
 51
0.0
  0
LINE
  5
4A4
330
1F
100
AcDbEntity
  8
0
  6
CONTINUOUS
 62
     3
100
AcDbLine
 10
-96.22888009586427
 20
-141.5654991272768
 30
0.0
 11
-137.2288650958643
 21
-141.5654991272768
 31
0.0
  0
LINE
  5
4A5
330
1F
100
AcDbEntity
  8
0
  6
CONTINUOUS
 62
     3
100
AcDbLine
 10
-136.2288800958643
 20
-145.3433441272768
 30
0.0
 11
-97.22917009586428
 21
-145.3433441272768
 31
0.0
  0
LINE
  5
4A6
330
1F
100
AcDbEntity
  8
0
  6
CONTINUOUS
 62
     3
100
AcDbLine
 10
-136.2288800958643
 20
-155.7654791272768
 30
0.0
 11
-97.22917009586428
 21
-155.7654791272768
 31
0.0
  0
LINE
  5
4A7
330
1F
100
AcDbEntity
  8
0
  6
CONTINUOUS
 62
     3
100
AcDbLine
 10
-136.2286500958643
 20
-141.5654991272768
 30
0.0
 11
-136.2284200958643
 21
-145.3433441272768
 31
0.0
  0
ARC
  5
4A8
330
1F
100
AcDbEntity
  8
0
  6
CONTINUOUS
 62
     3
100
AcDbCircle
 10
-123.3848700958643
 20
-150.5549841272768
 30
0.0
 40
13.860515
100
AcDbArc
 50
157.91789
 51
202.083635
  0
LINE
  5
4A9
330
1F
100
AcDbEntity
  8
0
  6
CONTINUOUS
 62
     3
100
AcDbLine
 10
-137.2288650958643
 20
-177.5654841272768
 30
0.0
 11
-137.2288650958643
 21
-141.5654991272768
 31
0.0
  0
LINE
  5
4AA
330
1F
100
AcDbEntity
  8
0
  6
CONTINUOUS
 62
     3
100
AcDbLine
 10
-137.2288650958643
 20
-143.0655141272768
 30
0.0
 11
-141.2288800958643
 21
-143.0655141272768
 31
0.0
  0
LINE
  5
4AB
330
1F
100
AcDbEntity
  8
0
  6
CONTINUOUS
 62
     3
100
AcDbLine
 10
-97.22917009586428
 20
-145.3433441272768
 30
0.0
 11
-97.22917009586428
 21
-141.5654991272768
 31
0.0
  0
LINE
  5
4AC
330
1F
100
AcDbEntity
  8
0
  6
CONTINUOUS
 62
     3
100
AcDbLine
 10
-136.2288800958643
 20
-163.3655791272768
 30
0.0
 11
-97.22917009586428
 21
-163.3655791272768
 31
0.0
  0
LINE
  5
4AD
330
1F
100
AcDbEntity
  8
0
  6
CONTINUOUS
 62
     3
100
AcDbLine
 10
-141.2286500958643
 20
-141.5654991272768
 30
0.0
 11
-144.7291400958643
 21
-141.5654991272768
 31
0.0
  0
LINE
  5
4AE
330
1F
100
AcDbEntity
  8
0
  6
CONTINUOUS
 62
     3
100
AcDbLine
 10
-141.2286500958643
 20
-141.5654991272768
 30
0.0
 11
-141.2286500958643
 21
-177.5654841272768
 31
0.0
  0
ARC
  5
4AF
330
1F
100
AcDbEntity
  8
0
  6
CONTINUOUS
 62
     3
100
AcDbCircle
 10
-110.0734050958643
 20
-150.5555191272768
 30
0.0
 40
13.860515
100
AcDbArc
 50
337.916365
 51
22.08240300000001
  0
LINE
  5
4B0
330
1F
100
AcDbEntity
  8
0
  6
CONTINUOUS
 62
     3
100
AcDbLine
 10
-136.2284200958643
 20
-155.7654791272768
 30
0.0
 11
-136.2286500958643
 21
-163.3655791272768
 31
0.0
  0
LINE
  5
4B1
330
1F
100
AcDbEntity
  8
0
  6
CONTINUOUS
 62
     3
100
AcDbLine
 10
-96.22888009586427
 20
-141.5654991272768
 30
0.0
 11
-96.22888009586427
 21
-177.5654841272768
 31
0.0
  0
LINE
  5
4B2
330
1F
100
AcDbEntity
  8
0
  6
CONTINUOUS
 62
     3
100
AcDbLine
 10
-142.2288650958643
 20
-145.3433441272768
 30
0.0
 11
-142.2288650958643
 21
-141.5654991272768
 31
0.0
  0
ARC
  5
4B3
330
1F
100
AcDbEntity
  8
0
  6
CONTINUOUS
 62
     3
100
AcDbCircle
 10
-155.2286650958643
 20
-150.5549841272768
 30
0.0
 40
14.00496
100
AcDbArc
 50
338.155525
 51
21.842968
  0
LINE
  5
4B4
330
1F
100
AcDbEntity
  8
0
  6
CONTINUOUS
 62
     3
100
AcDbLine
 10
-93.72911009586426
 20
-146.3154841272768
 30
0.0
 11
-96.22911009586426
 21
-146.3154841272768
 31
0.0
  0
LINE
  5
4B5
330
1F
100
AcDbEntity
  8
0
  6
CONTINUOUS
 62
     3
100
AcDbLine
 10
-144.7291400958643
 20
-145.3433441272768
 30
0.0
 11
-142.2288650958643
 21
-145.3433441272768
 31
0.0
  0
LINE
  5
4B6
330
1F
100
AcDbEntity
  8
0
  6
CONTINUOUS
 62
     3
100
AcDbLine
 10
-93.72911009586426
 20
-147.5654841272768
 30
0.0
 11
-93.72911009586426
 21
-146.3154841272768
 31
0.0
  0
LINE
  5
4B7
330
1F
100
AcDbEntity
  8
0
  6
CONTINUOUS
 62
     3
100
AcDbLine
 10
-84.22914009586427
 20
-147.5654841272768
 30
0.0
 11
-93.72911009586426
 21
-147.5654841272768
 31
0.0
  0
LINE
  5
4B8
330
1F
100
AcDbEntity
  8
0
  6
CONTINUOUS
 62
     3
100
AcDbLine
 10
-97.22917009586428
 20
-163.3655791272768
 30
0.0
 11
-97.22917009586428
 21
-155.7654791272768
 31
0.0
  0
LINE
  5
4B9
330
1F
100
AcDbEntity
  8
0
  6
CONTINUOUS
 62
     3
100
AcDbLine
 10
-144.7291400958643
 20
-155.7654791272768
 30
0.0
 11
-142.2288650958643
 21
-155.7654791272768
 31
0.0
  0
LINE
  5
4BA
330
1F
100
AcDbEntity
  8
0
  6
CONTINUOUS
 62
     3
100
AcDbLine
 10
-142.2288650958643
 20
-163.3655791272768
 30
0.0
 11
-142.2288650958643
 21
-155.7654791272768
 31
0.0
  0
ARC
  5
4BB
330
1F
100
AcDbEntity
  8
0
  6
CONTINUOUS
 62
     3
100
AcDbCircle
 10
-123.3851750958643
 20
-168.5765291272768
 30
0.0
 40
13.860515
100
AcDbArc
 50
157.916246
 51
202.082229
  0
ARC
  5
4BC
330
1F
100
AcDbEntity
  8
0
  6
CONTINUOUS
 62
     3
100
AcDbCircle
 10
-110.0731000958643
 20
-168.5769891272768
 30
0.0
 40
13.860515
100
AcDbArc
 50
337.918648
 51
22.08375399999998
  0
LINE
  5
4BD
330
1F
100
AcDbEntity
  8
0
  6
CONTINUOUS
 62
     3
100
AcDbLine
 10
-144.7291400958643
 20
-163.3655791272768
 30
0.0
 11
-142.2288650958643
 21
-163.3655791272768
 31
0.0
  0
ARC
  5
4BE
330
1F
100
AcDbEntity
  8
0
  6
CONTINUOUS
 62
     3
100
AcDbCircle
 10
-155.2284350958643
 20
-168.5765291272768
 30
0.0
 40
14.00496
100
AcDbArc
 50
338.156163
 51
21.84273699999997
  0
LINE
  5
4BF
330
1F
100
AcDbEntity
  8
0
  6
CONTINUOUS
 62
     3
100
AcDbLine
 10
-136.2288800958643
 20
-173.7871791272768
 30
0.0
 11
-97.22917009586428
 21
-173.7871791272768
 31
0.0
  0
LINE
  5
4C0
330
1F
100
AcDbEntity
  8
0
  6
CONTINUOUS
 62
     3
100
AcDbLine
 10
-84.22914009586427
 20
-171.5654991272768
 30
0.0
 11
-84.22914009586427
 21
-147.5654841272768
 31
0.0
  0
LINE
  5
4C1
330
1F
100
AcDbEntity
  8
0
  6
CONTINUOUS
 62
     3
100
AcDbLine
 10
-137.2288650958643
 20
-177.5654841272768
 30
0.0
 11
-96.22888009586427
 21
-177.5654841272768
 31
0.0
  0
LINE
  5
4C2
330
1F
100
AcDbEntity
  8
0
  6
CONTINUOUS
 62
     3
100
AcDbLine
 10
-136.2286500958643
 20
-173.7871791272768
 30
0.0
 11
-136.2286500958643
 21
-177.5654841272768
 31
0.0
  0
LINE
  5
4C3
330
1F
100
AcDbEntity
  8
0
  6
CONTINUOUS
 62
     3
100
AcDbLine
 10
-96.22911009586426
 20
-172.8154991272768
 30
0.0
 11
-93.72911009586426
 21
-172.8157291272768
 31
0.0
  0
LINE
  5
4C4
330
1F
100
AcDbEntity
  8
0
  6
CONTINUOUS
 62
     3
100
AcDbLine
 10
-97.22917009586428
 20
-177.5654841272768
 30
0.0
 11
-97.22917009586428
 21
-173.7871791272768
 31
0.0
  0
LINE
  5
4C5
330
1F
100
AcDbEntity
  8
0
  6
CONTINUOUS
 62
     3
100
AcDbLine
 10
-141.2288800958643
 20
-176.0655441272768
 30
0.0
 11
-137.2288650958643
 21
-176.0655441272768
 31
0.0
  0
LINE
  5
4C6
330
1F
100
AcDbEntity
  8
0
  6
CONTINUOUS
 62
     3
100
AcDbLine
 10
-93.72911009586426
 20
-172.8157291272768
 30
0.0
 11
-93.72911009586426
 21
-171.5657291272768
 31
0.0
  0
LINE
  5
4C7
330
1F
100
AcDbEntity
  8
0
  6
CONTINUOUS
 62
     3
100
AcDbLine
 10
-93.72911009586426
 20
-171.5657291272768
 30
0.0
 11
-84.22914009586427
 21
-171.5654991272768
 31
0.0
  0
LINE
  5
4C8
330
1F
100
AcDbEntity
  8
0
  6
CONTINUOUS
 62
     3
100
AcDbLine
 10
-142.2288650958643
 20
-177.5654841272768
 30
0.0
 11
-142.2288650958643
 21
-173.7871791272768
 31
0.0
  0
LINE
  5
4C9
330
1F
100
AcDbEntity
  8
0
  6
CONTINUOUS
 62
     3
100
AcDbLine
 10
-144.7291400958643
 20
-173.7871791272768
 30
0.0
 11
-142.2288650958643
 21
-173.7871791272768
 31
0.0
  0
LINE
  5
4CA
330
1F
100
AcDbEntity
  8
0
  6
CONTINUOUS
 62
     3
100
AcDbLine
 10
-144.7291400958643
 20
-177.5654841272768
 30
0.0
 11
-141.2286500958643
 21
-177.5654841272768
 31
0.0
  0
LINE
  5
4CB
330
1F
100
AcDbEntity
  8
0
  6
CONTINUOUS
 62
     3
100
AcDbLine
 10
-97.22932509586428
 20
169.3020527571949
 30
0.0
 11
-97.22932509586431
 21
162.7664077571948
 31
0.0
  0
LINE
  5
4CC
330
1F
100
AcDbEntity
  8
0
  6
CONTINUOUS
 62
     3
100
AcDbLine
 10
-97.22909509586424
 20
137.7236827571949
 30
0.0
 11
-136.2291100958643
 21
137.7236827571949
 31
0.0
  0
LINE
  5
4CD
330
1F
100
AcDbEntity
  8
0
  6
CONTINUOUS
 62
     3
100
AcDbLine
 10
-136.2291100958642
 20
144.1452677571948
 30
0.0
 11
-136.2288800958642
 21
150.6806827571949
 31
0.0
  0
LINE
  5
4CE
330
1F
100
AcDbEntity
  8
0
  6
CONTINUOUS
 62
     3
100
AcDbLine
 10
-136.2291100958643
 20
175.7236377571949
 30
0.0
 11
-97.2290950958643
 21
175.7236377571948
 31
0.0
  0
LINE
  5
4CF
330
1F
100
AcDbEntity
  8
0
  6
CONTINUOUS
 62
     3
100
AcDbLine
 10
-136.2291100958643
 20
169.3020527571948
 30
0.0
 11
-97.22932509586428
 21
169.3020527571949
 31
0.0
  0
LINE
  5
4D0
330
1F
100
AcDbEntity
  8
0
  6
CONTINUOUS
 62
     3
100
AcDbLine
 10
-136.2291100958643
 20
162.7664077571949
 30
0.0
 11
-97.22932509586431
 21
162.7664077571948
 31
0.0
  0
LINE
  5
4D1
330
1F
100
AcDbEntity
  8
0
  6
CONTINUOUS
 62
     3
100
AcDbLine
 10
-136.2291100958643
 20
150.6806827571949
 30
0.0
 11
-97.22932509586423
 21
150.6806827571949
 31
0.0
  0
LINE
  5
4D2
330
1F
100
AcDbEntity
  8
0
  6
CONTINUOUS
 62
     3
100
AcDbLine
 10
-136.2291100958642
 20
144.1452677571948
 30
0.0
 11
-97.22932509586423
 21
144.1452677571949
 31
0.0
  0
LINE
  5
4D3
330
1F
100
AcDbEntity
  8
0
  6
CONTINUOUS
 62
     3
100
AcDbLine
 10
-136.2288800958643
 20
162.7664077571949
 30
0.0
 11
-136.2291100958643
 21
169.3020527571948
 31
0.0
  0
LINE
  5
4D4
330
1F
100
AcDbEntity
  8
0
  6
CONTINUOUS
 62
     3
100
AcDbLine
 10
-97.22932509586423
 20
150.6806827571949
 30
0.0
 11
-97.22932509586423
 21
144.1452677571949
 31
0.0
  0
ARC
  5
4D5
330
1F
100
AcDbEntity
  8
0
  6
CONTINUOUS
 62
     3
100
AcDbCircle
 10
-131.5753300958643
 20
172.5131877571948
 30
0.0
 40
5.65401
100
AcDbArc
 50
180.0
 51
214.6072350000001
  0
ARC
  5
4D6
330
1F
100
AcDbEntity
  8
0
  6
CONTINUOUS
 62
     3
100
AcDbCircle
 10
-118.4707800958643
 20
156.7236227571949
 30
0.0
 40
18.758165
100
AcDbArc
 50
161.207418
 51
198.793023
  0
ARC
  5
4D7
330
1F
100
AcDbEntity
  8
0
  6
CONTINUOUS
 62
     3
100
AcDbCircle
 10
-131.5750250958643
 20
140.9343627571948
 30
0.0
 40
5.65401
100
AcDbArc
 50
145.3951140000001
 51
180.0
  0
ARC
  5
4D8
330
1F
100
AcDbEntity
  8
0
  6
CONTINUOUS
 62
     3
100
AcDbCircle
 10
-101.8834050958643
 20
172.5131877571949
 30
0.0
 40
5.65401
100
AcDbArc
 50
325.3946739999998
 51
0.0
  0
ARC
  5
4D9
330
1F
100
AcDbEntity
  8
0
  6
CONTINUOUS
 62
     3
100
AcDbCircle
 10
-114.9878850958642
 20
156.7236227571948
 30
0.0
 40
18.758165
100
AcDbArc
 50
341.2069020000001
 51
18.79331900000002
  0
ARC
  5
4DA
330
1F
100
AcDbEntity
  8
0
  6
CONTINUOUS
 62
     3
100
AcDbCircle
 10
-101.8836350958643
 20
140.9343627571948
 30
0.0
 40
5.65401
100
AcDbArc
 50
0.0000000000000053
 51
34.60723500000014
  0
LINE
  5
4DB
330
1F
100
AcDbEntity
  8
0
  6
CONTINUOUS
 62
     3
100
AcDbLine
 10
-154.2288350958643
 20
174.2236227571949
 30
0.0
 11
-151.2288800958643
 21
174.2236227571949
 31
0.0
  0
LINE
  5
4DC
330
1F
100
AcDbEntity
  8
0
  6
CONTINUOUS
 62
     3
100
AcDbLine
 10
-154.2291400958643
 20
139.2236227571948
 30
0.0
 11
-154.2291400958643
 21
174.2236227571949
 31
0.0
  0
LINE
  5
4DD
330
1F
100
AcDbEntity
  8
0
  6
CONTINUOUS
 62
     3
100
AcDbLine
 10
-151.2288800958642
 20
139.2236227571948
 30
0.0
 11
-154.2288350958642
 21
139.2236227571948
 31
0.0
  0
LINE
  5
4DE
330
1F
100
AcDbEntity
  8
0
  6
CONTINUOUS
 62
     3
100
AcDbLine
 10
-151.2286550958642
 20
139.2236227571948
 30
0.0
 11
-151.2286550958643
 21
174.2236227571949
 31
0.0
  0
LINE
  5
4DF
330
1F
100
AcDbEntity
  8
0
  6
CONTINUOUS
 62
     3
100
AcDbLine
 10
-142.2290950958643
 20
169.3020527571948
 30
0.0
 11
-142.2290950958643
 21
162.7664077571949
 31
0.0
  0
LINE
  5
4E0
330
1F
100
AcDbEntity
  8
0
  6
CONTINUOUS
 62
     3
100
AcDbLine
 10
-142.2286400958643
 20
137.7236827571949
 30
0.0
 11
-150.2288950958643
 21
137.7236827571949
 31
0.0
  0
LINE
  5
4E1
330
1F
100
AcDbEntity
  8
0
  6
CONTINUOUS
 62
     3
100
AcDbLine
 10
-150.2288950958642
 20
144.1452677571948
 30
0.0
 11
-150.2288950958642
 21
150.6806827571949
 31
0.0
  0
LINE
  5
4E2
330
1F
100
AcDbEntity
  8
0
  6
CONTINUOUS
 62
     3
100
AcDbLine
 10
-150.2288950958643
 20
175.7236377571949
 30
0.0
 11
-142.2286400958643
 21
175.7236377571949
 31
0.0
  0
LINE
  5
4E3
330
1F
100
AcDbEntity
  8
0
  6
CONTINUOUS
 62
     3
100
AcDbLine
 10
-150.2288950958642
 20
150.6806827571949
 30
0.0
 11
-142.2290950958642
 21
150.6806827571949
 31
0.0
  0
LINE
  5
4E4
330
1F
100
AcDbEntity
  8
0
  6
CONTINUOUS
 62
     3
100
AcDbLine
 10
-150.2288950958642
 20
144.1452677571948
 30
0.0
 11
-142.2290950958642
 21
144.1452677571948
 31
0.0
  0
LINE
  5
4E5
330
1F
100
AcDbEntity
  8
0
  6
CONTINUOUS
 62
     3
100
AcDbLine
 10
-150.2288950958643
 20
162.7664077571949
 30
0.0
 11
-142.2290950958643
 21
162.7664077571949
 31
0.0
  0
LINE
  5
4E6
330
1F
100
AcDbEntity
  8
0
  6
CONTINUOUS
 62
     3
100
AcDbLine
 10
-150.2288950958643
 20
169.3020527571948
 30
0.0
 11
-142.2290950958643
 21
169.3020527571948
 31
0.0
  0
LINE
  5
4E7
330
1F
100
AcDbEntity
  8
0
  6
CONTINUOUS
 62
     3
100
AcDbLine
 10
-142.2290950958642
 20
150.6806827571949
 30
0.0
 11
-142.2290950958642
 21
144.1452677571948
 31
0.0
  0
LINE
  5
4E8
330
1F
100
AcDbEntity
  8
0
  6
CONTINUOUS
 62
     3
100
AcDbLine
 10
-150.2288950958643
 20
162.7664077571949
 30
0.0
 11
-150.2288950958643
 21
169.3020527571948
 31
0.0
  0
ARC
  5
4E9
330
1F
100
AcDbEntity
  8
0
  6
CONTINUOUS
 62
     3
100
AcDbCircle
 10
-145.5853400958643
 20
172.5131877571948
 30
0.0
 40
5.645435
100
AcDbArc
 50
178.5201240000001
 51
214.6666030000001
  0
ARC
  5
4EA
330
1F
100
AcDbEntity
  8
0
  6
CONTINUOUS
 62
     3
100
AcDbCircle
 10
-132.4705650958642
 20
156.7236227571949
 30
0.0
 40
18.758165
100
AcDbArc
 50
161.207343
 51
198.793098
  0
ARC
  5
4EB
330
1F
100
AcDbEntity
  8
0
  6
CONTINUOUS
 62
     3
100
AcDbCircle
 10
-145.5850350958643
 20
140.9343627571948
 30
0.0
 40
5.645435
100
AcDbArc
 50
145.3357479999999
 51
181.3807180000001
  0
ARC
  5
4EC
330
1F
100
AcDbEntity
  8
0
  6
CONTINUOUS
 62
     3
100
AcDbCircle
 10
-146.8731850958643
 20
140.9343627571948
 30
0.0
 40
5.645435
100
AcDbArc
 50
358.8423310000001
 51
34.66425200000005
  0
ARC
  5
4ED
330
1F
100
AcDbEntity
  8
0
  6
CONTINUOUS
 62
     3
100
AcDbCircle
 10
-159.9874250958642
 20
156.7236227571948
 30
0.0
 40
18.758165
100
AcDbArc
 50
341.206677
 51
18.79288200000005
  0
ARC
  5
4EE
330
1F
100
AcDbEntity
  8
0
  6
CONTINUOUS
 62
     3
100
AcDbCircle
 10
-146.8728800958643
 20
172.5131877571948
 30
0.0
 40
5.645435
100
AcDbArc
 50
325.3333969999999
 51
1.273856000000104
  0
LINE
  5
4EF
330
1F
100
AcDbEntity
  8
0
  6
CONTINUOUS
 62
     3
100
AcDbLine
 10
-137.2290950958643
 20
173.9936727571949
 30
0.0
 11
-137.2290950958643
 21
139.4538777571948
 31
0.0
  0
LINE
  5
4F0
330
1F
100
AcDbEntity
  8
0
  6
CONTINUOUS
 62
     3
100
AcDbLine
 10
-137.2290950958643
 20
140.2236827571949
 30
0.0
 11
-141.2291100958643
 21
140.2236827571949
 31
0.0
  0
LINE
  5
4F1
330
1F
100
AcDbEntity
  8
0
  6
CONTINUOUS
 62
     3
100
AcDbLine
 10
-141.2288800958642
 20
139.4538777571948
 30
0.0
 11
-141.2286550958643
 21
173.9936727571949
 31
0.0
  0
LINE
  5
4F2
330
1F
100
AcDbEntity
  8
0
  6
CONTINUOUS
 62
     3
100
AcDbLine
 10
-141.2291100958643
 20
173.2236377571949
 30
0.0
 11
-137.2290950958643
 21
173.2236377571949
 31
0.0
  0
LINE
  5
4F3
330
1F
100
AcDbEntity
  8
0
  6
CONTINUOUS
 62
     3
100
AcDbLine
 10
-84.22960009586433
 20
169.9736677571948
 30
0.0
 11
-84.22960009586427
 21
143.4736527571948
 31
0.0
  0
LINE
  5
4F4
330
1F
100
AcDbEntity
  8
0
  6
CONTINUOUS
 62
     3
100
AcDbLine
 10
-84.22960009586427
 20
143.4736527571948
 30
0.0
 11
-96.22957009586423
 21
143.4736527571949
 31
0.0
  0
LINE
  5
4F5
330
1F
100
AcDbEntity
  8
0
  6
CONTINUOUS
 62
     3
100
AcDbLine
 10
-96.22934009586425
 20
139.4538777571949
 30
0.0
 11
-96.22911009586431
 21
173.9936727571948
 31
0.0
  0
LINE
  5
4F6
330
1F
100
AcDbEntity
  8
0
  6
CONTINUOUS
 62
     3
100
AcDbLine
 10
-96.22957009586429
 20
169.9736677571948
 30
0.0
 11
-84.22960009586433
 21
169.9736677571948
 31
0.0
  0
LINE
  5
4F7
330
1F
100
AcDbEntity
  8
0
  6
CONTINUOUS
 62
     3
100
AcDbLine
 10
-93.72957009586432
 20
162.3237527571949
 30
0.0
 11
-93.72957009586423
 21
151.1237977571948
 31
0.0
  0
LINE
  5
4F8
330
1F
100
AcDbEntity
  8
0
  6
CONTINUOUS
 62
     3
100
AcDbLine
 10
-93.72957009586432
 20
162.3237527571949
 30
0.0
 11
-84.22960009586436
 21
162.3237527571949
 31
0.0
  0
LINE
  5
4F9
330
1F
100
AcDbEntity
  8
0
  6
CONTINUOUS
 62
     3
100
AcDbLine
 10
-93.72957009586423
 20
151.1237977571948
 30
0.0
 11
-84.22960009586427
 21
151.1237977571948
 31
0.0
  0
LINE
  5
4FA
330
1F
100
AcDbEntity
  8
0
  6
CONTINUOUS
 62
     3
100
AcDbLine
 10
-136.2291100958643
 20
175.7236377571949
 30
0.0
 11
-137.2290950958643
 21
173.9936727571949
 31
0.0
  0
LINE
  5
4FB
330
1F
100
AcDbEntity
  8
0
  6
CONTINUOUS
 62
     3
100
AcDbLine
 10
-150.2288950958643
 20
175.7236377571949
 30
0.0
 11
-151.2286550958643
 21
173.9936727571949
 31
0.0
  0
LINE
  5
4FC
330
1F
100
AcDbEntity
  8
0
  6
CONTINUOUS
 62
     3
100
AcDbLine
 10
-150.2288950958643
 20
137.7236827571949
 30
0.0
 11
-151.2288800958642
 21
139.4538777571948
 31
0.0
  0
LINE
  5
4FD
330
1F
100
AcDbEntity
  8
0
  6
CONTINUOUS
 62
     3
100
AcDbLine
 10
-136.2291100958643
 20
137.7236827571949
 30
0.0
 11
-137.2290950958643
 21
139.4538777571948
 31
0.0
  0
LINE
  5
4FE
330
1F
100
AcDbEntity
  8
0
  6
CONTINUOUS
 62
     3
100
AcDbLine
 10
-97.2290950958643
 20
175.7236377571948
 30
0.0
 11
-96.22911009586431
 21
173.9936727571948
 31
0.0
  0
LINE
  5
4FF
330
1F
100
AcDbEntity
  8
0
  6
CONTINUOUS
 62
     3
100
AcDbLine
 10
-97.22909509586424
 20
137.7236827571949
 30
0.0
 11
-96.22934009586425
 21
139.4538777571949
 31
0.0
  0
LINE
  5
500
330
1F
100
AcDbEntity
  8
0
  6
CONTINUOUS
 62
     3
100
AcDbLine
 10
-142.2286400958643
 20
175.7236377571949
 30
0.0
 11
-141.2286550958643
 21
173.9936727571949
 31
0.0
  0
LINE
  5
501
330
1F
100
AcDbEntity
  8
0
  6
CONTINUOUS
 62
     3
100
AcDbLine
 10
-142.2286400958643
 20
137.7236827571949
 30
0.0
 11
-141.2288800958642
 21
139.4538777571948
 31
0.0
  0
LINE
  5
502
330
1F
100
AcDbEntity
  8
0
  6
CONTINUOUS
 62
     3
100
AcDbLine
 10
-237.2291400958643
 20
143.2236377171948
 30
0.0
 11
-237.2291400958643
 21
170.2235477171948
 31
0.0
  0
LINE
  5
503
330
1F
100
AcDbEntity
  8
0
  6
CONTINUOUS
 62
     3
100
AcDbLine
 10
-236.2291400958643
 20
171.2235477171948
 30
0.0
 11
-233.2301200958643
 21
171.2235477171948
 31
0.0
  0
LINE
  5
504
330
1F
100
AcDbEntity
  8
0
  6
CONTINUOUS
 62
     3
100
AcDbLine
 10
-230.2291400958643
 20
171.2235477171948
 30
0.0
 11
-230.2291400958643
 21
142.2236377171948
 31
0.0
  0
LINE
  5
505
330
1F
100
AcDbEntity
  8
0
  6
CONTINUOUS
 62
     3
100
AcDbLine
 10
-230.2291400958643
 20
142.2236377171948
 30
0.0
 11
-233.2302450958643
 21
142.2236377171948
 31
0.0
  0
LINE
  5
506
330
1F
100
AcDbEntity
  8
0
  6
CONTINUOUS
 62
     3
100
AcDbLine
 10
-233.2291400958643
 20
171.2235477171948
 30
0.0
 11
-233.2291400958643
 21
142.2236377171948
 31
0.0
  0
ARC
  5
507
330
1F
100
AcDbEntity
  8
0
  6
CONTINUOUS
 62
     3
100
AcDbCircle
 10
-236.2291400958643
 20
143.2236377171948
 30
0.0
 40
1.0
100
AcDbArc
 50
180.0
 51
270.0
  0
ARC
  5
508
330
1F
100
AcDbEntity
  8
0
  6
CONTINUOUS
 62
     3
100
AcDbCircle
 10
-236.2291400958643
 20
170.2235477171948
 30
0.0
 40
1.0
100
AcDbArc
 50
90.0
 51
180.0
  0
LINE
  5
509
330
1F
100
AcDbEntity
  8
0
  6
CONTINUOUS
 62
     3
100
AcDbLine
 10
-233.2302450958643
 20
142.2236377171948
 30
0.0
 11
-236.2291400958643
 21
142.2236377171948
 31
0.0
  0
LINE
  5
50A
330
1F
100
AcDbEntity
  8
0
  6
CONTINUOUS
 62
     3
100
AcDbLine
 10
-233.2301200958643
 20
171.2235477171948
 30
0.0
 11
-230.2291400958643
 21
171.2235477171948
 31
0.0
  0
CIRCLE
  5
50B
330
1F
100
AcDbEntity
  8
0
  6
CONTINUOUS
 62
     3
100
AcDbCircle
 10
31.95015078461945
 20
-159.4620512472767
 30
0.0
 40
14.5
  0
CIRCLE
  5
50C
330
1F
100
AcDbEntity
  8
0
  6
CONTINUOUS
 62
     3
100
AcDbCircle
 10
-152.2291400958643
 20
-41.96205124727678
 30
0.0
 40
3.96076952
  0
CIRCLE
  5
50D
330
1F
100
AcDbEntity
  8
0
  6
CONTINUOUS
 62
     3
100
AcDbCircle
 10
-152.2291400958643
 20
-41.96205124727678
 30
0.0
 40
5.0
  0
LINE
  5
50E
330
1F
100
AcDbEntity
  8
0
  6
CONTINUOUS
 62
     3
100
AcDbLine
 10
-152.2291400958643
 20
-39.07529989727678
 30
0.0
 11
-154.7291400958643
 21
-40.51867557727678
 31
0.0
  0
LINE
  5
50F
330
1F
100
AcDbEntity
  8
0
  6
CONTINUOUS
 62
     3
100
AcDbLine
 10
-154.7291400958643
 20
-40.51867557727678
 30
0.0
 11
-154.7291400958643
 21
-43.40542691727677
 31
0.0
  0
LINE
  5
510
330
1F
100
AcDbEntity
  8
0
  6
CONTINUOUS
 62
     3
100
AcDbLine
 10
-154.7291400958643
 20
-43.40542691727677
 30
0.0
 11
-152.2291400958643
 21
-44.84880258727679
 31
0.0
  0
LINE
  5
511
330
1F
100
AcDbEntity
  8
0
  6
CONTINUOUS
 62
     3
100
AcDbLine
 10
-152.2291400958643
 20
-44.84880258727679
 30
0.0
 11
-149.7291400958643
 21
-43.40542691727677
 31
0.0
  0
LINE
  5
512
330
1F
100
AcDbEntity
  8
0
  6
CONTINUOUS
 62
     3
100
AcDbLine
 10
-149.7291400958643
 20
-43.40542691727677
 30
0.0
 11
-149.7291400958643
 21
-40.51867557727678
 31
0.0
  0
LINE
  5
513
330
1F
100
AcDbEntity
  8
0
  6
CONTINUOUS
 62
     3
100
AcDbLine
 10
-149.7291400958643
 20
-40.51867557727678
 30
0.0
 11
-152.2291400958643
 21
-39.07529989727678
 31
0.0
  0
CIRCLE
  5
514
330
1F
100
AcDbEntity
  8
0
  6
CONTINUOUS
 62
     3
100
AcDbCircle
 10
-152.2291400958643
 20
-114.4620512472768
 30
0.0
 40
3.96076952
  0
CIRCLE
  5
515
330
1F
100
AcDbEntity
  8
0
  6
CONTINUOUS
 62
     3
100
AcDbCircle
 10
-152.2291400958643
 20
-114.4620512472768
 30
0.0
 40
5.0
  0
LINE
  5
516
330
1F
100
AcDbEntity
  8
0
  6
CONTINUOUS
 62
     3
100
AcDbLine
 10
-152.2291400958643
 20
-111.5752998972768
 30
0.0
 11
-154.7291400958643
 21
-113.0186755772768
 31
0.0
  0
LINE
  5
517
330
1F
100
AcDbEntity
  8
0
  6
CONTINUOUS
 62
     3
100
AcDbLine
 10
-154.7291400958643
 20
-113.0186755772768
 30
0.0
 11
-154.7291400958643
 21
-115.9054269172768
 31
0.0
  0
LINE
  5
518
330
1F
100
AcDbEntity
  8
0
  6
CONTINUOUS
 62
     3
100
AcDbLine
 10
-154.7291400958643
 20
-115.9054269172768
 30
0.0
 11
-152.2291400958643
 21
-117.3488025872768
 31
0.0
  0
LINE
  5
519
330
1F
100
AcDbEntity
  8
0
  6
CONTINUOUS
 62
     3
100
AcDbLine
 10
-152.2291400958643
 20
-117.3488025872768
 30
0.0
 11
-149.7291400958643
 21
-115.9054269172768
 31
0.0
  0
LINE
  5
51A
330
1F
100
AcDbEntity
  8
0
  6
CONTINUOUS
 62
     3
100
AcDbLine
 10
-149.7291400958643
 20
-115.9054269172768
 30
0.0
 11
-149.7291400958643
 21
-113.0186755772768
 31
0.0
  0
LINE
  5
51B
330
1F
100
AcDbEntity
  8
0
  6
CONTINUOUS
 62
     3
100
AcDbLine
 10
-149.7291400958643
 20
-113.0186755772768
 30
0.0
 11
-152.2291400958643
 21
-111.5752998972768
 31
0.0
  0
CIRCLE
  5
51C
330
1F
100
AcDbEntity
  8
0
  6
CONTINUOUS
 62
     3
100
AcDbCircle
 10
-152.2291400958643
 20
-186.9620512472768
 30
0.0
 40
3.96076952
  0
CIRCLE
  5
51D
330
1F
100
AcDbEntity
  8
0
  6
CONTINUOUS
 62
     3
100
AcDbCircle
 10
-152.2291400958643
 20
-186.9620512472768
 30
0.0
 40
5.0
  0
LINE
  5
51E
330
1F
100
AcDbEntity
  8
0
  6
CONTINUOUS
 62
     3
100
AcDbLine
 10
-152.2291400958643
 20
-184.0752998972768
 30
0.0
 11
-154.7291400958643
 21
-185.5186755772768
 31
0.0
  0
LINE
  5
51F
330
1F
100
AcDbEntity
  8
0
  6
CONTINUOUS
 62
     3
100
AcDbLine
 10
-154.7291400958643
 20
-185.5186755772768
 30
0.0
 11
-154.7291400958643
 21
-188.4054269172768
 31
0.0
  0
LINE
  5
520
330
1F
100
AcDbEntity
  8
0
  6
CONTINUOUS
 62
     3
100
AcDbLine
 10
-154.7291400958643
 20
-188.4054269172768
 30
0.0
 11
-152.2291400958643
 21
-189.8488025872767
 31
0.0
  0
LINE
  5
521
330
1F
100
AcDbEntity
  8
0
  6
CONTINUOUS
 62
     3
100
AcDbLine
 10
-152.2291400958643
 20
-189.8488025872767
 30
0.0
 11
-149.7291400958643
 21
-188.4054269172768
 31
0.0
  0
LINE
  5
522
330
1F
100
AcDbEntity
  8
0
  6
CONTINUOUS
 62
     3
100
AcDbLine
 10
-149.7291400958643
 20
-188.4054269172768
 30
0.0
 11
-149.7291400958643
 21
-185.5186755772768
 31
0.0
  0
LINE
  5
523
330
1F
100
AcDbEntity
  8
0
  6
CONTINUOUS
 62
     3
100
AcDbLine
 10
-149.7291400958643
 20
-185.5186755772768
 30
0.0
 11
-152.2291400958643
 21
-184.0752998972768
 31
0.0
  0
CIRCLE
  5
524
330
1F
100
AcDbEntity
  8
0
  6
CONTINUOUS
 62
     3
100
AcDbCircle
 10
-232.2291400958643
 20
-186.9620512472768
 30
0.0
 40
3.96076952
  0
CIRCLE
  5
525
330
1F
100
AcDbEntity
  8
0
  6
CONTINUOUS
 62
     3
100
AcDbCircle
 10
-232.2291400958643
 20
-186.9620512472768
 30
0.0
 40
5.0
  0
LINE
  5
526
330
1F
100
AcDbEntity
  8
0
  6
CONTINUOUS
 62
     3
100
AcDbLine
 10
-232.2291400958643
 20
-184.0752998972768
 30
0.0
 11
-234.7291400958643
 21
-185.5186755772768
 31
0.0
  0
LINE
  5
527
330
1F
100
AcDbEntity
  8
0
  6
CONTINUOUS
 62
     3
100
AcDbLine
 10
-234.7291400958643
 20
-185.5186755772768
 30
0.0
 11
-234.7291400958643
 21
-188.4054269172768
 31
0.0
  0
LINE
  5
528
330
1F
100
AcDbEntity
  8
0
  6
CONTINUOUS
 62
     3
100
AcDbLine
 10
-234.7291400958643
 20
-188.4054269172768
 30
0.0
 11
-232.2291400958643
 21
-189.8488025872767
 31
0.0
  0
LINE
  5
529
330
1F
100
AcDbEntity
  8
0
  6
CONTINUOUS
 62
     3
100
AcDbLine
 10
-232.2291400958643
 20
-189.8488025872767
 30
0.0
 11
-229.7291400958643
 21
-188.4054269172768
 31
0.0
  0
LINE
  5
52A
330
1F
100
AcDbEntity
  8
0
  6
CONTINUOUS
 62
     3
100
AcDbLine
 10
-229.7291400958643
 20
-188.4054269172768
 30
0.0
 11
-229.7291400958643
 21
-185.5186755772768
 31
0.0
  0
LINE
  5
52B
330
1F
100
AcDbEntity
  8
0
  6
CONTINUOUS
 62
     3
100
AcDbLine
 10
-229.7291400958643
 20
-185.5186755772768
 30
0.0
 11
-232.2291400958643
 21
-184.0752998972768
 31
0.0
  0
CIRCLE
  5
52C
330
1F
100
AcDbEntity
  8
0
  6
CONTINUOUS
 62
     3
100
AcDbCircle
 10
-232.2291400958643
 20
-114.4620512472768
 30
0.0
 40
3.96076952
  0
CIRCLE
  5
52D
330
1F
100
AcDbEntity
  8
0
  6
CONTINUOUS
 62
     3
100
AcDbCircle
 10
-232.2291400958643
 20
-114.4620512472768
 30
0.0
 40
5.0
  0
LINE
  5
52E
330
1F
100
AcDbEntity
  8
0
  6
CONTINUOUS
 62
     3
100
AcDbLine
 10
-232.2291400958643
 20
-111.5752998972768
 30
0.0
 11
-234.7291400958643
 21
-113.0186755772768
 31
0.0
  0
LINE
  5
52F
330
1F
100
AcDbEntity
  8
0
  6
CONTINUOUS
 62
     3
100
AcDbLine
 10
-234.7291400958643
 20
-113.0186755772768
 30
0.0
 11
-234.7291400958643
 21
-115.9054269172768
 31
0.0
  0
LINE
  5
530
330
1F
100
AcDbEntity
  8
0
  6
CONTINUOUS
 62
     3
100
AcDbLine
 10
-234.7291400958643
 20
-115.9054269172768
 30
0.0
 11
-232.2291400958643
 21
-117.3488025872768
 31
0.0
  0
LINE
  5
531
330
1F
100
AcDbEntity
  8
0
  6
CONTINUOUS
 62
     3
100
AcDbLine
 10
-232.2291400958643
 20
-117.3488025872768
 30
0.0
 11
-229.7291400958643
 21
-115.9054269172768
 31
0.0
  0
LINE
  5
532
330
1F
100
AcDbEntity
  8
0
  6
CONTINUOUS
 62
     3
100
AcDbLine
 10
-229.7291400958643
 20
-115.9054269172768
 30
0.0
 11
-229.7291400958643
 21
-113.0186755772768
 31
0.0
  0
LINE
  5
533
330
1F
100
AcDbEntity
  8
0
  6
CONTINUOUS
 62
     3
100
AcDbLine
 10
-229.7291400958643
 20
-113.0186755772768
 30
0.0
 11
-232.2291400958643
 21
-111.5752998972768
 31
0.0
  0
CIRCLE
  5
534
330
1F
100
AcDbEntity
  8
0
  6
CONTINUOUS
 62
     3
100
AcDbCircle
 10
-232.2291400958643
 20
-41.96205124727678
 30
0.0
 40
3.96076952
  0
CIRCLE
  5
535
330
1F
100
AcDbEntity
  8
0
  6
CONTINUOUS
 62
     3
100
AcDbCircle
 10
-232.2291400958643
 20
-41.96205124727678
 30
0.0
 40
5.0
  0
LINE
  5
536
330
1F
100
AcDbEntity
  8
0
  6
CONTINUOUS
 62
     3
100
AcDbLine
 10
-232.2291400958643
 20
-39.07529989727678
 30
0.0
 11
-234.7291400958643
 21
-40.51867557727678
 31
0.0
  0
LINE
  5
537
330
1F
100
AcDbEntity
  8
0
  6
CONTINUOUS
 62
     3
100
AcDbLine
 10
-234.7291400958643
 20
-40.51867557727678
 30
0.0
 11
-234.7291400958643
 21
-43.40542691727677
 31
0.0
  0
LINE
  5
538
330
1F
100
AcDbEntity
  8
0
  6
CONTINUOUS
 62
     3
100
AcDbLine
 10
-234.7291400958643
 20
-43.40542691727677
 30
0.0
 11
-232.2291400958643
 21
-44.84880258727679
 31
0.0
  0
LINE
  5
539
330
1F
100
AcDbEntity
  8
0
  6
CONTINUOUS
 62
     3
100
AcDbLine
 10
-232.2291400958643
 20
-44.84880258727679
 30
0.0
 11
-229.7291400958643
 21
-43.40542691727677
 31
0.0
  0
LINE
  5
53A
330
1F
100
AcDbEntity
  8
0
  6
CONTINUOUS
 62
     3
100
AcDbLine
 10
-229.7291400958643
 20
-43.40542691727677
 30
0.0
 11
-229.7291400958643
 21
-40.51867557727678
 31
0.0
  0
LINE
  5
53B
330
1F
100
AcDbEntity
  8
0
  6
CONTINUOUS
 62
     3
100
AcDbLine
 10
-229.7291400958643
 20
-40.51867557727678
 30
0.0
 11
-232.2291400958643
 21
-39.07529989727678
 31
0.0
  0
LINE
  5
53C
330
1F
100
AcDbEntity
  8
0
  6
CONTINUOUS
 62
     3
100
AcDbLine
 10
107.6442130880567
 20
-141.5654991272768
 30
0.0
 11
148.6441980880567
 21
-141.5654991272768
 31
0.0
  0
LINE
  5
53D
330
1F
100
AcDbEntity
  8
0
  6
CONTINUOUS
 62
     3
100
AcDbLine
 10
147.6442130880567
 20
-145.3433441272768
 30
0.0
 11
108.6445030880566
 21
-145.3433441272768
 31
0.0
  0
LINE
  5
53E
330
1F
100
AcDbEntity
  8
0
  6
CONTINUOUS
 62
     3
100
AcDbLine
 10
147.6442130880567
 20
-155.7654791272768
 30
0.0
 11
108.6445030880566
 21
-155.7654791272768
 31
0.0
  0
LINE
  5
53F
330
1F
100
AcDbEntity
  8
0
  6
CONTINUOUS
 62
     3
100
AcDbLine
 10
147.6439830880566
 20
-141.5654991272768
 30
0.0
 11
147.6437530880567
 21
-145.3433441272768
 31
0.0
  0
ARC
  5
540
330
1F
100
AcDbEntity
  8
0
  6
CONTINUOUS
 62
     3
100
AcDbCircle
 10
134.8002030880567
 20
-150.5549841272768
 30
0.0
 40
13.860515
100
AcDbArc
 50
337.916365
 51
22.08211
  0
LINE
  5
541
330
1F
100
AcDbEntity
  8
0
  6
CONTINUOUS
 62
     3
100
AcDbLine
 10
148.6441980880567
 20
-177.5654841272768
 30
0.0
 11
148.6441980880567
 21
-141.5654991272768
 31
0.0
  0
LINE
  5
542
330
1F
100
AcDbEntity
  8
0
  6
CONTINUOUS
 62
     3
100
AcDbLine
 10
148.6441980880567
 20
-143.0655141272768
 30
0.0
 11
152.6442130880567
 21
-143.0655141272768
 31
0.0
  0
LINE
  5
543
330
1F
100
AcDbEntity
  8
0
  6
CONTINUOUS
 62
     3
100
AcDbLine
 10
108.6445030880566
 20
-145.3433441272768
 30
0.0
 11
108.6445030880566
 21
-141.5654991272768
 31
0.0
  0
LINE
  5
544
330
1F
100
AcDbEntity
  8
0
  6
CONTINUOUS
 62
     3
100
AcDbLine
 10
147.6442130880567
 20
-163.3655791272768
 30
0.0
 11
108.6445030880566
 21
-163.3655791272768
 31
0.0
  0
LINE
  5
545
330
1F
100
AcDbEntity
  8
0
  6
CONTINUOUS
 62
     3
100
AcDbLine
 10
152.6439830880566
 20
-141.5654991272768
 30
0.0
 11
162.6461080880567
 21
-141.5654991272768
 31
0.0
  0
LINE
  5
546
330
1F
100
AcDbEntity
  8
0
  6
CONTINUOUS
 62
     3
100
AcDbLine
 10
152.6439830880566
 20
-141.5654991272768
 30
0.0
 11
152.6439830880566
 21
-177.5654841272768
 31
0.0
  0
ARC
  5
547
330
1F
100
AcDbEntity
  8
0
  6
CONTINUOUS
 62
     3
100
AcDbCircle
 10
121.4887380880567
 20
-150.5555191272768
 30
0.0
 40
13.860515
100
AcDbArc
 50
157.917597
 51
202.083635
  0
LINE
  5
548
330
1F
100
AcDbEntity
  8
0
  6
CONTINUOUS
 62
     3
100
AcDbLine
 10
147.6437530880567
 20
-155.7654791272768
 30
0.0
 11
147.6439830880566
 21
-163.3655791272768
 31
0.0
  0
LINE
  5
549
330
1F
100
AcDbEntity
  8
0
  6
CONTINUOUS
 62
     3
100
AcDbLine
 10
107.6442130880567
 20
-141.5654991272768
 30
0.0
 11
107.6442130880567
 21
-177.5654841272768
 31
0.0
  0
LINE
  5
54A
330
1F
100
AcDbEntity
  8
0
  6
CONTINUOUS
 62
     3
100
AcDbLine
 10
153.6441980880567
 20
-145.3433441272768
 30
0.0
 11
153.6441980880567
 21
-141.5654991272768
 31
0.0
  0
ARC
  5
54B
330
1F
100
AcDbEntity
  8
0
  6
CONTINUOUS
 62
     3
100
AcDbCircle
 10
166.6439980880567
 20
-150.5549841272768
 30
0.0
 40
14.00496
100
AcDbArc
 50
158.157032
 51
201.844475
  0
LINE
  5
54C
330
1F
100
AcDbEntity
  8
0
  6
CONTINUOUS
 62
     3
100
AcDbLine
 10
105.1444430880567
 20
-146.3154841272768
 30
0.0
 11
107.6444430880567
 21
-146.3154841272768
 31
0.0
  0
LINE
  5
54D
330
1F
100
AcDbEntity
  8
0
  6
CONTINUOUS
 62
     3
100
AcDbLine
 10
162.6461080880567
 20
-145.3433441272768
 30
0.0
 11
153.6441980880567
 21
-145.3433441272768
 31
0.0
  0
LINE
  5
54E
330
1F
100
AcDbEntity
  8
0
  6
CONTINUOUS
 62
     3
100
AcDbLine
 10
105.1444430880567
 20
-147.5654841272768
 30
0.0
 11
105.1444430880567
 21
-146.3154841272768
 31
0.0
  0
LINE
  5
54F
330
1F
100
AcDbEntity
  8
0
  6
CONTINUOUS
 62
     3
100
AcDbLine
 10
95.64447308805666
 20
-147.5654841272768
 30
0.0
 11
105.1444430880567
 21
-147.5654841272768
 31
0.0
  0
LINE
  5
550
330
1F
100
AcDbEntity
  8
0
  6
CONTINUOUS
 62
     3
100
AcDbLine
 10
108.6445030880566
 20
-163.3655791272768
 30
0.0
 11
108.6445030880566
 21
-155.7654791272768
 31
0.0
  0
LINE
  5
551
330
1F
100
AcDbEntity
  8
0
  6
CONTINUOUS
 62
     3
100
AcDbLine
 10
162.6461080880567
 20
-155.7654791272768
 30
0.0
 11
153.6441980880567
 21
-155.7654791272768
 31
0.0
  0
LINE
  5
552
330
1F
100
AcDbEntity
  8
0
  6
CONTINUOUS
 62
     3
100
AcDbLine
 10
153.6441980880567
 20
-163.3655791272768
 30
0.0
 11
153.6441980880567
 21
-155.7654791272768
 31
0.0
  0
ARC
  5
553
330
1F
100
AcDbEntity
  8
0
  6
CONTINUOUS
 62
     3
100
AcDbCircle
 10
134.8005080880567
 20
-168.5765291272768
 30
0.0
 40
13.860515
100
AcDbArc
 50
337.917771
 51
22.08375399999998
  0
ARC
  5
554
330
1F
100
AcDbEntity
  8
0
  6
CONTINUOUS
 62
     3
100
AcDbCircle
 10
121.4884330880566
 20
-168.5769891272768
 30
0.0
 40
13.860515
100
AcDbArc
 50
157.916246
 51
202.081352
  0
LINE
  5
555
330
1F
100
AcDbEntity
  8
0
  6
CONTINUOUS
 62
     3
100
AcDbLine
 10
162.6461080880567
 20
-163.3655791272768
 30
0.0
 11
153.6441980880567
 21
-163.3655791272768
 31
0.0
  0
ARC
  5
556
330
1F
100
AcDbEntity
  8
0
  6
CONTINUOUS
 62
     3
100
AcDbCircle
 10
166.6437680880567
 20
-168.5765291272768
 30
0.0
 40
14.00496
100
AcDbArc
 50
158.157263
 51
201.843837
  0
LINE
  5
557
330
1F
100
AcDbEntity
  8
0
  6
CONTINUOUS
 62
     3
100
AcDbLine
 10
147.6442130880567
 20
-173.7871791272768
 30
0.0
 11
108.6445030880566
 21
-173.7871791272768
 31
0.0
  0
LINE
  5
558
330
1F
100
AcDbEntity
  8
0
  6
CONTINUOUS
 62
     3
100
AcDbLine
 10
95.64447308805666
 20
-171.5654991272768
 30
0.0
 11
95.64447308805666
 21
-147.5654841272768
 31
0.0
  0
LINE
  5
559
330
1F
100
AcDbEntity
  8
0
  6
CONTINUOUS
 62
     3
100
AcDbLine
 10
148.6441980880567
 20
-177.5654841272768
 30
0.0
 11
107.6442130880567
 21
-177.5654841272768
 31
0.0
  0
LINE
  5
55A
330
1F
100
AcDbEntity
  8
0
  6
CONTINUOUS
 62
     3
100
AcDbLine
 10
147.6439830880566
 20
-173.7871791272768
 30
0.0
 11
147.6439830880566
 21
-177.5654841272768
 31
0.0
  0
LINE
  5
55B
330
1F
100
AcDbEntity
  8
0
  6
CONTINUOUS
 62
     3
100
AcDbLine
 10
107.6444430880567
 20
-172.8154991272768
 30
0.0
 11
105.1444430880567
 21
-172.8157291272768
 31
0.0
  0
LINE
  5
55C
330
1F
100
AcDbEntity
  8
0
  6
CONTINUOUS
 62
     3
100
AcDbLine
 10
108.6445030880566
 20
-177.5654841272768
 30
0.0
 11
108.6445030880566
 21
-173.7871791272768
 31
0.0
  0
LINE
  5
55D
330
1F
100
AcDbEntity
  8
0
  6
CONTINUOUS
 62
     3
100
AcDbLine
 10
152.6442130880567
 20
-176.0655441272768
 30
0.0
 11
148.6441980880567
 21
-176.0655441272768
 31
0.0
  0
LINE
  5
55E
330
1F
100
AcDbEntity
  8
0
  6
CONTINUOUS
 62
     3
100
AcDbLine
 10
105.1444430880567
 20
-172.8157291272768
 30
0.0
 11
105.1444430880567
 21
-171.5657291272768
 31
0.0
  0
LINE
  5
55F
330
1F
100
AcDbEntity
  8
0
  6
CONTINUOUS
 62
     3
100
AcDbLine
 10
105.1444430880567
 20
-171.5657291272768
 30
0.0
 11
95.64447308805666
 21
-171.5654991272768
 31
0.0
  0
LINE
  5
560
330
1F
100
AcDbEntity
  8
0
  6
CONTINUOUS
 62
     3
100
AcDbLine
 10
153.6441980880567
 20
-177.5654841272768
 30
0.0
 11
153.6441980880567
 21
-173.7871791272768
 31
0.0
  0
LINE
  5
561
330
1F
100
AcDbEntity
  8
0
  6
CONTINUOUS
 62
     3
100
AcDbLine
 10
162.6461080880567
 20
-173.7871791272768
 30
0.0
 11
153.6441980880567
 21
-173.7871791272768
 31
0.0
  0
LINE
  5
562
330
1F
100
AcDbEntity
  8
0
  6
CONTINUOUS
 62
     3
100
AcDbLine
 10
162.6461080880567
 20
-177.5654841272768
 30
0.0
 11
152.6439830880566
 21
-177.5654841272768
 31
0.0
  0
LINE
  5
563
330
1F
100
AcDbEntity
  8
0
  6
CONTINUOUS
 62
     3
100
AcDbLine
 10
165.6462880880567
 20
-141.9090067459052
 30
0.0
 11
162.6463330880567
 21
-141.9090067459052
 31
0.0
  0
LINE
  5
564
330
1F
100
AcDbEntity
  8
0
  6
CONTINUOUS
 62
     3
100
AcDbLine
 10
162.6463330880567
 20
-176.9090067459053
 30
0.0
 11
165.6462880880567
 21
-176.9090067459053
 31
0.0
  0
LINE
  5
565
330
1F
100
AcDbEntity
  8
0
  6
CONTINUOUS
 62
     3
100
AcDbLine
 10
161.6458930880567
 20
-145.3433441272768
 30
0.0
 11
161.6458930880567
 21
-141.5654991272768
 31
0.0
  0
ARC
  5
566
330
1F
100
AcDbEntity
  8
0
  6
CONTINUOUS
 62
     3
100
AcDbCircle
 10
148.6460930880567
 20
-150.5549841272768
 30
0.0
 40
14.00496
100
AcDbArc
 50
338.155525
 51
21.842968
  0
LINE
  5
567
330
1F
100
AcDbEntity
  8
0
  6
CONTINUOUS
 62
     3
100
AcDbLine
 10
161.6458930880567
 20
-163.3655791272768
 30
0.0
 11
161.6458930880567
 21
-155.7654791272768
 31
0.0
  0
ARC
  5
568
330
1F
100
AcDbEntity
  8
0
  6
CONTINUOUS
 62
     3
100
AcDbCircle
 10
148.6463230880567
 20
-168.5765291272768
 30
0.0
 40
14.00496
100
AcDbArc
 50
338.156163
 51
21.84273699999997
  0
LINE
  5
569
330
1F
100
AcDbEntity
  8
0
  6
CONTINUOUS
 62
     3
100
AcDbLine
 10
161.6458930880567
 20
-177.5654841272768
 30
0.0
 11
161.6458930880567
 21
-173.7871791272768
 31
0.0
  0
LINE
  5
56A
330
1F
100
AcDbEntity
  8
0
  6
CONTINUOUS
 62
     3
100
AcDbLine
 10
241.6426580880566
 20
-141.9090067459052
 30
0.0
 11
244.6426130880566
 21
-141.9090067459052
 31
0.0
  0
LINE
  5
56B
330
1F
100
AcDbEntity
  8
0
  6
CONTINUOUS
 62
     3
100
AcDbLine
 10
244.6426130880566
 20
-176.9090067459053
 30
0.0
 11
241.6426580880566
 21
-176.9090067459053
 31
0.0
  0
TEXT
  5
56D
330
1F
100
AcDbEntity
  8
0
 62
     7
100
AcDbText
 10
262.1219629652645
 20
-205.8967149278153
 30
0.0
 40
15.0
  1
000
 41
0.5526315789473684
  7
DCSTYLE0
 72
     5
 11
284.6219629652645
 21
-205.8967149278153
 31
0.0
100
AcDbText
  0
LINE
  5
56E
330
1F
100
AcDbEntity
  8
LAYER0003
  6
CONTINUOUS
 62
     7
100
AcDbLine
 10
-17.34984921538068
 20
16.53794875272377
 30
0.0
 11
-17.34984921538068
 21
-11.34180230499009
 31
0.0
  0
LINE
  5
56F
330
1F
100
AcDbEntity
  8
LAYER0003
  6
CONTINUOUS
 62
     7
100
AcDbLine
 10
-17.34984921538068
 20
16.53794875272377
 30
0.0
 11
-15.0498492153805
 21
16.53794875272377
 31
0.0
  0
LINE
  5
570
330
1F
100
AcDbEntity
  8
LAYER0003
  6
CONTINUOUS
 62
     7
100
AcDbLine
 10
-15.0498492153805
 20
16.53794875272377
 30
0.0
 11
-15.0498492153805
 21
-11.34180230499032
 31
0.0
  0
LINE
  5
571
330
1F
100
AcDbEntity
  8
LAYER0003
  6
CONTINUOUS
 62
     7
100
AcDbLine
 10
-17.34984921538068
 20
1.386119756367073
 30
0.0
 11
-27.74984921538034
 21
1.386119756367073
 31
0.0
  0
LINE
  5
572
330
1F
100
AcDbEntity
  8
LAYER0003
  6
CONTINUOUS
 62
     7
100
AcDbLine
 10
-17.34984921538068
 20
-11.34180230499009
 30
0.0
 11
-27.74984921538034
 21
-11.34180230499009
 31
0.0
  0
LINE
  5
573
330
1F
100
AcDbEntity
  8
LAYER0003
  6
CONTINUOUS
 62
     7
100
AcDbLine
 10
-17.34984921538068
 20
-12.96814790171947
 30
0.0
 11
-27.74984921538034
 21
-12.96814790172004
 31
0.0
  0
LINE
  5
574
330
1F
100
AcDbEntity
  8
LAYER0003
  6
CONTINUOUS
 62
     7
100
AcDbLine
 10
-27.74984921538034
 20
-11.34180230499009
 30
0.0
 11
-27.74984921538034
 21
48.35775390608513
 31
0.0
  0
LINE
  5
575
330
1F
100
AcDbEntity
  8
LAYER0003
  6
CONTINUOUS
 62
     7
100
AcDbLine
 10
-30.04984921538053
 20
-11.34180230499032
 30
0.0
 11
-30.04984921538053
 21
48.35775390608513
 31
0.0
  0
LINE
  5
576
330
1F
100
AcDbEntity
  8
LAYER0003
  6
CONTINUOUS
 62
     7
100
AcDbLine
 10
-30.04984921538053
 20
48.35775390608513
 30
0.0
 11
-27.74984921538034
 21
48.35775390608513
 31
0.0
  0
LINE
  5
577
330
1F
100
AcDbEntity
  8
LAYER0003
  6
CONTINUOUS
 62
     7
100
AcDbLine
 10
-27.44984921538016
 20
22.75115218828012
 30
0.0
 11
-27.44984921538016
 21
34.75115218828001
 31
0.0
  0
LINE
  5
578
330
1F
100
AcDbEntity
  8
LAYER0003
  6
CONTINUOUS
 62
     7
100
AcDbLine
 10
-27.74984921537989
 20
22.75115218828012
 30
0.0
 11
-27.44984921538016
 21
22.75115218828012
 31
0.0
  0
LINE
  5
579
330
1F
100
AcDbEntity
  8
LAYER0003
  6
CONTINUOUS
 62
     7
100
AcDbLine
 10
-49.0498492153803
 20
31.25115218828011
 30
0.0
 11
-31.54984921538053
 21
31.25115218828012
 31
0.0
  0
LINE
  5
57A
330
1F
100
AcDbEntity
  8
LAYER0003
  6
CONTINUOUS
 62
     7
100
AcDbLine
 10
-22.74984921538034
 20
31.25115218828012
 30
0.0
 11
-17.5498492153803
 21
31.25115218828012
 31
0.0
  0
LINE
  5
57B
330
1F
100
AcDbEntity
  8
LAYER0003
  6
CONTINUOUS
 62
     7
100
AcDbLine
 10
-49.0498492153803
 20
26.25115218828
 30
0.0
 11
-31.54984921538053
 21
26.25115218828001
 31
0.0
  0
LINE
  5
57C
330
1F
100
AcDbEntity
  8
LAYER0003
  6
CONTINUOUS
 62
     7
100
AcDbLine
 10
-22.74984921538034
 20
26.25115218828001
 30
0.0
 11
-17.5498492153803
 21
26.25115218828001
 31
0.0
  0
LINE
  5
57D
330
1F
100
AcDbEntity
  8
LAYER0003
  6
CONTINUOUS
 62
     7
100
AcDbLine
 10
-49.0498492153803
 20
26.25115218828
 30
0.0
 11
-49.0498492153803
 21
31.25115218828011
 31
0.0
  0
LINE
  5
57E
330
1F
100
AcDbEntity
  8
LAYER0003
  6
CONTINUOUS
 62
     7
100
AcDbLine
 10
-17.5498492153803
 20
26.25115218828001
 30
0.0
 11
-17.5498492153803
 21
31.25115218828012
 31
0.0
  0
LINE
  5
57F
330
1F
100
AcDbEntity
  8
LAYER0003
  6
CONTINUOUS
 62
     7
100
AcDbLine
 10
-31.54984921538053
 20
37.2364335625249
 30
0.0
 11
-31.54984921538053
 21
20.26587081404853
 31
0.0
  0
LINE
  5
580
330
1F
100
AcDbEntity
  8
LAYER0003
  6
CONTINUOUS
 62
     7
100
AcDbLine
 10
-30.04984921538053
 20
37.2364335625249
 30
0.0
 11
-31.54984921538053
 21
37.2364335625249
 31
0.0
  0
LINE
  5
581
330
1F
100
AcDbEntity
  8
LAYER0003
  6
CONTINUOUS
 62
     7
100
AcDbLine
 10
-27.74984921537989
 20
34.75115218828001
 30
0.0
 11
-27.44984921538016
 21
34.75115218828001
 31
0.0
  0
LINE
  5
582
330
1F
100
AcDbEntity
  8
LAYER0003
  6
CONTINUOUS
 62
     7
100
AcDbLine
 10
-30.04984921538053
 20
28.7511521882866
 30
0.0
 11
-31.54984921538053
 21
28.7511521882866
 31
0.0
  0
LINE
  5
583
330
1F
100
AcDbEntity
  8
LAYER0003
  6
CONTINUOUS
 62
     7
100
AcDbLine
 10
-30.04984921538053
 20
20.26587081404853
 30
0.0
 11
-31.54984921538053
 21
20.26587081404853
 31
0.0
  0
LINE
  5
584
330
1F
100
AcDbEntity
  8
LAYER0003
  6
CONTINUOUS
 62
     7
100
AcDbLine
 10
-167.4804027544101
 20
40.77196746856877
 30
0.0
 11
-158.9951213801718
 21
32.28668609433013
 31
0.0
  0
LINE
  5
585
330
1F
100
AcDbEntity
  8
LAYER0003
  6
CONTINUOUS
 62
     7
100
AcDbLine
 10
-158.570857311413
 20
37.51927627506436
 30
0.0
 11
-161.3992844362061
 21
34.69084915036468
 31
0.0
  0
ARC
  5
586
330
1F
100
AcDbEntity
  8
LAYER0003
  6
CONTINUOUS
 62
     7
100
AcDbCircle
 10
-160.4093349424976
 20
39.35775390614891
 30
0.0
 40
9.0
100
AcDbArc
 50
314.9999999999918
 51
134.9999999999918
  0
ARC
  5
587
330
1F
100
AcDbEntity
  8
LAYER0003
  6
CONTINUOUS
 62
     7
100
AcDbCircle
 10
-160.4093349424976
 20
39.35775390614891
 30
0.0
 40
2.6
100
AcDbArc
 50
314.9999999999911
 51
134.9999999999912
  0
LINE
  5
588
330
1F
100
AcDbEntity
  8
LAYER0003
  6
CONTINUOUS
 62
     7
100
AcDbLine
 10
-162.2478125735824
 20
41.19623153723365
 30
0.0
 11
-165.0762396983758
 21
38.36780441253416
 31
0.0
  0
LINE
  5
589
330
1F
100
AcDbEntity
  8
LAYER0003
  6
CONTINUOUS
 62
     7
100
AcDbLine
 10
-175.9656841286481
 20
32.28668609433058
 30
0.0
 11
-167.4804027544101
 21
40.77196746856877
 31
0.0
  0
LINE
  5
58A
330
1F
100
AcDbEntity
  8
LAYER0003
  6
CONTINUOUS
 62
     7
100
AcDbLine
 10
-173.5615210726138
 20
29.88252303829643
 30
0.0
 11
-185.5823363527383
 21
17.86170775807751
 31
0.0
  0
LINE
  5
58B
330
1F
100
AcDbEntity
  8
LAYER0003
  6
CONTINUOUS
 62
     7
100
AcDbLine
 10
-169.8845658104434
 20
26.20556777612652
 30
0.0
 11
-181.9053810905679
 21
14.18475249590779
 31
0.0
  0
ARC
  5
58C
330
1F
100
AcDbEntity
  8
LAYER0003
  6
CONTINUOUS
 62
     7
100
AcDbCircle
 10
-183.7438587216535
 20
16.02323012699254
 30
0.0
 40
2.6
100
AcDbArc
 50
134.9999999999912
 51
314.9999999999911
  0
CIRCLE
  5
58D
330
1F
100
AcDbEntity
  8
LAYER0003
  6
CONTINUOUS
 62
     7
100
AcDbCircle
 10
-167.4804027544106
 20
32.28668609433013
 30
0.0
 40
2.5
  0
LINE
  5
58E
330
1F
100
AcDbEntity
  8
LAYER0003
  6
CONTINUOUS
 62
     7
100
AcDbLine
 10
-175.9656841286481
 20
32.28668609433058
 30
0.0
 11
-173.561521072614
 21
29.88252303829601
 31
0.0
  0
LINE
  5
58F
330
1F
100
AcDbEntity
  8
LAYER0003
  6
CONTINUOUS
 62
     7
100
AcDbLine
 10
-169.8845658104441
 20
26.20556777612607
 30
0.0
 11
-167.4804027544101
 21
23.80140472009172
 31
0.0
  0
LINE
  5
590
330
1F
100
AcDbEntity
  8
LAYER0003
  6
CONTINUOUS
 62
     7
100
AcDbLine
 10
-167.4804027544101
 20
23.80140472009172
 30
0.0
 11
-158.9951213801718
 21
32.28668609433013
 31
0.0
  0
LINE
  5
591
330
1F
100
AcDbEntity
  8
LAYER0003
  6
CONTINUOUS
 62
     7
100
AcDbLine
 10
-174.9757346349868
 20
28.46830947592358
 30
0.0
 11
-171.2987793728168
 21
24.79135421375342
 31
0.0
  0
LINE
  5
592
330
1F
100
AcDbEntity
  8
LAYER0003
  6
CONTINUOUS
 62
     7
100
AcDbLine
 10
-200.0073146889439
 20
-12.96814790165535
 30
0.0
 11
-154.0453739118188
 21
32.99379287547004
 31
0.0
  0
LINE
  5
593
330
1F
100
AcDbEntity
  8
LAYER0003
  6
CONTINUOUS
 62
     7
100
AcDbLine
 10
-212.7352367503015
 20
-0.2402258402973914
 30
0.0
 11
-166.7732959731763
 21
45.721714936828
 31
0.0
  0
LINE
  5
594
330
1F
100
AcDbEntity
  8
LAYER0003
  6
CONTINUOUS
 62
     7
100
AcDbLine
 10
-212.7352367503019
 20
-0.2402258402978461
 30
0.0
 11
-200.0073146889447
 21
-12.9681479016558
 31
0.0
  0
LINE
  5
595
330
1F
100
AcDbEntity
  8
LAYER0003
  6
CONTINUOUS
 62
     7
100
AcDbLine
 10
178.8957357466024
 20
40.77196746856877
 30
0.0
 11
170.4104543723641
 21
32.28668609433013
 31
0.0
  0
LINE
  5
596
330
1F
100
AcDbEntity
  8
LAYER0003
  6
CONTINUOUS
 62
     7
100
AcDbLine
 10
169.9861903036054
 20
37.51927627506436
 30
0.0
 11
172.8146174283985
 21
34.69084915036468
 31
0.0
  0
ARC
  5
597
330
1F
100
AcDbEntity
  8
LAYER0003
  6
CONTINUOUS
 62
     7
100
AcDbCircle
 10
171.82466793469
 20
39.35775390614891
 30
0.0
 40
9.0
100
AcDbArc
 50
45.00000000000819
 51
225.0000000000082
  0
ARC
  5
598
330
1F
100
AcDbEntity
  8
LAYER0003
  6
CONTINUOUS
 62
     7
100
AcDbCircle
 10
171.82466793469
 20
39.35775390614891
 30
0.0
 40
2.6
100
AcDbArc
 50
45.00000000000885
 51
225.0000000000089
  0
LINE
  5
599
330
1F
100
AcDbEntity
  8
LAYER0003
  6
CONTINUOUS
 62
     7
100
AcDbLine
 10
173.6631455657748
 20
41.19623153723365
 30
0.0
 11
176.4915726905682
 21
38.36780441253416
 31
0.0
  0
LINE
  5
59A
330
1F
100
AcDbEntity
  8
LAYER0003
  6
CONTINUOUS
 62
     7
100
AcDbLine
 10
187.3810171208405
 20
32.28668609433058
 30
0.0
 11
178.8957357466024
 21
40.77196746856877
 31
0.0
  0
CIRCLE
  5
59B
330
1F
100
AcDbEntity
  8
LAYER0003
  6
CONTINUOUS
 62
     7
100
AcDbCircle
 10
178.895735746603
 20
32.28668609433013
 30
0.0
 40
2.5
  0
LINE
  5
59C
330
1F
100
AcDbEntity
  8
LAYER0003
  6
CONTINUOUS
 62
     7
100
AcDbLine
 10
187.3810171208405
 20
32.28668609433058
 30
0.0
 11
184.9768540648064
 21
29.88252303829601
 31
0.0
  0
LINE
  5
59D
330
1F
100
AcDbEntity
  8
LAYER0003
  6
CONTINUOUS
 62
     7
100
AcDbLine
 10
181.2998988026364
 20
26.20556777612607
 30
0.0
 11
178.8957357466024
 21
23.80140472009172
 31
0.0
  0
LINE
  5
59E
330
1F
100
AcDbEntity
  8
LAYER0003
  6
CONTINUOUS
 62
     7
100
AcDbLine
 10
178.8957357466024
 20
23.80140472009172
 30
0.0
 11
170.4104543723641
 21
32.28668609433013
 31
0.0
  0
LINE
  5
59F
330
1F
100
AcDbEntity
  8
LAYER0003
  6
CONTINUOUS
 62
     7
100
AcDbLine
 10
177.7869233677797
 20
20.66757641170143
 30
0.0
 11
165.4607069040111
 21
32.99379287547004
 31
0.0
  0
LINE
  5
5A0
330
1F
100
AcDbEntity
  8
LAYER0003
  6
CONTINUOUS
 62
     7
100
AcDbLine
 10
190.5148454291567
 20
33.39549847303991
 30
0.0
 11
178.1886289653687
 21
45.721714936828
 31
0.0
  0
LINE
  5
5A1
330
1F
100
AcDbEntity
  8
LAYER0003
  6
CONTINUOUS
 62
     7
100
AcDbLine
 10
-183.2291400958638
 20
107.4240256671948
 30
0.0
 11
-211.1088911535776
 21
107.4240256671948
 31
0.0
  0
LINE
  5
5A2
330
1F
100
AcDbEntity
  8
LAYER0003
  6
CONTINUOUS
 62
     7
100
AcDbLine
 10
-183.2291400958638
 20
107.4240256671948
 30
0.0
 11
-183.2291400958638
 21
109.7240256671949
 31
0.0
  0
LINE
  5
5A3
330
1F
100
AcDbEntity
  8
LAYER0003
  6
CONTINUOUS
 62
     7
100
AcDbLine
 10
-183.2291400958638
 20
109.7240256671949
 30
0.0
 11
-211.1088911535778
 21
109.7240256671949
 31
0.0
  0
LINE
  5
5A4
330
1F
100
AcDbEntity
  8
LAYER0003
  6
CONTINUOUS
 62
     7
100
AcDbLine
 10
-198.3809690922205
 20
107.4240256671948
 30
0.0
 11
-198.3809690922205
 21
97.02402566719509
 31
0.0
  0
LINE
  5
5A5
330
1F
100
AcDbEntity
  8
LAYER0003
  6
CONTINUOUS
 62
     7
100
AcDbLine
 10
-211.1088911535776
 20
107.4240256671948
 30
0.0
 11
-211.1088911535776
 21
97.02402566719509
 31
0.0
  0
LINE
  5
5A6
330
1F
100
AcDbEntity
  8
LAYER0003
  6
CONTINUOUS
 62
     7
100
AcDbLine
 10
-212.735236750307
 20
107.4240256671948
 30
0.0
 11
-212.7352367503076
 21
97.02402566719509
 31
0.0
  0
LINE
  5
5A7
330
1F
100
AcDbEntity
  8
LAYER0003
  6
CONTINUOUS
 62
     7
100
AcDbLine
 10
-211.1088911535776
 20
97.02402566719509
 30
0.0
 11
-151.4093349425024
 21
97.02402566719509
 31
0.0
  0
LINE
  5
5A8
330
1F
100
AcDbEntity
  8
LAYER0003
  6
CONTINUOUS
 62
     7
100
AcDbLine
 10
-211.1088911535778
 20
94.72402566719491
 30
0.0
 11
-151.4093349425024
 21
94.72402566719491
 31
0.0
  0
LINE
  5
5A9
330
1F
100
AcDbEntity
  8
LAYER0003
  6
CONTINUOUS
 62
     7
100
AcDbLine
 10
-151.4093349425024
 20
94.72402566719491
 30
0.0
 11
-151.4093349425024
 21
97.02402566719509
 31
0.0
  0
LINE
  5
5AA
330
1F
100
AcDbEntity
  8
LAYER0003
  6
CONTINUOUS
 62
     7
100
AcDbLine
 10
-177.0159366603074
 20
97.32402566719527
 30
0.0
 11
-165.0159366603075
 21
97.32402566719527
 31
0.0
  0
LINE
  5
5AB
330
1F
100
AcDbEntity
  8
LAYER0003
  6
CONTINUOUS
 62
     7
100
AcDbLine
 10
-177.0159366603074
 20
97.02402566719554
 30
0.0
 11
-177.0159366603074
 21
97.32402566719527
 31
0.0
  0
LINE
  5
5AC
330
1F
100
AcDbEntity
  8
LAYER0003
  6
CONTINUOUS
 62
     7
100
AcDbLine
 10
-168.5159366603074
 20
75.72402566719514
 30
0.0
 11
-168.5159366603074
 21
93.22402566719491
 31
0.0
  0
LINE
  5
5AD
330
1F
100
AcDbEntity
  8
LAYER0003
  6
CONTINUOUS
 62
     7
100
AcDbLine
 10
-168.5159366603074
 20
102.0240256671951
 30
0.0
 11
-168.5159366603074
 21
107.2240256671951
 31
0.0
  0
LINE
  5
5AE
330
1F
100
AcDbEntity
  8
LAYER0003
  6
CONTINUOUS
 62
     7
100
AcDbLine
 10
-173.5159366603075
 20
75.72402566719514
 30
0.0
 11
-173.5159366603075
 21
93.22402566719491
 31
0.0
  0
LINE
  5
5AF
330
1F
100
AcDbEntity
  8
LAYER0003
  6
CONTINUOUS
 62
     7
100
AcDbLine
 10
-173.5159366603075
 20
102.0240256671951
 30
0.0
 11
-173.5159366603075
 21
107.2240256671951
 31
0.0
  0
LINE
  5
5B0
330
1F
100
AcDbEntity
  8
LAYER0003
  6
CONTINUOUS
 62
     7
100
AcDbLine
 10
-173.5159366603075
 20
75.72402566719514
 30
0.0
 11
-168.5159366603074
 21
75.72402566719514
 31
0.0
  0
LINE
  5
5B1
330
1F
100
AcDbEntity
  8
LAYER0003
  6
CONTINUOUS
 62
     7
100
AcDbLine
 10
-173.5159366603075
 20
107.2240256671951
 30
0.0
 11
-168.5159366603074
 21
107.2240256671951
 31
0.0
  0
LINE
  5
5B2
330
1F
100
AcDbEntity
  8
LAYER0003
  6
CONTINUOUS
 62
     7
100
AcDbLine
 10
-162.5306552860626
 20
93.22402566719491
 30
0.0
 11
-179.501218034539
 21
93.22402566719491
 31
0.0
  0
LINE
  5
5B3
330
1F
100
AcDbEntity
  8
LAYER0003
  6
CONTINUOUS
 62
     7
100
AcDbLine
 10
-162.5306552860626
 20
94.72402566719491
 30
0.0
 11
-162.5306552860626
 21
93.22402566719491
 31
0.0
  0
LINE
  5
5B4
330
1F
100
AcDbEntity
  8
LAYER0003
  6
CONTINUOUS
 62
     7
100
AcDbLine
 10
-165.0159366603075
 20
97.02402566719554
 30
0.0
 11
-165.0159366603075
 21
97.32402566719527
 31
0.0
  0
LINE
  5
5B5
330
1F
100
AcDbEntity
  8
LAYER0003
  6
CONTINUOUS
 62
     7
100
AcDbLine
 10
-171.0159366603009
 20
94.72402566719491
 30
0.0
 11
-171.0159366603009
 21
93.22402566719491
 31
0.0
  0
LINE
  5
5B6
330
1F
100
AcDbEntity
  8
LAYER0003
  6
CONTINUOUS
 62
     7
100
AcDbLine
 10
-179.501218034539
 20
94.72402566719491
 30
0.0
 11
-179.501218034539
 21
93.22402566719491
 31
0.0
  0
INSERT
  5
5B7
330
1F
100
AcDbEntity
  8
LAYER0003
  6
CONTINUOUS
100
AcDbBlockReference
  2
DC_GROUP_1
 10
0.0
 20
0.0
 30
0.0
  0
INSERT
  5
5B8
330
1F
100
AcDbEntity
  8
LAYER0003
  6
CONTINUOUS
100
AcDbBlockReference
  2
DC_GROUP_2
 10
0.0
 20
0.0
 30
0.0
  0
INSERT
  5
5B9
330
1F
100
AcDbEntity
  8
LAYER0003
  6
CONTINUOUS
100
AcDbBlockReference
  2
DC_GROUP_3
 10
0.0
 20
0.0
 30
0.0
  0
INSERT
  5
5BA
330
1F
100
AcDbEntity
  8
LAYER0003
  6
CONTINUOUS
100
AcDbBlockReference
  2
DC_GROUP_4
 10
0.0
 20
0.0
 30
0.0
  0
LINE
  5
5BB
330
1F
100
AcDbEntity
  8
LAYER0002
  6
CENTER
 62
     4
100
AcDbLine
 10
-50.5440325149058
 20
28.75115218827977
 30
0.0
 11
-15.7998296438294
 21
28.75115218827978
 31
0.0
  0
LINE
  5
5BC
330
1F
100
AcDbEntity
  8
LAYER0002
  6
CENTER
 62
     4
100
AcDbLine
 10
-171.0159366603077
 20
74.22984236766963
 30
0.0
 11
-171.0159366603077
 21
108.974045238746
 31
0.0
  0
LINE
  5
5BD
330
1F
100
AcDbEntity
  8
LAYER0007
  6
CONTINUOUS
 62
     3
100
AcDbLine
 10
-22.74984921538034
 20
30.75115218828012
 30
0.0
 11
-17.5498492153803
 21
30.75115218828012
 31
0.0
  0
LINE
  5
5BE
330
1F
100
AcDbEntity
  8
LAYER0007
  6
CONTINUOUS
 62
     3
100
AcDbLine
 10
-22.74984921538034
 20
26.75115218828012
 30
0.0
 11
-17.5498492153803
 21
26.75115218828012
 31
0.0
  0
LINE
  5
5BF
330
1F
100
AcDbEntity
  8
LAYER0007
  6
CONTINUOUS
 62
     3
100
AcDbLine
 10
-169.0159366603074
 20
102.0240256671951
 30
0.0
 11
-169.0159366603074
 21
107.2240256671951
 31
0.0
  0
LINE
  5
5C0
330
1F
100
AcDbEntity
  8
LAYER0007
  6
CONTINUOUS
 62
     3
100
AcDbLine
 10
-173.0159366603074
 20
102.0240256671951
 30
0.0
 11
-173.0159366603074
 21
107.2240256671951
 31
0.0
  0
ARC
  5
5C1
330
1F
100
AcDbEntity
  8
LAYER0005
  6
CONTINUOUS
 62
     7
100
AcDbCircle
 10
-24.79221415251177
 20
25.28615218827952
 30
0.0
 40
2.04236493713184
100
AcDbArc
 50
334.4384694047552
 51
34.43846940471655
  0
ARC
  5
5C2
330
1F
100
AcDbEntity
  8
LAYER0005
  6
CONTINUOUS
 62
     7
100
AcDbCircle
 10
-25.40748427824828
 20
25.28615218827952
 30
0.0
 40
2.04236493713184
100
AcDbArc
 50
145.5615305952835
 51
205.5615305953069
  0
LINE
  5
5C3
330
1F
100
AcDbEntity
  8
LAYER0005
  6
CONTINUOUS
 62
     7
100
AcDbLine
 10
-22.74984921538034
 20
24.75115218827967
 30
0.0
 11
-22.74984921538034
 21
32.75115218827978
 31
0.0
  0
LINE
  5
5C4
330
1F
100
AcDbEntity
  8
LAYER0005
  6
CONTINUOUS
 62
     7
100
AcDbLine
 10
-27.44984921538016
 20
24.75115218827967
 30
0.0
 11
-27.44984921538016
 21
32.75115218827978
 31
0.0
  0
ARC
  5
5C5
330
1F
100
AcDbEntity
  8
LAYER0005
  6
CONTINUOUS
 62
     7
100
AcDbCircle
 10
-24.79221415251177
 20
32.21615218828027
 30
0.0
 40
2.04236493713184
100
AcDbArc
 50
325.5615305952834
 51
25.56153059524486
  0
ARC
  5
5C6
330
1F
100
AcDbEntity
  8
LAYER0005
  6
CONTINUOUS
 62
     7
100
AcDbCircle
 10
-30.382373213561
 20
28.75115218827978
 30
0.0
 40
7.632523998181024
100
AcDbArc
 50
342.3830311596225
 51
17.6169688403775
  0
ARC
  5
5C7
330
1F
100
AcDbEntity
  8
LAYER0005
  6
CONTINUOUS
 62
     7
100
AcDbCircle
 10
-19.81732521719905
 20
28.75115218827978
 30
0.0
 40
7.632523998181269
100
AcDbArc
 50
162.3830311596226
 51
197.6169688403774
  0
ARC
  5
5C8
330
1F
100
AcDbEntity
  8
LAYER0005
  6
CONTINUOUS
 62
     7
100
AcDbCircle
 10
-25.40748427824828
 20
32.21615218828027
 30
0.0
 40
2.04236493713184
100
AcDbArc
 50
154.4384694046931
 51
214.4384694047166
  0
LINE
  5
5C9
330
1F
100
AcDbEntity
  8
LAYER0005
  6
CONTINUOUS
 62
     7
100
AcDbLine
 10
-23.10780638227779
 20
33.37115218828001
 30
0.0
 11
-22.74984921538034
 21
32.75115218827978
 31
0.0
  0
LINE
  5
5CA
330
1F
100
AcDbEntity
  8
LAYER0005
  6
CONTINUOUS
 62
     7
100
AcDbLine
 10
-27.09189204848271
 20
26.44115218828018
 30
0.0
 11
-23.10780638227779
 21
26.44115218828018
 31
0.0
  0
LINE
  5
5CB
330
1F
100
AcDbEntity
  8
LAYER0005
  6
CONTINUOUS
 62
     7
100
AcDbLine
 10
-27.09189204848271
 20
33.37115218828001
 30
0.0
 11
-27.44984921538016
 21
32.75115218827978
 31
0.0
  0
LINE
  5
5CC
330
1F
100
AcDbEntity
  8
LAYER0005
  6
CONTINUOUS
 62
     7
100
AcDbLine
 10
-27.09189204848271
 20
33.37115218828001
 30
0.0
 11
-23.10780638227779
 21
33.37115218828001
 31
0.0
  0
LINE
  5
5CD
330
1F
100
AcDbEntity
  8
LAYER0005
  6
CONTINUOUS
 62
     7
100
AcDbLine
 10
-27.09189204848271
 20
31.06115218828007
 30
0.0
 11
-23.10780638227779
 21
31.06115218828007
 31
0.0
  0
LINE
  5
5CE
330
1F
100
AcDbEntity
  8
LAYER0005
  6
CONTINUOUS
 62
     7
100
AcDbLine
 10
-23.10780638227779
 20
24.13115218828023
 30
0.0
 11
-22.74984921538034
 21
24.75115218827967
 31
0.0
  0
LINE
  5
5CF
330
1F
100
AcDbEntity
  8
LAYER0005
  6
CONTINUOUS
 62
     7
100
AcDbLine
 10
-27.09189204848271
 20
24.13115218828023
 30
0.0
 11
-27.44984921538016
 21
24.75115218827967
 31
0.0
  0
LINE
  5
5D0
330
1F
100
AcDbEntity
  8
LAYER0005
  6
CONTINUOUS
 62
     7
100
AcDbLine
 10
-27.09189204848271
 20
24.13115218828023
 30
0.0
 11
-23.10780638227779
 21
24.13115218828023
 31
0.0
  0
ARC
  5
5D1
330
1F
100
AcDbEntity
  8
LAYER0005
  6
CONTINUOUS
 62
     7
100
AcDbCircle
 10
-174.480936660308
 20
99.98166073006367
 30
0.0
 40
2.04236493713184
100
AcDbArc
 50
55.56153059528344
 51
115.5615305952448
  0
ARC
  5
5D2
330
1F
100
AcDbEntity
  8
LAYER0005
  6
CONTINUOUS
 62
     7
100
AcDbCircle
 10
-174.480936660308
 20
99.36639060432715
 30
0.0
 40
2.04236493713184
100
AcDbArc
 50
244.4384694046931
 51
304.4384694047166
  0
LINE
  5
5D3
330
1F
100
AcDbEntity
  8
LAYER0005
  6
CONTINUOUS
 62
     7
100
AcDbLine
 10
-175.0159366603079
 20
102.0240256671951
 30
0.0
 11
-167.0159366603077
 21
102.0240256671951
 31
0.0
  0
LINE
  5
5D4
330
1F
100
AcDbEntity
  8
LAYER0005
  6
CONTINUOUS
 62
     7
100
AcDbLine
 10
-175.0159366603079
 20
97.32402566719527
 30
0.0
 11
-167.0159366603077
 21
97.32402566719527
 31
0.0
  0
ARC
  5
5D5
330
1F
100
AcDbEntity
  8
LAYER0005
  6
CONTINUOUS
 62
     7
100
AcDbCircle
 10
-167.5509366603073
 20
99.98166073006367
 30
0.0
 40
2.04236493713184
100
AcDbArc
 50
64.43846940475515
 51
124.4384694047165
  0
ARC
  5
5D6
330
1F
100
AcDbEntity
  8
LAYER0005
  6
CONTINUOUS
 62
     7
100
AcDbCircle
 10
-171.0159366603077
 20
94.39150166901443
 30
0.0
 40
7.632523998181024
100
AcDbArc
 50
72.38303115962252
 51
107.6169688403775
  0
ARC
  5
5D7
330
1F
100
AcDbEntity
  8
LAYER0005
  6
CONTINUOUS
 62
     7
100
AcDbCircle
 10
-171.0159366603077
 20
104.9565496653764
 30
0.0
 40
7.632523998181269
100
AcDbArc
 50
252.3830311596226
 51
287.6169688403774
  0
ARC
  5
5D8
330
1F
100
AcDbEntity
  8
LAYER0005
  6
CONTINUOUS
 62
     7
100
AcDbCircle
 10
-167.5509366603073
 20
99.36639060432715
 30
0.0
 40
2.04236493713184
100
AcDbArc
 50
235.5615305952834
 51
295.5615305953069
  0
LINE
  5
5D9
330
1F
100
AcDbEntity
  8
LAYER0005
  6
CONTINUOUS
 62
     7
100
AcDbLine
 10
-166.3959366603075
 20
101.6660685002976
 30
0.0
 11
-167.0159366603077
 21
102.0240256671951
 31
0.0
  0
LINE
  5
5DA
330
1F
100
AcDbEntity
  8
LAYER0005
  6
CONTINUOUS
 62
     7
100
AcDbLine
 10
-173.3259366603073
 20
97.68198283409272
 30
0.0
 11
-173.3259366603073
 21
101.6660685002976
 31
0.0
  0
LINE
  5
5DB
330
1F
100
AcDbEntity
  8
LAYER0005
  6
CONTINUOUS
 62
     7
100
AcDbLine
 10
-166.3959366603075
 20
97.68198283409272
 30
0.0
 11
-167.0159366603077
 21
97.32402566719527
 31
0.0
  0
LINE
  5
5DC
330
1F
100
AcDbEntity
  8
LAYER0005
  6
CONTINUOUS
 62
     7
100
AcDbLine
 10
-166.3959366603075
 20
97.68198283409272
 30
0.0
 11
-166.3959366603075
 21
101.6660685002976
 31
0.0
  0
LINE
  5
5DD
330
1F
100
AcDbEntity
  8
LAYER0005
  6
CONTINUOUS
 62
     7
100
AcDbLine
 10
-168.7059366603075
 20
97.68198283409272
 30
0.0
 11
-168.7059366603075
 21
101.6660685002976
 31
0.0
  0
LINE
  5
5DE
330
1F
100
AcDbEntity
  8
LAYER0005
  6
CONTINUOUS
 62
     7
100
AcDbLine
 10
-175.6359366603073
 20
101.6660685002976
 30
0.0
 11
-175.0159366603079
 21
102.0240256671951
 31
0.0
  0
LINE
  5
5DF
330
1F
100
AcDbEntity
  8
LAYER0005
  6
CONTINUOUS
 62
     7
100
AcDbLine
 10
-175.6359366603073
 20
97.68198283409272
 30
0.0
 11
-175.0159366603079
 21
97.32402566719527
 31
0.0
  0
LINE
  5
5E0
330
1F
100
AcDbEntity
  8
LAYER0005
  6
CONTINUOUS
 62
     7
100
AcDbLine
 10
-175.6359366603073
 20
97.68198283409272
 30
0.0
 11
-175.6359366603073
 21
101.6660685002976
 31
0.0
  0
CIRCLE
  5
5E1
330
1F
100
AcDbEntity
  8
0
  6
CONTINUOUS
 62
     7
100
AcDbCircle
 10
163.6444730880567
 20
-41.96205124727678
 30
0.0
 40
3.0
  0
CIRCLE
  5
5E2
330
1F
100
AcDbEntity
  8
0
  6
CONTINUOUS
 62
     7
100
AcDbCircle
 10
243.6444730880567
 20
-41.96205124727678
 30
0.0
 40
3.0
  0
CIRCLE
  5
5E3
330
1F
100
AcDbEntity
  8
0
  6
CONTINUOUS
 62
     7
100
AcDbCircle
 10
243.6444730880567
 20
-114.4620512472768
 30
0.0
 40
3.0
  0
CIRCLE
  5
5E4
330
1F
100
AcDbEntity
  8
0
  6
CONTINUOUS
 62
     7
100
AcDbCircle
 10
163.6444730880567
 20
-114.4620512472767
 30
0.0
 40
3.0
  0
CIRCLE
  5
5E5
330
1F
100
AcDbEntity
  8
0
  6
CONTINUOUS
 62
     7
100
AcDbCircle
 10
163.6444730880567
 20
-186.9620512472768
 30
0.0
 40
3.0
  0
CIRCLE
  5
5E6
330
1F
100
AcDbEntity
  8
0
  6
CONTINUOUS
 62
     7
100
AcDbCircle
 10
243.6444730880567
 20
-186.9620512472768
 30
0.0
 40
3.0
  0
LINE
  5
5E7
330
1F
100
AcDbEntity
  8
0
  6
CONTINUOUS
 62
     7
100
AcDbLine
 10
183.1444730880567
 20
-182.4620512472767
 30
0.0
 11
224.1444730880567
 21
-182.4620512472767
 31
0.0
  0
LINE
  5
5E8
330
1F
100
AcDbEntity
  8
0
  6
CONTINUOUS
 62
     7
100
AcDbLine
 10
181.3681413045172
 20
-47.41328012116419
 30
0.0
 11
225.9208048715961
 21
-47.41328012116419
 31
0.0
  0
CIRCLE
  5
5E9
330
1F
100
AcDbEntity
  8
0
  6
CONTINUOUS
 62
     7
100
AcDbCircle
 10
221.1444730880567
 20
-56.96205124727675
 30
0.0
 40
2.067000000000007
  0
CIRCLE
  5
5EA
330
1F
100
AcDbEntity
  8
0
  6
CONTINUOUS
 62
     7
100
AcDbCircle
 10
186.1444730880567
 20
-56.96205124727675
 30
0.0
 40
2.067000000000007
  0
CIRCLE
  5
5EB
330
1F
100
AcDbEntity
  8
0
  6
CONTINUOUS
 62
     7
100
AcDbCircle
 10
186.1444730880567
 20
-171.9620512472767
 30
0.0
 40
2.067000000000007
  0
CIRCLE
  5
5EC
330
1F
100
AcDbEntity
  8
0
  6
CONTINUOUS
 62
     7
100
AcDbCircle
 10
221.1444730880567
 20
-171.9620512472767
 30
0.0
 40
2.067000000000007
  0
CIRCLE
  5
5ED
330
1F
100
AcDbEntity
  8
0
  6
CONTINUOUS
 62
     7
100
AcDbCircle
 10
186.1444730880567
 20
-56.96205124727675
 30
0.0
 40
6.0
  0
CIRCLE
  5
5EE
330
1F
100
AcDbEntity
  8
0
  6
CONTINUOUS
 62
     7
100
AcDbCircle
 10
221.1444730880567
 20
-56.96205124727675
 30
0.0
 40
6.0
  0
CIRCLE
  5
5EF
330
1F
100
AcDbEntity
  8
0
  6
CONTINUOUS
 62
     7
100
AcDbCircle
 10
221.1444730880567
 20
-171.9620512472767
 30
0.0
 40
6.0
  0
CIRCLE
  5
5F0
330
1F
100
AcDbEntity
  8
0
  6
CONTINUOUS
 62
     7
100
AcDbCircle
 10
186.1444730880567
 20
-171.9620512472767
 30
0.0
 40
6.0
  0
LINE
  5
5F1
330
1F
100
AcDbEntity
  8
0
  6
CONTINUOUS
 62
     7
100
AcDbLine
 10
226.8444730880566
 20
-14.46205124727677
 30
0.0
 11
171.6444730880567
 21
-14.46205124727677
 31
0.0
  0
LINE
  5
5F2
330
1F
100
AcDbEntity
  8
0
  6
CONTINUOUS
 62
     7
100
AcDbLine
 10
235.6444730880566
 20
-14.46205124727677
 30
0.0
 11
226.6444730880567
 21
-14.46205124727677
 31
0.0
  0
LINE
  5
5F3
330
1F
100
AcDbEntity
  8
0
  6
CONTINUOUS
 62
     7
100
AcDbLine
 10
197.6444730880567
 20
-14.46205124727677
 30
0.0
 11
209.6444730880567
 21
-14.46205124727677
 31
0.0
  0
LINE
  5
5F4
330
1F
100
AcDbEntity
  8
0
  6
CONTINUOUS
 62
     7
100
AcDbLine
 10
209.6444730880567
 20
26.53794875272323
 30
0.0
 11
197.6444730880567
 21
26.53794875272323
 31
0.0
  0
LINE
  5
5F5
330
1F
100
AcDbEntity
  8
0
  6
CONTINUOUS
 62
     7
100
AcDbLine
 10
197.6444730880567
 20
26.53794875272323
 30
0.0
 11
197.6444730880567
 21
-14.46205124727677
 31
0.0
  0
LINE
  5
5F6
330
1F
100
AcDbEntity
  8
0
  6
CONTINUOUS
 62
     7
100
AcDbLine
 10
209.6444730880567
 20
-14.46205124727677
 30
0.0
 11
209.6444730880567
 21
26.53794875272323
 31
0.0
  0
CIRCLE
  5
5F7
330
1F
100
AcDbEntity
  8
0
  6
CONTINUOUS
 62
     7
100
AcDbCircle
 10
219.6444730880567
 20
23.53794875272323
 30
0.0
 40
2.067000000000007
  0
CIRCLE
  5
5F8
330
1F
100
AcDbEntity
  8
0
  6
CONTINUOUS
 62
     7
100
AcDbCircle
 10
219.6444730880567
 20
23.53794875272323
 30
0.0
 40
5.0
  0
CIRCLE
  5
5F9
330
1F
100
AcDbEntity
  8
0
  6
CONTINUOUS
 62
     7
100
AcDbCircle
 10
187.6444730880567
 20
23.53794875272323
 30
0.0
 40
2.067000000000007
  0
CIRCLE
  5
5FA
330
1F
100
AcDbEntity
  8
0
  6
CONTINUOUS
 62
     7
100
AcDbCircle
 10
187.6444730880567
 20
23.53794875272323
 30
0.0
 40
5.0
  0
CIRCLE
  5
5FB
330
1F
100
AcDbEntity
  8
0
  6
CONTINUOUS
 62
     7
100
AcDbCircle
 10
187.6444730880567
 20
-8.462051247276769
 30
0.0
 40
2.067000000000007
  0
CIRCLE
  5
5FC
330
1F
100
AcDbEntity
  8
0
  6
CONTINUOUS
 62
     7
100
AcDbCircle
 10
187.6444730880567
 20
-8.462051247276769
 30
0.0
 40
5.0
  0
CIRCLE
  5
5FD
330
1F
100
AcDbEntity
  8
0
  6
CONTINUOUS
 62
     7
100
AcDbCircle
 10
219.6444730880567
 20
-8.462051247276769
 30
0.0
 40
2.067000000000007
  0
CIRCLE
  5
5FE
330
1F
100
AcDbEntity
  8
0
  6
CONTINUOUS
 62
     7
100
AcDbCircle
 10
219.6444730880567
 20
-8.462051247276769
 30
0.0
 40
5.0
  0
CIRCLE
  5
5FF
330
1F
100
AcDbEntity
  8
0
  6
CONTINUOUS
 62
     7
100
AcDbCircle
 10
203.6444730880567
 20
7.537948752723231
 30
0.0
 40
3.0
  0
LINE
  5
600
330
1F
100
AcDbEntity
  8
0
  6
CONTINUOUS
 62
     7
100
AcDbLine
 10
204.7925233851519
 20
4.766310155189373
 30
0.0
 11
205.5578902498821
 21
2.918551090166801
 31
0.0
  0
LINE
  5
601
330
1F
100
AcDbEntity
  8
0
  6
CONTINUOUS
 62
     7
100
AcDbLine
 10
202.4964227909614
 20
4.766310155189373
 30
0.0
 11
201.7310559262312
 21
2.918551090166801
 31
0.0
  0
LINE
  5
602
330
1F
100
AcDbEntity
  8
0
  6
CONTINUOUS
 62
     7
100
AcDbLine
 10
234.1444730880567
 20
-172.4620512472767
 30
0.0
 11
234.1444730880567
 21
-67.3339530281176
 31
0.0
  0
LINE
  5
603
330
1F
100
AcDbEntity
  8
0
  6
CONTINUOUS
 62
     7
100
AcDbLine
 10
173.1444730880567
 20
-172.4620512472767
 30
0.0
 11
173.1444730880567
 21
-67.33395302811755
 31
0.0
  0
LINE
  5
604
330
1F
100
AcDbEntity
  8
0
  6
CONTINUOUS
 62
     7
100
AcDbLine
 10
209.6444730880567
 20
-182.4620512472767
 30
0.0
 11
209.6444730880567
 21
-191.9620512472767
 31
0.0
  0
LINE
  5
605
330
1F
100
AcDbEntity
  8
0
  6
CONTINUOUS
 62
     7
100
AcDbLine
 10
197.6444730880567
 20
-182.4620512472767
 30
0.0
 11
197.6444730880567
 21
-191.9620512472767
 31
0.0
  0
LINE
  5
606
330
1F
100
AcDbEntity
  8
0
  6
CONTINUOUS
 62
     7
100
AcDbLine
 10
197.6444730880567
 20
-191.9620512472767
 30
0.0
 11
209.6444730880567
 21
-191.9620512472767
 31
0.0
  0
ARC
  5
607
330
1F
100
AcDbEntity
  8
0
  6
CONTINUOUS
 62
     7
100
AcDbCircle
 10
224.1444730880567
 20
-172.4620512472767
 30
0.0
 40
10.0
100
AcDbArc
 50
270.0
 51
0.0
  0
ARC
  5
608
330
1F
100
AcDbEntity
  8
0
  6
CONTINUOUS
 62
     7
100
AcDbCircle
 10
183.1444730880567
 20
-172.4620512472767
 30
0.0
 40
10.0
100
AcDbArc
 50
180.0
 51
270.0
  0
LINE
  5
609
330
1F
100
AcDbEntity
  8
0
  6
CONTINUOUS
 62
     7
100
AcDbLine
 10
172.6333604823927
 20
-63.45166735157973
 30
0.0
 11
169.1555856937206
 21
-50.47243514297359
 31
0.0
  0
LINE
  5
60A
330
1F
100
AcDbEntity
  8
0
  6
CONTINUOUS
 62
     7
100
AcDbLine
 10
234.6555856937206
 20
-63.45166735157981
 30
0.0
 11
238.1333604823927
 21
-50.47243514297353
 31
0.0
  0
ARC
  5
60B
330
1F
100
AcDbEntity
  8
0
  6
CONTINUOUS
 62
     7
100
AcDbCircle
 10
181.3681413045172
 20
-57.41328012116419
 30
0.0
 40
10.0
100
AcDbArc
 50
90.0
 51
195.0000000000002
  0
ARC
  5
60C
330
1F
100
AcDbEntity
  8
0
  6
CONTINUOUS
 62
     7
100
AcDbCircle
 10
225.9208048715961
 20
-57.41328012116419
 30
0.0
 40
10.0
100
AcDbArc
 50
344.9999999999999
 51
90.0
  0
LINE
  5
60D
330
1F
100
AcDbEntity
  8
0
  6
CONTINUOUS
 62
     7
100
AcDbLine
 10
162.6461080880567
 20
-141.5654991272768
 30
0.0
 11
162.6461080880567
 21
-177.5654841272768
 31
0.0
  0
LINE
  5
60E
330
1F
100
AcDbEntity
  8
0
  6
CONTINUOUS
 62
     7
100
AcDbLine
 10
165.6444730880567
 20
-141.5654991272768
 30
0.0
 11
165.6444730880567
 21
-177.5654841272768
 31
0.0
  0
LINE
  5
60F
330
1F
100
AcDbEntity
  8
0
  6
CONTINUOUS
 62
     7
100
AcDbLine
 10
165.6444730880567
 20
-141.5654991272768
 30
0.0
 11
171.1444730880567
 21
-141.5654991272768
 31
0.0
  0
LINE
  5
610
330
1F
100
AcDbEntity
  8
0
  6
CONTINUOUS
 62
     7
100
AcDbLine
 10
165.6444730880567
 20
-177.5654841272768
 30
0.0
 11
173.4728009824001
 21
-177.5654841272768
 31
0.0
  0
ARC
  5
611
330
1F
100
AcDbEntity
  8
0
  6
CONTINUOUS
 62
     7
100
AcDbCircle
 10
171.1444730880567
 20
-139.5654991272768
 30
0.0
 40
2.0
100
AcDbArc
 50
270.0
 51
0.0
  0
ARC
  5
612
330
1F
100
AcDbEntity
  8
0
  6
CONTINUOUS
 62
     7
100
AcDbCircle
 10
173.4728009824001
 20
-179.5654841272768
 30
0.0
 40
2.0
100
AcDbArc
 50
36.29570334877499
 51
90.0
  0
LINE
  5
613
330
1F
100
AcDbEntity
  8
0
  6
CONTINUOUS
 62
     7
100
AcDbLine
 10
244.6428380880566
 20
-142.0654991272768
 30
0.0
 11
244.6428380880566
 21
-177.0654841272768
 31
0.0
  0
LINE
  5
614
330
1F
100
AcDbEntity
  8
0
  6
CONTINUOUS
 62
     7
100
AcDbLine
 10
241.6444730880566
 20
-141.5654991272768
 30
0.0
 11
241.6444730880566
 21
-177.5654841272768
 31
0.0
  0
LINE
  5
615
330
1F
100
AcDbEntity
  8
0
  6
CONTINUOUS
 62
     7
100
AcDbLine
 10
241.6444730880566
 20
-141.5654991272768
 30
0.0
 11
236.1444730880567
 21
-141.5654991272768
 31
0.0
  0
LINE
  5
616
330
1F
100
AcDbEntity
  8
0
  6
CONTINUOUS
 62
     7
100
AcDbLine
 10
241.6444730880566
 20
-177.5654841272768
 30
0.0
 11
233.8161451937132
 21
-177.5654841272768
 31
0.0
  0
ARC
  5
617
330
1F
100
AcDbEntity
  8
0
  6
CONTINUOUS
 62
     7
100
AcDbCircle
 10
236.1444730880567
 20
-139.5654991272768
 30
0.0
 40
2.0
100
AcDbArc
 50
180.0
 51
270.0
  0
ARC
  5
618
330
1F
100
AcDbEntity
  8
0
  6
CONTINUOUS
 62
     7
100
AcDbCircle
 10
233.8161451937132
 20
-179.5654841272768
 30
0.0
 40
2.0
100
AcDbArc
 50
90.00000000000001
 51
143.704296651225
  0
LINE
  5
619
330
1F
100
AcDbEntity
  8
0
  6
CONTINUOUS
 62
     7
100
AcDbLine
 10
248.6428380880566
 20
-142.0654991272768
 30
0.0
 11
248.6428380880566
 21
-177.0654841272768
 31
0.0
  0
LINE
  5
61A
330
1F
100
AcDbEntity
  8
0
  6
CONTINUOUS
 62
     7
100
AcDbLine
 10
248.1428380880566
 20
-141.5654991272768
 30
0.0
 11
245.1428380880566
 21
-141.5654991272768
 31
0.0
  0
LINE
  5
61B
330
1F
100
AcDbEntity
  8
0
  6
CONTINUOUS
 62
     7
100
AcDbLine
 10
248.1428380880566
 20
-177.5654841272768
 30
0.0
 11
245.1428380880566
 21
-177.5654841272768
 31
0.0
  0
ARC
  5
61C
330
1F
100
AcDbEntity
  8
0
  6
CONTINUOUS
 62
     7
100
AcDbCircle
 10
248.1428380880566
 20
-142.0654991272768
 30
0.0
 40
0.5
100
AcDbArc
 50
0.0
 51
90.0
  0
ARC
  5
61D
330
1F
100
AcDbEntity
  8
0
  6
CONTINUOUS
 62
     7
100
AcDbCircle
 10
245.1428380880566
 20
-142.0654991272768
 30
0.0
 40
0.5
100
AcDbArc
 50
90.0
 51
180.0
  0
ARC
  5
61E
330
1F
100
AcDbEntity
  8
0
  6
CONTINUOUS
 62
     7
100
AcDbCircle
 10
245.1428380880566
 20
-177.0654841272768
 30
0.0
 40
0.5
100
AcDbArc
 50
180.0
 51
270.0
  0
ARC
  5
61F
330
1F
100
AcDbEntity
  8
0
  6
CONTINUOUS
 62
     7
100
AcDbCircle
 10
248.1428380880566
 20
-177.0654841272768
 30
0.0
 40
0.5
100
AcDbArc
 50
270.0
 51
0.0
  0
LINE
  5
620
330
1F
100
AcDbEntity
  8
0
  6
CONTINUOUS
 62
     7
100
AcDbLine
 10
-213.2291400958643
 20
123.7240256671949
 30
0.0
 11
-171.2291400958643
 21
123.7240256671949
 31
0.0
  0
LINE
  5
621
330
1F
100
AcDbEntity
  8
0
  6
CONTINUOUS
 62
     7
100
AcDbLine
 10
-159.2291400958643
 20
145.724025667195
 30
0.0
 11
-225.2291400958643
 21
145.724025667195
 31
0.0
  0
LINE
  5
622
330
1F
100
AcDbEntity
  8
0
  6
CONTINUOUS
 62
     7
100
AcDbLine
 10
-159.2291400958643
 20
159.724025667195
 30
0.0
 11
-225.2291400958643
 21
159.724025667195
 31
0.0
  0
LINE
  5
623
330
1F
100
AcDbEntity
  8
0
  6
CONTINUOUS
 62
     7
100
AcDbLine
 10
-213.2291400958643
 20
173.724025667195
 30
0.0
 11
-198.2291400958643
 21
173.724025667195
 31
0.0
  0
LINE
  5
624
330
1F
100
AcDbEntity
  8
0
  6
CONTINUOUS
 62
     7
100
AcDbLine
 10
-196.2291400958643
 20
164.724025667195
 30
0.0
 11
-188.2291400958643
 21
164.724025667195
 31
0.0
  0
LINE
  5
625
330
1F
100
AcDbEntity
  8
0
  6
CONTINUOUS
 62
     7
100
AcDbLine
 10
-186.2291400958643
 20
173.724025667195
 30
0.0
 11
-171.2291400958643
 21
173.724025667195
 31
0.0
  0
LINE
  5
626
330
1F
100
AcDbEntity
  8
0
  6
CONTINUOUS
 62
     7
100
AcDbLine
 10
-157.2291400958643
 20
172.724025667195
 30
0.0
 11
-157.2291400958643
 21
131.7236227371948
 31
0.0
  0
LINE
  5
627
330
1F
100
AcDbEntity
  8
0
  6
CONTINUOUS
 62
     7
100
AcDbLine
 10
-227.2291400958643
 20
172.724025667195
 30
0.0
 11
-227.2291400958643
 21
131.7236227371948
 31
0.0
  0
LINE
  5
628
330
1F
100
AcDbEntity
  8
0
  6
CONTINUOUS
 62
     7
100
AcDbLine
 10
-171.2291400958643
 20
173.724025667195
 30
0.0
 11
-171.2291400958643
 21
159.724025667195
 31
0.0
  0
LINE
  5
629
330
1F
100
AcDbEntity
  8
0
  6
CONTINUOUS
 62
     7
100
AcDbLine
 10
-171.2291400958643
 20
145.724025667195
 30
0.0
 11
-171.2291400958643
 21
123.7240256671949
 31
0.0
  0
LINE
  5
62A
330
1F
100
AcDbEntity
  8
0
  6
CONTINUOUS
 62
     7
100
AcDbLine
 10
-213.2291400958643
 20
173.724025667195
 30
0.0
 11
-213.2291400958643
 21
159.724025667195
 31
0.0
  0
LINE
  5
62B
330
1F
100
AcDbEntity
  8
0
  6
CONTINUOUS
 62
     7
100
AcDbLine
 10
-213.2291400958643
 20
145.724025667195
 30
0.0
 11
-213.2291400958643
 21
123.7240256671949
 31
0.0
  0
LINE
  5
62C
330
1F
100
AcDbEntity
  8
0
  6
CONTINUOUS
 62
     7
100
AcDbLine
 10
-227.2291400958643
 20
172.724025667195
 30
0.0
 11
-213.2291400958643
 21
172.724025667195
 31
0.0
  0
LINE
  5
62D
330
1F
100
AcDbEntity
  8
0
  6
CONTINUOUS
 62
     7
100
AcDbLine
 10
-157.2291400958643
 20
172.724025667195
 30
0.0
 11
-171.2291400958643
 21
172.724025667195
 31
0.0
  0
CIRCLE
  5
62E
330
1F
100
AcDbEntity
  8
0
  6
CONTINUOUS
 62
     7
100
AcDbCircle
 10
-165.2291400958643
 20
164.724025667195
 30
0.0
 40
3.5
  0
LINE
  5
62F
330
1F
100
AcDbEntity
  8
0
  6
CONTINUOUS
 62
     7
100
AcDbLine
 10
-163.8502818725505
 20
166.1028838905087
 30
0.0
 11
-166.6079983191781
 21
163.3451674438812
 31
0.0
  0
LINE
  5
630
330
1F
100
AcDbEntity
  8
0
  6
CONTINUOUS
 62
     7
100
AcDbLine
 10
-166.6079983191781
 20
166.1028838905087
 30
0.0
 11
-163.8502818725505
 21
163.3451674438812
 31
0.0
  0
CIRCLE
  5
631
330
1F
100
AcDbEntity
  8
0
  6
CONTINUOUS
 62
     7
100
AcDbCircle
 10
-165.2291400958643
 20
140.724025667195
 30
0.0
 40
3.5
  0
LINE
  5
632
330
1F
100
AcDbEntity
  8
0
  6
CONTINUOUS
 62
     7
100
AcDbLine
 10
-163.8502818725505
 20
142.1028838905087
 30
0.0
 11
-166.6079983191781
 21
139.3451674438812
 31
0.0
  0
LINE
  5
633
330
1F
100
AcDbEntity
  8
0
  6
CONTINUOUS
 62
     7
100
AcDbLine
 10
-166.6079983191781
 20
142.1028838905087
 30
0.0
 11
-163.8502818725505
 21
139.3451674438812
 31
0.0
  0
CIRCLE
  5
634
330
1F
100
AcDbEntity
  8
0
  6
CONTINUOUS
 62
     7
100
AcDbCircle
 10
-219.2291400958643
 20
164.724025667195
 30
0.0
 40
3.5
  0
LINE
  5
635
330
1F
100
AcDbEntity
  8
0
  6
CONTINUOUS
 62
     7
100
AcDbLine
 10
-220.6079983191781
 20
166.1028838905087
 30
0.0
 11
-217.8502818725505
 21
163.3451674438812
 31
0.0
  0
LINE
  5
636
330
1F
100
AcDbEntity
  8
0
  6
CONTINUOUS
 62
     7
100
AcDbLine
 10
-217.8502818725505
 20
166.1028838905087
 30
0.0
 11
-220.6079983191781
 21
163.3451674438812
 31
0.0
  0
CIRCLE
  5
637
330
1F
100
AcDbEntity
  8
0
  6
CONTINUOUS
 62
     7
100
AcDbCircle
 10
-219.2291400958643
 20
140.724025667195
 30
0.0
 40
3.5
  0
LINE
  5
638
330
1F
100
AcDbEntity
  8
0
  6
CONTINUOUS
 62
     7
100
AcDbLine
 10
-220.6079983191781
 20
142.1028838905087
 30
0.0
 11
-217.8502818725505
 21
139.3451674438812
 31
0.0
  0
LINE
  5
639
330
1F
100
AcDbEntity
  8
0
  6
CONTINUOUS
 62
     7
100
AcDbLine
 10
-217.8502818725505
 20
142.1028838905087
 30
0.0
 11
-220.6079983191781
 21
139.3451674438812
 31
0.0
  0
CIRCLE
  5
63A
330
1F
100
AcDbEntity
  8
0
  6
CONTINUOUS
 62
     7
100
AcDbCircle
 10
31.95015078461945
 20
-159.4620512472767
 30
0.0
 40
9.646999999999998
  0
LINE
  5
63B
330
1F
100
AcDbEntity
  8
0
  6
CONTINUOUS
 62
     7
100
AcDbLine
 10
168.6444730880567
 20
-34.46205124727678
 30
0.0
 11
238.6444730880567
 21
-34.46205124727678
 31
0.0
  0
LINE
  5
63C
330
1F
100
AcDbEntity
  8
0
  6
CONTINUOUS
 62
     7
100
AcDbLine
 10
200.1444730880567
 20
-191.9620512472767
 30
0.0
 11
207.1444730880567
 21
-191.9620512472767
 31
0.0
  0
LINE
  5
63D
330
1F
100
AcDbEntity
  8
0
  6
CONTINUOUS
 62
     7
100
AcDbLine
 10
200.1975035124804
 20
-192.9739320243133
 30
0.0
 11
200.1444730880567
 21
-191.9620512472767
 31
0.0
  0
LINE
  5
63E
330
1F
100
AcDbEntity
  8
0
  6
CONTINUOUS
 62
     7
100
AcDbLine
 10
207.091442663633
 20
-192.9739320243133
 30
0.0
 11
207.1444730880567
 21
-191.9620512472767
 31
0.0
  0
ARC
  5
63F
330
1F
100
AcDbEntity
  8
0
  6
CONTINUOUS
 62
     7
100
AcDbCircle
 10
201.1961330472349
 20
-192.9215960680704
 30
0.0
 40
1.0
100
AcDbArc
 50
183.0
 51
240.6812369478796
  0
ARC
  5
640
330
1F
100
AcDbEntity
  8
0
  6
CONTINUOUS
 62
     7
100
AcDbCircle
 10
206.0928131288784
 20
-192.9215960680704
 30
0.0
 40
1.0
100
AcDbArc
 50
299.3187630521204
 51
356.9999999999999
  0
ARC
  5
641
330
1F
100
AcDbEntity
  8
0
  6
CONTINUOUS
 62
     7
100
AcDbCircle
 10
203.6444730880567
 20
-188.5620512472767
 30
0.0
 40
6.0
100
AcDbArc
 50
240.6812369478796
 51
299.3187630521204
  0
LINE
  5
642
330
1F
100
AcDbEntity
  8
0
  6
CONTINUOUS
 62
     7
100
AcDbLine
 10
20.6513596996288
 20
-191.9620512472767
 30
0.0
 11
27.6513596996288
 21
-191.9620512472767
 31
0.0
  0
LINE
  5
643
330
1F
100
AcDbEntity
  8
0
  6
CONTINUOUS
 62
     7
100
AcDbLine
 10
20.70439012405249
 20
-192.9739320243133
 30
0.0
 11
20.6513596996288
 21
-191.9620512472767
 31
0.0
  0
LINE
  5
644
330
1F
100
AcDbEntity
  8
0
  6
CONTINUOUS
 62
     7
100
AcDbLine
 10
27.59832927520511
 20
-192.9739320243133
 30
0.0
 11
27.6513596996288
 21
-191.9620512472767
 31
0.0
  0
ARC
  5
645
330
1F
100
AcDbEntity
  8
0
  6
CONTINUOUS
 62
     7
100
AcDbCircle
 10
21.70301965880706
 20
-192.9215960680704
 30
0.0
 40
1.0
100
AcDbArc
 50
183.0
 51
240.6812369478796
  0
ARC
  5
646
330
1F
100
AcDbEntity
  8
0
  6
CONTINUOUS
 62
     7
100
AcDbCircle
 10
26.59969974045054
 20
-192.9215960680704
 30
0.0
 40
1.0
100
AcDbArc
 50
299.3187630521204
 51
356.9999999999999
  0
ARC
  5
647
330
1F
100
AcDbEntity
  8
0
  6
CONTINUOUS
 62
     7
100
AcDbCircle
 10
24.1513596996288
 20
-188.5620512472767
 30
0.0
 40
6.0
100
AcDbArc
 50
240.6812369478796
 51
299.3187630521204
  0
LINE
  5
648
330
1F
100
AcDbEntity
  8
0
  6
CONTINUOUS
 62
     7
100
AcDbLine
 10
20.6513596996288
 20
-191.9620512472767
 30
0.0
 11
27.6513596996288
 21
-191.9620512472767
 31
0.0
  0
LINE
  5
649
330
1F
100
AcDbEntity
  8
0
  6
CONTINUOUS
 62
     7
100
AcDbLine
 10
20.70439012405249
 20
-192.9739320243133
 30
0.0
 11
20.6513596996288
 21
-191.9620512472767
 31
0.0
  0
LINE
  5
64A
330
1F
100
AcDbEntity
  8
0
  6
CONTINUOUS
 62
     7
100
AcDbLine
 10
27.59832927520511
 20
-192.9739320243133
 30
0.0
 11
27.6513596996288
 21
-191.9620512472767
 31
0.0
  0
ARC
  5
64B
330
1F
100
AcDbEntity
  8
0
  6
CONTINUOUS
 62
     7
100
AcDbCircle
 10
21.70301965880706
 20
-192.9215960680704
 30
0.0
 40
1.0
100
AcDbArc
 50
183.0
 51
240.6812369478796
  0
ARC
  5
64C
330
1F
100
AcDbEntity
  8
0
  6
CONTINUOUS
 62
     7
100
AcDbCircle
 10
26.59969974045054
 20
-192.9215960680704
 30
0.0
 40
1.0
100
AcDbArc
 50
299.3187630521204
 51
356.9999999999999
  0
ARC
  5
64D
330
1F
100
AcDbEntity
  8
0
  6
CONTINUOUS
 62
     7
100
AcDbCircle
 10
24.1513596996288
 20
-188.5620512472767
 30
0.0
 40
6.0
100
AcDbArc
 50
240.6812369478796
 51
299.3187630521204
  0
ARC
  5
64E
330
1F
100
AcDbEntity
  8
0
  6
CONTINUOUS
 62
     7
100
AcDbCircle
 10
-225.2291400958643
 20
157.724025667195
 30
0.0
 40
2.0
100
AcDbArc
 50
90.0
 51
180.0
  0
ARC
  5
64F
330
1F
100
AcDbEntity
  8
0
  6
CONTINUOUS
 62
     7
100
AcDbCircle
 10
-225.2291400958643
 20
147.724025667195
 30
0.0
 40
2.0
100
AcDbArc
 50
180.0
 51
270.0
  0
ARC
  5
650
330
1F
100
AcDbEntity
  8
0
  6
CONTINUOUS
 62
     7
100
AcDbCircle
 10
-159.2291400958643
 20
147.724025667195
 30
0.0
 40
2.0
100
AcDbArc
 50
270.0
 51
0.0
  0
ARC
  5
651
330
1F
100
AcDbEntity
  8
0
  6
CONTINUOUS
 62
     7
100
AcDbCircle
 10
-159.2291400958643
 20
157.724025667195
 30
0.0
 40
2.0
100
AcDbArc
 50
0.0
 51
90.0
  0
ARC
  5
652
330
1F
100
AcDbEntity
  8
0
  6
CONTINUOUS
 62
     7
100
AcDbCircle
 10
183.6444730880567
 20
-46.59014946643578
 30
0.0
 40
15.0
100
AcDbArc
 50
180.0
 51
194.9999999999999
  0
ARC
  5
653
330
1F
100
AcDbEntity
  8
0
  6
CONTINUOUS
 62
     7
100
AcDbCircle
 10
158.1444730880567
 20
-67.33395302811755
 30
0.0
 40
15.0
100
AcDbArc
 50
0.0
 51
15.00000000000004
  0
ARC
  5
654
330
1F
100
AcDbEntity
  8
0
  6
CONTINUOUS
 62
     7
100
AcDbCircle
 10
249.1444730880567
 20
-67.3339530281176
 30
0.0
 40
15.0
100
AcDbArc
 50
165.0
 51
180.0
  0
ARC
  5
655
330
1F
100
AcDbEntity
  8
0
  6
CONTINUOUS
 62
     7
100
AcDbCircle
 10
223.6444730880567
 20
-46.59014946643574
 30
0.0
 40
15.0
100
AcDbArc
 50
345.0000000000001
 51
0.0
  0
LINE
  5
656
330
1F
100
AcDbEntity
  8
0
  6
CENTER
 62
   222
100
AcDbLine
 10
161.3184036261478
 20
7.537948752723231
 30
0.0
 11
243.3983149007006
 21
7.537948752723231
 31
0.0
  0
LINE
  5
657
330
1F
100
AcDbEntity
  8
0
  6
CENTER
 62
   222
100
AcDbLine
 10
221.1444730880567
 20
-48.96205124727675
 30
0.0
 11
221.1444730880567
 21
-64.96205124727675
 31
0.0
  0
LINE
  5
658
330
1F
100
AcDbEntity
  8
0
  6
CENTER
 62
   222
100
AcDbLine
 10
213.1444730880567
 20
-56.96205124727675
 30
0.0
 11
229.1444730880567
 21
-56.96205124727675
 31
0.0
  0
LINE
  5
659
330
1F
100
AcDbEntity
  8
0
  6
CENTER
 62
   222
100
AcDbLine
 10
186.1444730880567
 20
-48.96205124727675
 30
0.0
 11
186.1444730880567
 21
-64.96205124727675
 31
0.0
  0
LINE
  5
65A
330
1F
100
AcDbEntity
  8
0
  6
CENTER
 62
   222
100
AcDbLine
 10
178.1444730880567
 20
-56.96205124727675
 30
0.0
 11
194.1444730880567
 21
-56.96205124727675
 31
0.0
  0
LINE
  5
65B
330
1F
100
AcDbEntity
  8
0
  6
CENTER
 62
   222
100
AcDbLine
 10
186.1444730880567
 20
-163.9620512472767
 30
0.0
 11
186.1444730880567
 21
-179.9620512472767
 31
0.0
  0
LINE
  5
65C
330
1F
100
AcDbEntity
  8
0
  6
CENTER
 62
   222
100
AcDbLine
 10
178.1444730880567
 20
-171.9620512472767
 30
0.0
 11
194.1444730880567
 21
-171.9620512472767
 31
0.0
  0
LINE
  5
65D
330
1F
100
AcDbEntity
  8
0
  6
CENTER
 62
   222
100
AcDbLine
 10
221.1444730880567
 20
-163.9620512472767
 30
0.0
 11
221.1444730880567
 21
-179.9620512472767
 31
0.0
  0
LINE
  5
65E
330
1F
100
AcDbEntity
  8
0
  6
CENTER
 62
   222
100
AcDbLine
 10
213.1444730880567
 20
-171.9620512472767
 30
0.0
 11
229.1444730880567
 21
-171.9620512472767
 31
0.0
  0
LINE
  5
65F
330
1F
100
AcDbEntity
  8
0
  6
CENTER
 62
   222
100
AcDbLine
 10
219.6444730880567
 20
26.53794875272323
 30
0.0
 11
219.6444730880567
 21
20.53794875272323
 31
0.0
  0
LINE
  5
660
330
1F
100
AcDbEntity
  8
0
  6
CENTER
 62
   222
100
AcDbLine
 10
216.6444730880567
 20
23.53794875272323
 30
0.0
 11
222.6444730880567
 21
23.53794875272323
 31
0.0
  0
LINE
  5
661
330
1F
100
AcDbEntity
  8
0
  6
CENTER
 62
   222
100
AcDbLine
 10
187.6444730880567
 20
26.53794875272323
 30
0.0
 11
187.6444730880567
 21
20.53794875272323
 31
0.0
  0
LINE
  5
662
330
1F
100
AcDbEntity
  8
0
  6
CENTER
 62
   222
100
AcDbLine
 10
184.6444730880567
 20
23.53794875272323
 30
0.0
 11
190.6444730880567
 21
23.53794875272323
 31
0.0
  0
LINE
  5
663
330
1F
100
AcDbEntity
  8
0
  6
CENTER
 62
   222
100
AcDbLine
 10
187.6444730880567
 20
-5.462051247276769
 30
0.0
 11
187.6444730880567
 21
-11.46205124727677
 31
0.0
  0
LINE
  5
664
330
1F
100
AcDbEntity
  8
0
  6
CENTER
 62
   222
100
AcDbLine
 10
184.6444730880567
 20
-8.462051247276769
 30
0.0
 11
190.6444730880567
 21
-8.462051247276769
 31
0.0
  0
LINE
  5
665
330
1F
100
AcDbEntity
  8
0
  6
CENTER
 62
   222
100
AcDbLine
 10
219.6444730880567
 20
-5.462051247276769
 30
0.0
 11
219.6444730880567
 21
-11.46205124727677
 31
0.0
  0
LINE
  5
666
330
1F
100
AcDbEntity
  8
0
  6
CENTER
 62
   222
100
AcDbLine
 10
216.6444730880567
 20
-8.462051247276769
 30
0.0
 11
222.6444730880567
 21
-8.462051247276769
 31
0.0
  0
LINE
  5
667
330
1F
100
AcDbEntity
  8
0
  6
CENTER
 62
   222
100
AcDbLine
 10
-231.9830785103092
 20
152.724025667195
 30
0.0
 11
-153.0467071363003
 21
152.724025667195
 31
0.0
  0
CIRCLE
  5
668
330
1F
100
AcDbEntity
  8
0
  6
CONTINUOUS
 62
   150
100
AcDbCircle
 10
221.1444730880567
 20
-56.96205124727675
 30
0.0
 40
2.5
  0
CIRCLE
  5
669
330
1F
100
AcDbEntity
  8
0
  6
CONTINUOUS
 62
   150
100
AcDbCircle
 10
186.1444730880567
 20
-56.96205124727675
 30
0.0
 40
2.5
  0
CIRCLE
  5
66A
330
1F
100
AcDbEntity
  8
0
  6
CONTINUOUS
 62
   150
100
AcDbCircle
 10
186.1444730880567
 20
-171.9620512472767
 30
0.0
 40
2.5
  0
CIRCLE
  5
66B
330
1F
100
AcDbEntity
  8
0
  6
CONTINUOUS
 62
   150
100
AcDbCircle
 10
221.1444730880567
 20
-171.9620512472767
 30
0.0
 40
2.5
  0
CIRCLE
  5
66C
330
1F
100
AcDbEntity
  8
0
  6
CONTINUOUS
 62
   150
100
AcDbCircle
 10
219.6444730880567
 20
23.53794875272323
 30
0.0
 40
2.5
  0
CIRCLE
  5
66D
330
1F
100
AcDbEntity
  8
0
  6
CONTINUOUS
 62
   150
100
AcDbCircle
 10
187.6444730880567
 20
23.53794875272323
 30
0.0
 40
2.5
  0
CIRCLE
  5
66E
330
1F
100
AcDbEntity
  8
0
  6
CONTINUOUS
 62
   150
100
AcDbCircle
 10
187.6444730880567
 20
-8.462051247276769
 30
0.0
 40
2.5
  0
CIRCLE
  5
66F
330
1F
100
AcDbEntity
  8
0
  6
CONTINUOUS
 62
   150
100
AcDbCircle
 10
219.6444730880567
 20
-8.462051247276769
 30
0.0
 40
2.5
  0
CIRCLE
  5
670
330
1F
100
AcDbEntity
  8
0
  6
CONTINUOUS
 62
   150
100
AcDbCircle
 10
31.95015078461945
 20
-159.4620512472767
 30
0.0
 40
11.0
  0
VIEWPORT
  5
B5
330
1B
100
AcDbEntity
 67
     1
  8
0
100
AcDbViewport
 10
5.707666496096181
 20
-5.685199765310301
 30
0.0
 40
1655.645405591762
 41
1201.26909097503
 68
     1
 69
     1
1001
ACAD
1000
MVIEW
1002
{
1070
    16
1010
0.0
1020
0.0
1030
0.0
1010
0.0
1020
0.0
1030
1.0
1040
0.0
1040
1201.26909097503
1040
5.707666496096181
1040
-5.685199765310301
1040
50.0
1040
0.0
1040
0.0
1070
     0
1070
   100
1070
     0
1070
     3
1070
     0
1070
     0
1070
     0
1070
     0
1040
0.0
1040
0.0
1040
0.0
1040
0.5
1040
0.5
1040
0.0
1040
0.0
1070
     0
1002
{
1002
}
1002
}
  0
ENDSEC
  0
SECTION
  2
OBJECTS
  0
DICTIONARY
  5
C
330
0
100
AcDbDictionary
  3
ACAD_GROUP
350
D
  3
ACAD_LAYOUT
350
1A
  3
ACAD_MATERIAL
350
43
  3
ACAD_MLEADERSTYLE
350
6B
  3
ACAD_MLINESTYLE
350
17
  3
ACAD_PLOTSETTINGS
350
19
  3
ACAD_SCALELIST
350
47
  3
ACAD_VISUALSTYLE
350
2A
  3
ACDBHEADERROUNDTRIPXREC
350
671
  3
ACDBVARIABLEDICTIONARY
350
692
  0
DICTIONARY
  5
699
330
8
100
AcDbDictionary
280
     1
  3
ACAD_XREC_ROUNDTRIP
360
69A
  0
DICTIONARY
  5
D
102
{ACAD_REACTORS
330
C
102
}
330
C
100
AcDbDictionary
  0
DICTIONARY
  5
1A
102
{ACAD_REACTORS
330
C
102
}
330
C
100
AcDbDictionary
  0
DICTIONARY
  5
43
102
{ACAD_REACTORS
330
C
102
}
330
C
100
AcDbDictionary
  3
BYBLOCK
350
45
  3
BYLAYER
350
44
  3
GLOBAL
350
46
  0
DICTIONARY
  5
6B
102
{ACAD_REACTORS
330
C
102
}
330
C
100
AcDbDictionary
  3
STANDARD
350
6C
  0
DICTIONARY
  5
17
102
{ACAD_REACTORS
330
C
102
}
330
C
100
AcDbDictionary
  3
STANDARD
350
18
  0
DICTIONARY
  5
19
102
{ACAD_REACTORS
330
C
102
}
330
C
100
AcDbDictionary
  0
DICTIONARY
  5
47
102
{ACAD_REACTORS
330
C
102
}
330
C
100
AcDbDictionary
  3
A0
350
48
  3
A1
350
49
  3
A2
350
4A
  3
A3
350
4B
  3
A4
350
4C
  3
A5
350
4D
  3
A6
350
4E
  3
A7
350
4F
  3
A8
350
50
  3
A9
350
51
  3
B0
350
52
  3
B1
350
53
  3
B2
350
54
  3
B3
350
55
  3
B4
350
56
  3
B5
350
57
  3
B6
350
58
  3
B7
350
59
  3
B8
350
5A
  3
B9
350
5B
  3
C0
350
5C
  3
C1
350
5D
  3
C2
350
5E
  3
C3
350
5F
  3
C4
350
60
  3
C5
350
61
  3
C6
350
62
  3
C7
350
63
  3
C8
350
64
  3
C9
350
65
  3
D0
350
66
  3
D1
350
67
  3
D2
350
68
  0
DICTIONARY
  5
2A
102
{ACAD_REACTORS
330
C
102
}
330
C
100
AcDbDictionary
  3
2DWIREFRAME
350
2F
  3
BASIC
350
32
  3
BRIGHTEN
350
36
  3
COLORCHANGE
350
3A
  3
CONCEPTUAL
350
34
  3
DIM
350
35
  3
EDGECOLOROFF
350
3D
  3
FACEPATTERN
350
39
  3
FLAT
350
2B
  3
FLATWITHEDGES
350
2C
  3
GOURAUD
350
2D
  3
GOURAUDWITHEDGES
350
2E
  3
HIDDEN
350
31
  3
JITTEROFF
350
3B
  3
LINEPATTERN
350
38
  3
OVERHANGOFF
350
3C
  3
REALISTIC
350
33
  3
SHADED
350
42
  3
SHADED_WITH_EDGES
350
41
  3
SHADES_OF_GRAY
350
3E
  3
SKETCHY
350
3F
  3
THICKEN
350
37
  3
WIREFRAME
350
30
  3
X-RAY
350
40
  0
DICTIONARY
  5
671
102
{ACAD_REACTORS
330
C
102
}
330
C
100
AcDbDictionary
  3
CEPSNID
350
67B
  3
CEPSNTYPE
350
67A
  3
DIMSTYLEDATA
350
691
  3
FINGERPRINTGUID
350
67C
  3
HYPERLINKBASE
350
674
  3
INSUNITS
350
679
  3
LAYOUTDICT
350
676
  3
LWETCUNION
350
678
  3
PLOTSETDICT
350
677
  3
PSVPSCALE
350
67E
  3
PUCSBASE
350
681
  3
PUCSORGBACK
350
687
  3
PUCSORGBOTTOM
350
683
  3
PUCSORGFRONT
350
686
  3
PUCSORGLEFT
350
684
  3
PUCSORGRIGHT
350
685
  3
PUCSORGTOP
350
682
  3
PUCSORTHOREF
350
67F
  3
PUCSORTHOVIEW
350
680
  3
STYLESHEET
350
675
  3
TSTACKALIGN
350
672
  3
TSTACKSIZE
350
673
  3
UCSBASE
350
68A
  3
UCSORGBACK
350
690
  3
UCSORGBOTTOM
350
68C
  3
UCSORGFRONT
350
68F
  3
UCSORGLEFT
350
68D
  3
UCSORGRIGHT
350
68E
  3
UCSORGTOP
350
68B
  3
UCSORTHOREF
350
688
  3
UCSORTHOVIEW
350
689
  3
VERSIONGUID
350
67D
  0
DICTIONARY
  5
692
102
{ACAD_REACTORS
330
C
102
}
330
C
100
AcDbDictionary
  3
CANNOSCALE
350
69B
  3
CMLEADERSTYLE
350
694
  3
CTABLESTYLE
350
693
  3
DIMASSOC
350
697
  3
HIDETEXT
350
698
  3
MSLTSCALE
350
69C
  0
XRECORD
  5
69A
102
{ACAD_REACTORS
330
699
102
}
330
699
100
AcDbXrecord
102
VTR_0.000_0.000_1.000_1.000_VISUALSTYLE
340
2F
102
VTR_0.000_0.000_1.000_1.000_GRIDDISPLAY
 70
     3
102
VTR_0.000_0.000_1.000_1.000_GRIDMAJOR
 70
     5
102
VTR_0.000_0.000_1.000_1.000_DEFAULTLIGHTING
280
     1
102
VTR_0.000_0.000_1.000_1.000_DEFAULTLIGHTINGTYPE
 70
     1
102
VTR_0.000_0.000_1.000_1.000_BRIGHTNESS
141
0.0
102
VTR_0.000_0.000_1.000_1.000_CONTRAST
142
0.0
  0
MATERIAL
  5
45
102
{ACAD_REACTORS
330
43
102
}
102
{ACAD_XDICTIONARY
360
69F
102
}
330
43
100
AcDbMaterial
  1
BYBLOCK
  0
MATERIAL
  5
44
102
{ACAD_REACTORS
330
43
102
}
102
{ACAD_XDICTIONARY
360
69D
102
}
330
43
100
AcDbMaterial
  1
BYLAYER
  0
MATERIAL
  5
46
102
{ACAD_REACTORS
330
43
102
}
102
{ACAD_XDICTIONARY
360
6A1
102
}
330
43
100
AcDbMaterial
  1
GLOBAL
  0
ACAD_PROXY_OBJECT
  5
6C
102
{ACAD_REACTORS
330
6B
102
}
330
6B
100
AcDbProxyObject
 90
      499
 91
      505
 93
      610
310
40901902A4063FBFFFFFE056BD1B81E855B9FC0AD7A3703D0AD73F4214DD185B99185C9900AD7A3703D0AC73F90141901A02B5E8DC0F42B1CFC02B5E8DC0F42B1CFE5764000000000000300FC0
340
14
340
0
340
11
340
0
 94
        0
1001
ACAD_MLEADERVER
1070
     2
  0
MLINESTYLE
  5
18
102
{ACAD_REACTORS
330
17
102
}
330
17
100
AcDbMlineStyle
  2
Standard
 70
     0
  3

 62
   256
 51
90.0
 52
90.0
 71
     2
 49
0.5
 62
   256
  6
BYLAYER
 49
-0.5
 62
   256
  6
BYLAYER
  0
ACAD_PROXY_OBJECT
  5
48
102
{ACAD_REACTORS
330
47
102
}
330
47
100
AcDbProxyObject
 90
      499
 91
      503
 93
       41
310
903313A31580
  0
ACAD_PROXY_OBJECT
  5
49
102
{ACAD_REACTORS
330
47
102
}
330
47
100
AcDbProxyObject
 90
      499
 91
      503
 93
      105
310
903313A324000000000000004000
  0
ACAD_PROXY_OBJECT
  5
4A
102
{ACAD_REACTORS
330
47
102
}
330
47
100
AcDbProxyObject
 90
      499
 91
      503
 93
      105
310
903313A344000000000000104000
  0
ACAD_PROXY_OBJECT
  5
4B
102
{ACAD_REACTORS
330
47
102
}
330
47
100
AcDbProxyObject
 90
      499
 91
      503
 93
      105
310
903313A354000000000000144000
  0
ACAD_PROXY_OBJECT
  5
4C
102
{ACAD_REACTORS
330
47
102
}
330
47
100
AcDbProxyObject
 90
      499
 91
      503
 93
      105
310
903313A384000000000000204000
  0
ACAD_PROXY_OBJECT
  5
4D
102
{ACAD_REACTORS
330
47
102
}
330
47
100
AcDbProxyObject
 90
      499
 91
      503
 93
      113
310
904313A31304000000000000244000
  0
ACAD_PROXY_OBJECT
  5
4E
102
{ACAD_REACTORS
330
47
102
}
330
47
100
AcDbProxyObject
 90
      499
 91
      503
 93
      113
310
904313A31364000000000000304000
  0
ACAD_PROXY_OBJECT
  5
4F
102
{ACAD_REACTORS
330
47
102
}
330
47
100
AcDbProxyObject
 90
      499
 91
      503
 93
      113
310
904313A32304000000000000344000
  0
ACAD_PROXY_OBJECT
  5
50
102
{ACAD_REACTORS
330
47
102
}
330
47
100
AcDbProxyObject
 90
      499
 91
      503
 93
      113
310
904313A333040000000000003E4000
  0
ACAD_PROXY_OBJECT
  5
51
102
{ACAD_REACTORS
330
47
102
}
330
47
100
AcDbProxyObject
 90
      499
 91
      503
 93
      113
310
904313A34304000000000000444000
  0
ACAD_PROXY_OBJECT
  5
52
102
{ACAD_REACTORS
330
47
102
}
330
47
100
AcDbProxyObject
 90
      499
 91
      503
 93
      113
310
904313A35304000000000000494000
  0
ACAD_PROXY_OBJECT
  5
53
102
{ACAD_REACTORS
330
47
102
}
330
47
100
AcDbProxyObject
 90
      499
 91
      503
 93
      121
310
905313A3130304000000000000594000
  0
ACAD_PROXY_OBJECT
  5
54
102
{ACAD_REACTORS
330
47
102
}
330
47
100
AcDbProxyObject
 90
      499
 91
      503
 93
      105
310
903323A310000000000000010100
  0
ACAD_PROXY_OBJECT
  5
55
102
{ACAD_REACTORS
330
47
102
}
330
47
100
AcDbProxyObject
 90
      499
 91
      503
 93
      105
310
903343A310000000000000410100
  0
ACAD_PROXY_OBJECT
  5
56
102
{ACAD_REACTORS
330
47
102
}
330
47
100
AcDbProxyObject
 90
      499
 91
      503
 93
      105
310
903383A310000000000000810100
  0
ACAD_PROXY_OBJECT
  5
57
102
{ACAD_REACTORS
330
47
102
}
330
47
100
AcDbProxyObject
 90
      499
 91
      503
 93
      113
310
90431303A310000000000000910100
  0
ACAD_PROXY_OBJECT
  5
58
102
{ACAD_REACTORS
330
47
102
}
330
47
100
AcDbProxyObject
 90
      499
 91
      503
 93
      121
310
9053130303A310000000000001650100
  0
ACAD_PROXY_OBJECT
  5
59
102
{ACAD_REACTORS
330
47
102
}
330
47
100
AcDbProxyObject
 90
      499
 91
      503
 93
      257
310
90E312F31323822203D2031272D3022000000000000200FC000000000000284000
  0
ACAD_PROXY_OBJECT
  5
5A
102
{ACAD_REACTORS
330
47
102
}
330
47
100
AcDbProxyObject
 90
      499
 91
      503
 93
      249
310
90D312F363422203D2031272D3022000000000000240FC000000000000284000
  0
ACAD_PROXY_OBJECT
  5
5B
102
{ACAD_REACTORS
330
47
102
}
330
47
100
AcDbProxyObject
 90
      499
 91
      503
 93
      249
310
90D312F333222203D2031272D3022000000000000280FC000000000000284000
  0
ACAD_PROXY_OBJECT
  5
5C
102
{ACAD_REACTORS
330
47
102
}
330
47
100
AcDbProxyObject
 90
      499
 91
      503
 93
      249
310
90D312F313622203D2031272D30220000000000002C0FC000000000000284000
  0
ACAD_PROXY_OBJECT
  5
5D
102
{ACAD_REACTORS
330
47
102
}
330
47
100
AcDbProxyObject
 90
      499
 91
      503
 93
      249
310
90D332F333222203D2031272D30220000000000002E0FC000000000000284000
  0
ACAD_PROXY_OBJECT
  5
5E
102
{ACAD_REACTORS
330
47
102
}
330
47
100
AcDbProxyObject
 90
      499
 91
      503
 93
      241
310
90C312F3822203D2031272D3022000000000000300FC000000000000284000
  0
ACAD_PROXY_OBJECT
  5
5F
102
{ACAD_REACTORS
330
47
102
}
330
47
100
AcDbProxyObject
 90
      499
 91
      503
 93
      249
310
90D332F313622203D2031272D3022000000000000320FC000000000000284000
  0
ACAD_PROXY_OBJECT
  5
60
102
{ACAD_REACTORS
330
47
102
}
330
47
100
AcDbProxyObject
 90
      499
 91
      503
 93
      241
310
90C312F3422203D2031272D3022000000000000340FC000000000000284000
  0
ACAD_PROXY_OBJECT
  5
61
102
{ACAD_REACTORS
330
47
102
}
330
47
100
AcDbProxyObject
 90
      499
 91
      503
 93
      241
310
90C332F3822203D2031272D3022000000000000360FC000000000000284000
  0
ACAD_PROXY_OBJECT
  5
62
102
{ACAD_REACTORS
330
47
102
}
330
47
100
AcDbProxyObject
 90
      499
 91
      503
 93
      241
310
90C312F3222203D2031272D3022000000000000380FC000000000000284000
  0
ACAD_PROXY_OBJECT
  5
63
102
{ACAD_REACTORS
330
47
102
}
330
47
100
AcDbProxyObject
 90
      499
 91
      503
 93
      241
310
90C332F3422203D2031272D30220000000000003A0FC000000000000284000
  0
ACAD_PROXY_OBJECT
  5
64
102
{ACAD_REACTORS
330
47
102
}
330
47
100
AcDbProxyObject
 90
      499
 91
      503
 93
      161
310
90A3122203D2031272D30224000000000000284000
  0
ACAD_PROXY_OBJECT
  5
65
102
{ACAD_REACTORS
330
47
102
}
330
47
100
AcDbProxyObject
 90
      499
 91
      503
 93
      257
310
90E312D312F3222203D2031272D30220000000000003E0FC000000000000284000
  0
ACAD_PROXY_OBJECT
  5
66
102
{ACAD_REACTORS
330
47
102
}
330
47
100
AcDbProxyObject
 90
      499
 91
      503
 93
      225
310
90A3322203D2031272D302200000000000002100000000000000284000
  0
ACAD_PROXY_OBJECT
  5
67
102
{ACAD_REACTORS
330
47
102
}
330
47
100
AcDbProxyObject
 90
      499
 91
      503
 93
      225
310
90A3622203D2031272D302200000000000006100000000000000284000
  0
ACAD_PROXY_OBJECT
  5
68
102
{ACAD_REACTORS
330
47
102
}
330
47
100
AcDbProxyObject
 90
      499
 91
      503
 93
      249
310
90D31272D3022203D2031272D30220000000000000A100000000000000284000
  0
ACAD_PROXY_OBJECT
  5
2F
102
{ACAD_REACTORS
330
2A
102
}
330
2A
100
AcDbProxyObject
 90
      499
 91
      501
 93
      436
310
42CC9915DA5C99599C985B595049028333333333333E33F0000000000000F90107901411070040501600405405064090741402480A0340
1001
ACAD
1000
AcDbSavedByObjectVersion
1070
     0
  0
ACAD_PROXY_OBJECT
  5
32
102
{ACAD_REACTORS
330
2A
102
}
330
2A
100
AcDbProxyObject
 90
      499
 91
      501
 93
      388
310
4150985CDA58D07406404333333333333E33F0000000000000F90107A41107004050150841D405064090741402480A0350
1001
ACAD
1000
AcDbSavedByObjectVersion
1070
     0
  0
ACAD_PROXY_OBJECT
  5
36
102
{ACAD_REACTORS
330
2A
102
}
330
2A
100
AcDbProxyObject
 90
      499
 91
      501
 93
      428
310
42109C9A59DA1D195B90C409028333333333333E33F0000000000000F9010790141107004050150841D405064090741402480A029950
1001
ACAD
1000
AcDbSavedByObjectVersion
1070
     0
  0
ACAD_PROXY_OBJECT
  5
3A
102
{ACAD_REACTORS
330
2A
102
}
330
2A
100
AcDbProxyObject
 90
      499
 91
      501
 93
      452
310
42D0DBDB1BDC90DA185B99D95104090240C333333333333E33F0000000000000F90108901411070040501508421405064090741402480A0350
1001
ACAD
1000
AcDbSavedByObjectVersion
1070
     0
  0
ACAD_PROXY_OBJECT
  5
34
102
{ACAD_REACTORS
330
2A
102
}
330
2A
100
AcDbProxyObject
 90
      499
 91
      501
 93
      500
310
4290DBDB98D95C1D1D585B10940D028333333333333E33F0000000000000F90107902409070040501000000000018199010841D405064090740C02480A0340
1001
ACAD
1000
AcDbSavedByObjectVersion
1070
     0
  0
ACAD_PROXY_OBJECT
  5
35
102
{ACAD_REACTORS
330
2A
102
}
330
2A
100
AcDbProxyObject
 90
      499
 91
      501
 93
      412
310
40D11A5B50B409028333333333333E33F0000000000000F9010790141107004050150841D405064090741402480A02677FFFFFD0
1001
ACAD
1000
AcDbSavedByObjectVersion
1070
     0
  0
ACAD_PROXY_OBJECT
  5
3D
102
{ACAD_REACTORS
330
2A
102
}
330
2A
100
AcDbProxyObject
 90
      499
 91
      501
 93
      452
310
43115919D950DBDB1BDC93D999916409028333333333333E33F0000000000000F9010790141107004050150841D405064090741402480A0350
1001
ACAD
1000
AcDbSavedByObjectVersion
1070
     0
  0
ACAD_PROXY_OBJECT
  5
39
102
{ACAD_REACTORS
330
2A
102
}
330
2A
100
AcDbProxyObject
 90
      499
 91
      501
 93
      444
310
42D19858D95C185D1D195C9B90F409028333333333333E33F0000000000000F9010790141107004050150841D405064090741402480A0350
1001
ACAD
1000
AcDbSavedByObjectVersion
1070
     0
  0
ACAD_PROXY_OBJECT
  5
2B
102
{ACAD_REACTORS
330
2A
102
}
330
2A
100
AcDbProxyObject
 90
      499
 91
      501
 93
      380
310
41119B185D240901404333333333333E33F0000000000000F9010740A907004050150841D405064090741402480A1B50
1001
ACAD
1000
AcDbSavedByObjectVersion
1070
     0
  0
ACAD_PROXY_OBJECT
  5
2C
102
{ACAD_REACTORS
330
2A
102
}
330
2A
100
AcDbProxyObject
 90
      499
 91
      501
 93
      468
310
43519B185D15DA5D1A115919D95CD0140901404333333333333E33F0000000000000F90107409019070040501600405405064090741402480A1B50
1001
ACAD
1000
AcDbSavedByObjectVersion
1070
     0
  0
ACAD_PROXY_OBJECT
  5
2D
102
{ACAD_REACTORS
330
2A
102
}
330
2A
100
AcDbProxyObject
 90
      499
 91
      501
 93
      404
310
41D1DBDD5C985D5910240902404333333333333E33F0000000000000F9010740A9070040501641D405064090741402480A1B50
1001
ACAD
1000
AcDbSavedByObjectVersion
1070
     0
  0
ACAD_PROXY_OBJECT
  5
2E
102
{ACAD_REACTORS
330
2A
102
}
330
2A
100
AcDbProxyObject
 90
      499
 91
      501
 93
      492
310
4411DBDD5C985D5915DA5D1A115919D95CD0340902404333333333333E33F0000000000000F90107409019070040501600405405064090741402480A1B50
1001
ACAD
1000
AcDbSavedByObjectVersion
1070
     0
  0
ACAD_PROXY_OBJECT
  5
31
102
{ACAD_REACTORS
330
2A
102
}
330
2A
100
AcDbProxyObject
 90
      499
 91
      501
 93
      476
310
41921A5919195B90640502408333333333333E33F0000000000000F901079024090700405020000000000001110200405405064090740C02480A0340
1001
ACAD
1000
AcDbSavedByObjectVersion
1070
     0
  0
ACAD_PROXY_OBJECT
  5
3B
102
{ACAD_REACTORS
330
2A
102
}
330
2A
100
AcDbProxyObject
 90
      499
 91
      501
 93
      428
310
42529A5D1D195C93D999914409028333333333333E33F0000000000000F9010790141107004050150A41D405064090741402480A0350
1001
ACAD
1000
AcDbSavedByObjectVersion
1070
     0
  0
ACAD_PROXY_OBJECT
  5
38
102
{ACAD_REACTORS
330
2A
102
}
330
2A
100
AcDbProxyObject
 90
      499
 91
      501
 93
      444
310
42D31A5B995C185D1D195C9B90E409028333333333333E33F0000000000000F9010790141107004050750841D405064090741402483A0350
1001
ACAD
1000
AcDbSavedByObjectVersion
1070
     0
  0
ACAD_PROXY_OBJECT
  5
3C
102
{ACAD_REACTORS
330
2A
102
}
330
2A
100
AcDbProxyObject
 90
      499
 91
      501
 93
      444
310
42D3DD995C9A185B99D3D999915409028333333333333E33F0000000000000F9010790141107004050150941D405064090741402480A0350
1001
ACAD
1000
AcDbSavedByObjectVersion
1070
     0
  0
ACAD_PROXY_OBJECT
  5
33
102
{ACAD_REACTORS
330
2A
102
}
330
2A
100
AcDbProxyObject
 90
      499
 91
      501
 93
      428
310
425499585B1A5CDD1A58D08409038333333333333E33F0000000000000F9010740A907004050150800405405064090740C02480A1B40
1001
ACAD
1000
AcDbSavedByObjectVersion
1070
     0
  0
ACAD_PROXY_OBJECT
  5
42
102
{ACAD_REACTORS
330
2A
102
}
330
2A
100
AcDbProxyObject
 90
      499
 91
      501
 93
      420
310
4194DA1859195911B40902404333333333333E33F0000000000000F9010740A41107004050150800405405064090840C02480A0B40
1001
ACAD
1000
AcDbSavedByObjectVersion
1070
     0
  0
ACAD_PROXY_OBJECT
  5
41
102
{ACAD_REACTORS
330
2A
102
}
330
2A
100
AcDbProxyObject
 90
      499
 91
      501
 93
      516
310
4454DA18591959081DDA5D1A08195919D95CD1A40902404333333333333E33F0000000000000F901074090142907004050250800405405064090740C02480A0B40
1001
ACAD
1000
AcDbSavedByObjectVersion
1070
     0
  0
ACAD_PROXY_OBJECT
  5
3E
102
{ACAD_REACTORS
330
2A
102
}
330
2A
100
AcDbProxyObject
 90
      499
 91
      501
 93
      532
310
4394DA1859195CC81BD98811DC985E5174090240C333333333333E33F0000000000000F901079024090741D01000000000000111010841D405064090740C02480A0340
1001
ACAD
1000
AcDbSavedByObjectVersion
1070
     0
  0
ACAD_PROXY_OBJECT
  5
3F
102
{ACAD_REACTORS
330
2A
102
}
330
2A
100
AcDbProxyObject
 90
      499
 91
      501
 93
      476
310
41D4DAD95D18DA1E51840502408333333333333E33F0000000000000F901079024090741D01000000000000111010B41D405064090741802480A0340
1001
ACAD
1000
AcDbSavedByObjectVersion
1070
     0
  0
ACAD_PROXY_OBJECT
  5
37
102
{ACAD_REACTORS
330
2A
102
}
330
2A
100
AcDbProxyObject
 90
      499
 91
      501
 93
      412
310
41D51A1A58DAD95B90D409028333333333333E33F0000000000000F9010790141107004050150C41D405064090741402480A0350
1001
ACAD
1000
AcDbSavedByObjectVersion
1070
     0
  0
ACAD_PROXY_OBJECT
  5
30
102
{ACAD_REACTORS
330
2A
102
}
330
2A
100
AcDbProxyObject
 90
      499
 91
      501
 93
      420
310
4255DA5C99599C985B595059028333333333333E33F0000000000000F90107901411070040501600405405064090740C02480A0340
1001
ACAD
1000
AcDbSavedByObjectVersion
1070
     0
  0
ACAD_PROXY_OBJECT
  5
40
102
{ACAD_REACTORS
330
2A
102
}
330
2A
100
AcDbProxyObject
 90
      499
 91
      501
 93
      404
310
41560B54985E51940902404000000000000E03F0000000000000F9010740501907004050150841D405064090740C02480A1B40
1001
ACAD
1000
AcDbSavedByObjectVersion
1070
     0
  0
XRECORD
  5
67B
102
{ACAD_REACTORS
330
671
102
}
330
671
100
AcDbXrecord
340
0
  0
XRECORD
  5
67A
102
{ACAD_REACTORS
330
671
102
}
330
671
100
AcDbXrecord
 90
        0
  0
XRECORD
  5
691
102
{ACAD_REACTORS
330
671
102
}
330
671
100
AcDbXrecord
1000
DSTYLE
1002
{
1070
   179
 70
     3
1070
   171
 70
     2
1070
   143
 40
0.0393700787401575
1070
    41
 40
2.000107526779175
1070
    79
 70
     2
1070
   141
 40
0.0
1070
   271
 70
     3
1070
    43
 40
10.0
1070
   278
 70
    46
1070
    44
 40
1.0
1070
    42
 40
1.0
1070
   147
 40
0.09
1070
   272
 70
     3
1070
   146
 40
0.65
1070
   172
 70
     0
1070
   340
340
11
1070
   140
 40
3.5
1070
   284
 70
     0
1070
    90
 70
     1
1002
}
  0
XRECORD
  5
67C
102
{ACAD_REACTORS
330
671
102
}
330
671
100
AcDbXrecord
  1
{f176d6b0-d95a-46d3-9cb6-e688ace7f3b2}
  0
XRECORD
  5
674
102
{ACAD_REACTORS
330
671
102
}
330
671
100
AcDbXrecord
  1

  0
XRECORD
  5
679
102
{ACAD_REACTORS
330
671
102
}
330
671
100
AcDbXrecord
 90
        4
  0
XRECORD
  5
676
102
{ACAD_REACTORS
330
671
102
}
330
671
100
AcDbXrecord
340
1A
  0
XRECORD
  5
678
102
{ACAD_REACTORS
330
671
102
}
330
671
100
AcDbXrecord
 90
    10781
  0
XRECORD
  5
677
102
{ACAD_REACTORS
330
671
102
}
330
671
100
AcDbXrecord
340
19
  0
XRECORD
  5
67E
102
{ACAD_REACTORS
330
671
102
}
330
671
100
AcDbXrecord
 40
0.0
  0
XRECORD
  5
681
102
{ACAD_REACTORS
330
671
102
}
330
671
100
AcDbXrecord
340
0
  0
XRECORD
  5
687
102
{ACAD_REACTORS
330
671
102
}
330
671
100
AcDbXrecord
 10
0.0
 20
0.0
 30
0.0
  0
XRECORD
  5
683
102
{ACAD_REACTORS
330
671
102
}
330
671
100
AcDbXrecord
 10
0.0
 20
0.0
 30
0.0
  0
XRECORD
  5
686
102
{ACAD_REACTORS
330
671
102
}
330
671
100
AcDbXrecord
 10
0.0
 20
0.0
 30
0.0
  0
XRECORD
  5
684
102
{ACAD_REACTORS
330
671
102
}
330
671
100
AcDbXrecord
 10
0.0
 20
0.0
 30
0.0
  0
XRECORD
  5
685
102
{ACAD_REACTORS
330
671
102
}
330
671
100
AcDbXrecord
 10
0.0
 20
0.0
 30
0.0
  0
XRECORD
  5
682
102
{ACAD_REACTORS
330
671
102
}
330
671
100
AcDbXrecord
 10
0.0
 20
0.0
 30
0.0
  0
XRECORD
  5
67F
102
{ACAD_REACTORS
330
671
102
}
330
671
100
AcDbXrecord
340
0
  0
XRECORD
  5
680
102
{ACAD_REACTORS
330
671
102
}
330
671
100
AcDbXrecord
 70
     0
  0
XRECORD
  5
675
102
{ACAD_REACTORS
330
671
102
}
330
671
100
AcDbXrecord
  1

  0
XRECORD
  5
672
102
{ACAD_REACTORS
330
671
102
}
330
671
100
AcDbXrecord
 90
        1
  0
XRECORD
  5
673
102
{ACAD_REACTORS
330
671
102
}
330
671
100
AcDbXrecord
 90
       70
  0
XRECORD
  5
68A
102
{ACAD_REACTORS
330
671
102
}
330
671
100
AcDbXrecord
340
0
  0
XRECORD
  5
690
102
{ACAD_REACTORS
330
671
102
}
330
671
100
AcDbXrecord
 10
0.0
 20
0.0
 30
0.0
  0
XRECORD
  5
68C
102
{ACAD_REACTORS
330
671
102
}
330
671
100
AcDbXrecord
 10
0.0
 20
0.0
 30
0.0
  0
XRECORD
  5
68F
102
{ACAD_REACTORS
330
671
102
}
330
671
100
AcDbXrecord
 10
0.0
 20
0.0
 30
0.0
  0
XRECORD
  5
68D
102
{ACAD_REACTORS
330
671
102
}
330
671
100
AcDbXrecord
 10
0.0
 20
0.0
 30
0.0
  0
XRECORD
  5
68E
102
{ACAD_REACTORS
330
671
102
}
330
671
100
AcDbXrecord
 10
0.0
 20
0.0
 30
0.0
  0
XRECORD
  5
68B
102
{ACAD_REACTORS
330
671
102
}
330
671
100
AcDbXrecord
 10
0.0
 20
0.0
 30
0.0
  0
XRECORD
  5
688
102
{ACAD_REACTORS
330
671
102
}
330
671
100
AcDbXrecord
340
0
  0
XRECORD
  5
689
102
{ACAD_REACTORS
330
671
102
}
330
671
100
AcDbXrecord
 70
     0
  0
XRECORD
  5
67D
102
{ACAD_REACTORS
330
671
102
}
330
671
100
AcDbXrecord
  1
{FAEB1C32-E019-11D5-929B-00C0DF256EC4}
  0
DICTIONARYVAR
  5
69B
102
{ACAD_REACTORS
330
692
102
}
330
692
100
DictionaryVariables
280
     0
  1
1:1
  0
DICTIONARYVAR
  5
694
102
{ACAD_REACTORS
330
692
102
}
330
692
100
DictionaryVariables
280
     0
  1
Standard
  0
DICTIONARYVAR
  5
693
102
{ACAD_REACTORS
330
692
102
}
330
692
100
DictionaryVariables
280
     0
  1
Standard
  0
DICTIONARYVAR
  5
697
102
{ACAD_REACTORS
330
692
102
}
330
692
100
DictionaryVariables
280
     0
  1
2
  0
DICTIONARYVAR
  5
698
102
{ACAD_REACTORS
330
692
102
}
330
692
100
DictionaryVariables
280
     0
  1
1
  0
DICTIONARYVAR
  5
69C
102
{ACAD_REACTORS
330
692
102
}
330
692
100
DictionaryVariables
280
     0
  1
1
  0
DICTIONARY
  5
69F
330
45
100
AcDbDictionary
280
     1
  3
ACAD_XREC_ROUNDTRIP
360
6A0
  0
DICTIONARY
  5
69D
330
44
100
AcDbDictionary
280
     1
  3
ACAD_XREC_ROUNDTRIP
360
69E
  0
DICTIONARY
  5
6A1
330
46
100
AcDbDictionary
280
     1
  3
ACAD_XREC_ROUNDTRIP
360
6A2
  0
XRECORD
  5
6A0
102
{ACAD_REACTORS
330
69F
102
}
330
69F
100
AcDbXrecord
102
MATERIAL
148
0.0
149
0.0
149
0.0
 93
        0
 94
      127
282
     0
 72
     1
 77
     1
171
     1
175
     1
179
     1
273
     0
  0
XRECORD
  5
69E
102
{ACAD_REACTORS
330
69D
102
}
330
69D
100
AcDbXrecord
102
MATERIAL
148
0.0
149
0.0
149
0.0
 93
        0
 94
      127
282
     0
 72
     1
 77
     1
171
     1
175
     1
179
     1
273
     0
  0
XRECORD
  5
6A2
102
{ACAD_REACTORS
330
6A1
102
}
330
6A1
100
AcDbXrecord
102
MATERIAL
148
0.0
149
0.0
149
0.0
 93
        0
 94
      127
282
     0
 72
     1
 77
     1
171
     1
175
     1
179
     1
273
     0
  0
ENDSEC
  0
EOF
