  0
SECTION
  2
HEADER
  9
$ACADVER
  1
AC1014
  9
$ACADMAINTVER
 70
     9
  9
$DWGCODEPAGE
  3
ANSI_932
  9
$INSBASE
 10
0.0
 20
0.0
 30
0.0
  9
$EXTMIN
 10
-1112.174165984941
 20
-770.4450118550175
 30
0.0
  9
$EXTMAX
 10
1130.781394900604
 20
753.4631984284122
 30
0.0
  9
$LIMMIN
 10
-420.5
 20
-297.0
  9
$LIMMAX
 10
420.5
 20
297.0
  9
$ORTHOMODE
 70
     0
  9
$REGENMODE
 70
     1
  9
$FILLMODE
 70
     1
  9
$QTEXTMODE
 70
     0
  9
$MIRRTEXT
 70
     1
  9
$DRAGMODE
 70
     2
  9
$LTSCALE
 40
0.25
  9
$OSMODE
 70
    37
  9
$ATTMODE
 70
     1
  9
$TEXTSIZE
 40
0.2
  9
$TRACEWID
 40
0.05
  9
$TEXTSTYLE
  7
STANDARD
  9
$CLAYER
  8
0
  9
$CELTYPE
  6
BYLAYER
  9
$CECOLOR
 62
   256
  9
$CELTSCALE
 40
1.0
  9
$DELOBJ
 70
     1
  9
$DISPSILH
 70
     0
  9
$DIMSCALE
 40
1.0
  9
$DIMASZ
 40
2.000107526779175
  9
$DIMEXO
 40
1.0
  9
$DIMDLI
 40
10.0
  9
$DIMRND
 40
0.0
  9
$DIMDLE
 40
0.0
  9
$DIMEXE
 40
1.0
  9
$DIMTP
 40
0.0
  9
$DIMTM
 40
0.0
  9
$DIMTXT
 40
3.5
  9
$DIMCEN
 40
0.0
  9
$DIMTSZ
 40
0.0
  9
$DIMTOL
 70
     0
  9
$DIMLIM
 70
     0
  9
$DIMTIH
 70
     0
  9
$DIMTOH
 70
     0
  9
$DIMSE1
 70
     0
  9
$DIMSE2
 70
     0
  9
$DIMTAD
 70
     1
  9
$DIMZIN
 70
     8
  9
$DIMBLK
  1

  9
$DIMASO
 70
     1
  9
$DIMSHO
 70
     1
  9
$DIMPOST
  1

  9
$DIMAPOST
  1

  9
$DIMALT
 70
     0
  9
$DIMALTD
 70
     2
  9
$DIMALTF
 40
0.0393700787401575
  9
$DIMLFAC
 40
1.0
  9
$DIMTOFL
 70
     0
  9
$DIMTVP
 40
0.0
  9
$DIMTIX
 70
     0
  9
$DIMSOXD
 70
     0
  9
$DIMSAH
 70
     0
  9
$DIMBLK1
  1

  9
$DIMBLK2
  1

  9
$DIMSTYLE
  2
STANDARD
  9
$DIMCLRD
 70
     0
  9
$DIMCLRE
 70
     0
  9
$DIMCLRT
 70
     0
  9
$DIMTFAC
 40
0.65
  9
$DIMGAP
 40
0.09
  9
$DIMJUST
 70
     0
  9
$DIMSD1
 70
     0
  9
$DIMSD2
 70
     0
  9
$DIMTOLJ
 70
     0
  9
$DIMTZIN
 70
     0
  9
$DIMALTZ
 70
     0
  9
$DIMALTTZ
 70
     0
  9
$DIMFIT
 70
     3
  9
$DIMUPT
 70
     0
  9
$DIMUNIT
 70
     2
  9
$DIMDEC
 70
     3
  9
$DIMTDEC
 70
     3
  9
$DIMALTU
 70
     2
  9
$DIMALTTD
 70
     3
  9
$DIMTXSTY
  7
STANDARD
  9
$DIMAUNIT
 70
     0
  9
$LUNITS
 70
     2
  9
$LUPREC
 70
     4
  9
$SKETCHINC
 40
0.1
  9
$FILLETRAD
 40
0.5
  9
$AUNITS
 70
     0
  9
$AUPREC
 70
     0
  9
$MENU
  1
.
  9
$ELEVATION
 40
0.0
  9
$PELEVATION
 40
0.0
  9
$THICKNESS
 40
0.0
  9
$LIMCHECK
 70
     0
  9
$CHAMFERA
 40
0.0
  9
$CHAMFERB
 40
0.0
  9
$CHAMFERC
 40
0.0
  9
$CHAMFERD
 40
0.0
  9
$SKPOLY
 70
     0
  9
$TDCREATE
 40
2458464.438532604
  9
$TDUPDATE
 40
2458464.438532604
  9
$TDINDWG
 40
0.0000000116
  9
$TDUSRTIMER
 40
0.0000000116
  9
$USRTIMER
 70
     1
  9
$ANGBASE
 50
0.0
  9
$ANGDIR
 70
     0
  9
$PDMODE
 70
     0
  9
$PDSIZE
 40
1.0
  9
$PLINEWID
 40
0.0
  9
$COORDS
 70
     1
  9
$SPLFRAME
 70
     0
  9
$SPLINETYPE
 70
     6
  9
$SPLINESEGS
 70
     8
  9
$ATTDIA
 70
     0
  9
$ATTREQ
 70
     1
  9
$HANDLING
 70
     1
  9
$HANDSEED
  5
4A8
  9
$SURFTAB1
 70
     6
  9
$SURFTAB2
 70
     6
  9
$SURFTYPE
 70
     6
  9
$SURFU
 70
     6
  9
$SURFV
 70
     6
  9
$UCSNAME
  2

  9
$UCSORG
 10
0.0
 20
0.0
 30
0.0
  9
$UCSXDIR
 10
1.0
 20
0.0
 30
0.0
  9
$UCSYDIR
 10
0.0
 20
1.0
 30
0.0
  9
$PUCSNAME
  2

  9
$PUCSORG
 10
0.0
 20
0.0
 30
0.0
  9
$PUCSXDIR
 10
1.0
 20
0.0
 30
0.0
  9
$PUCSYDIR
 10
0.0
 20
1.0
 30
0.0
  9
$USERI1
 70
     0
  9
$USERI2
 70
     0
  9
$USERI3
 70
     0
  9
$USERI4
 70
     0
  9
$USERI5
 70
     0
  9
$USERR1
 40
0.0
  9
$USERR2
 40
0.0
  9
$USERR3
 40
0.0
  9
$USERR4
 40
0.0
  9
$USERR5
 40
0.0
  9
$WORLDVIEW
 70
     1
  9
$SHADEDGE
 70
     3
  9
$SHADEDIF
 70
    70
  9
$TILEMODE
 70
     1
  9
$MAXACTVP
 70
    64
  9
$PINSBASE
 10
0.0
 20
0.0
 30
0.0
  9
$PLIMCHECK
 70
     0
  9
$PEXTMIN
 10
1.000000000000000E+20
 20
1.000000000000000E+20
 30
1.000000000000000E+20
  9
$PEXTMAX
 10
-1.000000000000000E+20
 20
-1.000000000000000E+20
 30
-1.000000000000000E+20
  9
$PLIMMIN
 10
0.0
 20
0.0
  9
$PLIMMAX
 10
12.0
 20
9.0
  9
$UNITMODE
 70
     0
  9
$VISRETAIN
 70
     0
  9
$PLINEGEN
 70
     1
  9
$PSLTSCALE
 70
     0
  9
$TREEDEPTH
 70
  3020
  9
$PICKSTYLE
 70
     1
  9
$CMLSTYLE
  2
STANDARD
  9
$CMLJUST
 70
     0
  9
$CMLSCALE
 40
1.0
  9
$PROXYGRAPHICS
 70
     0
  9
$MEASUREMENT
 70
     1
  0
ENDSEC
  0
SECTION
  2
CLASSES
  0
CLASS
  1
ACDBDICTIONARYWDFLT
  2
AcDbDictionaryWithDefault
  3
ObjectDBX Classes
 90
        0
280
     0
281
     0
  0
CLASS
  1
VISUALSTYLE
  2
AcDbVisualStyle
  3
ObjectDBX Classes
 90
     4095
280
     0
281
     0
  0
CLASS
  1
MATERIAL
  2
AcDbMaterial
  3
ObjectDBX Classes
 90
     1153
280
     0
281
     0
  0
CLASS
  1
SCALE
  2
AcDbScale
  3
ObjectDBX Classes
 90
     1153
280
     0
281
     0
  0
CLASS
  1
TABLESTYLE
  2
AcDbTableStyle
  3
ObjectDBX Classes
 90
     4095
280
     0
281
     0
  0
CLASS
  1
MLEADERSTYLE
  2
AcDbMLeaderStyle
  3
ACDB_MLEADERSTYLE_CLASS
 90
     4095
280
     0
281
     0
  0
CLASS
  1
SUN
  2
AcDbSun
  3
SCENEOE
 90
     1153
280
     0
281
     0
  0
CLASS
  1
DICTIONARYVAR
  2
AcDbDictionaryVar
  3
ObjectDBX Classes
 90
        0
280
     0
281
     0
  0
CLASS
  1
XRECORD
  2
AcDbXrecord
  3
ObjectDBX Classes
 90
        0
280
     0
281
     0
  0
CLASS
  1
LWPOLYLINE
  2
AcDbPolyline
  3
ObjectDBX Classes
 90
        0
280
     0
281
     1
  0
CLASS
  1
HATCH
  2
AcDbHatch
  3
ObjectDBX Classes
 90
        0
280
     0
281
     1
  0
CLASS
  1
ACDBPLACEHOLDER
  2
AcDbPlaceHolder
  3
ObjectDBX Classes
 90
        0
280
     0
281
     0
  0
CLASS
  1
LAYOUT
  2
AcDbLayout
  3
ObjectDBX Classes
 90
        0
280
     0
281
     0
  0
ENDSEC
  0
SECTION
  2
TABLES
  0
TABLE
  2
VPORT
  5
8
102
{ACAD_XDICTIONARY
360
49D
102
}
330
0
100
AcDbSymbolTable
 70
     1
  0
VPORT
  5
29
330
8
100
AcDbSymbolTableRecord
100
AcDbViewportTableRecord
  2
*ACTIVE
 70
     0
 10
0.0
 20
0.0
 11
1.0
 21
1.0
 12
9.303614457831426
 22
-8.49090671330265
 13
0.0
 23
0.0
 14
0.5
 24
0.5
 15
0.5
 25
0.5
 16
0.0
 26
0.0
 36
1.0
 17
0.0
 27
0.0
 37
0.0
 40
518.128791496366
 41
1.47184426578316
 42
50.0
 43
0.0
 44
0.0
 50
0.0
 51
0.0
 71
     0
 72
  1000
 73
     1
 74
     1
 75
     0
 76
     0
 77
     0
 78
     0
  0
ENDTAB
  0
TABLE
  2
LTYPE
  5
5
330
0
100
AcDbSymbolTable
 70
    67
  0
LTYPE
  5
14
330
5
100
AcDbSymbolTableRecord
100
AcDbLinetypeTableRecord
  2
BYBLOCK
 70
     0
  3

 72
    65
 73
     0
 40
0.0
  0
LTYPE
  5
15
330
5
100
AcDbSymbolTableRecord
100
AcDbLinetypeTableRecord
  2
BYLAYER
 70
     0
  3

 72
    65
 73
     0
 40
0.0
  0
LTYPE
  5
16
330
5
100
AcDbSymbolTableRecord
100
AcDbLinetypeTableRecord
  2
CONTINUOUS
 70
     0
  3
Solid line
 72
    65
 73
     0
 40
0.0
  0
LTYPE
  5
6F
330
5
100
AcDbSymbolTableRecord
100
AcDbLinetypeTableRecord
  2
HIDDENX2
 70
     0
  3
Hidden (2x) ____ ____ ____ ____ ____ ____ ____ 
 72
    65
 73
     2
 40
19.05
 49
12.7
 74
     0
 49
-6.35
 74
     0
  0
LTYPE
  5
70
330
5
100
AcDbSymbolTableRecord
100
AcDbLinetypeTableRecord
  2
HIDDEN
 70
     0
  3
Hidden __ __ __ __ __ __ __ __ __ __ __ __ __ __
 72
    65
 73
     2
 40
9.524999999999999
 49
6.35
 74
     0
 49
-3.175
 74
     0
  0
LTYPE
  5
71
330
5
100
AcDbSymbolTableRecord
100
AcDbLinetypeTableRecord
  2
HIDDEN2
 70
     0
  3
Hidden (.5x) _ _ _ _ _ _ _ _ _ _ _ _ _ _ _ _ _ 
 72
    65
 73
     2
 40
4.762499999999999
 49
3.175
 74
     0
 49
-1.5875
 74
     0
  0
LTYPE
  5
72
330
5
100
AcDbSymbolTableRecord
100
AcDbLinetypeTableRecord
  2
DASHED
 70
     0
  3
Dashed __ __ __ __ __ __ __ __ __ __ __ __ __ _
 72
    65
 73
     2
 40
19.05
 49
12.7
 74
     0
 49
-6.35
 74
     0
  0
LTYPE
  5
73
330
5
100
AcDbSymbolTableRecord
100
AcDbLinetypeTableRecord
  2
DASHED2
 70
     0
  3
Dashed (.5x) _ _ _ _ _ _ _ _ _ _ _ _ _ _ _ _ _ 
 72
    65
 73
     2
 40
9.524999999999999
 49
6.35
 74
     0
 49
-3.175
 74
     0
  0
LTYPE
  5
74
330
5
100
AcDbSymbolTableRecord
100
AcDbLinetypeTableRecord
  2
DASHEDX2
 70
     0
  3
Dashed (2x) ____  ____  ____  ____  ____  ___
 72
    65
 73
     2
 40
38.09999999999999
 49
25.4
 74
     0
 49
-12.7
 74
     0
  0
LTYPE
  5
75
330
5
100
AcDbSymbolTableRecord
100
AcDbLinetypeTableRecord
  2
DOTX2
 70
     0
  3
Dot (2x) .  .  .  .  .  .  .  .  .  .  .  .  .  .
 72
    65
 73
     2
 40
12.7
 49
0.0
 74
     0
 49
-12.7
 74
     0
  0
LTYPE
  5
76
330
5
100
AcDbSymbolTableRecord
100
AcDbLinetypeTableRecord
  2
DOT
 70
     0
  3
Dot . . . . . . . . . . . . . . . . . . . . . . . .
 72
    65
 73
     2
 40
6.35
 49
0.0
 74
     0
 49
-6.35
 74
     0
  0
LTYPE
  5
77
330
5
100
AcDbSymbolTableRecord
100
AcDbLinetypeTableRecord
  2
DOT2
 70
     0
  3
Dot (.5x) ........................................
 72
    65
 73
     2
 40
3.175
 49
0.0
 74
     0
 49
-3.175
 74
     0
  0
LTYPE
  5
78
330
5
100
AcDbSymbolTableRecord
100
AcDbLinetypeTableRecord
  2
CENTERX2
 70
     0
  3
Center (2x) ________  __  ________  __  _____
 72
    65
 73
     4
 40
101.6
 49
63.5
 74
     0
 49
-12.7
 74
     0
 49
12.7
 74
     0
 49
-12.7
 74
     0
  0
LTYPE
  5
79
330
5
100
AcDbSymbolTableRecord
100
AcDbLinetypeTableRecord
  2
CENTER
 70
     0
  3
Center ____ _ ____ _ ____ _ ____ _ ____ _ ____
 72
    65
 73
     4
 40
50.8
 49
31.75
 74
     0
 49
-6.35
 74
     0
 49
6.35
 74
     0
 49
-6.35
 74
     0
  0
LTYPE
  5
7A
330
5
100
AcDbSymbolTableRecord
100
AcDbLinetypeTableRecord
  2
CENTER2
 70
     0
  3
Center (.5x) ___ _ ___ _ ___ _ ___ _ ___ _ ___
 72
    65
 73
     4
 40
28.575
 49
19.05
 74
     0
 49
-3.175
 74
     0
 49
3.175
 74
     0
 49
-3.175
 74
     0
  0
LTYPE
  5
7B
330
5
100
AcDbSymbolTableRecord
100
AcDbLinetypeTableRecord
  2
DASHDOTX2
 70
     0
  3
Dash dot (2x) ____  .  ____  .  ____  .  ___
 72
    65
 73
     4
 40
50.8
 49
25.4
 74
     0
 49
-12.7
 74
     0
 49
0.0
 74
     0
 49
-12.7
 74
     0
  0
LTYPE
  5
7C
330
5
100
AcDbSymbolTableRecord
100
AcDbLinetypeTableRecord
  2
DASHDOT
 70
     0
  3
Dash dot __ . __ . __ . __ . __ . __ . __ . __
 72
    65
 73
     4
 40
25.4
 49
12.7
 74
     0
 49
-6.35
 74
     0
 49
0.0
 74
     0
 49
-6.35
 74
     0
  0
LTYPE
  5
7D
330
5
100
AcDbSymbolTableRecord
100
AcDbLinetypeTableRecord
  2
DASHDOT2
 70
     0
  3
Dash dot (.5x) _._._._._._._._._._._._._._._.
 72
    65
 73
     4
 40
12.7
 49
6.35
 74
     0
 49
-3.175
 74
     0
 49
0.0
 74
     0
 49
-3.175
 74
     0
  0
LTYPE
  5
7E
330
5
100
AcDbSymbolTableRecord
100
AcDbLinetypeTableRecord
  2
DIVIDEX2
 70
     0
  3
Divide (2x) ________  .  .  ________  .  .  _
 72
    65
 73
     6
 40
63.5
 49
25.4
 74
     0
 49
-12.7
 74
     0
 49
0.0
 74
     0
 49
-12.7
 74
     0
 49
0.0
 74
     0
 49
-12.7
 74
     0
  0
LTYPE
  5
7F
330
5
100
AcDbSymbolTableRecord
100
AcDbLinetypeTableRecord
  2
DIVIDE
 70
     0
  3
Divide ____ . . ____ . . ____ . . ____ . . ____
 72
    65
 73
     6
 40
31.75
 49
12.7
 74
     0
 49
-6.35
 74
     0
 49
0.0
 74
     0
 49
-6.35
 74
     0
 49
0.0
 74
     0
 49
-6.35
 74
     0
  0
LTYPE
  5
80
330
5
100
AcDbSymbolTableRecord
100
AcDbLinetypeTableRecord
  2
DIVIDE2
 70
     0
  3
Divide (.5x) __..__..__..__..__..__..__..__.._
 72
    65
 73
     6
 40
15.875
 49
6.35
 74
     0
 49
-3.175
 74
     0
 49
0.0
 74
     0
 49
-3.175
 74
     0
 49
0.0
 74
     0
 49
-3.175
 74
     0
  0
LTYPE
  5
81
330
5
100
AcDbSymbolTableRecord
100
AcDbLinetypeTableRecord
  2
BORDERX2
 70
     0
  3
Border (2x) ____  ____  .  ____  ____  .  ___
 72
    65
 73
     6
 40
88.89999999999999
 49
25.4
 74
     0
 49
-12.7
 74
     0
 49
25.4
 74
     0
 49
-12.7
 74
     0
 49
0.0
 74
     0
 49
-12.7
 74
     0
  0
LTYPE
  5
82
330
5
100
AcDbSymbolTableRecord
100
AcDbLinetypeTableRecord
  2
BORDER
 70
     0
  3
Border __ __ . __ __ . __ __ . __ __ . __ __ .
 72
    65
 73
     6
 40
44.45
 49
12.7
 74
     0
 49
-6.35
 74
     0
 49
12.7
 74
     0
 49
-6.35
 74
     0
 49
0.0
 74
     0
 49
-6.35
 74
     0
  0
LTYPE
  5
83
330
5
100
AcDbSymbolTableRecord
100
AcDbLinetypeTableRecord
  2
BORDER2
 70
     0
  3
Border (.5x) __.__.__.__.__.__.__.__.__.__.__.
 72
    65
 73
     6
 40
22.225
 49
6.35
 74
     0
 49
-3.175
 74
     0
 49
6.35
 74
     0
 49
-3.175
 74
     0
 49
0.0
 74
     0
 49
-3.175
 74
     0
  0
LTYPE
  5
84
330
5
100
AcDbSymbolTableRecord
100
AcDbLinetypeTableRecord
  2
PHANTOMX2
 70
     0
  3
Phantom (2x) ____________    ____    ____   _
 72
    65
 73
     6
 40
127.0
 49
63.5
 74
     0
 49
-12.7
 74
     0
 49
12.7
 74
     0
 49
-12.7
 74
     0
 49
12.7
 74
     0
 49
-12.7
 74
     0
  0
LTYPE
  5
85
330
5
100
AcDbSymbolTableRecord
100
AcDbLinetypeTableRecord
  2
PHANTOM
 70
     0
  3
Phantom ______  __  __  ______  __  __  ______ 
 72
    65
 73
     6
 40
63.5
 49
31.75
 74
     0
 49
-6.35
 74
     0
 49
6.35
 74
     0
 49
-6.35
 74
     0
 49
6.35
 74
     0
 49
-6.35
 74
     0
  0
LTYPE
  5
86
330
5
100
AcDbSymbolTableRecord
100
AcDbLinetypeTableRecord
  2
PHANTOM2
 70
     0
  3
Phantom (.5x) ___ _ _ ___ _ _ ___ _ _ ___ _ _
 72
    65
 73
     6
 40
31.75
 49
15.875
 74
     0
 49
-3.175
 74
     0
 49
3.175
 74
     0
 49
-3.175
 74
     0
 49
3.175
 74
     0
 49
-3.175
 74
     0
  0
LTYPE
  5
87
330
5
100
AcDbSymbolTableRecord
100
AcDbLinetypeTableRecord
  2
ACAD_ISO06W100
 70
     0
  3
ISO long-dash triple-dot ____ ... ____ ... ____
 72
    65
 73
     8
 40
36.0
 49
24.0
 74
     0
 49
-3.0
 74
     0
 49
0.0
 74
     0
 49
-3.0
 74
     0
 49
0.0
 74
     0
 49
-3.0
 74
     0
 49
0.0
 74
     0
 49
-3.0
 74
     0
  0
LTYPE
  5
88
330
5
100
AcDbSymbolTableRecord
100
AcDbLinetypeTableRecord
  2
ACAD_ISO13W100
 70
     0
  3
ISO double-dash double-dot __ __ . . __ __ . . _
 72
    65
 73
     8
 40
36.0
 49
12.0
 74
     0
 49
-3.0
 74
     0
 49
12.0
 74
     0
 49
-3.0
 74
     0
 49
0.0
 74
     0
 49
-3.0
 74
     0
 49
0.0
 74
     0
 49
-3.0
 74
     0
  0
LTYPE
  5
89
330
5
100
AcDbSymbolTableRecord
100
AcDbLinetypeTableRecord
  2
ACAD_ISO14W100
 70
     0
  3
ISO dash triple-dot __ . . . __ . . . __ . . . _
 72
    65
 73
     8
 40
24.0
 49
12.0
 74
     0
 49
-3.0
 74
     0
 49
0.0
 74
     0
 49
-3.0
 74
     0
 49
0.0
 74
     0
 49
-3.0
 74
     0
 49
0.0
 74
     0
 49
-3.0
 74
     0
  0
LTYPE
  5
8A
330
5
100
AcDbSymbolTableRecord
100
AcDbLinetypeTableRecord
  2
ACAD_ISO02W100
 70
     0
  3
ISO dash __ __ __ __ __ __ __ __ __ __ __ __ __
 72
    65
 73
     2
 40
15.0
 49
12.0
 74
     0
 49
-3.0
 74
     0
  0
LTYPE
  5
8B
330
5
100
AcDbSymbolTableRecord
100
AcDbLinetypeTableRecord
  2
ACAD_ISO03W100
 70
     0
  3
ISO dash space __    __    __    __    __    __
 72
    65
 73
     2
 40
30.0
 49
12.0
 74
     0
 49
-18.0
 74
     0
  0
LTYPE
  5
8C
330
5
100
AcDbSymbolTableRecord
100
AcDbLinetypeTableRecord
  2
ACAD_ISO04W100
 70
     0
  3
ISO long-dash dot ____ . ____ . ____ . ____ . _
 72
    65
 73
     4
 40
30.0
 49
24.0
 74
     0
 49
-3.0
 74
     0
 49
0.0
 74
     0
 49
-3.0
 74
     0
  0
LTYPE
  5
8D
330
5
100
AcDbSymbolTableRecord
100
AcDbLinetypeTableRecord
  2
ACAD_ISO05W100
 70
     0
  3
ISO long-dash double-dot ____ .. ____ .. ____ . 
 72
    65
 73
     6
 40
33.0
 49
24.0
 74
     0
 49
-3.0
 74
     0
 49
0.0
 74
     0
 49
-3.0
 74
     0
 49
0.0
 74
     0
 49
-3.0
 74
     0
  0
LTYPE
  5
8E
330
5
100
AcDbSymbolTableRecord
100
AcDbLinetypeTableRecord
  2
ACAD_ISO07W100
 70
     0
  3
ISO dot . . . . . . . . . . . . . . . . . . . . 
 72
    65
 73
     2
 40
3.0
 49
0.0
 74
     0
 49
-3.0
 74
     0
  0
LTYPE
  5
8F
330
5
100
AcDbSymbolTableRecord
100
AcDbLinetypeTableRecord
  2
ACAD_ISO08W100
 70
     0
  3
ISO long-dash short-dash ____ __ ____ __ ____ _
 72
    65
 73
     4
 40
36.0
 49
24.0
 74
     0
 49
-3.0
 74
     0
 49
6.0
 74
     0
 49
-3.0
 74
     0
  0
LTYPE
  5
90
330
5
100
AcDbSymbolTableRecord
100
AcDbLinetypeTableRecord
  2
ACAD_ISO09W100
 70
     0
  3
ISO long-dash double-short-dash ____ __ __ ____
 72
    65
 73
     6
 40
45.0
 49
24.0
 74
     0
 49
-3.0
 74
     0
 49
6.0
 74
     0
 49
-3.0
 74
     0
 49
6.0
 74
     0
 49
-3.0
 74
     0
  0
LTYPE
  5
91
330
5
100
AcDbSymbolTableRecord
100
AcDbLinetypeTableRecord
  2
ACAD_ISO10W100
 70
     0
  3
ISO dash dot __ . __ . __ . __ . __ . __ . __ . 
 72
    65
 73
     4
 40
18.0
 49
12.0
 74
     0
 49
-3.0
 74
     0
 49
0.0
 74
     0
 49
-3.0
 74
     0
  0
LTYPE
  5
92
330
5
100
AcDbSymbolTableRecord
100
AcDbLinetypeTableRecord
  2
ACAD_ISO11W100
 70
     0
  3
ISO double-dash dot __ __ . __ __ . __ __ . __ _
 72
    65
 73
     6
 40
33.0
 49
12.0
 74
     0
 49
-3.0
 74
     0
 49
12.0
 74
     0
 49
-3.0
 74
     0
 49
0.0
 74
     0
 49
-3.0
 74
     0
  0
LTYPE
  5
93
330
5
100
AcDbSymbolTableRecord
100
AcDbLinetypeTableRecord
  2
ACAD_ISO12W100
 70
     0
  3
ISO dash double-dot __ . . __ . . __ . . __ . . 
 72
    65
 73
     6
 40
21.0
 49
12.0
 74
     0
 49
-3.0
 74
     0
 49
0.0
 74
     0
 49
-3.0
 74
     0
 49
0.0
 74
     0
 49
-3.0
 74
     0
  0
LTYPE
  5
94
330
5
100
AcDbSymbolTableRecord
100
AcDbLinetypeTableRecord
  2
ACAD_ISO15W100
 70
     0
  3
ISO double-dash triple-dot __ __ . . . __ __ . .
 72
    65
 73
    10
 40
39.0
 49
12.0
 74
     0
 49
-3.0
 74
     0
 49
12.0
 74
     0
 49
-3.0
 74
     0
 49
0.0
 74
     0
 49
-3.0
 74
     0
 49
0.0
 74
     0
 49
-3.0
 74
     0
 49
0.0
 74
     0
 49
-3.0
 74
     0
  0
LTYPE
  5
95
330
5
100
AcDbSymbolTableRecord
100
AcDbLinetypeTableRecord
  2
JIS_02_0_7
 70
     0
  3
HIDDEN0.75 _ _ _ _ _ _ _ _ _ _ _ _ _ _ _ _ _ 
 72
    65
 73
     2
 40
1.35
 49
0.75
 74
     0
 49
-0.6
 74
     0
  0
LTYPE
  5
96
330
5
100
AcDbSymbolTableRecord
100
AcDbLinetypeTableRecord
  2
JIS_02_1_0
 70
     0
  3
HIDDEN01 _ _ _ _ _ _ _ _ _ _ _ _ _ _ _ _ _ 
 72
    65
 73
     2
 40
2.0
 49
1.0
 74
     0
 49
-1.0
 74
     0
  0
LTYPE
  5
97
330
5
100
AcDbSymbolTableRecord
100
AcDbLinetypeTableRecord
  2
JIS_02_1_2
 70
     0
  3
HIDDEN01.25  _ _ _ _ _ _ _ _ _ _ _ _ _ _ _ _ _ 
 72
    65
 73
     2
 40
2.5
 49
1.25
 74
     0
 49
-1.25
 74
     0
  0
LTYPE
  5
98
330
5
100
AcDbSymbolTableRecord
100
AcDbLinetypeTableRecord
  2
JIS_02_2_0
 70
     0
  3
HIDDEN02 __ __ __ __ __ __ __ __ __ __ __ 
 72
    65
 73
     2
 40
3.0
 49
2.0
 74
     0
 49
-1.0
 74
     0
  0
LTYPE
  5
99
330
5
100
AcDbSymbolTableRecord
100
AcDbLinetypeTableRecord
  2
JIS_02_4_0
 70
     0
  3
HIDDEN04 ____ ____ ____ ____ ____ ____ ____ 
 72
    65
 73
     2
 40
5.5
 49
4.0
 74
     0
 49
-1.5
 74
     0
  0
LTYPE
  5
9A
330
5
100
AcDbSymbolTableRecord
100
AcDbLinetypeTableRecord
  2
JIS_08_11
 70
     0
  3
1SASEN11 ___ _ ___ _ ___ _ ___ _ ___ _ ___
 72
    65
 73
     4
 40
12.8
 49
11.0
 74
     0
 49
-0.6
 74
     0
 49
0.6
 74
     0
 49
-0.6
 74
     0
  0
LTYPE
  5
9B
330
5
100
AcDbSymbolTableRecord
100
AcDbLinetypeTableRecord
  2
JIS_08_15
 70
     0
  3
1SASEN15 ____ _ ____ _ ____ _ ____ _ ____ 
 72
    65
 73
     4
 40
17.25
 49
15.0
 74
     0
 49
-0.75
 74
     0
 49
0.75
 74
     0
 49
-0.75
 74
     0
  0
LTYPE
  5
9C
330
5
100
AcDbSymbolTableRecord
100
AcDbLinetypeTableRecord
  2
JIS_08_25
 70
     0
  3
1SASEN25 ________  __  ________  __  _____
 72
    65
 73
     4
 40
28.0
 49
25.0
 74
     0
 49
-1.125
 74
     0
 49
0.75
 74
     0
 49
-1.125
 74
     0
  0
LTYPE
  5
9D
330
5
100
AcDbSymbolTableRecord
100
AcDbLinetypeTableRecord
  2
JIS_08_37
 70
     0
  3
1SASEN37 ________  __  ________  __  _____
 72
    65
 73
     4
 40
40.5
 49
37.5
 74
     0
 49
-1.125
 74
     0
 49
0.75
 74
     0
 49
-1.125
 74
     0
  0
LTYPE
  5
9E
330
5
100
AcDbSymbolTableRecord
100
AcDbLinetypeTableRecord
  2
JIS_08_50
 70
     0
  3
1SASEN50 _______________  __  ____________
 72
    65
 73
     4
 40
53.0
 49
50.0
 74
     0
 49
-1.125
 74
     0
 49
0.75
 74
     0
 49
-1.125
 74
     0
  0
LTYPE
  5
9F
330
5
100
AcDbSymbolTableRecord
100
AcDbLinetypeTableRecord
  2
JIS_09_08
 70
     0
  3
2SASEN8 __ _ _ __ _ _ __ _ _ __ _ _ __ _ _ 
 72
    65
 73
     6
 40
10.75
 49
8.0
 74
     0
 49
-0.55
 74
     0
 49
0.55
 74
     0
 49
-0.55
 74
     0
 49
0.55
 74
     0
 49
-0.55
 74
     0
  0
LTYPE
  5
A0
330
5
100
AcDbSymbolTableRecord
100
AcDbLinetypeTableRecord
  2
JIS_09_15
 70
     0
  3
2SASEN15 ___ _ _ ___ _ _ ___ _ _ ___ _ _ ___ 
 72
    65
 73
     6
 40
18.9
 49
15.0
 74
     0
 49
-0.9
 74
     0
 49
0.6
 74
     0
 49
-0.9
 74
     0
 49
0.6
 74
     0
 49
-0.9
 74
     0
  0
LTYPE
  5
A1
330
5
100
AcDbSymbolTableRecord
100
AcDbLinetypeTableRecord
  2
JIS_09_29
 70
     0
  3
2SASEN29 ______　__  __  ______　__  __  ___
 72
    65
 73
     6
 40
34.0
 49
29.0
 74
     0
 49
-1.2
 74
     0
 49
0.7
 74
     0
 49
-1.2
 74
     0
 49
0.7
 74
     0
 49
-1.2
 74
     0
  0
LTYPE
  5
A2
330
5
100
AcDbSymbolTableRecord
100
AcDbLinetypeTableRecord
  2
JIS_09_50
 70
     0
  3
2SASEN50 ____________　__  __  _____________
 72
    65
 73
     6
 40
55.0
 49
50.0
 74
     0
 49
-1.2
 74
     0
 49
0.7
 74
     0
 49
-1.2
 74
     0
 49
0.7
 74
     0
 49
-1.2
 74
     0
  0
LTYPE
  5
A3
330
5
100
AcDbSymbolTableRecord
100
AcDbLinetypeTableRecord
  2
SXF_破線
 70
     0
  3
02 dashed -- -- -- -- -- --
 72
    65
 73
     2
 40
7.5
 49
6.0
 74
     0
 49
-1.5
 74
     0
  0
LTYPE
  5
A4
330
5
100
AcDbSymbolTableRecord
100
AcDbLinetypeTableRecord
  2
SXF_跳び破線
 70
     0
  3
03 dashed_spaced --  --  --  --
 72
    65
 73
     2
 40
12.0
 49
6.0
 74
     0
 49
-6.0
 74
     0
  0
LTYPE
  5
A5
330
5
100
AcDbSymbolTableRecord
100
AcDbLinetypeTableRecord
  2
SXF_一点長鎖線
 70
     0
  3
04 long_dashed_dotted ---- . ---- . ----
 72
    65
 73
     4
 40
15.25
 49
12.0
 74
     0
 49
-1.5
 74
     0
 49
0.25
 74
     0
 49
-1.5
 74
     0
  0
LTYPE
  5
A6
330
5
100
AcDbSymbolTableRecord
100
AcDbLinetypeTableRecord
  2
SXF_二点長鎖線
 70
     0
  3
05 long_dashed_double-dotted ---- . . ---- 
 72
    65
 73
     6
 40
17.0
 49
12.0
 74
     0
 49
-1.5
 74
     0
 49
0.25
 74
     0
 49
-1.5
 74
     0
 49
0.25
 74
     0
 49
-1.5
 74
     0
  0
LTYPE
  5
A7
330
5
100
AcDbSymbolTableRecord
100
AcDbLinetypeTableRecord
  2
SXF_三点長鎖線
 70
     0
  3
06 long_dashed_triplicate-dotted ---- ... ---- 
 72
    65
 73
     8
 40
18.75
 49
12.0
 74
     0
 49
-1.5
 74
     0
 49
0.25
 74
     0
 49
-1.5
 74
     0
 49
0.25
 74
     0
 49
-1.5
 74
     0
 49
0.25
 74
     0
 49
-1.5
 74
     0
  0
LTYPE
  5
A8
330
5
100
AcDbSymbolTableRecord
100
AcDbLinetypeTableRecord
  2
SXF_点線
 70
     0
  3
07 dotted . . . . . . . . . . . . 
 72
    65
 73
     2
 40
1.75
 49
0.25
 74
     0
 49
-1.5
 74
     0
  0
LTYPE
  5
A9
330
5
100
AcDbSymbolTableRecord
100
AcDbLinetypeTableRecord
  2
SXF_一点鎖線
 70
     0
  3
08 chain ---- - --- - --- - ---
 72
    65
 73
     4
 40
18.5
 49
12.0
 74
     0
 49
-1.5
 74
     0
 49
3.5
 74
     0
 49
-1.5
 74
     0
  0
LTYPE
  5
AA
330
5
100
AcDbSymbolTableRecord
100
AcDbLinetypeTableRecord
  2
SXF_二点鎖線
 70
     0
  3
09 chain_double_dash ---- - - ---- - - ----
 72
    65
 73
     6
 40
23.5
 49
12.0
 74
     0
 49
-1.5
 74
     0
 49
3.5
 74
     0
 49
-1.5
 74
     0
 49
3.5
 74
     0
 49
-1.5
 74
     0
  0
LTYPE
  5
AB
330
5
100
AcDbSymbolTableRecord
100
AcDbLinetypeTableRecord
  2
SXF_一点短鎖線
 70
     0
  3
10 dashed_dotted -- . -- . -- . --
 72
    65
 73
     4
 40
9.25
 49
6.0
 74
     0
 49
-1.5
 74
     0
 49
0.25
 74
     0
 49
-1.5
 74
     0
  0
LTYPE
  5
AC
330
5
100
AcDbSymbolTableRecord
100
AcDbLinetypeTableRecord
  2
SXF_一点二短鎖線
 70
     0
  3
11 double-dashed_dotted -- -- . -- --
 72
    65
 73
     6
 40
16.75
 49
6.0
 74
     0
 49
-1.5
 74
     0
 49
6.0
 74
     0
 49
-1.5
 74
     0
 49
0.25
 74
     0
 49
-1.5
 74
     0
  0
LTYPE
  5
AD
330
5
100
AcDbSymbolTableRecord
100
AcDbLinetypeTableRecord
  2
SXF_二点短鎖線
 70
     0
  3
12 dashed_double_dotted -- . . -- . . --
 72
    65
 73
     6
 40
11.0
 49
6.0
 74
     0
 49
-1.5
 74
     0
 49
0.25
 74
     0
 49
-1.5
 74
     0
 49
0.25
 74
     0
 49
-1.5
 74
     0
  0
LTYPE
  5
AE
330
5
100
AcDbSymbolTableRecord
100
AcDbLinetypeTableRecord
  2
SXF_二点二短鎖線
 70
     0
  3
13 double-dashed_double-dotted -- -- . . -- --
 72
    65
 73
     8
 40
18.5
 49
6.0
 74
     0
 49
-1.5
 74
     0
 49
6.0
 74
     0
 49
-1.5
 74
     0
 49
0.25
 74
     0
 49
-1.5
 74
     0
 49
0.25
 74
     0
 49
-1.5
 74
     0
  0
LTYPE
  5
AF
330
5
100
AcDbSymbolTableRecord
100
AcDbLinetypeTableRecord
  2
SXF_三点短鎖線
 70
     0
  3
14 dashed triplicate-dotted -- . . . -- . . . --
 72
    65
 73
     8
 40
12.75
 49
6.0
 74
     0
 49
-1.5
 74
     0
 49
0.25
 74
     0
 49
-1.5
 74
     0
 49
0.25
 74
     0
 49
-1.5
 74
     0
 49
0.25
 74
     0
 49
-1.5
 74
     0
  0
LTYPE
  5
B0
330
5
100
AcDbSymbolTableRecord
100
AcDbLinetypeTableRecord
  2
SXF_三点二短鎖線
 70
     0
  3
15 double-dashed triplicate-dotted -- -- . . . -- -- 
 72
    65
 73
    10
 40
20.25
 49
6.0
 74
     0
 49
-1.5
 74
     0
 49
6.0
 74
     0
 49
-1.5
 74
     0
 49
0.25
 74
     0
 49
-1.5
 74
     0
 49
0.25
 74
     0
 49
-1.5
 74
     0
 49
0.25
 74
     0
 49
-1.5
 74
     0
  0
ENDTAB
  0
TABLE
  2
LAYER
  5
2
330
0
100
AcDbSymbolTable
 70
     5
  0
LAYER
  5
10
330
2
100
AcDbSymbolTableRecord
100
AcDbLayerTableRecord
  2
0
 70
     0
 62
     7
  6
CONTINUOUS
  0
LAYER
  5
B1
330
2
100
AcDbSymbolTableRecord
100
AcDbLayerTableRecord
  2
AM_0
 70
     0
 62
     7
  6
CONTINUOUS
  0
LAYER
  5
B2
330
2
100
AcDbSymbolTableRecord
100
AcDbLayerTableRecord
  2
AM_7
 70
     0
 62
     7
  6
CONTINUOUS
  0
LAYER
  5
B3
330
2
100
AcDbSymbolTableRecord
100
AcDbLayerTableRecord
  2
AM_4
 70
     0
 62
     7
  6
CONTINUOUS
  0
LAYER
  5
B4
330
2
100
AcDbSymbolTableRecord
100
AcDbLayerTableRecord
  2
AM_3
 70
     0
 62
     7
  6
CONTINUOUS
  0
ENDTAB
  0
TABLE
  2
STYLE
  5
3
330
0
100
AcDbSymbolTable
 70
     2
  0
STYLE
  5
11
330
3
100
AcDbSymbolTableRecord
100
AcDbTextStyleTableRecord
  2
STANDARD
 70
     0
 40
0.0
 41
1.0
 50
0.0
 71
     0
 42
0.2
  3
txt.shx
  4
bigfont.shx
  0
STYLE
  5
473
330
3
100
AcDbSymbolTableRecord
100
AcDbTextStyleTableRecord
  2
DCSTYLE0
 70
     0
 40
0.0
 41
1.2
 50
0.0
 71
     0
 42
0.2
  3
txt.shx
  4
bigfont
  0
ENDTAB
  0
TABLE
  2
VIEW
  5
6
330
0
100
AcDbSymbolTable
 70
     0
  0
ENDTAB
  0
TABLE
  2
UCS
  5
7
330
0
100
AcDbSymbolTable
 70
     0
  0
ENDTAB
  0
TABLE
  2
APPID
  5
9
330
0
100
AcDbSymbolTable
 70
     3
  0
APPID
  5
12
330
9
100
AcDbSymbolTableRecord
100
AcDbRegAppTableRecord
  2
ACAD
 70
     0
  0
APPID
  5
6E
330
9
100
AcDbSymbolTableRecord
100
AcDbRegAppTableRecord
  2
DAFUSIONOUT
 70
     0
  0
APPID
  5
4A7
330
9
100
AcDbSymbolTableRecord
100
AcDbRegAppTableRecord
  2
ACAD_MLEADERVER
 70
     0
  0
ENDTAB
  0
TABLE
  2
DIMSTYLE
  5
A
330
0
100
AcDbSymbolTable
 70
     1
  0
DIMSTYLE
105
27
330
A
100
AcDbSymbolTableRecord
100
AcDbDimStyleTableRecord
  2
STANDARD
 70
     0
  3

  4

  5

  6

  7

 40
1.0
 41
0.18
 42
0.0625
 43
0.38
 44
0.18
 45
0.0
 46
0.0
 47
0.0
 48
0.0
140
0.18
141
0.09
142
0.0
143
25.4
144
1.0
145
0.0
146
1.0
147
0.09
 71
     0
 72
     0
 73
     1
 74
     1
 75
     0
 76
     0
 77
     0
 78
     0
170
     0
171
     2
172
     0
173
     0
174
     0
175
     0
176
     0
177
     0
178
     0
270
     2
271
     4
272
     4
273
     2
274
     2
340
11
275
     0
280
     0
281
     0
282
     0
283
     1
284
     0
285
     0
286
     0
287
     3
288
     0
  0
ENDTAB
  0
TABLE
  2
BLOCK_RECORD
  5
1
330
0
100
AcDbSymbolTable
 70
     3
  0
BLOCK_RECORD
  5
1F
330
1
100
AcDbSymbolTableRecord
100
AcDbBlockTableRecord
  2
*MODEL_SPACE
  0
BLOCK_RECORD
  5
1B
330
1
100
AcDbSymbolTableRecord
100
AcDbBlockTableRecord
  2
*PAPER_SPACE
  0
BLOCK_RECORD
  5
B6
330
1
100
AcDbSymbolTableRecord
100
AcDbBlockTableRecord
  2
DC_GROUP_1
  0
BLOCK_RECORD
  5
B9
330
1
100
AcDbSymbolTableRecord
100
AcDbBlockTableRecord
  2
DC_GROUP_2
  0
BLOCK_RECORD
  5
BC
330
1
100
AcDbSymbolTableRecord
100
AcDbBlockTableRecord
  2
DC_GROUP_3
  0
ENDTAB
  0
ENDSEC
  0
SECTION
  2
BLOCKS
  0
BLOCK
  5
20
330
1F
100
AcDbEntity
  8
0
100
AcDbBlockBegin
  2
*MODEL_SPACE
 70
     0
 10
0.0
 20
0.0
 30
0.0
  3
*MODEL_SPACE
  1

  0
ENDBLK
  5
21
330
1F
100
AcDbEntity
  8
0
100
AcDbBlockEnd
  0
BLOCK
  5
1C
330
1B
100
AcDbEntity
 67
     1
  8
0
100
AcDbBlockBegin
  2
*PAPER_SPACE
 70
     0
 10
0.0
 20
0.0
 30
0.0
  3
*PAPER_SPACE
  1

  0
ENDBLK
  5
1D
330
1B
100
AcDbEntity
 67
     1
  8
0
100
AcDbBlockEnd
  0
BLOCK
  5
B7
330
B6
100
AcDbEntity
  8
0
100
AcDbBlockBegin
  2
DC_GROUP_1
 70
     0
 10
0.0
 20
0.0
 30
0.0
  3
DC_GROUP_1
  1

  0
LINE
  5
BF
330
B6
100
AcDbEntity
  8
AM_0
  6
CONTINUOUS
 62
     7
100
AcDbLine
 10
9.200544159379206
 20
-180.528878046605
 30
0.0
 11
22.70054415937921
 21
-188.323106680665
 31
0.0
  0
LINE
  5
C0
330
B6
100
AcDbEntity
  8
AM_0
  6
CONTINUOUS
 62
     7
100
AcDbLine
 10
22.70054415937921
 20
-188.323106680665
 30
0.0
 11
36.20054415937921
 21
-180.5288780466051
 31
0.0
  0
LINE
  5
C1
330
B6
100
AcDbEntity
  8
AM_0
  6
CONTINUOUS
 62
     7
100
AcDbLine
 10
36.20054415937921
 20
-180.5288780466051
 30
0.0
 11
36.20054415937921
 21
-164.9404207784852
 31
0.0
  0
LINE
  5
C2
330
B6
100
AcDbEntity
  8
AM_0
  6
CONTINUOUS
 62
     7
100
AcDbLine
 10
36.20054415937921
 20
-164.9404207784852
 30
0.0
 11
22.70054415937921
 21
-157.1461921444252
 31
0.0
  0
LINE
  5
C3
330
B6
100
AcDbEntity
  8
AM_0
  6
CONTINUOUS
 62
     7
100
AcDbLine
 10
22.70054415937921
 20
-157.1461921444252
 30
0.0
 11
9.200544159379206
 21
-164.9404207784851
 31
0.0
  0
LINE
  5
C4
330
B6
100
AcDbEntity
  8
AM_0
  6
CONTINUOUS
 62
     7
100
AcDbLine
 10
9.200544159379206
 20
-164.9404207784851
 30
0.0
 11
9.200544159379206
 21
-180.528878046605
 31
0.0
  0
ENDBLK
  5
B8
330
B6
100
AcDbEntity
  8
0
100
AcDbBlockEnd
  0
BLOCK
  5
BA
330
B9
100
AcDbEntity
  8
0
100
AcDbBlockBegin
  2
DC_GROUP_2
 70
     0
 10
0.0
 20
0.0
 30
0.0
  3
DC_GROUP_2
  1

  0
LINE
  5
C5
330
B9
100
AcDbEntity
  8
AM_0
  6
CONTINUOUS
 62
     7
100
AcDbLine
 10
228.6585056752969
 20
33.78455117373545
 30
0.0
 11
233.2377933361036
 21
33.18167651601908
 31
0.0
  0
LINE
  5
C6
330
B9
100
AcDbEntity
  8
AM_0
  6
CONTINUOUS
 62
     7
100
AcDbLine
 10
233.2377933361036
 20
33.18167651601908
 30
0.0
 11
236.0495419353871
 21
36.84601863265607
 31
0.0
  0
LINE
  5
C7
330
B9
100
AcDbEntity
  8
AM_0
  6
CONTINUOUS
 62
     7
100
AcDbLine
 10
236.0495419353871
 20
36.84601863265607
 30
0.0
 11
234.2820028738639
 21
41.11323540700965
 31
0.0
  0
LINE
  5
C8
330
B9
100
AcDbEntity
  8
AM_0
  6
CONTINUOUS
 62
     7
100
AcDbLine
 10
234.2820028738639
 20
41.11323540700965
 30
0.0
 11
229.7027152130572
 21
41.7161100647258
 31
0.0
  0
LINE
  5
C9
330
B9
100
AcDbEntity
  8
AM_0
  6
CONTINUOUS
 62
     7
100
AcDbLine
 10
229.7027152130572
 20
41.7161100647258
 30
0.0
 11
226.8909666137736
 21
38.05176794808858
 31
0.0
  0
LINE
  5
CA
330
B9
100
AcDbEntity
  8
AM_0
  6
CONTINUOUS
 62
     7
100
AcDbLine
 10
226.8909666137736
 20
38.05176794808858
 30
0.0
 11
228.6585056752969
 21
33.78455117373545
 31
0.0
  0
ENDBLK
  5
BB
330
B9
100
AcDbEntity
  8
0
100
AcDbBlockEnd
  0
BLOCK
  5
BD
330
BC
100
AcDbEntity
  8
0
100
AcDbBlockBegin
  2
DC_GROUP_3
 70
     0
 10
0.0
 20
0.0
 30
0.0
  3
DC_GROUP_3
  1

  0
LINE
  5
CB
330
BC
100
AcDbEntity
  8
AM_0
  6
CONTINUOUS
 62
     7
100
AcDbLine
 10
-223.0223123564261
 20
0.9559495106962572
 30
0.0
 11
-227.022312356426
 21
-1.353451566062233
 31
0.0
  0
LINE
  5
CC
330
BC
100
AcDbEntity
  8
AM_0
  6
CONTINUOUS
 62
     7
100
AcDbLine
 10
-227.022312356426
 20
-1.353451566062233
 30
0.0
 11
-231.022312356426
 21
0.9559495106962572
 31
0.0
  0
LINE
  5
CD
330
BC
100
AcDbEntity
  8
AM_0
  6
CONTINUOUS
 62
     7
100
AcDbLine
 10
-231.022312356426
 20
0.9559495106962572
 30
0.0
 11
-231.022312356426
 21
5.574751664213295
 31
0.0
  0
LINE
  5
CE
330
BC
100
AcDbEntity
  8
AM_0
  6
CONTINUOUS
 62
     7
100
AcDbLine
 10
-231.022312356426
 20
5.574751664213295
 30
0.0
 11
-227.022312356426
 21
7.884152740971786
 31
0.0
  0
LINE
  5
CF
330
BC
100
AcDbEntity
  8
AM_0
  6
CONTINUOUS
 62
     7
100
AcDbLine
 10
-227.022312356426
 20
7.884152740971786
 30
0.0
 11
-223.0223123564261
 21
5.574751664213295
 31
0.0
  0
LINE
  5
D0
330
BC
100
AcDbEntity
  8
AM_0
  6
CONTINUOUS
 62
     7
100
AcDbLine
 10
-223.0223123564261
 20
5.574751664213295
 30
0.0
 11
-223.0223123564261
 21
0.9559495106962572
 31
0.0
  0
ENDBLK
  5
BE
330
BC
100
AcDbEntity
  8
0
100
AcDbBlockEnd
  0
ENDSEC
  0
SECTION
  2
ENTITIES
  0
LINE
  5
D1
330
1F
100
AcDbEntity
  8
AM_0
  6
CONTINUOUS
 62
     7
100
AcDbLine
 10
-179.5223123564261
 20
-200.7346494125451
 30
0.0
 11
-179.5223123564261
 21
-54.73464941254514
 31
0.0
  0
LINE
  5
D2
330
1F
100
AcDbEntity
  8
AM_0
  6
CONTINUOUS
 62
     7
100
AcDbLine
 10
-267.5223123564261
 20
-207.7346494125451
 30
0.0
 11
-186.5223123564262
 21
-207.7346494125451
 31
0.0
  0
LINE
  5
D3
330
1F
100
AcDbEntity
  8
AM_0
  6
CONTINUOUS
 62
     7
100
AcDbLine
 10
-267.5223123564261
 20
-47.73464941254514
 30
0.0
 11
-186.5223123564262
 21
-47.73464941254514
 31
0.0
  0
LINE
  5
D4
330
1F
100
AcDbEntity
  8
AM_0
  6
CONTINUOUS
 62
     7
100
AcDbLine
 10
-262.0223123564262
 20
-45.73464941254514
 30
0.0
 11
-192.0223123564261
 21
-45.73464941254514
 31
0.0
  0
LINE
  5
D5
330
1F
100
AcDbEntity
  8
AM_0
  6
CONTINUOUS
 62
     7
100
AcDbLine
 10
-251.1334059862612
 20
18.26535058745475
 30
0.0
 11
-230.5506387234613
 21
18.26535058745475
 31
0.0
  0
LINE
  5
D6
330
1F
100
AcDbEntity
  8
AM_0
  6
CONTINUOUS
 62
     7
100
AcDbLine
 10
-192.0223123564261
 20
-45.73464941254514
 30
0.0
 11
-192.0223123564261
 21
-25.73464941254514
 31
0.0
  0
LINE
  5
D7
330
1F
100
AcDbEntity
  8
AM_0
  6
CONTINUOUS
 62
     7
100
AcDbLine
 10
-262.0223123564262
 20
-45.73464941254514
 30
0.0
 11
-262.0223123564262
 21
-47.73464941254514
 31
0.0
  0
LINE
  5
D8
330
1F
100
AcDbEntity
  8
AM_0
  6
CONTINUOUS
 62
     7
100
AcDbLine
 10
-192.0223123564261
 20
-45.73464941254514
 30
0.0
 11
-192.0223123564261
 21
-47.73464941254514
 31
0.0
  0
LINE
  5
D9
330
1F
100
AcDbEntity
  8
AM_0
  6
CONTINUOUS
 62
     7
100
AcDbLine
 10
-204.5223123564261
 20
-25.73464941254514
 30
0.0
 11
-192.0223123564261
 21
-25.73464941254514
 31
0.0
  0
LINE
  5
DA
330
1F
100
AcDbEntity
  8
AM_0
  6
CONTINUOUS
 62
     7
100
AcDbLine
 10
-194.9364091628085
 20
10.89971043911925
 30
0.0
 11
-192.0223123564261
 21
-25.73464941254514
 31
0.0
  0
LINE
  5
DB
330
1F
100
AcDbEntity
  8
AM_0
  6
CONTINUOUS
 62
     7
100
AcDbLine
 10
-207.4364091628085
 20
10.89971043911925
 30
0.0
 11
-204.5223123564261
 21
-25.73464941254514
 31
0.0
  0
ARC
  5
DC
330
1F
100
AcDbEntity
  8
AM_0
  6
CONTINUOUS
 62
     7
100
AcDbCircle
 10
-202.911218726591
 20
10.26535058745486
 30
0.0
 40
8.0
100
AcDbArc
 50
4.548042409125308
 51
90.0
  0
ARC
  5
DD
330
1F
100
AcDbEntity
  8
AM_0
  6
CONTINUOUS
 62
     7
100
AcDbCircle
 10
-215.411218726591
 20
10.26535058745486
 30
0.0
 40
8.0
100
AcDbArc
 50
4.548042409125308
 51
60.66898055365263
  0
LINE
  5
DE
330
1F
100
AcDbEntity
  8
AM_0
  6
CONTINUOUS
 62
     7
100
AcDbLine
 10
-249.5223123564262
 20
-25.73464941254514
 30
0.0
 11
-262.0223123564262
 21
-25.73464941254514
 31
0.0
  0
LINE
  5
DF
330
1F
100
AcDbEntity
  8
AM_0
  6
CONTINUOUS
 62
     7
100
AcDbLine
 10
-259.1082155500437
 20
10.89971043911925
 30
0.0
 11
-262.0223123564262
 21
-25.73464941254514
 31
0.0
  0
ARC
  5
E0
330
1F
100
AcDbEntity
  8
AM_0
  6
CONTINUOUS
 62
     7
100
AcDbCircle
 10
-251.1334059862612
 20
10.26535058745486
 30
0.0
 40
8.0
100
AcDbArc
 50
90.0
 51
175.4519575908747
  0
LINE
  5
E1
330
1F
100
AcDbEntity
  8
AM_0
  6
CONTINUOUS
 62
     7
100
AcDbLine
 10
-246.6082155500437
 20
10.89971043911925
 30
0.0
 11
-249.5223123564262
 21
-25.73464941254514
 31
0.0
  0
ARC
  5
E2
330
1F
100
AcDbEntity
  8
AM_0
  6
CONTINUOUS
 62
     7
100
AcDbCircle
 10
-238.6334059862611
 20
10.26535058745486
 30
0.0
 40
8.0
100
AcDbArc
 50
90.0
 51
175.4519575908747
  0
LINE
  5
E3
330
1F
100
AcDbEntity
  8
AM_0
  6
CONTINUOUS
 62
     7
100
AcDbLine
 10
-262.0223123564262
 20
-45.73464941254514
 30
0.0
 11
-262.0223123564262
 21
-25.73464941254514
 31
0.0
  0
LINE
  5
E4
330
1F
100
AcDbEntity
  8
AM_0
  6
CONTINUOUS
 62
     7
100
AcDbLine
 10
-257.0223123564261
 20
-59.73464941254514
 30
0.0
 11
-197.0223123564261
 21
-59.73464941254514
 31
0.0
  0
LINE
  5
E5
330
1F
100
AcDbEntity
  8
AM_0
  6
CONTINUOUS
 62
     7
100
AcDbLine
 10
-257.0223123564261
 20
-127.7346494125451
 30
0.0
 11
-197.0223123564261
 21
-127.7346494125451
 31
0.0
  0
LINE
  5
E6
330
1F
100
AcDbEntity
  8
AM_0
  6
CONTINUOUS
 62
     7
100
AcDbLine
 10
-197.0223123564261
 20
-59.73464941254514
 30
0.0
 11
-197.0223123564261
 21
-127.7346494125451
 31
0.0
  0
LINE
  5
E7
330
1F
100
AcDbEntity
  8
AM_0
  6
CONTINUOUS
 62
     7
100
AcDbLine
 10
-257.0223123564261
 20
-59.73464941254514
 30
0.0
 11
-257.0223123564261
 21
-127.7346494125451
 31
0.0
  0
LINE
  5
E8
330
1F
100
AcDbEntity
  8
AM_0
  6
CONTINUOUS
 62
     7
100
AcDbLine
 10
-243.0223123564261
 20
-77.73464941254514
 30
0.0
 11
-211.0223123564261
 21
-77.73464941254514
 31
0.0
  0
LINE
  5
E9
330
1F
100
AcDbEntity
  8
AM_0
  6
CONTINUOUS
 62
     7
100
AcDbLine
 10
-243.0223123564261
 20
-97.73464941254514
 30
0.0
 11
-211.0223123564261
 21
-97.73464941254514
 31
0.0
  0
LINE
  5
EA
330
1F
100
AcDbEntity
  8
AM_0
  6
CONTINUOUS
 62
     7
100
AcDbLine
 10
-211.0223123564261
 20
-77.73464941254514
 30
0.0
 11
-211.0223123564261
 21
-97.73464941254514
 31
0.0
  0
LINE
  5
EB
330
1F
100
AcDbEntity
  8
AM_0
  6
CONTINUOUS
 62
     7
100
AcDbLine
 10
-243.0223123564261
 20
-77.73464941254514
 30
0.0
 11
-243.0223123564261
 21
-97.73464941254514
 31
0.0
  0
CIRCLE
  5
EC
330
1F
100
AcDbEntity
  8
AM_0
  6
CONTINUOUS
 62
     7
100
AcDbCircle
 10
-219.0223123564261
 20
-89.73464941254514
 30
0.0
 40
3.0
  0
LINE
  5
ED
330
1F
100
AcDbEntity
  8
AM_0
  6
CONTINUOUS
 62
     7
100
AcDbLine
 10
-238.0223123564261
 20
-135.7346494125451
 30
0.0
 11
-216.0223123564261
 21
-135.7346494125451
 31
0.0
  0
LINE
  5
EE
330
1F
100
AcDbEntity
  8
AM_0
  6
CONTINUOUS
 62
     7
100
AcDbLine
 10
-259.0223123564261
 20
-155.7346494125451
 30
0.0
 11
-195.0223123564261
 21
-155.7346494125451
 31
0.0
  0
LINE
  5
EF
330
1F
100
AcDbEntity
  8
AM_0
  6
CONTINUOUS
 62
     7
100
AcDbLine
 10
-259.0223123564261
 20
-196.7346494125451
 30
0.0
 11
-195.0223123564261
 21
-196.7346494125451
 31
0.0
  0
LINE
  5
F0
330
1F
100
AcDbEntity
  8
AM_0
  6
CONTINUOUS
 62
     7
100
AcDbLine
 10
-216.0223123564261
 20
-135.7346494125451
 30
0.0
 11
-216.0223123564261
 21
-155.7346494125451
 31
0.0
  0
LINE
  5
F1
330
1F
100
AcDbEntity
  8
AM_0
  6
CONTINUOUS
 62
     7
100
AcDbLine
 10
-195.0223123564261
 20
-155.7346494125451
 30
0.0
 11
-195.0223123564261
 21
-196.7346494125451
 31
0.0
  0
LINE
  5
F2
330
1F
100
AcDbEntity
  8
AM_0
  6
CONTINUOUS
 62
     7
100
AcDbLine
 10
-259.0223123564261
 20
-155.7346494125451
 30
0.0
 11
-259.0223123564261
 21
-196.7346494125451
 31
0.0
  0
LINE
  5
F3
330
1F
100
AcDbEntity
  8
AM_0
  6
CONTINUOUS
 62
     7
100
AcDbLine
 10
-238.0223123564261
 20
-135.7346494125451
 30
0.0
 11
-238.0223123564261
 21
-155.7346494125451
 31
0.0
  0
ARC
  5
F4
330
1F
100
AcDbEntity
  8
AM_0
  6
CONTINUOUS
 62
     7
100
AcDbCircle
 10
-227.0223123564261
 20
3.265350587454861
 30
0.0
 40
31.0
100
AcDbArc
 50
224.95995883612
 51
315.0400411638798
  0
LINE
  5
F5
330
1F
100
AcDbEntity
  8
AM_0
  6
CONTINUOUS
 62
     7
100
AcDbLine
 10
-221.9803522479759
 20
-89.23464941254514
 30
0.0
 11
-216.0642724648764
 21
-89.23464941254514
 31
0.0
  0
LINE
  5
F6
330
1F
100
AcDbEntity
  8
AM_0
  6
CONTINUOUS
 62
     7
100
AcDbLine
 10
-221.9803522479759
 20
-90.23464941254514
 30
0.0
 11
-216.0642724648764
 21
-90.23464941254514
 31
0.0
  0
CIRCLE
  5
F7
330
1F
100
AcDbEntity
  8
AM_0
  6
CONTINUOUS
 62
     7
100
AcDbCircle
 10
-235.0223123564261
 20
-89.73464941254514
 30
0.0
 40
3.0
  0
LINE
  5
F8
330
1F
100
AcDbEntity
  8
AM_0
  6
CONTINUOUS
 62
     7
100
AcDbLine
 10
-232.0642724648763
 20
-90.23464941254514
 30
0.0
 11
-237.9803522479759
 21
-90.23464941254514
 31
0.0
  0
LINE
  5
F9
330
1F
100
AcDbEntity
  8
AM_0
  6
CONTINUOUS
 62
     7
100
AcDbLine
 10
-232.0642724648763
 20
-89.23464941254514
 30
0.0
 11
-237.9803522479759
 21
-89.23464941254514
 31
0.0
  0
ARC
  5
FA
330
1F
100
AcDbEntity
  8
AM_0
  6
CONTINUOUS
 62
     7
100
AcDbCircle
 10
-186.5223123564262
 20
-54.73464941254514
 30
0.0
 40
7.0
100
AcDbArc
 50
0.0
 51
90.0
  0
ARC
  5
FB
330
1F
100
AcDbEntity
  8
AM_0
  6
CONTINUOUS
 62
     7
100
AcDbCircle
 10
-186.5223123564262
 20
-200.7346494125451
 30
0.0
 40
7.0
100
AcDbArc
 50
270.0
 51
0.0
  0
CIRCLE
  5
FC
330
1F
100
AcDbEntity
  8
AM_0
  6
CONTINUOUS
 62
     7
100
AcDbCircle
 10
-186.5223123564262
 20
-54.73464941254514
 30
0.0
 40
5.5
  0
CIRCLE
  5
FD
330
1F
100
AcDbEntity
  8
AM_0
  6
CONTINUOUS
 62
     7
100
AcDbCircle
 10
-186.5223123564262
 20
-54.73464941254514
 30
0.0
 40
4.25
  0
LINE
  5
FE
330
1F
100
AcDbEntity
  8
AM_0
  6
CONTINUOUS
 62
     7
100
AcDbLine
 10
-184.2129112796676
 20
-54.73464941254514
 30
0.0
 11
-185.3676118180469
 21
-52.73464941254514
 31
0.0
  0
LINE
  5
FF
330
1F
100
AcDbEntity
  8
AM_0
  6
CONTINUOUS
 62
     7
100
AcDbLine
 10
-187.6770128948054
 20
-52.73464941254514
 30
0.0
 11
-188.8317134331846
 21
-54.73464941254514
 31
0.0
  0
LINE
  5
100
330
1F
100
AcDbEntity
  8
AM_0
  6
CONTINUOUS
 62
     7
100
AcDbLine
 10
-187.6770128948054
 20
-56.73464941254514
 30
0.0
 11
-185.3676118180469
 21
-56.73464941254514
 31
0.0
  0
LINE
  5
101
330
1F
100
AcDbEntity
  8
AM_0
  6
CONTINUOUS
 62
     7
100
AcDbLine
 10
-188.8317134331846
 20
-54.73464941254514
 30
0.0
 11
-187.6770128948054
 21
-56.73464941254514
 31
0.0
  0
LINE
  5
102
330
1F
100
AcDbEntity
  8
AM_0
  6
CONTINUOUS
 62
     7
100
AcDbLine
 10
-185.3676118180469
 20
-56.73464941254514
 30
0.0
 11
-184.2129112796676
 21
-54.73464941254514
 31
0.0
  0
LINE
  5
103
330
1F
100
AcDbEntity
  8
AM_0
  6
CONTINUOUS
 62
     7
100
AcDbLine
 10
-185.3676118180469
 20
-52.73464941254514
 30
0.0
 11
-187.6770128948054
 21
-52.73464941254514
 31
0.0
  0
CIRCLE
  5
104
330
1F
100
AcDbEntity
  8
AM_0
  6
CONTINUOUS
 62
     7
100
AcDbCircle
 10
-186.5223123564262
 20
-200.7346494125451
 30
0.0
 40
5.5
  0
CIRCLE
  5
105
330
1F
100
AcDbEntity
  8
AM_0
  6
CONTINUOUS
 62
     7
100
AcDbCircle
 10
-186.5223123564262
 20
-200.7346494125451
 30
0.0
 40
4.25
  0
LINE
  5
106
330
1F
100
AcDbEntity
  8
AM_0
  6
CONTINUOUS
 62
     7
100
AcDbLine
 10
-184.2129112796676
 20
-200.7346494125451
 30
0.0
 11
-185.3676118180469
 21
-202.7346494125451
 31
0.0
  0
LINE
  5
107
330
1F
100
AcDbEntity
  8
AM_0
  6
CONTINUOUS
 62
     7
100
AcDbLine
 10
-187.6770128948054
 20
-202.7346494125451
 30
0.0
 11
-188.8317134331846
 21
-200.7346494125451
 31
0.0
  0
LINE
  5
108
330
1F
100
AcDbEntity
  8
AM_0
  6
CONTINUOUS
 62
     7
100
AcDbLine
 10
-187.6770128948054
 20
-198.7346494125451
 30
0.0
 11
-185.3676118180469
 21
-198.7346494125451
 31
0.0
  0
LINE
  5
109
330
1F
100
AcDbEntity
  8
AM_0
  6
CONTINUOUS
 62
     7
100
AcDbLine
 10
-188.8317134331846
 20
-200.7346494125451
 30
0.0
 11
-187.6770128948054
 21
-198.7346494125451
 31
0.0
  0
LINE
  5
10A
330
1F
100
AcDbEntity
  8
AM_0
  6
CONTINUOUS
 62
     7
100
AcDbLine
 10
-185.3676118180469
 20
-198.7346494125451
 30
0.0
 11
-184.2129112796676
 21
-200.7346494125451
 31
0.0
  0
LINE
  5
10B
330
1F
100
AcDbEntity
  8
AM_0
  6
CONTINUOUS
 62
     7
100
AcDbLine
 10
-185.3676118180469
 20
-202.7346494125451
 30
0.0
 11
-187.6770128948054
 21
-202.7346494125451
 31
0.0
  0
CIRCLE
  5
10C
330
1F
100
AcDbEntity
  8
AM_0
  6
CONTINUOUS
 62
     7
100
AcDbCircle
 10
-186.5223123564262
 20
-127.7346494125451
 30
0.0
 40
5.5
  0
CIRCLE
  5
10D
330
1F
100
AcDbEntity
  8
AM_0
  6
CONTINUOUS
 62
     7
100
AcDbCircle
 10
-186.5223123564262
 20
-127.7346494125451
 30
0.0
 40
4.25
  0
LINE
  5
10E
330
1F
100
AcDbEntity
  8
AM_0
  6
CONTINUOUS
 62
     7
100
AcDbLine
 10
-184.2129112796676
 20
-127.7346494125451
 30
0.0
 11
-185.3676118180469
 21
-129.7346494125451
 31
0.0
  0
LINE
  5
10F
330
1F
100
AcDbEntity
  8
AM_0
  6
CONTINUOUS
 62
     7
100
AcDbLine
 10
-187.6770128948054
 20
-129.7346494125451
 30
0.0
 11
-188.8317134331846
 21
-127.7346494125451
 31
0.0
  0
LINE
  5
110
330
1F
100
AcDbEntity
  8
AM_0
  6
CONTINUOUS
 62
     7
100
AcDbLine
 10
-187.6770128948054
 20
-125.7346494125451
 30
0.0
 11
-185.3676118180469
 21
-125.7346494125451
 31
0.0
  0
LINE
  5
111
330
1F
100
AcDbEntity
  8
AM_0
  6
CONTINUOUS
 62
     7
100
AcDbLine
 10
-188.8317134331846
 20
-127.7346494125451
 30
0.0
 11
-187.6770128948054
 21
-125.7346494125451
 31
0.0
  0
LINE
  5
112
330
1F
100
AcDbEntity
  8
AM_0
  6
CONTINUOUS
 62
     7
100
AcDbLine
 10
-185.3676118180469
 20
-125.7346494125451
 30
0.0
 11
-184.2129112796676
 21
-127.7346494125451
 31
0.0
  0
LINE
  5
113
330
1F
100
AcDbEntity
  8
AM_0
  6
CONTINUOUS
 62
     7
100
AcDbLine
 10
-185.3676118180469
 20
-129.7346494125451
 30
0.0
 11
-187.6770128948054
 21
-129.7346494125451
 31
0.0
  0
LINE
  5
114
330
1F
100
AcDbEntity
  8
AM_0
  6
CONTINUOUS
 62
     7
100
AcDbLine
 10
-274.5223123564262
 20
-200.7346494125451
 30
0.0
 11
-274.5223123564262
 21
-54.73464941254514
 31
0.0
  0
ARC
  5
115
330
1F
100
AcDbEntity
  8
AM_0
  6
CONTINUOUS
 62
     7
100
AcDbCircle
 10
-267.5223123564261
 20
-54.73464941254514
 30
0.0
 40
7.0
100
AcDbArc
 50
90.0
 51
180.0
  0
ARC
  5
116
330
1F
100
AcDbEntity
  8
AM_0
  6
CONTINUOUS
 62
     7
100
AcDbCircle
 10
-267.5223123564261
 20
-200.7346494125451
 30
0.0
 40
7.0
100
AcDbArc
 50
180.0
 51
270.0
  0
LINE
  5
117
330
1F
100
AcDbEntity
  8
AM_0
  6
CONTINUOUS
 62
     7
100
AcDbLine
 10
-259.0223123564261
 20
-155.7346494125451
 30
0.0
 11
-259.0223123564261
 21
-196.7346494125451
 31
0.0
  0
LINE
  5
118
330
1F
100
AcDbEntity
  8
AM_0
  6
CONTINUOUS
 62
     7
100
AcDbLine
 10
-257.0223123564261
 20
-59.73464941254514
 30
0.0
 11
-257.0223123564261
 21
-127.7346494125451
 31
0.0
  0
LINE
  5
119
330
1F
100
AcDbEntity
  8
AM_0
  6
CONTINUOUS
 62
     7
100
AcDbLine
 10
-262.0223123564262
 20
-45.73464941254514
 30
0.0
 11
-262.0223123564262
 21
-47.73464941254514
 31
0.0
  0
CIRCLE
  5
11A
330
1F
100
AcDbEntity
  8
AM_0
  6
CONTINUOUS
 62
     7
100
AcDbCircle
 10
-267.5223123564261
 20
-54.73464941254514
 30
0.0
 40
5.5
  0
CIRCLE
  5
11B
330
1F
100
AcDbEntity
  8
AM_0
  6
CONTINUOUS
 62
     7
100
AcDbCircle
 10
-267.5223123564261
 20
-54.73464941254514
 30
0.0
 40
4.25
  0
LINE
  5
11C
330
1F
100
AcDbEntity
  8
AM_0
  6
CONTINUOUS
 62
     7
100
AcDbLine
 10
-269.8317134331846
 20
-54.73464941254514
 30
0.0
 11
-268.6770128948054
 21
-52.73464941254514
 31
0.0
  0
LINE
  5
11D
330
1F
100
AcDbEntity
  8
AM_0
  6
CONTINUOUS
 62
     7
100
AcDbLine
 10
-266.3676118180469
 20
-52.73464941254514
 30
0.0
 11
-265.2129112796677
 21
-54.73464941254514
 31
0.0
  0
LINE
  5
11E
330
1F
100
AcDbEntity
  8
AM_0
  6
CONTINUOUS
 62
     7
100
AcDbLine
 10
-266.3676118180469
 20
-56.73464941254514
 30
0.0
 11
-268.6770128948054
 21
-56.73464941254514
 31
0.0
  0
LINE
  5
11F
330
1F
100
AcDbEntity
  8
AM_0
  6
CONTINUOUS
 62
     7
100
AcDbLine
 10
-265.2129112796677
 20
-54.73464941254514
 30
0.0
 11
-266.3676118180469
 21
-56.73464941254514
 31
0.0
  0
LINE
  5
120
330
1F
100
AcDbEntity
  8
AM_0
  6
CONTINUOUS
 62
     7
100
AcDbLine
 10
-268.6770128948054
 20
-56.73464941254514
 30
0.0
 11
-269.8317134331846
 21
-54.73464941254514
 31
0.0
  0
LINE
  5
121
330
1F
100
AcDbEntity
  8
AM_0
  6
CONTINUOUS
 62
     7
100
AcDbLine
 10
-268.6770128948054
 20
-52.73464941254514
 30
0.0
 11
-266.3676118180469
 21
-52.73464941254514
 31
0.0
  0
CIRCLE
  5
122
330
1F
100
AcDbEntity
  8
AM_0
  6
CONTINUOUS
 62
     7
100
AcDbCircle
 10
-267.5223123564261
 20
-200.7346494125451
 30
0.0
 40
5.5
  0
CIRCLE
  5
123
330
1F
100
AcDbEntity
  8
AM_0
  6
CONTINUOUS
 62
     7
100
AcDbCircle
 10
-267.5223123564261
 20
-200.7346494125451
 30
0.0
 40
4.25
  0
LINE
  5
124
330
1F
100
AcDbEntity
  8
AM_0
  6
CONTINUOUS
 62
     7
100
AcDbLine
 10
-269.8317134331846
 20
-200.7346494125451
 30
0.0
 11
-268.6770128948054
 21
-202.7346494125451
 31
0.0
  0
LINE
  5
125
330
1F
100
AcDbEntity
  8
AM_0
  6
CONTINUOUS
 62
     7
100
AcDbLine
 10
-266.3676118180469
 20
-202.7346494125451
 30
0.0
 11
-265.2129112796677
 21
-200.7346494125451
 31
0.0
  0
LINE
  5
126
330
1F
100
AcDbEntity
  8
AM_0
  6
CONTINUOUS
 62
     7
100
AcDbLine
 10
-266.3676118180469
 20
-198.7346494125451
 30
0.0
 11
-268.6770128948054
 21
-198.7346494125451
 31
0.0
  0
LINE
  5
127
330
1F
100
AcDbEntity
  8
AM_0
  6
CONTINUOUS
 62
     7
100
AcDbLine
 10
-265.2129112796677
 20
-200.7346494125451
 30
0.0
 11
-266.3676118180469
 21
-198.7346494125451
 31
0.0
  0
LINE
  5
128
330
1F
100
AcDbEntity
  8
AM_0
  6
CONTINUOUS
 62
     7
100
AcDbLine
 10
-268.6770128948054
 20
-198.7346494125451
 30
0.0
 11
-269.8317134331846
 21
-200.7346494125451
 31
0.0
  0
LINE
  5
129
330
1F
100
AcDbEntity
  8
AM_0
  6
CONTINUOUS
 62
     7
100
AcDbLine
 10
-268.6770128948054
 20
-202.7346494125451
 30
0.0
 11
-266.3676118180469
 21
-202.7346494125451
 31
0.0
  0
CIRCLE
  5
12A
330
1F
100
AcDbEntity
  8
AM_0
  6
CONTINUOUS
 62
     7
100
AcDbCircle
 10
-267.5223123564261
 20
-127.7346494125451
 30
0.0
 40
5.5
  0
CIRCLE
  5
12B
330
1F
100
AcDbEntity
  8
AM_0
  6
CONTINUOUS
 62
     7
100
AcDbCircle
 10
-267.5223123564261
 20
-127.7346494125451
 30
0.0
 40
4.25
  0
LINE
  5
12C
330
1F
100
AcDbEntity
  8
AM_0
  6
CONTINUOUS
 62
     7
100
AcDbLine
 10
-269.8317134331846
 20
-127.7346494125451
 30
0.0
 11
-268.6770128948054
 21
-129.7346494125451
 31
0.0
  0
LINE
  5
12D
330
1F
100
AcDbEntity
  8
AM_0
  6
CONTINUOUS
 62
     7
100
AcDbLine
 10
-266.3676118180469
 20
-129.7346494125451
 30
0.0
 11
-265.2129112796677
 21
-127.7346494125451
 31
0.0
  0
LINE
  5
12E
330
1F
100
AcDbEntity
  8
AM_0
  6
CONTINUOUS
 62
     7
100
AcDbLine
 10
-266.3676118180469
 20
-125.7346494125451
 30
0.0
 11
-268.6770128948054
 21
-125.7346494125451
 31
0.0
  0
LINE
  5
12F
330
1F
100
AcDbEntity
  8
AM_0
  6
CONTINUOUS
 62
     7
100
AcDbLine
 10
-265.2129112796677
 20
-127.7346494125451
 30
0.0
 11
-266.3676118180469
 21
-125.7346494125451
 31
0.0
  0
LINE
  5
130
330
1F
100
AcDbEntity
  8
AM_0
  6
CONTINUOUS
 62
     7
100
AcDbLine
 10
-268.6770128948054
 20
-125.7346494125451
 30
0.0
 11
-269.8317134331846
 21
-127.7346494125451
 31
0.0
  0
LINE
  5
131
330
1F
100
AcDbEntity
  8
AM_0
  6
CONTINUOUS
 62
     7
100
AcDbLine
 10
-268.6770128948054
 20
-129.7346494125451
 30
0.0
 11
-266.3676118180469
 21
-129.7346494125451
 31
0.0
  0
CIRCLE
  5
132
330
1F
100
AcDbEntity
  8
AM_0
  6
CONTINUOUS
 62
     7
100
AcDbCircle
 10
-271.5223123564261
 20
-105.2346494125451
 30
0.0
 40
3.0
  0
CIRCLE
  5
133
330
1F
100
AcDbEntity
  8
AM_0
  6
CONTINUOUS
 62
     7
100
AcDbCircle
 10
-271.5223123564261
 20
-105.2346494125451
 30
0.0
 40
1.0
  0
CIRCLE
  5
134
330
1F
100
AcDbEntity
  8
AM_0
  6
CONTINUOUS
 62
     7
100
AcDbCircle
 10
-271.5223123564261
 20
-150.2346494125451
 30
0.0
 40
3.0
  0
CIRCLE
  5
135
330
1F
100
AcDbEntity
  8
AM_0
  6
CONTINUOUS
 62
     7
100
AcDbCircle
 10
-271.5223123564261
 20
-150.2346494125451
 30
0.0
 40
1.0
  0
LINE
  5
136
330
1F
100
AcDbEntity
  8
AM_0
  6
CONTINUOUS
 62
     7
100
AcDbLine
 10
-24.29945584062068
 20
-207.7346494125451
 30
0.0
 11
-2.299455840620794
 21
-207.7346494125451
 31
0.0
  0
LINE
  5
137
330
1F
100
AcDbEntity
  8
AM_0
  6
CONTINUOUS
 62
     7
100
AcDbLine
 10
-24.29945584062068
 20
-47.73464941254514
 30
0.0
 11
-2.299455840620794
 21
-47.73464941254514
 31
0.0
  0
LINE
  5
138
330
1F
100
AcDbEntity
  8
AM_0
  6
CONTINUOUS
 62
     7
100
AcDbLine
 10
-46.29945584062068
 20
-59.73464941254514
 30
0.0
 11
-24.29945584062068
 21
-59.73464941254514
 31
0.0
  0
LINE
  5
139
330
1F
100
AcDbEntity
  8
AM_0
  6
CONTINUOUS
 62
     7
100
AcDbLine
 10
-52.29945584062079
 20
-77.73464941254514
 30
0.0
 11
-46.29945584062068
 21
-77.73464941254514
 31
0.0
  0
LINE
  5
13A
330
1F
100
AcDbEntity
  8
AM_0
  6
CONTINUOUS
 62
     7
100
AcDbLine
 10
-52.29945584062079
 20
-97.73464941254514
 30
0.0
 11
-46.29945584062068
 21
-97.73464941254514
 31
0.0
  0
LINE
  5
13B
330
1F
100
AcDbEntity
  8
AM_0
  6
CONTINUOUS
 62
     7
100
AcDbLine
 10
-46.29945584062068
 20
-127.7346494125451
 30
0.0
 11
-24.29945584062068
 21
-127.7346494125451
 31
0.0
  0
LINE
  5
13C
330
1F
100
AcDbEntity
  8
AM_0
  6
CONTINUOUS
 62
     7
100
AcDbLine
 10
-2.299455840620794
 20
-45.73464941254514
 30
0.0
 11
37.70054415937921
 21
-45.73464941254514
 31
0.0
  0
LINE
  5
13D
330
1F
100
AcDbEntity
  8
AM_0
  6
CONTINUOUS
 62
     7
100
AcDbLine
 10
-16.29945584062068
 20
18.26535058745475
 30
0.0
 11
29.70054415937921
 21
18.26535058745475
 31
0.0
  0
LINE
  5
13E
330
1F
100
AcDbEntity
  8
AM_0
  6
CONTINUOUS
 62
     7
100
AcDbLine
 10
-12.29945584062068
 20
-47.73464941254514
 30
0.0
 11
-12.29945584062068
 21
-207.7346494125451
 31
0.0
  0
LINE
  5
13F
330
1F
100
AcDbEntity
  8
AM_0
  6
CONTINUOUS
 62
     7
100
AcDbLine
 10
-24.29945584062068
 20
-47.73464941254514
 30
0.0
 11
-24.29945584062068
 21
-207.7346494125451
 31
0.0
  0
LINE
  5
140
330
1F
100
AcDbEntity
  8
AM_0
  6
CONTINUOUS
 62
     7
100
AcDbLine
 10
-46.29945584062068
 20
-59.73464941254514
 30
0.0
 11
-46.29945584062068
 21
-127.7346494125451
 31
0.0
  0
LINE
  5
141
330
1F
100
AcDbEntity
  8
AM_0
  6
CONTINUOUS
 62
     7
100
AcDbLine
 10
-52.29945584062079
 20
-77.73464941254514
 30
0.0
 11
-52.29945584062079
 21
-97.73464941254514
 31
0.0
  0
LINE
  5
142
330
1F
100
AcDbEntity
  8
AM_0
  6
CONTINUOUS
 62
     7
100
AcDbLine
 10
-2.299455840620794
 20
-18.63963526573241
 30
0.0
 11
-2.299455840620794
 21
-207.7346494125451
 31
0.0
  0
LINE
  5
143
330
1F
100
AcDbEntity
  8
AM_0
  6
CONTINUOUS
 62
     7
100
AcDbLine
 10
51.70054415937921
 20
-59.73464941254514
 30
0.0
 11
51.70054415937921
 21
-195.7346494125451
 31
0.0
  0
LINE
  5
144
330
1F
100
AcDbEntity
  8
AM_0
  6
CONTINUOUS
 62
     7
100
AcDbLine
 10
-2.299455840620794
 20
-195.7346494125451
 30
0.0
 11
51.70054415937921
 21
-195.7346494125451
 31
0.0
  0
LINE
  5
145
330
1F
100
AcDbEntity
  8
AM_0
  6
CONTINUOUS
 62
     7
100
AcDbLine
 10
-2.299455840620794
 20
-203.7346494125451
 30
0.0
 11
19.70054415937921
 21
-203.7346494125451
 31
0.0
  0
LINE
  5
146
330
1F
100
AcDbEntity
  8
AM_0
  6
CONTINUOUS
 62
     7
100
AcDbLine
 10
19.70054415937921
 20
-195.7346494125451
 30
0.0
 11
19.70054415937921
 21
-203.7346494125451
 31
0.0
  0
LINE
  5
147
330
1F
100
AcDbEntity
  8
AM_0
  6
CONTINUOUS
 62
     7
100
AcDbLine
 10
37.70054415937921
 20
-25.73464941254514
 30
0.0
 11
37.70054415937921
 21
-70.23464941254514
 31
0.0
  0
LINE
  5
148
330
1F
100
AcDbEntity
  8
AM_0
  6
CONTINUOUS
 62
     7
100
AcDbLine
 10
37.70054415937921
 20
-59.73464941254514
 30
0.0
 11
51.70054415937921
 21
-59.73464941254514
 31
0.0
  0
LINE
  5
149
330
1F
100
AcDbEntity
  8
AM_0
  6
CONTINUOUS
 62
     7
100
AcDbLine
 10
52.70054415937921
 20
-178.7346494125451
 30
0.0
 11
52.70054415937921
 21
-191.7346494125451
 31
0.0
  0
ARC
  5
14A
330
1F
100
AcDbEntity
  8
AM_0
  6
CONTINUOUS
 62
     7
100
AcDbCircle
 10
22.70054415937921
 20
-172.7346494125451
 30
0.0
 40
21.0
100
AcDbArc
 50
270.0
 51
90.0
  0
LINE
  5
14B
330
1F
100
AcDbEntity
  8
AM_0
  6
CONTINUOUS
 62
     7
100
AcDbLine
 10
-2.299455840620794
 20
-151.7346494125451
 30
0.0
 11
22.70054415937921
 21
-151.7346494125451
 31
0.0
  0
LINE
  5
14C
330
1F
100
AcDbEntity
  8
AM_0
  6
CONTINUOUS
 62
     7
100
AcDbLine
 10
-2.299455840620794
 20
-193.7346494125451
 30
0.0
 11
22.70054415937921
 21
-193.7346494125451
 31
0.0
  0
LINE
  5
14D
330
1F
100
AcDbEntity
  8
AM_0
  6
CONTINUOUS
 62
     7
100
AcDbLine
 10
51.70054415937921
 20
-178.7346494125451
 30
0.0
 11
52.70054415937921
 21
-178.7346494125451
 31
0.0
  0
LINE
  5
14E
330
1F
100
AcDbEntity
  8
AM_0
  6
CONTINUOUS
 62
     7
100
AcDbLine
 10
51.70054415937921
 20
-191.7346494125451
 30
0.0
 11
52.70054415937921
 21
-191.7346494125451
 31
0.0
  0
LINE
  5
14F
330
1F
100
AcDbEntity
  8
AM_0
  6
CONTINUOUS
 62
     7
100
AcDbLine
 10
52.70054415937921
 20
-63.73464941254514
 30
0.0
 11
52.70054415937921
 21
-76.73464941254514
 31
0.0
  0
LINE
  5
150
330
1F
100
AcDbEntity
  8
AM_0
  6
CONTINUOUS
 62
     7
100
AcDbLine
 10
51.70054415937921
 20
-63.73464941254514
 30
0.0
 11
52.70054415937921
 21
-63.73464941254514
 31
0.0
  0
LINE
  5
151
330
1F
100
AcDbEntity
  8
AM_0
  6
CONTINUOUS
 62
     7
100
AcDbLine
 10
51.70054415937921
 20
-76.73464941254514
 30
0.0
 11
52.70054415937921
 21
-76.73464941254514
 31
0.0
  0
ARC
  5
152
330
1F
100
AcDbEntity
  8
AM_0
  6
CONTINUOUS
 62
     7
100
AcDbCircle
 10
22.70054415937921
 20
-172.7346494125451
 30
0.0
 40
19.0
100
AcDbArc
 50
138.6717180640081
 51
161.3282819359919
  0
ARC
  5
153
330
1F
100
AcDbEntity
  8
AM_0
  6
CONTINUOUS
 62
     7
100
AcDbCircle
 10
22.70054415937921
 20
-172.7346494125451
 30
0.0
 40
19.0
100
AcDbArc
 50
78.67171806400833
 51
101.3282819359917
  0
ARC
  5
154
330
1F
100
AcDbEntity
  8
AM_0
  6
CONTINUOUS
 62
     7
100
AcDbCircle
 10
22.70054415937921
 20
-172.7346494125451
 30
0.0
 40
19.0
100
AcDbArc
 50
18.67171806400789
 51
41.32828193599187
  0
ARC
  5
155
330
1F
100
AcDbEntity
  8
AM_0
  6
CONTINUOUS
 62
     7
100
AcDbCircle
 10
22.70054415937921
 20
-172.7346494125451
 30
0.0
 40
19.0
100
AcDbArc
 50
318.671718064008
 51
341.3282819359919
  0
ARC
  5
156
330
1F
100
AcDbEntity
  8
AM_0
  6
CONTINUOUS
 62
     7
100
AcDbCircle
 10
22.70054415937921
 20
-172.7346494125451
 30
0.0
 40
19.0
100
AcDbArc
 50
258.6717180640083
 51
281.3282819359917
  0
ARC
  5
157
330
1F
100
AcDbEntity
  8
AM_0
  6
CONTINUOUS
 62
     7
100
AcDbCircle
 10
22.70054415937921
 20
-172.7346494125451
 30
0.0
 40
19.0
100
AcDbArc
 50
198.6717180640079
 51
221.3282819359919
  0
LINE
  5
158
330
1F
100
AcDbEntity
  8
AM_0
  6
CONTINUOUS
 62
     7
100
AcDbLine
 10
8.432717282952694
 20
-185.2817254155159
 30
0.0
 11
18.9683710358056
 21
-191.3644879458141
 31
0.0
  0
LINE
  5
159
330
1F
100
AcDbEntity
  8
AM_0
  6
CONTINUOUS
 62
     7
100
AcDbLine
 10
26.43271728295269
 20
-191.3644879458141
 30
0.0
 11
36.96837103580572
 21
-185.2817254155159
 31
0.0
  0
LINE
  5
15A
330
1F
100
AcDbEntity
  8
AM_0
  6
CONTINUOUS
 62
     7
100
AcDbLine
 10
40.70054415937921
 20
-178.8174119428433
 30
0.0
 11
40.70054415937921
 21
-166.6518868822469
 31
0.0
  0
LINE
  5
15B
330
1F
100
AcDbEntity
  8
AM_0
  6
CONTINUOUS
 62
     7
100
AcDbLine
 10
36.96837103580572
 20
-160.1875734095744
 30
0.0
 11
26.43271728295269
 21
-154.1048108792762
 31
0.0
  0
LINE
  5
15C
330
1F
100
AcDbEntity
  8
AM_0
  6
CONTINUOUS
 62
     7
100
AcDbLine
 10
18.9683710358056
 20
-154.1048108792762
 30
0.0
 11
8.432717282952694
 21
-160.1875734095744
 31
0.0
  0
LINE
  5
15D
330
1F
100
AcDbEntity
  8
AM_0
  6
CONTINUOUS
 62
     7
100
AcDbLine
 10
4.700544159379319
 20
-166.6518868822469
 30
0.0
 11
4.700544159379319
 21
-178.8174119428433
 31
0.0
  0
CIRCLE
  5
15E
330
1F
100
AcDbEntity
  8
AM_0
  6
CONTINUOUS
 62
     7
100
AcDbCircle
 10
22.70054415937921
 20
-172.7346494125451
 30
0.0
 40
18.0
  0
CIRCLE
  5
15F
330
1F
100
AcDbEntity
  8
AM_0
  6
CONTINUOUS
 62
     7
100
AcDbCircle
 10
22.70054415937921
 20
-172.7346494125451
 30
0.0
 40
9.1605
  0
LINE
  5
160
330
1F
100
AcDbEntity
  8
AM_0
  6
CONTINUOUS
 62
     7
100
AcDbLine
 10
-16.29945584062068
 20
18.26535058745475
 30
0.0
 11
-16.29945584062068
 21
-27.73464941254514
 31
0.0
  0
LINE
  5
161
330
1F
100
AcDbEntity
  8
AM_0
  6
CONTINUOUS
 62
     7
100
AcDbLine
 10
10.20054415937921
 20
18.26535058745475
 30
0.0
 11
10.20054415937921
 21
-25.73464941254514
 31
0.0
  0
LINE
  5
162
330
1F
100
AcDbEntity
  8
AM_0
  6
CONTINUOUS
 62
     7
100
AcDbLine
 10
25.20054415937921
 20
18.26535058745475
 30
0.0
 11
25.20054415937921
 21
-25.73464941254514
 31
0.0
  0
LINE
  5
163
330
1F
100
AcDbEntity
  8
AM_0
  6
CONTINUOUS
 62
     7
100
AcDbLine
 10
-2.299455840620794
 20
-25.73464941254514
 30
0.0
 11
10.20054415937921
 21
-25.73464941254514
 31
0.0
  0
LINE
  5
164
330
1F
100
AcDbEntity
  8
AM_0
  6
CONTINUOUS
 62
     7
100
AcDbLine
 10
25.20054415937921
 20
-25.73464941254514
 30
0.0
 11
37.70054415937921
 21
-25.73464941254514
 31
0.0
  0
LINE
  5
165
330
1F
100
AcDbEntity
  8
AM_0
  6
CONTINUOUS
 62
     7
100
AcDbLine
 10
34.70054415937921
 20
10.26535058745486
 30
0.0
 11
34.70054415937921
 21
-20.48464941254514
 31
0.0
  0
LINE
  5
166
330
1F
100
AcDbEntity
  8
AM_0
  6
CONTINUOUS
 62
     7
100
AcDbLine
 10
-16.29945584062068
 20
-27.73464941254514
 30
0.0
 11
-2.299455840620794
 21
-27.73464941254514
 31
0.0
  0
LINE
  5
167
330
1F
100
AcDbEntity
  8
AM_0
  6
CONTINUOUS
 62
     7
100
AcDbLine
 10
-16.29945584062068
 20
-18.63963526573241
 30
0.0
 11
-2.299455840620794
 21
-18.63963526573241
 31
0.0
  0
LINE
  5
168
330
1F
100
AcDbEntity
  8
AM_0
  6
CONTINUOUS
 62
     7
100
AcDbLine
 10
29.70054415937921
 20
18.26535058745475
 30
0.0
 11
29.70054415937921
 21
-11.73464941254525
 31
0.0
  0
LINE
  5
169
330
1F
100
AcDbEntity
  8
AM_0
  6
CONTINUOUS
 62
     7
100
AcDbLine
 10
29.70054415937921
 20
13.26535058745475
 30
0.0
 11
34.70054415937921
 21
10.26535058745486
 31
0.0
  0
LINE
  5
16A
330
1F
100
AcDbEntity
  8
AM_0
  6
CONTINUOUS
 62
     7
100
AcDbLine
 10
29.70054415937921
 20
-11.73464941254525
 30
0.0
 11
37.70054415937921
 21
-25.73464941254514
 31
0.0
  0
LINE
  5
16B
330
1F
100
AcDbEntity
  8
AM_0
  6
CONTINUOUS
 62
     7
100
AcDbLine
 10
-29.29945584062068
 20
-147.2346494125451
 30
0.0
 11
-29.29945584062068
 21
-153.2346494125451
 31
0.0
  0
LINE
  5
16C
330
1F
100
AcDbEntity
  8
AM_0
  6
CONTINUOUS
 62
     7
100
AcDbLine
 10
-29.29945584062068
 20
-147.2346494125451
 30
0.0
 11
-28.79945584062068
 21
-147.2346494125451
 31
0.0
  0
LINE
  5
16D
330
1F
100
AcDbEntity
  8
AM_0
  6
CONTINUOUS
 62
     7
100
AcDbLine
 10
-28.79945584062068
 20
-147.2346494125451
 30
0.0
 11
-28.79945584062068
 21
-153.2346494125451
 31
0.0
  0
LINE
  5
16E
330
1F
100
AcDbEntity
  8
AM_0
  6
CONTINUOUS
 62
     7
100
AcDbLine
 10
-29.29945584062068
 20
-153.2346494125451
 30
0.0
 11
-28.79945584062068
 21
-153.2346494125451
 31
0.0
  0
LINE
  5
16F
330
1F
100
AcDbEntity
  8
AM_0
  6
CONTINUOUS
 62
     7
100
AcDbLine
 10
-28.79945584062068
 20
-148.2346494125451
 30
0.0
 11
-24.29945584062068
 21
-148.2346494125451
 31
0.0
  0
LINE
  5
170
330
1F
100
AcDbEntity
  8
AM_0
  6
CONTINUOUS
 62
     7
100
AcDbLine
 10
-28.79945584062068
 20
-152.2346494125451
 30
0.0
 11
-24.29945584062068
 21
-152.2346494125451
 31
0.0
  0
LINE
  5
171
330
1F
100
AcDbEntity
  8
AM_0
  6
CONTINUOUS
 62
     7
100
AcDbLine
 10
7.914090714079634
 20
-23.74648201101633
 30
0.0
 11
8.000544159379274
 21
-24.73464941254525
 31
0.0
  0
LINE
  5
172
330
1F
100
AcDbEntity
  8
AM_0
  6
CONTINUOUS
 62
     7
100
AcDbLine
 10
2.486997604678891
 20
-23.74648201101633
 30
0.0
 11
2.400544159379365
 21
-24.73464941254525
 31
0.0
  0
ARC
  5
173
330
1F
100
AcDbEntity
  8
AM_0
  6
CONTINUOUS
 62
     7
100
AcDbCircle
 10
5.200544159379206
 20
-27.33464941254505
 30
0.0
 40
5.0
100
AcDbArc
 50
66.4528627629341
 51
113.5471372370659
  0
ARC
  5
174
330
1F
100
AcDbEntity
  8
AM_0
  6
CONTINUOUS
 62
     7
100
AcDbCircle
 10
3.682431242389043
 20
-23.85106890231322
 30
0.0
 40
1.199999999999999
100
AcDbArc
 50
113.5471372370654
 51
175.0000000000005
  0
ARC
  5
175
330
1F
100
AcDbEntity
  8
AM_0
  6
CONTINUOUS
 62
     7
100
AcDbCircle
 10
6.718657076369482
 20
-23.85106890231322
 30
0.0
 40
1.199999999999999
100
AcDbArc
 50
4.999999999999487
 51
66.45286276293463
  0
LINE
  5
176
330
1F
100
AcDbEntity
  8
AM_0
  6
CONTINUOUS
 62
     7
100
AcDbLine
 10
2.200544159379206
 20
-24.73464941254525
 30
0.0
 11
8.20054415937932
 21
-24.73464941254525
 31
0.0
  0
LINE
  5
177
330
1F
100
AcDbEntity
  8
AM_0
  6
CONTINUOUS
 62
     7
100
AcDbLine
 10
2.200544159379206
 20
-24.73464941254525
 30
0.0
 11
2.200544159379206
 21
-25.73464941254514
 31
0.0
  0
LINE
  5
178
330
1F
100
AcDbEntity
  8
AM_0
  6
CONTINUOUS
 62
     7
100
AcDbLine
 10
8.20054415937932
 20
-24.73464941254525
 30
0.0
 11
8.20054415937932
 21
-25.73464941254514
 31
0.0
  0
LINE
  5
179
330
1F
100
AcDbEntity
  8
AM_0
  6
CONTINUOUS
 62
     7
100
AcDbLine
 10
33.20054415937921
 20
-24.73464941254525
 30
0.0
 11
33.20054415937921
 21
-25.73464941254514
 31
0.0
  0
LINE
  5
17A
330
1F
100
AcDbEntity
  8
AM_0
  6
CONTINUOUS
 62
     7
100
AcDbLine
 10
27.48699760467889
 20
-23.74648201101633
 30
0.0
 11
27.40054415937925
 21
-24.73464941254525
 31
0.0
  0
LINE
  5
17B
330
1F
100
AcDbEntity
  8
AM_0
  6
CONTINUOUS
 62
     7
100
AcDbLine
 10
32.91409071407963
 20
-23.74648201101633
 30
0.0
 11
33.00054415937927
 21
-24.73464941254525
 31
0.0
  0
ARC
  5
17C
330
1F
100
AcDbEntity
  8
AM_0
  6
CONTINUOUS
 62
     7
100
AcDbCircle
 10
30.20054415937921
 20
-27.33464941254505
 30
0.0
 40
5.0
100
AcDbArc
 50
66.4528627629341
 51
113.5471372370659
  0
ARC
  5
17D
330
1F
100
AcDbEntity
  8
AM_0
  6
CONTINUOUS
 62
     7
100
AcDbCircle
 10
31.7186570763696
 20
-23.85106890231322
 30
0.0
 40
1.199999999999999
100
AcDbArc
 50
4.999999999999487
 51
66.45286276293463
  0
ARC
  5
17E
330
1F
100
AcDbEntity
  8
AM_0
  6
CONTINUOUS
 62
     7
100
AcDbCircle
 10
28.68243124238904
 20
-23.85106890231322
 30
0.0
 40
1.199999999999999
100
AcDbArc
 50
113.5471372370654
 51
175.0000000000005
  0
LINE
  5
17F
330
1F
100
AcDbEntity
  8
AM_0
  6
CONTINUOUS
 62
     7
100
AcDbLine
 10
33.20054415937921
 20
-24.73464941254525
 30
0.0
 11
27.20054415937921
 21
-24.73464941254525
 31
0.0
  0
LINE
  5
180
330
1F
100
AcDbEntity
  8
AM_0
  6
CONTINUOUS
 62
     7
100
AcDbLine
 10
27.20054415937921
 20
-24.73464941254525
 30
0.0
 11
27.20054415937921
 21
-25.73464941254514
 31
0.0
  0
LINE
  5
181
330
1F
100
AcDbEntity
  8
AM_0
  6
CONTINUOUS
 62
     7
100
AcDbLine
 10
293.1295412720887
 20
-200.7346494125451
 30
0.0
 11
293.1295412720887
 21
-191.7346494125451
 31
0.0
  0
ARC
  5
182
330
1F
100
AcDbEntity
  8
AM_0
  6
CONTINUOUS
 62
     7
100
AcDbCircle
 10
286.1295412720887
 20
-54.73464941254514
 30
0.0
 40
7.0
100
AcDbArc
 50
0.0
 51
90.0
  0
LINE
  5
183
330
1F
100
AcDbEntity
  8
AM_0
  6
CONTINUOUS
 62
     7
100
AcDbLine
 10
205.1295412720889
 20
-207.7346494125451
 30
0.0
 11
286.1295412720887
 21
-207.7346494125451
 31
0.0
  0
ARC
  5
184
330
1F
100
AcDbEntity
  8
AM_0
  6
CONTINUOUS
 62
     7
100
AcDbCircle
 10
286.1295412720887
 20
-200.7346494125451
 30
0.0
 40
7.0
100
AcDbArc
 50
270.0
 51
0.0
  0
LINE
  5
185
330
1F
100
AcDbEntity
  8
AM_0
  6
CONTINUOUS
 62
     7
100
AcDbLine
 10
205.1295412720889
 20
-47.73464941254514
 30
0.0
 11
286.1295412720887
 21
-47.73464941254514
 31
0.0
  0
LINE
  5
186
330
1F
100
AcDbEntity
  8
AM_0
  6
CONTINUOUS
 62
     7
100
AcDbLine
 10
210.6295412720888
 20
-25.73464941254514
 30
0.0
 11
280.6295412720887
 21
-25.73464941254514
 31
0.0
  0
LINE
  5
187
330
1F
100
AcDbEntity
  8
AM_0
  6
CONTINUOUS
 62
     7
100
AcDbLine
 10
210.6295412720888
 20
-45.73464941254514
 30
0.0
 11
280.6295412720887
 21
-45.73464941254514
 31
0.0
  0
LINE
  5
188
330
1F
100
AcDbEntity
  8
AM_0
  6
CONTINUOUS
 62
     7
100
AcDbLine
 10
221.5184476422536
 20
18.26535058745475
 30
0.0
 11
269.740634901924
 21
18.26535058745475
 31
0.0
  0
LINE
  5
189
330
1F
100
AcDbEntity
  8
AM_0
  6
CONTINUOUS
 62
     7
100
AcDbLine
 10
280.6295412720887
 20
-45.73464941254514
 30
0.0
 11
280.6295412720887
 21
-25.73464941254514
 31
0.0
  0
LINE
  5
18A
330
1F
100
AcDbEntity
  8
AM_0
  6
CONTINUOUS
 62
     7
100
AcDbLine
 10
210.6295412720888
 20
-45.73464941254514
 30
0.0
 11
210.6295412720888
 21
-47.73464941254514
 31
0.0
  0
LINE
  5
18B
330
1F
100
AcDbEntity
  8
AM_0
  6
CONTINUOUS
 62
     7
100
AcDbLine
 10
280.6295412720887
 20
-45.73464941254514
 30
0.0
 11
280.6295412720887
 21
-47.73464941254514
 31
0.0
  0
LINE
  5
18C
330
1F
100
AcDbEntity
  8
AM_0
  6
CONTINUOUS
 62
     7
100
AcDbLine
 10
277.7154444657067
 20
10.89971043911925
 30
0.0
 11
280.6295412720887
 21
-25.73464941254514
 31
0.0
  0
ARC
  5
18D
330
1F
100
AcDbEntity
  8
AM_0
  6
CONTINUOUS
 62
     7
100
AcDbCircle
 10
269.740634901924
 20
10.26535058745486
 30
0.0
 40
8.0
100
AcDbArc
 50
4.548042409125276
 51
90.0
  0
LINE
  5
18E
330
1F
100
AcDbEntity
  8
AM_0
  6
CONTINUOUS
 62
     7
100
AcDbLine
 10
265.2154444657065
 20
10.89971043911925
 30
0.0
 11
268.1295412720889
 21
-25.73464941254514
 31
0.0
  0
ARC
  5
18F
330
1F
100
AcDbEntity
  8
AM_0
  6
CONTINUOUS
 62
     7
100
AcDbCircle
 10
257.240634901924
 20
10.26535058745486
 30
0.0
 40
8.0
100
AcDbArc
 50
4.548042409125276
 51
90.0
  0
LINE
  5
190
330
1F
100
AcDbEntity
  8
AM_0
  6
CONTINUOUS
 62
     7
100
AcDbLine
 10
213.5436380784714
 20
10.89971043911925
 30
0.0
 11
210.6295412720888
 21
-25.73464941254514
 31
0.0
  0
ARC
  5
191
330
1F
100
AcDbEntity
  8
AM_0
  6
CONTINUOUS
 62
     7
100
AcDbCircle
 10
221.5184476422536
 20
10.26535058745486
 30
0.0
 40
8.0
100
AcDbArc
 50
90.0
 51
175.4519575908747
  0
LINE
  5
192
330
1F
100
AcDbEntity
  8
AM_0
  6
CONTINUOUS
 62
     7
100
AcDbLine
 10
226.0436380784714
 20
10.89971043911925
 30
0.0
 11
223.1295412720888
 21
-25.73464941254514
 31
0.0
  0
ARC
  5
193
330
1F
100
AcDbEntity
  8
AM_0
  6
CONTINUOUS
 62
     7
100
AcDbCircle
 10
234.0184476422536
 20
10.26535058745486
 30
0.0
 40
8.0
100
AcDbArc
 50
90.0
 51
175.4519575908747
  0
LINE
  5
194
330
1F
100
AcDbEntity
  8
AM_0
  6
CONTINUOUS
 62
     7
100
AcDbLine
 10
210.6295412720888
 20
-45.73464941254514
 30
0.0
 11
210.6295412720888
 21
-25.73464941254514
 31
0.0
  0
LINE
  5
195
330
1F
100
AcDbEntity
  8
AM_0
  6
CONTINUOUS
 62
     7
100
AcDbLine
 10
198.1295412720888
 20
-200.7346494125451
 30
0.0
 11
198.1295412720888
 21
-191.7346494125451
 31
0.0
  0
ARC
  5
196
330
1F
100
AcDbEntity
  8
AM_0
  6
CONTINUOUS
 62
     7
100
AcDbCircle
 10
205.1295412720889
 20
-54.73464941254514
 30
0.0
 40
7.0
100
AcDbArc
 50
90.0
 51
180.0
  0
ARC
  5
197
330
1F
100
AcDbEntity
  8
AM_0
  6
CONTINUOUS
 62
     7
100
AcDbCircle
 10
205.1295412720889
 20
-200.7346494125451
 30
0.0
 40
7.0
100
AcDbArc
 50
180.0
 51
270.0
  0
LINE
  5
198
330
1F
100
AcDbEntity
  8
AM_0
  6
CONTINUOUS
 62
     7
100
AcDbLine
 10
210.6295412720888
 20
-45.73464941254514
 30
0.0
 11
210.6295412720888
 21
-47.73464941254514
 31
0.0
  0
CIRCLE
  5
199
330
1F
100
AcDbEntity
  8
AM_0
  6
CONTINUOUS
 62
     7
100
AcDbCircle
 10
290.1295412720887
 20
-105.2346494125451
 30
0.0
 40
3.0
  0
CIRCLE
  5
19A
330
1F
100
AcDbEntity
  8
AM_0
  6
CONTINUOUS
 62
     7
100
AcDbCircle
 10
290.1295412720887
 20
-105.2346494125451
 30
0.0
 40
1.0
  0
CIRCLE
  5
19B
330
1F
100
AcDbEntity
  8
AM_0
  6
CONTINUOUS
 62
     7
100
AcDbCircle
 10
290.1295412720887
 20
-150.2346494125451
 30
0.0
 40
3.0
  0
CIRCLE
  5
19C
330
1F
100
AcDbEntity
  8
AM_0
  6
CONTINUOUS
 62
     7
100
AcDbCircle
 10
290.1295412720887
 20
-150.2346494125451
 30
0.0
 40
1.0
  0
LINE
  5
19D
330
1F
100
AcDbEntity
  8
AM_0
  6
CONTINUOUS
 62
     7
100
AcDbLine
 10
251.1295412720889
 20
13.26535058745475
 30
0.0
 11
240.1295412720888
 21
13.26535058745475
 31
0.0
  0
LINE
  5
19E
330
1F
100
AcDbEntity
  8
AM_0
  6
CONTINUOUS
 62
     7
100
AcDbLine
 10
238.1295412720889
 20
-20.48464941254514
 30
0.0
 11
238.1295412720889
 21
11.26535058745486
 31
0.0
  0
LINE
  5
19F
330
1F
100
AcDbEntity
  8
AM_0
  6
CONTINUOUS
 62
     7
100
AcDbLine
 10
253.1295412720889
 20
-20.48464941254514
 30
0.0
 11
253.1295412720889
 21
11.26535058745486
 31
0.0
  0
LINE
  5
1A0
330
1F
100
AcDbEntity
  8
AM_0
  6
CONTINUOUS
 62
     7
100
AcDbLine
 10
238.1295412720889
 20
10.26535058745486
 30
0.0
 11
253.1295412720889
 21
10.26535058745486
 31
0.0
  0
ARC
  5
1A1
330
1F
100
AcDbEntity
  8
AM_0
  6
CONTINUOUS
 62
     7
100
AcDbCircle
 10
240.1295412720888
 20
11.26535058745486
 30
0.0
 40
2.0
100
AcDbArc
 50
90.0
 51
180.0
  0
ARC
  5
1A2
330
1F
100
AcDbEntity
  8
AM_0
  6
CONTINUOUS
 62
     7
100
AcDbCircle
 10
251.1295412720889
 20
11.26535058745486
 30
0.0
 40
2.0
100
AcDbArc
 50
0.0
 51
90.0
  0
LINE
  5
1A3
330
1F
100
AcDbEntity
  8
AM_0
  6
CONTINUOUS
 62
     7
100
AcDbLine
 10
35.20054415937921
 20
6.265350587454861
 30
0.0
 11
37.20054415937921
 21
6.265350587454861
 31
0.0
  0
LINE
  5
1A4
330
1F
100
AcDbEntity
  8
AM_0
  6
CONTINUOUS
 62
     7
100
AcDbLine
 10
35.20054415937921
 20
0.2653505874547477
 30
0.0
 11
37.20054415937921
 21
0.2653505874547477
 31
0.0
  0
LINE
  5
1A5
330
1F
100
AcDbEntity
  8
AM_0
  6
CONTINUOUS
 62
     7
100
AcDbLine
 10
37.20054415937921
 20
6.265350587454861
 30
0.0
 11
37.20054415937921
 21
0.2653505874547477
 31
0.0
  0
LINE
  5
1A6
330
1F
100
AcDbEntity
  8
AM_0
  6
CONTINUOUS
 62
     7
100
AcDbLine
 10
35.20054415937921
 20
7.765350587454861
 30
0.0
 11
35.20054415937921
 21
-1.234649412545139
 31
0.0
  0
LINE
  5
1A7
330
1F
100
AcDbEntity
  8
AM_0
  6
CONTINUOUS
 62
     7
100
AcDbLine
 10
34.70054415937921
 20
7.765350587454861
 30
0.0
 11
35.20054415937921
 21
7.765350587454861
 31
0.0
  0
LINE
  5
1A8
330
1F
100
AcDbEntity
  8
AM_0
  6
CONTINUOUS
 62
     7
100
AcDbLine
 10
34.70054415937921
 20
-1.234649412545139
 30
0.0
 11
35.20054415937921
 21
-1.234649412545139
 31
0.0
  0
CIRCLE
  5
1A9
330
1F
100
AcDbEntity
  8
AM_0
  6
CONTINUOUS
 62
     7
100
AcDbCircle
 10
245.629541272089
 20
3.265350587454861
 30
0.0
 40
4.5
  0
CIRCLE
  5
1AA
330
1F
100
AcDbEntity
  8
AM_0
  6
CONTINUOUS
 62
     7
100
AcDbCircle
 10
245.629541272089
 20
3.265350587454861
 30
0.0
 40
3.0
  0
LINE
  5
1AB
330
1F
100
AcDbEntity
  8
AM_0
  6
CONTINUOUS
 62
     7
100
AcDbLine
 10
224.2431776357251
 20
-11.73464941254525
 30
0.0
 11
238.1295412720889
 21
-11.73464941254525
 31
0.0
  0
LINE
  5
1AC
330
1F
100
AcDbEntity
  8
AM_0
  6
CONTINUOUS
 62
     7
100
AcDbLine
 10
225.6295412720889
 20
-195.7346494125451
 30
0.0
 11
265.6295412720889
 21
-195.7346494125451
 31
0.0
  0
LINE
  5
1AD
330
1F
100
AcDbEntity
  8
AM_0
  6
CONTINUOUS
 62
     7
100
AcDbLine
 10
223.6295412720889
 20
-59.73464941254514
 30
0.0
 11
267.6295412720889
 21
-59.73464941254514
 31
0.0
  0
LINE
  5
1AE
330
1F
100
AcDbEntity
  8
AM_0
  6
CONTINUOUS
 62
     7
100
AcDbLine
 10
275.6295412720889
 20
-185.7346494125451
 30
0.0
 11
275.6295412720889
 21
-78.57522912268985
 31
0.0
  0
ARC
  5
1AF
330
1F
100
AcDbEntity
  8
AM_0
  6
CONTINUOUS
 62
     7
100
AcDbCircle
 10
265.6295412720889
 20
-185.7346494125451
 30
0.0
 40
10.0
100
AcDbArc
 50
270.0
 51
0.0
  0
ARC
  5
1B0
330
1F
100
AcDbEntity
  8
AM_0
  6
CONTINUOUS
 62
     7
100
AcDbCircle
 10
267.6295412720889
 20
-69.73464941254514
 30
0.0
 40
10.0
100
AcDbArc
 50
345.1371840576549
 51
90.0
  0
LINE
  5
1B1
330
1F
100
AcDbEntity
  8
AM_0
  6
CONTINUOUS
 62
     7
100
AcDbLine
 10
280.6295412720887
 20
-47.73464941254514
 30
0.0
 11
280.6295412720887
 21
-59.73464941254514
 31
0.0
  0
LINE
  5
1B2
330
1F
100
AcDbEntity
  8
AM_0
  6
CONTINUOUS
 62
     7
100
AcDbLine
 10
280.6295412720887
 20
-59.73464941254514
 30
0.0
 11
275.6295412720889
 21
-78.57522912268985
 31
0.0
  0
CIRCLE
  5
1B3
330
1F
100
AcDbEntity
  8
AM_0
  6
CONTINUOUS
 62
     7
100
AcDbCircle
 10
263.1295412720889
 20
-185.2346494125451
 30
0.0
 40
6.5
  0
CIRCLE
  5
1B4
330
1F
100
AcDbEntity
  8
AM_0
  6
CONTINUOUS
 62
     7
100
AcDbCircle
 10
263.1295412720889
 20
-185.2346494125451
 30
0.0
 40
2.0
  0
CIRCLE
  5
1B5
330
1F
100
AcDbEntity
  8
AM_0
  6
CONTINUOUS
 62
     7
100
AcDbCircle
 10
263.1295412720889
 20
-70.23464941254514
 30
0.0
 40
6.5
  0
CIRCLE
  5
1B6
330
1F
100
AcDbEntity
  8
AM_0
  6
CONTINUOUS
 62
     7
100
AcDbCircle
 10
263.1295412720889
 20
-70.23464941254514
 30
0.0
 40
2.0
  0
CIRCLE
  5
1B7
330
1F
100
AcDbEntity
  8
AM_0
  6
CONTINUOUS
 62
     7
100
AcDbCircle
 10
286.1295412720887
 20
-54.73464941254514
 30
0.0
 40
2.5
  0
CIRCLE
  5
1B8
330
1F
100
AcDbEntity
  8
AM_0
  6
CONTINUOUS
 62
     7
100
AcDbCircle
 10
286.1295412720887
 20
-200.7346494125451
 30
0.0
 40
2.5
  0
CIRCLE
  5
1B9
330
1F
100
AcDbEntity
  8
AM_0
  6
CONTINUOUS
 62
     7
100
AcDbCircle
 10
286.1295412720887
 20
-127.7346494125451
 30
0.0
 40
2.5
  0
LINE
  5
1BA
330
1F
100
AcDbEntity
  8
AM_0
  6
CONTINUOUS
 62
     7
100
AcDbLine
 10
215.6295412720889
 20
-185.7346494125451
 30
0.0
 11
215.6295412720889
 21
-78.57522912268985
 31
0.0
  0
ARC
  5
1BB
330
1F
100
AcDbEntity
  8
AM_0
  6
CONTINUOUS
 62
     7
100
AcDbCircle
 10
225.6295412720889
 20
-185.7346494125451
 30
0.0
 40
10.0
100
AcDbArc
 50
180.0
 51
270.0
  0
ARC
  5
1BC
330
1F
100
AcDbEntity
  8
AM_0
  6
CONTINUOUS
 62
     7
100
AcDbCircle
 10
223.6295412720889
 20
-69.73464941254514
 30
0.0
 40
10.0
100
AcDbArc
 50
90.0
 51
194.8628159423442
  0
LINE
  5
1BD
330
1F
100
AcDbEntity
  8
AM_0
  6
CONTINUOUS
 62
     7
100
AcDbLine
 10
210.6295412720888
 20
-47.73464941254514
 30
0.0
 11
210.6295412720888
 21
-59.73464941254514
 31
0.0
  0
LINE
  5
1BE
330
1F
100
AcDbEntity
  8
AM_0
  6
CONTINUOUS
 62
     7
100
AcDbLine
 10
210.6295412720888
 20
-59.73464941254514
 30
0.0
 11
215.6295412720889
 21
-78.57522912268985
 31
0.0
  0
CIRCLE
  5
1BF
330
1F
100
AcDbEntity
  8
AM_0
  6
CONTINUOUS
 62
     7
100
AcDbCircle
 10
228.1295412720889
 20
-185.2346494125451
 30
0.0
 40
6.5
  0
CIRCLE
  5
1C0
330
1F
100
AcDbEntity
  8
AM_0
  6
CONTINUOUS
 62
     7
100
AcDbCircle
 10
228.1295412720889
 20
-185.2346494125451
 30
0.0
 40
2.0
  0
CIRCLE
  5
1C1
330
1F
100
AcDbEntity
  8
AM_0
  6
CONTINUOUS
 62
     7
100
AcDbCircle
 10
228.1295412720889
 20
-70.23464941254514
 30
0.0
 40
6.5
  0
CIRCLE
  5
1C2
330
1F
100
AcDbEntity
  8
AM_0
  6
CONTINUOUS
 62
     7
100
AcDbCircle
 10
228.1295412720889
 20
-70.23464941254514
 30
0.0
 40
2.0
  0
CIRCLE
  5
1C3
330
1F
100
AcDbEntity
  8
AM_0
  6
CONTINUOUS
 62
     7
100
AcDbCircle
 10
205.1295412720889
 20
-54.73464941254514
 30
0.0
 40
2.5
  0
CIRCLE
  5
1C4
330
1F
100
AcDbEntity
  8
AM_0
  6
CONTINUOUS
 62
     7
100
AcDbCircle
 10
205.1295412720889
 20
-200.7346494125451
 30
0.0
 40
2.5
  0
CIRCLE
  5
1C5
330
1F
100
AcDbEntity
  8
AM_0
  6
CONTINUOUS
 62
     7
100
AcDbCircle
 10
205.1295412720889
 20
-127.7346494125451
 30
0.0
 40
2.5
  0
LINE
  5
1C6
330
1F
100
AcDbEntity
  8
AM_0
  6
CONTINUOUS
 62
     7
100
AcDbLine
 10
284.1295412720887
 20
-193.7346494125451
 30
0.0
 11
284.1295412720887
 21
-151.7346494125451
 31
0.0
  0
LINE
  5
1C7
330
1F
100
AcDbEntity
  8
AM_0
  6
CONTINUOUS
 62
     7
100
AcDbLine
 10
275.6295412720889
 20
-151.7346494125451
 30
0.0
 11
284.1295412720887
 21
-151.7346494125451
 31
0.0
  0
LINE
  5
1C8
330
1F
100
AcDbEntity
  8
AM_0
  6
CONTINUOUS
 62
     7
100
AcDbLine
 10
271.6295412720889
 20
-193.7346494125451
 30
0.0
 11
284.1295412720887
 21
-193.7346494125451
 31
0.0
  0
LINE
  5
1C9
330
1F
100
AcDbEntity
  8
AM_0
  6
CONTINUOUS
 62
     7
100
AcDbLine
 10
284.1295412720887
 20
-154.7346494125451
 30
0.0
 11
287.1295412720887
 21
-154.7346494125451
 31
0.0
  0
LINE
  5
1CA
330
1F
100
AcDbEntity
  8
AM_0
  6
CONTINUOUS
 62
     7
100
AcDbLine
 10
287.1295412720887
 20
-191.7346494125451
 30
0.0
 11
287.1295412720887
 21
-153.7346494125451
 31
0.0
  0
LINE
  5
1CB
330
1F
100
AcDbEntity
  8
AM_0
  6
CONTINUOUS
 62
     7
100
AcDbLine
 10
284.1295412720887
 20
-190.7346494125451
 30
0.0
 11
287.1295412720887
 21
-190.7346494125451
 31
0.0
  0
LINE
  5
1CC
330
1F
100
AcDbEntity
  8
AM_0
  6
CONTINUOUS
 62
     7
100
AcDbLine
 10
296.1295412720887
 20
-191.7346494125451
 30
0.0
 11
296.1295412720887
 21
-153.7346494125451
 31
0.0
  0
LINE
  5
1CD
330
1F
100
AcDbEntity
  8
AM_0
  6
CONTINUOUS
 62
     7
100
AcDbLine
 10
296.1295412720887
 20
-153.7346494125451
 30
0.0
 11
287.1295412720887
 21
-153.7346494125451
 31
0.0
  0
LINE
  5
1CE
330
1F
100
AcDbEntity
  8
AM_0
  6
CONTINUOUS
 62
     7
100
AcDbLine
 10
296.1295412720887
 20
-191.7346494125451
 30
0.0
 11
287.1295412720887
 21
-191.7346494125451
 31
0.0
  0
LINE
  5
1CF
330
1F
100
AcDbEntity
  8
AM_0
  6
CONTINUOUS
 62
     7
100
AcDbLine
 10
293.1295412720887
 20
-153.7346494125451
 30
0.0
 11
293.1295412720887
 21
-54.73464941254514
 31
0.0
  0
LINE
  5
1D0
330
1F
100
AcDbEntity
  8
AM_0
  6
CONTINUOUS
 62
     7
100
AcDbLine
 10
287.1295412720887
 20
-160.1875734095743
 30
0.0
 11
296.1295412720887
 21
-160.1875734095743
 31
0.0
  0
LINE
  5
1D1
330
1F
100
AcDbEntity
  8
AM_0
  6
CONTINUOUS
 62
     7
100
AcDbLine
 10
296.1295412720887
 20
-166.6518868822469
 30
0.0
 11
287.1295412720887
 21
-166.6518868822469
 31
0.0
  0
LINE
  5
1D2
330
1F
100
AcDbEntity
  8
AM_0
  6
CONTINUOUS
 62
     7
100
AcDbLine
 10
287.1295412720887
 20
-185.2817254155159
 30
0.0
 11
296.1295412720887
 21
-185.2817254155159
 31
0.0
  0
LINE
  5
1D3
330
1F
100
AcDbEntity
  8
AM_0
  6
CONTINUOUS
 62
     7
100
AcDbLine
 10
296.1295412720887
 20
-178.8174119428433
 30
0.0
 11
287.1295412720887
 21
-178.8174119428433
 31
0.0
  0
LINE
  5
1D4
330
1F
100
AcDbEntity
  8
AM_0
  6
CONTINUOUS
 62
     7
100
AcDbLine
 10
302.1295412720887
 20
-191.7346494125451
 30
0.0
 11
302.1295412720887
 21
-153.7346494125451
 31
0.0
  0
LINE
  5
1D5
330
1F
100
AcDbEntity
  8
AM_0
  6
CONTINUOUS
 62
     7
100
AcDbLine
 10
296.1295412720887
 20
-156.2346494125451
 30
0.0
 11
302.1295412720887
 21
-156.2346494125451
 31
0.0
  0
LINE
  5
1D6
330
1F
100
AcDbEntity
  8
AM_0
  6
CONTINUOUS
 62
     7
100
AcDbLine
 10
296.1295412720887
 20
-189.2346494125451
 30
0.0
 11
302.1295412720887
 21
-189.2346494125451
 31
0.0
  0
LINE
  5
1D7
330
1F
100
AcDbEntity
  8
AM_0
  6
CONTINUOUS
 62
     7
100
AcDbLine
 10
343.1295412720887
 20
-153.7346494125451
 30
0.0
 11
302.1295412720887
 21
-153.7346494125451
 31
0.0
  0
LINE
  5
1D8
330
1F
100
AcDbEntity
  8
AM_0
  6
CONTINUOUS
 62
     7
100
AcDbLine
 10
302.1295412720887
 20
-160.1875734095743
 30
0.0
 11
343.1295412720887
 21
-160.1875734095743
 31
0.0
  0
LINE
  5
1D9
330
1F
100
AcDbEntity
  8
AM_0
  6
CONTINUOUS
 62
     7
100
AcDbLine
 10
343.1295412720887
 20
-166.6518868822469
 30
0.0
 11
302.1295412720887
 21
-166.6518868822469
 31
0.0
  0
LINE
  5
1DA
330
1F
100
AcDbEntity
  8
AM_0
  6
CONTINUOUS
 62
     7
100
AcDbLine
 10
343.1295412720887
 20
-191.7346494125451
 30
0.0
 11
343.1295412720887
 21
-153.7346494125451
 31
0.0
  0
LINE
  5
1DB
330
1F
100
AcDbEntity
  8
AM_0
  6
CONTINUOUS
 62
     7
100
AcDbLine
 10
343.1295412720887
 20
-191.7346494125451
 30
0.0
 11
302.1295412720887
 21
-191.7346494125451
 31
0.0
  0
LINE
  5
1DC
330
1F
100
AcDbEntity
  8
AM_0
  6
CONTINUOUS
 62
     7
100
AcDbLine
 10
302.1295412720887
 20
-185.2817254155159
 30
0.0
 11
343.1295412720887
 21
-185.2817254155159
 31
0.0
  0
LINE
  5
1DD
330
1F
100
AcDbEntity
  8
AM_0
  6
CONTINUOUS
 62
     7
100
AcDbLine
 10
343.1295412720887
 20
-178.8174119428433
 30
0.0
 11
302.1295412720887
 21
-178.8174119428433
 31
0.0
  0
LINE
  5
1DE
330
1F
100
AcDbEntity
  8
AM_0
  6
CONTINUOUS
 62
     7
100
AcDbLine
 10
354.1295412720887
 20
-159.4846494125451
 30
0.0
 11
343.1295412720887
 21
-159.4846494125451
 31
0.0
  0
LINE
  5
1DF
330
1F
100
AcDbEntity
  8
AM_0
  6
CONTINUOUS
 62
     7
100
AcDbLine
 10
354.1295412720887
 20
-185.9846494125451
 30
0.0
 11
354.1295412720887
 21
-159.4846494125451
 31
0.0
  0
LINE
  5
1E0
330
1F
100
AcDbEntity
  8
AM_0
  6
CONTINUOUS
 62
     7
100
AcDbLine
 10
345.1295412720887
 20
-167.1165981489841
 30
0.0
 11
354.1295412720887
 21
-167.1165981489841
 31
0.0
  0
LINE
  5
1E1
330
1F
100
AcDbEntity
  8
AM_0
  6
CONTINUOUS
 62
     7
100
AcDbLine
 10
354.1295412720887
 20
-185.9846494125451
 30
0.0
 11
343.1295412720887
 21
-185.9846494125451
 31
0.0
  0
LINE
  5
1E2
330
1F
100
AcDbEntity
  8
AM_0
  6
CONTINUOUS
 62
     7
100
AcDbLine
 10
345.1295412720887
 20
-178.3527006761061
 30
0.0
 11
354.1295412720887
 21
-178.3527006761061
 31
0.0
  0
LINE
  5
1E3
330
1F
100
AcDbEntity
  8
AM_0
  6
CONTINUOUS
 62
     7
100
AcDbLine
 10
345.1295412720887
 20
-178.3527006761061
 30
0.0
 11
345.1295412720887
 21
-167.1165981489841
 31
0.0
  0
LINE
  5
1E4
330
1F
100
AcDbEntity
  8
AM_0
  6
CONTINUOUS
 62
     7
100
AcDbLine
 10
378.1295412720887
 20
-188.323106680665
 30
0.0
 11
378.1295412720887
 21
-157.1461921444252
 31
0.0
  0
LINE
  5
1E5
330
1F
100
AcDbEntity
  8
AM_0
  6
CONTINUOUS
 62
     7
100
AcDbLine
 10
359.1295412720887
 20
-157.1461921444252
 30
0.0
 11
378.1295412720887
 21
-157.1461921444252
 31
0.0
  0
LINE
  5
1E6
330
1F
100
AcDbEntity
  8
AM_0
  6
CONTINUOUS
 62
     7
100
AcDbLine
 10
378.1295412720887
 20
-164.9404207784851
 30
0.0
 11
359.1295412720887
 21
-164.9404207784851
 31
0.0
  0
LINE
  5
1E7
330
1F
100
AcDbEntity
  8
AM_0
  6
CONTINUOUS
 62
     7
100
AcDbLine
 10
359.1295412720887
 20
-188.323106680665
 30
0.0
 11
359.1295412720887
 21
-157.1461921444252
 31
0.0
  0
LINE
  5
1E8
330
1F
100
AcDbEntity
  8
AM_0
  6
CONTINUOUS
 62
     7
100
AcDbLine
 10
359.1295412720887
 20
-188.323106680665
 30
0.0
 11
378.1295412720887
 21
-188.323106680665
 31
0.0
  0
LINE
  5
1E9
330
1F
100
AcDbEntity
  8
AM_0
  6
CONTINUOUS
 62
     7
100
AcDbLine
 10
378.1295412720887
 20
-180.5288780466051
 30
0.0
 11
359.1295412720887
 21
-180.5288780466051
 31
0.0
  0
LINE
  5
1EA
330
1F
100
AcDbEntity
  8
AM_0
  6
CONTINUOUS
 62
     7
100
AcDbLine
 10
354.1295412720887
 20
-162.2163994125453
 30
0.0
 11
357.1295412720887
 21
-162.1226494125453
 31
0.0
  0
LINE
  5
1EB
330
1F
100
AcDbEntity
  8
AM_0
  6
CONTINUOUS
 62
     7
100
AcDbLine
 10
357.1295412720887
 20
-183.346649412545
 30
0.0
 11
357.1295412720887
 21
-162.1226494125453
 31
0.0
  0
LINE
  5
1EC
330
1F
100
AcDbEntity
  8
AM_0
  6
CONTINUOUS
 62
     7
100
AcDbLine
 10
357.1295412720887
 20
-162.1226494125453
 30
0.0
 11
359.1295412720887
 21
-162.1226494125453
 31
0.0
  0
LINE
  5
1ED
330
1F
100
AcDbEntity
  8
AM_0
  6
CONTINUOUS
 62
     7
100
AcDbLine
 10
357.1295412720887
 20
-183.346649412545
 30
0.0
 11
359.1295412720887
 21
-183.346649412545
 31
0.0
  0
LINE
  5
1EE
330
1F
100
AcDbEntity
  8
AM_0
  6
CONTINUOUS
 62
     7
100
AcDbLine
 10
354.1295412720887
 20
-183.252899412545
 30
0.0
 11
357.1295412720887
 21
-183.346649412545
 31
0.0
  0
LINE
  5
1EF
330
1F
100
AcDbEntity
  8
AM_0
  6
CONTINUOUS
 62
     7
100
AcDbLine
 10
207.1295412720888
 20
-193.7346494125451
 30
0.0
 11
207.1295412720888
 21
-151.7346494125451
 31
0.0
  0
LINE
  5
1F0
330
1F
100
AcDbEntity
  8
AM_0
  6
CONTINUOUS
 62
     7
100
AcDbLine
 10
204.1295412720889
 20
-191.7346494125451
 30
0.0
 11
204.1295412720889
 21
-153.7346494125451
 31
0.0
  0
LINE
  5
1F1
330
1F
100
AcDbEntity
  8
AM_0
  6
CONTINUOUS
 62
     7
100
AcDbLine
 10
195.1295412720889
 20
-191.7346494125451
 30
0.0
 11
195.1295412720889
 21
-153.7346494125451
 31
0.0
  0
LINE
  5
1F2
330
1F
100
AcDbEntity
  8
AM_0
  6
CONTINUOUS
 62
     7
100
AcDbLine
 10
189.1295412720888
 20
-191.7346494125451
 30
0.0
 11
189.1295412720888
 21
-153.7346494125451
 31
0.0
  0
LINE
  5
1F3
330
1F
100
AcDbEntity
  8
AM_0
  6
CONTINUOUS
 62
     7
100
AcDbLine
 10
148.1295412720888
 20
-191.7346494125451
 30
0.0
 11
148.1295412720888
 21
-153.7346494125451
 31
0.0
  0
LINE
  5
1F4
330
1F
100
AcDbEntity
  8
AM_0
  6
CONTINUOUS
 62
     7
100
AcDbLine
 10
137.1295412720889
 20
-185.9846494125451
 30
0.0
 11
137.1295412720889
 21
-159.4846494125451
 31
0.0
  0
LINE
  5
1F5
330
1F
100
AcDbEntity
  8
AM_0
  6
CONTINUOUS
 62
     7
100
AcDbLine
 10
113.1295412720889
 20
-188.323106680665
 30
0.0
 11
113.1295412720889
 21
-157.1461921444252
 31
0.0
  0
LINE
  5
1F6
330
1F
100
AcDbEntity
  8
AM_0
  6
CONTINUOUS
 62
     7
100
AcDbLine
 10
132.1295412720888
 20
-188.323106680665
 30
0.0
 11
132.1295412720888
 21
-157.1461921444252
 31
0.0
  0
LINE
  5
1F7
330
1F
100
AcDbEntity
  8
AM_0
  6
CONTINUOUS
 62
     7
100
AcDbLine
 10
134.1295412720889
 20
-183.346649412545
 30
0.0
 11
134.1295412720889
 21
-162.1226494125453
 31
0.0
  0
LINE
  5
1F8
330
1F
100
AcDbEntity
  8
AM_0
  6
CONTINUOUS
 62
     7
100
AcDbLine
 10
146.1295412720889
 20
-178.3527006761061
 30
0.0
 11
146.1295412720889
 21
-167.1165981489841
 31
0.0
  0
LINE
  5
1F9
330
1F
100
AcDbEntity
  8
AM_0
  6
CONTINUOUS
 62
     7
100
AcDbLine
 10
134.1295412720889
 20
-162.1226494125453
 30
0.0
 11
132.1295412720888
 21
-162.1226494125453
 31
0.0
  0
LINE
  5
1FA
330
1F
100
AcDbEntity
  8
AM_0
  6
CONTINUOUS
 62
     7
100
AcDbLine
 10
195.1295412720889
 20
-156.2346494125451
 30
0.0
 11
189.1295412720888
 21
-156.2346494125451
 31
0.0
  0
LINE
  5
1FB
330
1F
100
AcDbEntity
  8
AM_0
  6
CONTINUOUS
 62
     7
100
AcDbLine
 10
207.1295412720888
 20
-154.7346494125451
 30
0.0
 11
204.1295412720889
 21
-154.7346494125451
 31
0.0
  0
LINE
  5
1FC
330
1F
100
AcDbEntity
  8
AM_0
  6
CONTINUOUS
 62
     7
100
AcDbLine
 10
215.6295412720889
 20
-151.7346494125451
 30
0.0
 11
207.1295412720888
 21
-151.7346494125451
 31
0.0
  0
LINE
  5
1FD
330
1F
100
AcDbEntity
  8
AM_0
  6
CONTINUOUS
 62
     7
100
AcDbLine
 10
219.6295412720888
 20
-193.7346494125451
 30
0.0
 11
207.1295412720888
 21
-193.7346494125451
 31
0.0
  0
LINE
  5
1FE
330
1F
100
AcDbEntity
  8
AM_0
  6
CONTINUOUS
 62
     7
100
AcDbLine
 10
207.1295412720888
 20
-190.7346494125451
 30
0.0
 11
204.1295412720889
 21
-190.7346494125451
 31
0.0
  0
LINE
  5
1FF
330
1F
100
AcDbEntity
  8
AM_0
  6
CONTINUOUS
 62
     7
100
AcDbLine
 10
195.1295412720889
 20
-153.7346494125451
 30
0.0
 11
204.1295412720889
 21
-153.7346494125451
 31
0.0
  0
LINE
  5
200
330
1F
100
AcDbEntity
  8
AM_0
  6
CONTINUOUS
 62
     7
100
AcDbLine
 10
195.1295412720889
 20
-191.7346494125451
 30
0.0
 11
204.1295412720889
 21
-191.7346494125451
 31
0.0
  0
LINE
  5
201
330
1F
100
AcDbEntity
  8
AM_0
  6
CONTINUOUS
 62
     7
100
AcDbLine
 10
204.1295412720889
 20
-160.1875734095743
 30
0.0
 11
195.1295412720889
 21
-160.1875734095743
 31
0.0
  0
LINE
  5
202
330
1F
100
AcDbEntity
  8
AM_0
  6
CONTINUOUS
 62
     7
100
AcDbLine
 10
195.1295412720889
 20
-166.6518868822469
 30
0.0
 11
204.1295412720889
 21
-166.6518868822469
 31
0.0
  0
LINE
  5
203
330
1F
100
AcDbEntity
  8
AM_0
  6
CONTINUOUS
 62
     7
100
AcDbLine
 10
204.1295412720889
 20
-185.2817254155159
 30
0.0
 11
195.1295412720889
 21
-185.2817254155159
 31
0.0
  0
LINE
  5
204
330
1F
100
AcDbEntity
  8
AM_0
  6
CONTINUOUS
 62
     7
100
AcDbLine
 10
195.1295412720889
 20
-178.8174119428433
 30
0.0
 11
204.1295412720889
 21
-178.8174119428433
 31
0.0
  0
LINE
  5
205
330
1F
100
AcDbEntity
  8
AM_0
  6
CONTINUOUS
 62
     7
100
AcDbLine
 10
195.1295412720889
 20
-189.2346494125451
 30
0.0
 11
189.1295412720888
 21
-189.2346494125451
 31
0.0
  0
LINE
  5
206
330
1F
100
AcDbEntity
  8
AM_0
  6
CONTINUOUS
 62
     7
100
AcDbLine
 10
148.1295412720888
 20
-153.7346494125451
 30
0.0
 11
189.1295412720888
 21
-153.7346494125451
 31
0.0
  0
LINE
  5
207
330
1F
100
AcDbEntity
  8
AM_0
  6
CONTINUOUS
 62
     7
100
AcDbLine
 10
189.1295412720888
 20
-160.1875734095743
 30
0.0
 11
148.1295412720888
 21
-160.1875734095743
 31
0.0
  0
LINE
  5
208
330
1F
100
AcDbEntity
  8
AM_0
  6
CONTINUOUS
 62
     7
100
AcDbLine
 10
148.1295412720888
 20
-166.6518868822469
 30
0.0
 11
189.1295412720888
 21
-166.6518868822469
 31
0.0
  0
LINE
  5
209
330
1F
100
AcDbEntity
  8
AM_0
  6
CONTINUOUS
 62
     7
100
AcDbLine
 10
148.1295412720888
 20
-191.7346494125451
 30
0.0
 11
189.1295412720888
 21
-191.7346494125451
 31
0.0
  0
LINE
  5
20A
330
1F
100
AcDbEntity
  8
AM_0
  6
CONTINUOUS
 62
     7
100
AcDbLine
 10
189.1295412720888
 20
-185.2817254155159
 30
0.0
 11
148.1295412720888
 21
-185.2817254155159
 31
0.0
  0
LINE
  5
20B
330
1F
100
AcDbEntity
  8
AM_0
  6
CONTINUOUS
 62
     7
100
AcDbLine
 10
148.1295412720888
 20
-178.8174119428433
 30
0.0
 11
189.1295412720888
 21
-178.8174119428433
 31
0.0
  0
LINE
  5
20C
330
1F
100
AcDbEntity
  8
AM_0
  6
CONTINUOUS
 62
     7
100
AcDbLine
 10
137.1295412720889
 20
-159.4846494125451
 30
0.0
 11
148.1295412720888
 21
-159.4846494125451
 31
0.0
  0
LINE
  5
20D
330
1F
100
AcDbEntity
  8
AM_0
  6
CONTINUOUS
 62
     7
100
AcDbLine
 10
146.1295412720889
 20
-167.1165981489841
 30
0.0
 11
137.1295412720889
 21
-167.1165981489841
 31
0.0
  0
LINE
  5
20E
330
1F
100
AcDbEntity
  8
AM_0
  6
CONTINUOUS
 62
     7
100
AcDbLine
 10
137.1295412720889
 20
-185.9846494125451
 30
0.0
 11
148.1295412720888
 21
-185.9846494125451
 31
0.0
  0
LINE
  5
20F
330
1F
100
AcDbEntity
  8
AM_0
  6
CONTINUOUS
 62
     7
100
AcDbLine
 10
146.1295412720889
 20
-178.3527006761061
 30
0.0
 11
137.1295412720889
 21
-178.3527006761061
 31
0.0
  0
LINE
  5
210
330
1F
100
AcDbEntity
  8
AM_0
  6
CONTINUOUS
 62
     7
100
AcDbLine
 10
132.1295412720888
 20
-157.1461921444252
 30
0.0
 11
113.1295412720889
 21
-157.1461921444252
 31
0.0
  0
LINE
  5
211
330
1F
100
AcDbEntity
  8
AM_0
  6
CONTINUOUS
 62
     7
100
AcDbLine
 10
113.1295412720889
 20
-164.9404207784851
 30
0.0
 11
132.1295412720888
 21
-164.9404207784851
 31
0.0
  0
LINE
  5
212
330
1F
100
AcDbEntity
  8
AM_0
  6
CONTINUOUS
 62
     7
100
AcDbLine
 10
132.1295412720888
 20
-188.323106680665
 30
0.0
 11
113.1295412720889
 21
-188.323106680665
 31
0.0
  0
LINE
  5
213
330
1F
100
AcDbEntity
  8
AM_0
  6
CONTINUOUS
 62
     7
100
AcDbLine
 10
113.1295412720889
 20
-180.5288780466051
 30
0.0
 11
132.1295412720888
 21
-180.5288780466051
 31
0.0
  0
LINE
  5
214
330
1F
100
AcDbEntity
  8
AM_0
  6
CONTINUOUS
 62
     7
100
AcDbLine
 10
137.1295412720889
 20
-162.2163994125453
 30
0.0
 11
134.1295412720888
 21
-162.1226494125453
 31
0.0
  0
LINE
  5
215
330
1F
100
AcDbEntity
  8
AM_0
  6
CONTINUOUS
 62
     7
100
AcDbLine
 10
134.1295412720889
 20
-183.346649412545
 30
0.0
 11
132.1295412720888
 21
-183.346649412545
 31
0.0
  0
LINE
  5
216
330
1F
100
AcDbEntity
  8
AM_0
  6
CONTINUOUS
 62
     7
100
AcDbLine
 10
137.1295412720889
 20
-183.252899412545
 30
0.0
 11
134.1295412720888
 21
-183.346649412545
 31
0.0
  0
LINE
  5
217
330
1F
100
AcDbEntity
  8
AM_0
  6
CONTINUOUS
 62
     7
100
AcDbLine
 10
198.1295412720888
 20
-153.7346494125451
 30
0.0
 11
198.1295412720888
 21
-54.73464941254514
 31
0.0
  0
LINE
  5
218
330
1F
100
AcDbEntity
  8
AM_0
  6
CONTINUOUS
 62
     7
100
AcDbLine
 10
214.6295412720889
 20
-24.73464941254525
 30
0.0
 11
214.6295412720889
 21
-25.73464941254514
 31
0.0
  0
LINE
  5
219
330
1F
100
AcDbEntity
  8
AM_0
  6
CONTINUOUS
 62
     7
100
AcDbLine
 10
220.3430878267892
 20
-23.74648201101633
 30
0.0
 11
220.4295412720888
 21
-24.73464941254525
 31
0.0
  0
LINE
  5
21A
330
1F
100
AcDbEntity
  8
AM_0
  6
CONTINUOUS
 62
     7
100
AcDbLine
 10
214.9159947173885
 20
-23.74648201101633
 30
0.0
 11
214.8295412720889
 21
-24.73464941254525
 31
0.0
  0
ARC
  5
21B
330
1F
100
AcDbEntity
  8
AM_0
  6
CONTINUOUS
 62
     7
100
AcDbCircle
 10
217.6295412720889
 20
-27.33464941254505
 30
0.0
 40
5.0
100
AcDbArc
 50
66.4528627629341
 51
113.5471372370659
  0
ARC
  5
21C
330
1F
100
AcDbEntity
  8
AM_0
  6
CONTINUOUS
 62
     7
100
AcDbCircle
 10
216.1114283550986
 20
-23.85106890231322
 30
0.0
 40
1.199999999999999
100
AcDbArc
 50
113.5471372370654
 51
175.0000000000005
  0
ARC
  5
21D
330
1F
100
AcDbEntity
  8
AM_0
  6
CONTINUOUS
 62
     7
100
AcDbCircle
 10
219.1476541890794
 20
-23.85106890231322
 30
0.0
 40
1.199999999999999
100
AcDbArc
 50
4.999999999999487
 51
66.45286276293463
  0
LINE
  5
21E
330
1F
100
AcDbEntity
  8
AM_0
  6
CONTINUOUS
 62
     7
100
AcDbLine
 10
214.6295412720889
 20
-24.73464941254525
 30
0.0
 11
220.629541272089
 21
-24.73464941254525
 31
0.0
  0
LINE
  5
21F
330
1F
100
AcDbEntity
  8
AM_0
  6
CONTINUOUS
 62
     7
100
AcDbLine
 10
220.629541272089
 20
-24.73464941254525
 30
0.0
 11
220.629541272089
 21
-25.73464941254514
 31
0.0
  0
LINE
  5
220
330
1F
100
AcDbEntity
  8
AM_0
  6
CONTINUOUS
 62
     7
100
AcDbLine
 10
276.6295412720887
 20
-24.73464941254525
 30
0.0
 11
276.6295412720887
 21
-25.73464941254514
 31
0.0
  0
LINE
  5
221
330
1F
100
AcDbEntity
  8
AM_0
  6
CONTINUOUS
 62
     7
100
AcDbLine
 10
270.9159947173883
 20
-23.74648201101633
 30
0.0
 11
270.8295412720888
 21
-24.73464941254525
 31
0.0
  0
LINE
  5
222
330
1F
100
AcDbEntity
  8
AM_0
  6
CONTINUOUS
 62
     7
100
AcDbLine
 10
276.3430878267886
 20
-23.74648201101633
 30
0.0
 11
276.4295412720886
 21
-24.73464941254525
 31
0.0
  0
ARC
  5
223
330
1F
100
AcDbEntity
  8
AM_0
  6
CONTINUOUS
 62
     7
100
AcDbCircle
 10
273.6295412720889
 20
-27.33464941254505
 30
0.0
 40
5.0
100
AcDbArc
 50
66.4528627629341
 51
113.5471372370659
  0
ARC
  5
224
330
1F
100
AcDbEntity
  8
AM_0
  6
CONTINUOUS
 62
     7
100
AcDbCircle
 10
275.1476541890792
 20
-23.85106890231322
 30
0.0
 40
1.199999999999999
100
AcDbArc
 50
4.999999999999487
 51
66.45286276293463
  0
ARC
  5
225
330
1F
100
AcDbEntity
  8
AM_0
  6
CONTINUOUS
 62
     7
100
AcDbCircle
 10
272.1114283550984
 20
-23.85106890231322
 30
0.0
 40
1.199999999999999
100
AcDbArc
 50
113.5471372370654
 51
175.0000000000005
  0
LINE
  5
226
330
1F
100
AcDbEntity
  8
AM_0
  6
CONTINUOUS
 62
     7
100
AcDbLine
 10
276.6295412720887
 20
-24.73464941254525
 30
0.0
 11
270.629541272089
 21
-24.73464941254525
 31
0.0
  0
LINE
  5
227
330
1F
100
AcDbEntity
  8
AM_0
  6
CONTINUOUS
 62
     7
100
AcDbLine
 10
270.629541272089
 20
-24.73464941254525
 30
0.0
 11
270.629541272089
 21
-25.73464941254514
 31
0.0
  0
LINE
  5
228
330
1F
100
AcDbEntity
  8
AM_0
  6
CONTINUOUS
 62
     7
100
AcDbLine
 10
-176.5223123564261
 20
-191.7346494125451
 30
0.0
 11
-176.5223123564261
 21
-153.7346494125451
 31
0.0
  0
LINE
  5
229
330
1F
100
AcDbEntity
  8
AM_0
  6
CONTINUOUS
 62
     7
100
AcDbLine
 10
-170.5223123564262
 20
-191.7346494125451
 30
0.0
 11
-170.5223123564262
 21
-153.7346494125451
 31
0.0
  0
LINE
  5
22A
330
1F
100
AcDbEntity
  8
AM_0
  6
CONTINUOUS
 62
     7
100
AcDbLine
 10
-129.5223123564261
 20
-191.7346494125451
 30
0.0
 11
-129.5223123564261
 21
-153.7346494125451
 31
0.0
  0
LINE
  5
22B
330
1F
100
AcDbEntity
  8
AM_0
  6
CONTINUOUS
 62
     7
100
AcDbLine
 10
-118.5223123564261
 20
-185.9846494125451
 30
0.0
 11
-118.5223123564261
 21
-159.4846494125451
 31
0.0
  0
LINE
  5
22C
330
1F
100
AcDbEntity
  8
AM_0
  6
CONTINUOUS
 62
     7
100
AcDbLine
 10
-94.5223123564262
 20
-188.323106680665
 30
0.0
 11
-94.5223123564262
 21
-157.1461921444252
 31
0.0
  0
LINE
  5
22D
330
1F
100
AcDbEntity
  8
AM_0
  6
CONTINUOUS
 62
     7
100
AcDbLine
 10
-113.5223123564261
 20
-188.323106680665
 30
0.0
 11
-113.5223123564261
 21
-157.1461921444252
 31
0.0
  0
LINE
  5
22E
330
1F
100
AcDbEntity
  8
AM_0
  6
CONTINUOUS
 62
     7
100
AcDbLine
 10
-115.5223123564262
 20
-183.346649412545
 30
0.0
 11
-115.5223123564262
 21
-162.1226494125453
 31
0.0
  0
LINE
  5
22F
330
1F
100
AcDbEntity
  8
AM_0
  6
CONTINUOUS
 62
     7
100
AcDbLine
 10
-127.5223123564261
 20
-178.3527006761061
 30
0.0
 11
-127.5223123564261
 21
-167.1165981489841
 31
0.0
  0
LINE
  5
230
330
1F
100
AcDbEntity
  8
AM_0
  6
CONTINUOUS
 62
     7
100
AcDbLine
 10
-115.5223123564262
 20
-162.1226494125453
 30
0.0
 11
-113.5223123564261
 21
-162.1226494125453
 31
0.0
  0
LINE
  5
231
330
1F
100
AcDbEntity
  8
AM_0
  6
CONTINUOUS
 62
     7
100
AcDbLine
 10
-176.5223123564261
 20
-156.2346494125451
 30
0.0
 11
-170.5223123564262
 21
-156.2346494125451
 31
0.0
  0
LINE
  5
232
330
1F
100
AcDbEntity
  8
AM_0
  6
CONTINUOUS
 62
     7
100
AcDbLine
 10
-176.5223123564261
 20
-153.7346494125451
 30
0.0
 11
-179.5223123564261
 21
-153.7346494125451
 31
0.0
  0
LINE
  5
233
330
1F
100
AcDbEntity
  8
AM_0
  6
CONTINUOUS
 62
     7
100
AcDbLine
 10
-176.5223123564261
 20
-191.7346494125451
 30
0.0
 11
-179.5223123564261
 21
-191.7346494125451
 31
0.0
  0
LINE
  5
234
330
1F
100
AcDbEntity
  8
AM_0
  6
CONTINUOUS
 62
     7
100
AcDbLine
 10
-179.5223123564261
 20
-160.1875734095743
 30
0.0
 11
-176.5223123564261
 21
-160.1875734095743
 31
0.0
  0
LINE
  5
235
330
1F
100
AcDbEntity
  8
AM_0
  6
CONTINUOUS
 62
     7
100
AcDbLine
 10
-176.5223123564261
 20
-166.6518868822469
 30
0.0
 11
-179.5223123564261
 21
-166.6518868822469
 31
0.0
  0
LINE
  5
236
330
1F
100
AcDbEntity
  8
AM_0
  6
CONTINUOUS
 62
     7
100
AcDbLine
 10
-179.5223123564261
 20
-185.2817254155159
 30
0.0
 11
-176.5223123564261
 21
-185.2817254155159
 31
0.0
  0
LINE
  5
237
330
1F
100
AcDbEntity
  8
AM_0
  6
CONTINUOUS
 62
     7
100
AcDbLine
 10
-176.5223123564261
 20
-178.8174119428433
 30
0.0
 11
-179.5223123564261
 21
-178.8174119428433
 31
0.0
  0
LINE
  5
238
330
1F
100
AcDbEntity
  8
AM_0
  6
CONTINUOUS
 62
     7
100
AcDbLine
 10
-176.5223123564261
 20
-189.2346494125451
 30
0.0
 11
-170.5223123564262
 21
-189.2346494125451
 31
0.0
  0
LINE
  5
239
330
1F
100
AcDbEntity
  8
AM_0
  6
CONTINUOUS
 62
     7
100
AcDbLine
 10
-129.5223123564261
 20
-153.7346494125451
 30
0.0
 11
-170.5223123564262
 21
-153.7346494125451
 31
0.0
  0
LINE
  5
23A
330
1F
100
AcDbEntity
  8
AM_0
  6
CONTINUOUS
 62
     7
100
AcDbLine
 10
-170.5223123564262
 20
-160.1875734095743
 30
0.0
 11
-129.5223123564261
 21
-160.1875734095743
 31
0.0
  0
LINE
  5
23B
330
1F
100
AcDbEntity
  8
AM_0
  6
CONTINUOUS
 62
     7
100
AcDbLine
 10
-129.5223123564261
 20
-166.6518868822469
 30
0.0
 11
-170.5223123564262
 21
-166.6518868822469
 31
0.0
  0
LINE
  5
23C
330
1F
100
AcDbEntity
  8
AM_0
  6
CONTINUOUS
 62
     7
100
AcDbLine
 10
-129.5223123564261
 20
-191.7346494125451
 30
0.0
 11
-170.5223123564262
 21
-191.7346494125451
 31
0.0
  0
LINE
  5
23D
330
1F
100
AcDbEntity
  8
AM_0
  6
CONTINUOUS
 62
     7
100
AcDbLine
 10
-170.5223123564262
 20
-185.2817254155159
 30
0.0
 11
-129.5223123564261
 21
-185.2817254155159
 31
0.0
  0
LINE
  5
23E
330
1F
100
AcDbEntity
  8
AM_0
  6
CONTINUOUS
 62
     7
100
AcDbLine
 10
-129.5223123564261
 20
-178.8174119428433
 30
0.0
 11
-170.5223123564262
 21
-178.8174119428433
 31
0.0
  0
LINE
  5
23F
330
1F
100
AcDbEntity
  8
AM_0
  6
CONTINUOUS
 62
     7
100
AcDbLine
 10
-118.5223123564261
 20
-159.4846494125451
 30
0.0
 11
-129.5223123564261
 21
-159.4846494125451
 31
0.0
  0
LINE
  5
240
330
1F
100
AcDbEntity
  8
AM_0
  6
CONTINUOUS
 62
     7
100
AcDbLine
 10
-127.5223123564261
 20
-167.1165981489841
 30
0.0
 11
-118.5223123564261
 21
-167.1165981489841
 31
0.0
  0
LINE
  5
241
330
1F
100
AcDbEntity
  8
AM_0
  6
CONTINUOUS
 62
     7
100
AcDbLine
 10
-118.5223123564261
 20
-185.9846494125451
 30
0.0
 11
-129.5223123564261
 21
-185.9846494125451
 31
0.0
  0
LINE
  5
242
330
1F
100
AcDbEntity
  8
AM_0
  6
CONTINUOUS
 62
     7
100
AcDbLine
 10
-127.5223123564261
 20
-178.3527006761061
 30
0.0
 11
-118.5223123564261
 21
-178.3527006761061
 31
0.0
  0
LINE
  5
243
330
1F
100
AcDbEntity
  8
AM_0
  6
CONTINUOUS
 62
     7
100
AcDbLine
 10
-113.5223123564261
 20
-157.1461921444252
 30
0.0
 11
-94.5223123564262
 21
-157.1461921444252
 31
0.0
  0
LINE
  5
244
330
1F
100
AcDbEntity
  8
AM_0
  6
CONTINUOUS
 62
     7
100
AcDbLine
 10
-94.5223123564262
 20
-164.9404207784851
 30
0.0
 11
-113.5223123564261
 21
-164.9404207784851
 31
0.0
  0
LINE
  5
245
330
1F
100
AcDbEntity
  8
AM_0
  6
CONTINUOUS
 62
     7
100
AcDbLine
 10
-113.5223123564261
 20
-188.323106680665
 30
0.0
 11
-94.5223123564262
 21
-188.323106680665
 31
0.0
  0
LINE
  5
246
330
1F
100
AcDbEntity
  8
AM_0
  6
CONTINUOUS
 62
     7
100
AcDbLine
 10
-94.5223123564262
 20
-180.5288780466051
 30
0.0
 11
-113.5223123564261
 21
-180.5288780466051
 31
0.0
  0
LINE
  5
247
330
1F
100
AcDbEntity
  8
AM_0
  6
CONTINUOUS
 62
     7
100
AcDbLine
 10
-118.5223123564261
 20
-162.2163994125453
 30
0.0
 11
-115.5223123564261
 21
-162.1226494125453
 31
0.0
  0
LINE
  5
248
330
1F
100
AcDbEntity
  8
AM_0
  6
CONTINUOUS
 62
     7
100
AcDbLine
 10
-115.5223123564262
 20
-183.346649412545
 30
0.0
 11
-113.5223123564261
 21
-183.346649412545
 31
0.0
  0
LINE
  5
249
330
1F
100
AcDbEntity
  8
AM_0
  6
CONTINUOUS
 62
     7
100
AcDbLine
 10
-118.5223123564261
 20
-183.252899412545
 30
0.0
 11
-115.5223123564261
 21
-183.346649412545
 31
0.0
  0
LINE
  5
24A
330
1F
100
AcDbEntity
  8
AM_0
  6
CONTINUOUS
 62
     7
100
AcDbLine
 10
-277.5223123564261
 20
-191.7346494125451
 30
0.0
 11
-277.5223123564261
 21
-153.7346494125451
 31
0.0
  0
LINE
  5
24B
330
1F
100
AcDbEntity
  8
AM_0
  6
CONTINUOUS
 62
     7
100
AcDbLine
 10
-283.5223123564261
 20
-191.7346494125451
 30
0.0
 11
-283.5223123564261
 21
-153.7346494125451
 31
0.0
  0
LINE
  5
24C
330
1F
100
AcDbEntity
  8
AM_0
  6
CONTINUOUS
 62
     7
100
AcDbLine
 10
-324.5223123564261
 20
-191.7346494125451
 30
0.0
 11
-324.5223123564261
 21
-153.7346494125451
 31
0.0
  0
LINE
  5
24D
330
1F
100
AcDbEntity
  8
AM_0
  6
CONTINUOUS
 62
     7
100
AcDbLine
 10
-335.5223123564261
 20
-185.9846494125451
 30
0.0
 11
-335.5223123564261
 21
-159.4846494125451
 31
0.0
  0
LINE
  5
24E
330
1F
100
AcDbEntity
  8
AM_0
  6
CONTINUOUS
 62
     7
100
AcDbLine
 10
-359.5223123564261
 20
-188.323106680665
 30
0.0
 11
-359.5223123564261
 21
-157.1461921444252
 31
0.0
  0
LINE
  5
24F
330
1F
100
AcDbEntity
  8
AM_0
  6
CONTINUOUS
 62
     7
100
AcDbLine
 10
-340.5223123564261
 20
-188.323106680665
 30
0.0
 11
-340.5223123564261
 21
-157.1461921444252
 31
0.0
  0
LINE
  5
250
330
1F
100
AcDbEntity
  8
AM_0
  6
CONTINUOUS
 62
     7
100
AcDbLine
 10
-338.5223123564261
 20
-183.346649412545
 30
0.0
 11
-338.5223123564261
 21
-162.1226494125453
 31
0.0
  0
LINE
  5
251
330
1F
100
AcDbEntity
  8
AM_0
  6
CONTINUOUS
 62
     7
100
AcDbLine
 10
-326.5223123564261
 20
-178.3527006761061
 30
0.0
 11
-326.5223123564261
 21
-167.1165981489841
 31
0.0
  0
LINE
  5
252
330
1F
100
AcDbEntity
  8
AM_0
  6
CONTINUOUS
 62
     7
100
AcDbLine
 10
-338.5223123564261
 20
-162.1226494125453
 30
0.0
 11
-340.5223123564261
 21
-162.1226494125453
 31
0.0
  0
LINE
  5
253
330
1F
100
AcDbEntity
  8
AM_0
  6
CONTINUOUS
 62
     7
100
AcDbLine
 10
-277.5223123564261
 20
-156.2346494125451
 30
0.0
 11
-283.5223123564261
 21
-156.2346494125451
 31
0.0
  0
LINE
  5
254
330
1F
100
AcDbEntity
  8
AM_0
  6
CONTINUOUS
 62
     7
100
AcDbLine
 10
-277.5223123564261
 20
-153.7346494125451
 30
0.0
 11
-274.5223123564262
 21
-153.7346494125451
 31
0.0
  0
LINE
  5
255
330
1F
100
AcDbEntity
  8
AM_0
  6
CONTINUOUS
 62
     7
100
AcDbLine
 10
-277.5223123564261
 20
-191.7346494125451
 30
0.0
 11
-274.5223123564262
 21
-191.7346494125451
 31
0.0
  0
LINE
  5
256
330
1F
100
AcDbEntity
  8
AM_0
  6
CONTINUOUS
 62
     7
100
AcDbLine
 10
-274.5223123564262
 20
-160.1875734095743
 30
0.0
 11
-277.5223123564261
 21
-160.1875734095743
 31
0.0
  0
LINE
  5
257
330
1F
100
AcDbEntity
  8
AM_0
  6
CONTINUOUS
 62
     7
100
AcDbLine
 10
-277.5223123564261
 20
-166.6518868822469
 30
0.0
 11
-274.5223123564262
 21
-166.6518868822469
 31
0.0
  0
LINE
  5
258
330
1F
100
AcDbEntity
  8
AM_0
  6
CONTINUOUS
 62
     7
100
AcDbLine
 10
-274.5223123564262
 20
-185.2817254155159
 30
0.0
 11
-277.5223123564261
 21
-185.2817254155159
 31
0.0
  0
LINE
  5
259
330
1F
100
AcDbEntity
  8
AM_0
  6
CONTINUOUS
 62
     7
100
AcDbLine
 10
-277.5223123564261
 20
-178.8174119428433
 30
0.0
 11
-274.5223123564262
 21
-178.8174119428433
 31
0.0
  0
LINE
  5
25A
330
1F
100
AcDbEntity
  8
AM_0
  6
CONTINUOUS
 62
     7
100
AcDbLine
 10
-277.5223123564261
 20
-189.2346494125451
 30
0.0
 11
-283.5223123564261
 21
-189.2346494125451
 31
0.0
  0
LINE
  5
25B
330
1F
100
AcDbEntity
  8
AM_0
  6
CONTINUOUS
 62
     7
100
AcDbLine
 10
-324.5223123564261
 20
-153.7346494125451
 30
0.0
 11
-283.5223123564261
 21
-153.7346494125451
 31
0.0
  0
LINE
  5
25C
330
1F
100
AcDbEntity
  8
AM_0
  6
CONTINUOUS
 62
     7
100
AcDbLine
 10
-283.5223123564261
 20
-160.1875734095743
 30
0.0
 11
-324.5223123564261
 21
-160.1875734095743
 31
0.0
  0
LINE
  5
25D
330
1F
100
AcDbEntity
  8
AM_0
  6
CONTINUOUS
 62
     7
100
AcDbLine
 10
-324.5223123564261
 20
-166.6518868822469
 30
0.0
 11
-283.5223123564261
 21
-166.6518868822469
 31
0.0
  0
LINE
  5
25E
330
1F
100
AcDbEntity
  8
AM_0
  6
CONTINUOUS
 62
     7
100
AcDbLine
 10
-324.5223123564261
 20
-191.7346494125451
 30
0.0
 11
-283.5223123564261
 21
-191.7346494125451
 31
0.0
  0
LINE
  5
25F
330
1F
100
AcDbEntity
  8
AM_0
  6
CONTINUOUS
 62
     7
100
AcDbLine
 10
-283.5223123564261
 20
-185.2817254155159
 30
0.0
 11
-324.5223123564261
 21
-185.2817254155159
 31
0.0
  0
LINE
  5
260
330
1F
100
AcDbEntity
  8
AM_0
  6
CONTINUOUS
 62
     7
100
AcDbLine
 10
-324.5223123564261
 20
-178.8174119428433
 30
0.0
 11
-283.5223123564261
 21
-178.8174119428433
 31
0.0
  0
LINE
  5
261
330
1F
100
AcDbEntity
  8
AM_0
  6
CONTINUOUS
 62
     7
100
AcDbLine
 10
-335.5223123564261
 20
-159.4846494125451
 30
0.0
 11
-324.5223123564261
 21
-159.4846494125451
 31
0.0
  0
LINE
  5
262
330
1F
100
AcDbEntity
  8
AM_0
  6
CONTINUOUS
 62
     7
100
AcDbLine
 10
-326.5223123564261
 20
-167.1165981489841
 30
0.0
 11
-335.5223123564261
 21
-167.1165981489841
 31
0.0
  0
LINE
  5
263
330
1F
100
AcDbEntity
  8
AM_0
  6
CONTINUOUS
 62
     7
100
AcDbLine
 10
-335.5223123564261
 20
-185.9846494125451
 30
0.0
 11
-324.5223123564261
 21
-185.9846494125451
 31
0.0
  0
LINE
  5
264
330
1F
100
AcDbEntity
  8
AM_0
  6
CONTINUOUS
 62
     7
100
AcDbLine
 10
-326.5223123564261
 20
-178.3527006761061
 30
0.0
 11
-335.5223123564261
 21
-178.3527006761061
 31
0.0
  0
LINE
  5
265
330
1F
100
AcDbEntity
  8
AM_0
  6
CONTINUOUS
 62
     7
100
AcDbLine
 10
-340.5223123564261
 20
-157.1461921444252
 30
0.0
 11
-359.5223123564261
 21
-157.1461921444252
 31
0.0
  0
LINE
  5
266
330
1F
100
AcDbEntity
  8
AM_0
  6
CONTINUOUS
 62
     7
100
AcDbLine
 10
-359.5223123564261
 20
-164.9404207784851
 30
0.0
 11
-340.5223123564261
 21
-164.9404207784851
 31
0.0
  0
LINE
  5
267
330
1F
100
AcDbEntity
  8
AM_0
  6
CONTINUOUS
 62
     7
100
AcDbLine
 10
-340.5223123564261
 20
-188.323106680665
 30
0.0
 11
-359.5223123564261
 21
-188.323106680665
 31
0.0
  0
LINE
  5
268
330
1F
100
AcDbEntity
  8
AM_0
  6
CONTINUOUS
 62
     7
100
AcDbLine
 10
-359.5223123564261
 20
-180.5288780466051
 30
0.0
 11
-340.5223123564261
 21
-180.5288780466051
 31
0.0
  0
LINE
  5
269
330
1F
100
AcDbEntity
  8
AM_0
  6
CONTINUOUS
 62
     7
100
AcDbLine
 10
-335.5223123564261
 20
-162.2163994125453
 30
0.0
 11
-338.5223123564262
 21
-162.1226494125453
 31
0.0
  0
LINE
  5
26A
330
1F
100
AcDbEntity
  8
AM_0
  6
CONTINUOUS
 62
     7
100
AcDbLine
 10
-338.5223123564261
 20
-183.346649412545
 30
0.0
 11
-340.5223123564261
 21
-183.346649412545
 31
0.0
  0
LINE
  5
26B
330
1F
100
AcDbEntity
  8
AM_0
  6
CONTINUOUS
 62
     7
100
AcDbLine
 10
-335.5223123564261
 20
-183.252899412545
 30
0.0
 11
-338.5223123564262
 21
-183.346649412545
 31
0.0
  0
LINE
  5
26C
330
1F
100
AcDbEntity
  8
AM_0
  6
CONTINUOUS
 62
     7
100
AcDbLine
 10
-179.5223123564261
 20
164.4937950006022
 30
0.0
 11
-179.5223123564261
 21
186.4937950006022
 31
0.0
  0
LINE
  5
26D
330
1F
100
AcDbEntity
  8
AM_0
  6
CONTINUOUS
 62
     7
100
AcDbLine
 10
-197.0223123564261
 20
164.4937950006022
 30
0.0
 11
-197.0223123564261
 21
142.4937950006022
 31
0.0
  0
LINE
  5
26E
330
1F
100
AcDbEntity
  8
AM_0
  6
CONTINUOUS
 62
     7
100
AcDbLine
 10
-257.0223123564261
 20
164.4937950006022
 30
0.0
 11
-257.0223123564261
 21
142.4937950006022
 31
0.0
  0
LINE
  5
26F
330
1F
100
AcDbEntity
  8
AM_0
  6
CONTINUOUS
 62
     7
100
AcDbLine
 10
-243.0223123564261
 20
142.4937950006022
 30
0.0
 11
-243.0223123564261
 21
136.4937950006022
 31
0.0
  0
LINE
  5
270
330
1F
100
AcDbEntity
  8
AM_0
  6
CONTINUOUS
 62
     7
100
AcDbLine
 10
-274.5223123564262
 20
164.4937950006022
 30
0.0
 11
-274.5223123564262
 21
186.4937950006022
 31
0.0
  0
LINE
  5
271
330
1F
100
AcDbEntity
  8
AM_0
  6
CONTINUOUS
 62
     7
100
AcDbLine
 10
-257.0223123564261
 20
164.4937950006022
 30
0.0
 11
-257.0223123564261
 21
142.4937950006022
 31
0.0
  0
LINE
  5
272
330
1F
100
AcDbEntity
  8
AM_0
  6
CONTINUOUS
 62
     7
100
AcDbLine
 10
-243.0223123564261
 20
136.4937950006022
 30
0.0
 11
-215.3630253589178
 21
136.4937950006022
 31
0.0
  0
LINE
  5
273
330
1F
100
AcDbEntity
  8
AM_0
  6
CONTINUOUS
 62
     7
100
AcDbLine
 10
-257.0223123564261
 20
142.4937950006022
 30
0.0
 11
-215.3630253589178
 21
142.4937950006022
 31
0.0
  0
LINE
  5
274
330
1F
100
AcDbEntity
  8
AM_0
  6
CONTINUOUS
 62
     7
100
AcDbLine
 10
-274.5223123564262
 20
164.4937950006022
 30
0.0
 11
-242.9908967963295
 21
164.4937950006022
 31
0.0
  0
LINE
  5
275
330
1F
100
AcDbEntity
  8
AM_0
  6
CONTINUOUS
 62
     7
100
AcDbLine
 10
-274.5223123564262
 20
176.4937950006022
 30
0.0
 11
-262.0223123564262
 21
176.4937950006022
 31
0.0
  0
LINE
  5
276
330
1F
100
AcDbEntity
  8
AM_0
  6
CONTINUOUS
 62
     7
100
AcDbLine
 10
-274.5223123564262
 20
186.4937950006022
 30
0.0
 11
-262.0223123564262
 21
186.4937950006022
 31
0.0
  0
LINE
  5
277
330
1F
100
AcDbEntity
  8
AM_0
  6
CONTINUOUS
 62
     7
100
AcDbLine
 10
-262.0223123564262
 20
172.4937950006022
 30
0.0
 11
-192.0223123564261
 21
172.4937950006022
 31
0.0
  0
LINE
  5
278
330
1F
100
AcDbEntity
  8
AM_0
  6
CONTINUOUS
 62
     7
100
AcDbLine
 10
-262.0223123564262
 20
172.4937950006022
 30
0.0
 11
-262.0223123564262
 21
226.4937950006022
 31
0.0
  0
LINE
  5
279
330
1F
100
AcDbEntity
  8
AM_0
  6
CONTINUOUS
 62
     7
100
AcDbLine
 10
-192.0223123564261
 20
172.4937950006022
 30
0.0
 11
-192.0223123564261
 21
226.4937950006022
 31
0.0
  0
LINE
  5
27A
330
1F
100
AcDbEntity
  8
AM_0
  6
CONTINUOUS
 62
     7
100
AcDbLine
 10
-262.0223123564262
 20
226.4937950006022
 30
0.0
 11
-192.0223123564261
 21
226.4937950006022
 31
0.0
  0
LINE
  5
27B
330
1F
100
AcDbEntity
  8
AM_0
  6
CONTINUOUS
 62
     7
100
AcDbLine
 10
-249.5223123564262
 20
198.9937950006022
 30
0.0
 11
-249.5223123564262
 21
172.4937950006022
 31
0.0
  0
LINE
  5
27C
330
1F
100
AcDbEntity
  8
AM_0
  6
CONTINUOUS
 62
     7
100
AcDbLine
 10
-192.0223123564261
 20
186.4937950006022
 30
0.0
 11
-179.5223123564261
 21
186.4937950006022
 31
0.0
  0
LINE
  5
27D
330
1F
100
AcDbEntity
  8
AM_0
  6
CONTINUOUS
 62
     7
100
AcDbLine
 10
-192.0223123564261
 20
176.4937950006022
 30
0.0
 11
-179.5223123564261
 21
176.4937950006022
 31
0.0
  0
LINE
  5
27E
330
1F
100
AcDbEntity
  8
AM_0
  6
CONTINUOUS
 62
     7
100
AcDbLine
 10
-262.0223123564262
 20
198.9937950006022
 30
0.0
 11
-238.6334059862611
 21
198.9937950006022
 31
0.0
  0
LINE
  5
27F
330
1F
100
AcDbEntity
  8
AM_0
  6
CONTINUOUS
 62
     7
100
AcDbLine
 10
-249.5223123564262
 20
226.4937950006022
 30
0.0
 11
-249.5223123564262
 21
213.9937950006022
 31
0.0
  0
LINE
  5
280
330
1F
100
AcDbEntity
  8
AM_0
  6
CONTINUOUS
 62
     7
100
AcDbLine
 10
-238.6334059862611
 20
172.4937950006022
 30
0.0
 11
-238.6334059862611
 21
198.9937950006022
 31
0.0
  0
LINE
  5
281
330
1F
100
AcDbEntity
  8
AM_0
  6
CONTINUOUS
 62
     7
100
AcDbLine
 10
-192.0223123564261
 20
213.9937950006022
 30
0.0
 11
-215.411218726591
 21
213.9937950006022
 31
0.0
  0
LINE
  5
282
330
1F
100
AcDbEntity
  8
AM_0
  6
CONTINUOUS
 62
     7
100
AcDbLine
 10
-192.0223123564261
 20
198.9937950006022
 30
0.0
 11
-215.411218726591
 21
198.9937950006022
 31
0.0
  0
LINE
  5
283
330
1F
100
AcDbEntity
  8
AM_0
  6
CONTINUOUS
 62
     7
100
AcDbLine
 10
-215.411218726591
 20
172.4937950006022
 30
0.0
 11
-215.411218726591
 21
198.9937950006022
 31
0.0
  0
LINE
  5
284
330
1F
100
AcDbEntity
  8
AM_0
  6
CONTINUOUS
 62
     7
100
AcDbLine
 10
-204.5223123564261
 20
198.9937950006022
 30
0.0
 11
-204.5223123564261
 21
172.4937950006022
 31
0.0
  0
LINE
  5
285
330
1F
100
AcDbEntity
  8
AM_0
  6
CONTINUOUS
 62
     7
100
AcDbLine
 10
-204.5223123564261
 20
226.4937950006022
 30
0.0
 11
-204.5223123564261
 21
213.9937950006022
 31
0.0
  0
LINE
  5
286
330
1F
100
AcDbEntity
  8
AM_0
  6
CONTINUOUS
 62
     7
100
AcDbLine
 10
-249.5223123564262
 20
218.4937950006022
 30
0.0
 11
-204.5223123564261
 21
218.4937950006022
 31
0.0
  0
LINE
  5
287
330
1F
100
AcDbEntity
  8
AM_0
  6
CONTINUOUS
 62
     7
100
AcDbLine
 10
-234.5223123564261
 20
223.4937950006022
 30
0.0
 11
-219.5223123564261
 21
223.4937950006022
 31
0.0
  0
LINE
  5
288
330
1F
100
AcDbEntity
  8
AM_0
  6
CONTINUOUS
 62
     7
100
AcDbLine
 10
-219.5223123564261
 20
223.4937950006022
 30
0.0
 11
-219.5223123564261
 21
218.4937950006022
 31
0.0
  0
LINE
  5
289
330
1F
100
AcDbEntity
  8
AM_0
  6
CONTINUOUS
 62
     7
100
AcDbLine
 10
-234.5223123564261
 20
223.4937950006022
 30
0.0
 11
-234.5223123564261
 21
218.4937950006022
 31
0.0
  0
LINE
  5
28A
330
1F
100
AcDbEntity
  8
AM_0
  6
CONTINUOUS
 62
     7
100
AcDbLine
 10
-231.5223123564261
 20
223.9937950006022
 30
0.0
 11
-222.5223123564261
 21
223.9937950006022
 31
0.0
  0
LINE
  5
28B
330
1F
100
AcDbEntity
  8
AM_0
  6
CONTINUOUS
 62
     7
100
AcDbLine
 10
-230.0223123564261
 20
225.9937950006022
 30
0.0
 11
-224.0223123564261
 21
225.9937950006022
 31
0.0
  0
LINE
  5
28C
330
1F
100
AcDbEntity
  8
AM_0
  6
CONTINUOUS
 62
     7
100
AcDbLine
 10
-231.5223123564261
 20
223.4937950006022
 30
0.0
 11
-231.5223123564261
 21
223.9937950006022
 31
0.0
  0
LINE
  5
28D
330
1F
100
AcDbEntity
  8
AM_0
  6
CONTINUOUS
 62
     7
100
AcDbLine
 10
-224.0223123564261
 20
223.9937950006022
 30
0.0
 11
-224.0223123564261
 21
225.9937950006022
 31
0.0
  0
LINE
  5
28E
330
1F
100
AcDbEntity
  8
AM_0
  6
CONTINUOUS
 62
     7
100
AcDbLine
 10
-230.0223123564261
 20
223.9937950006022
 30
0.0
 11
-230.0223123564261
 21
225.9937950006022
 31
0.0
  0
LINE
  5
28F
330
1F
100
AcDbEntity
  8
AM_0
  6
CONTINUOUS
 62
     7
100
AcDbLine
 10
-222.5223123564261
 20
223.4937950006022
 30
0.0
 11
-222.5223123564261
 21
223.9937950006022
 31
0.0
  0
LINE
  5
290
330
1F
100
AcDbEntity
  8
AM_0
  6
CONTINUOUS
 62
     7
100
AcDbLine
 10
-259.0223123564261
 20
226.4937950006022
 30
0.0
 11
-259.0223123564261
 21
240.4937950006023
 31
0.0
  0
LINE
  5
291
330
1F
100
AcDbEntity
  8
AM_0
  6
CONTINUOUS
 62
     7
100
AcDbLine
 10
-259.0223123564261
 20
240.4937950006023
 30
0.0
 11
-195.0223123564261
 21
240.4937950006023
 31
0.0
  0
LINE
  5
292
330
1F
100
AcDbEntity
  8
AM_0
  6
CONTINUOUS
 62
     7
100
AcDbLine
 10
-251.0223123564262
 20
241.4937950006023
 30
0.0
 11
-238.0223123564261
 21
241.4937950006023
 31
0.0
  0
LINE
  5
293
330
1F
100
AcDbEntity
  8
AM_0
  6
CONTINUOUS
 62
     7
100
AcDbLine
 10
-251.0223123564262
 20
240.4937950006023
 30
0.0
 11
-251.0223123564262
 21
241.4937950006023
 31
0.0
  0
LINE
  5
294
330
1F
100
AcDbEntity
  8
AM_0
  6
CONTINUOUS
 62
     7
100
AcDbLine
 10
-238.0223123564261
 20
240.4937950006023
 30
0.0
 11
-238.0223123564261
 21
241.4937950006023
 31
0.0
  0
LINE
  5
295
330
1F
100
AcDbEntity
  8
AM_0
  6
CONTINUOUS
 62
     7
100
AcDbLine
 10
-195.0223123564261
 20
226.4937950006022
 30
0.0
 11
-195.0223123564261
 21
240.4937950006023
 31
0.0
  0
LINE
  5
296
330
1F
100
AcDbEntity
  8
AM_0
  6
CONTINUOUS
 62
     7
100
AcDbLine
 10
-203.0223123564261
 20
241.4937950006023
 30
0.0
 11
-216.0223123564261
 21
241.4937950006023
 31
0.0
  0
LINE
  5
297
330
1F
100
AcDbEntity
  8
AM_0
  6
CONTINUOUS
 62
     7
100
AcDbLine
 10
-203.0223123564261
 20
240.4937950006023
 30
0.0
 11
-203.0223123564261
 21
241.4937950006023
 31
0.0
  0
LINE
  5
298
330
1F
100
AcDbEntity
  8
AM_0
  6
CONTINUOUS
 62
     7
100
AcDbLine
 10
-216.0223123564261
 20
240.4937950006023
 30
0.0
 11
-216.0223123564261
 21
241.4937950006023
 31
0.0
  0
CIRCLE
  5
299
330
1F
100
AcDbEntity
  8
AM_0
  6
CONTINUOUS
 62
     7
100
AcDbCircle
 10
-199.0223123564261
 20
218.9937950006022
 30
0.0
 40
2.75
  0
LINE
  5
29A
330
1F
100
AcDbEntity
  8
AM_0
  6
CONTINUOUS
 62
     7
100
AcDbLine
 10
-197.2401104178119
 20
218.7412950006021
 30
0.0
 11
-197.2401104178119
 21
219.2462950006021
 31
0.0
  0
LINE
  5
29B
330
1F
100
AcDbEntity
  8
AM_0
  6
CONTINUOUS
 62
     7
100
AcDbLine
 10
-200.8045142950403
 20
218.7412950006021
 30
0.0
 11
-200.8045142950403
 21
219.2462950006021
 31
0.0
  0
LINE
  5
29C
330
1F
100
AcDbEntity
  8
AM_0
  6
CONTINUOUS
 62
     7
100
AcDbLine
 10
-197.2401104178119
 20
218.7412950006021
 30
0.0
 11
-198.769812356426
 21
218.7412950006021
 31
0.0
  0
LINE
  5
29D
330
1F
100
AcDbEntity
  8
AM_0
  6
CONTINUOUS
 62
     7
100
AcDbLine
 10
-199.2748123564262
 20
218.7412950006021
 30
0.0
 11
-200.8045142950403
 21
218.7412950006021
 31
0.0
  0
LINE
  5
29E
330
1F
100
AcDbEntity
  8
AM_0
  6
CONTINUOUS
 62
     7
100
AcDbLine
 10
-199.2748123564262
 20
218.7412950006021
 30
0.0
 11
-199.2748123564262
 21
217.211593061988
 31
0.0
  0
LINE
  5
29F
330
1F
100
AcDbEntity
  8
AM_0
  6
CONTINUOUS
 62
     7
100
AcDbLine
 10
-198.769812356426
 20
218.7412950006021
 30
0.0
 11
-198.769812356426
 21
217.211593061988
 31
0.0
  0
LINE
  5
2A0
330
1F
100
AcDbEntity
  8
AM_0
  6
CONTINUOUS
 62
     7
100
AcDbLine
 10
-199.2748123564262
 20
217.211593061988
 30
0.0
 11
-198.769812356426
 21
217.211593061988
 31
0.0
  0
LINE
  5
2A1
330
1F
100
AcDbEntity
  8
AM_0
  6
CONTINUOUS
 62
     7
100
AcDbLine
 10
-197.2401104178119
 20
219.2462950006021
 30
0.0
 11
-198.769812356426
 21
219.2462950006021
 31
0.0
  0
LINE
  5
2A2
330
1F
100
AcDbEntity
  8
AM_0
  6
CONTINUOUS
 62
     7
100
AcDbLine
 10
-199.2748123564262
 20
219.2462950006021
 30
0.0
 11
-200.8045142950403
 21
219.2462950006021
 31
0.0
  0
LINE
  5
2A3
330
1F
100
AcDbEntity
  8
AM_0
  6
CONTINUOUS
 62
     7
100
AcDbLine
 10
-198.769812356426
 20
220.7759969392163
 30
0.0
 11
-198.769812356426
 21
219.2462950006021
 31
0.0
  0
LINE
  5
2A4
330
1F
100
AcDbEntity
  8
AM_0
  6
CONTINUOUS
 62
     7
100
AcDbLine
 10
-199.2748123564262
 20
220.7759969392163
 30
0.0
 11
-199.2748123564262
 21
219.2462950006021
 31
0.0
  0
LINE
  5
2A5
330
1F
100
AcDbEntity
  8
AM_0
  6
CONTINUOUS
 62
     7
100
AcDbLine
 10
-199.2748123564262
 20
220.7759969392163
 30
0.0
 11
-198.769812356426
 21
220.7759969392163
 31
0.0
  0
CIRCLE
  5
2A6
330
1F
100
AcDbEntity
  8
AM_0
  6
CONTINUOUS
 62
     7
100
AcDbCircle
 10
-199.0223123564261
 20
218.9937950006022
 30
0.0
 40
3.0
  0
CIRCLE
  5
2A7
330
1F
100
AcDbEntity
  8
AM_0
  6
CONTINUOUS
 62
     7
100
AcDbCircle
 10
-199.0223123564261
 20
193.9937950006022
 30
0.0
 40
2.75
  0
LINE
  5
2A8
330
1F
100
AcDbEntity
  8
AM_0
  6
CONTINUOUS
 62
     7
100
AcDbLine
 10
-197.2401104178119
 20
194.2462950006021
 30
0.0
 11
-197.2401104178119
 21
193.7412950006021
 31
0.0
  0
LINE
  5
2A9
330
1F
100
AcDbEntity
  8
AM_0
  6
CONTINUOUS
 62
     7
100
AcDbLine
 10
-200.8045142950403
 20
194.2462950006021
 30
0.0
 11
-200.8045142950403
 21
193.7412950006021
 31
0.0
  0
LINE
  5
2AA
330
1F
100
AcDbEntity
  8
AM_0
  6
CONTINUOUS
 62
     7
100
AcDbLine
 10
-197.2401104178119
 20
194.2462950006021
 30
0.0
 11
-198.769812356426
 21
194.2462950006021
 31
0.0
  0
LINE
  5
2AB
330
1F
100
AcDbEntity
  8
AM_0
  6
CONTINUOUS
 62
     7
100
AcDbLine
 10
-199.2748123564262
 20
194.2462950006021
 30
0.0
 11
-200.8045142950403
 21
194.2462950006021
 31
0.0
  0
LINE
  5
2AC
330
1F
100
AcDbEntity
  8
AM_0
  6
CONTINUOUS
 62
     7
100
AcDbLine
 10
-199.2748123564262
 20
194.2462950006021
 30
0.0
 11
-199.2748123564262
 21
195.7759969392163
 31
0.0
  0
LINE
  5
2AD
330
1F
100
AcDbEntity
  8
AM_0
  6
CONTINUOUS
 62
     7
100
AcDbLine
 10
-198.769812356426
 20
194.2462950006021
 30
0.0
 11
-198.769812356426
 21
195.7759969392163
 31
0.0
  0
LINE
  5
2AE
330
1F
100
AcDbEntity
  8
AM_0
  6
CONTINUOUS
 62
     7
100
AcDbLine
 10
-199.2748123564262
 20
195.7759969392163
 30
0.0
 11
-198.769812356426
 21
195.7759969392163
 31
0.0
  0
LINE
  5
2AF
330
1F
100
AcDbEntity
  8
AM_0
  6
CONTINUOUS
 62
     7
100
AcDbLine
 10
-197.2401104178119
 20
193.7412950006021
 30
0.0
 11
-198.769812356426
 21
193.7412950006021
 31
0.0
  0
LINE
  5
2B0
330
1F
100
AcDbEntity
  8
AM_0
  6
CONTINUOUS
 62
     7
100
AcDbLine
 10
-199.2748123564262
 20
193.7412950006021
 30
0.0
 11
-200.8045142950403
 21
193.7412950006021
 31
0.0
  0
LINE
  5
2B1
330
1F
100
AcDbEntity
  8
AM_0
  6
CONTINUOUS
 62
     7
100
AcDbLine
 10
-198.769812356426
 20
192.211593061988
 30
0.0
 11
-198.769812356426
 21
193.7412950006021
 31
0.0
  0
LINE
  5
2B2
330
1F
100
AcDbEntity
  8
AM_0
  6
CONTINUOUS
 62
     7
100
AcDbLine
 10
-199.2748123564262
 20
192.211593061988
 30
0.0
 11
-199.2748123564262
 21
193.7412950006021
 31
0.0
  0
LINE
  5
2B3
330
1F
100
AcDbEntity
  8
AM_0
  6
CONTINUOUS
 62
     7
100
AcDbLine
 10
-199.2748123564262
 20
192.211593061988
 30
0.0
 11
-198.769812356426
 21
192.211593061988
 31
0.0
  0
CIRCLE
  5
2B4
330
1F
100
AcDbEntity
  8
AM_0
  6
CONTINUOUS
 62
     7
100
AcDbCircle
 10
-199.0223123564261
 20
193.9937950006022
 30
0.0
 40
3.0
  0
CIRCLE
  5
2B5
330
1F
100
AcDbEntity
  8
AM_0
  6
CONTINUOUS
 62
     7
100
AcDbCircle
 10
-255.0223123564261
 20
218.9937950006022
 30
0.0
 40
2.75
  0
LINE
  5
2B6
330
1F
100
AcDbEntity
  8
AM_0
  6
CONTINUOUS
 62
     7
100
AcDbLine
 10
-256.8045142950403
 20
218.7412950006021
 30
0.0
 11
-256.8045142950403
 21
219.2462950006021
 31
0.0
  0
LINE
  5
2B7
330
1F
100
AcDbEntity
  8
AM_0
  6
CONTINUOUS
 62
     7
100
AcDbLine
 10
-253.2401104178119
 20
218.7412950006021
 30
0.0
 11
-253.2401104178119
 21
219.2462950006021
 31
0.0
  0
LINE
  5
2B8
330
1F
100
AcDbEntity
  8
AM_0
  6
CONTINUOUS
 62
     7
100
AcDbLine
 10
-256.8045142950403
 20
218.7412950006021
 30
0.0
 11
-255.2748123564262
 21
218.7412950006021
 31
0.0
  0
LINE
  5
2B9
330
1F
100
AcDbEntity
  8
AM_0
  6
CONTINUOUS
 62
     7
100
AcDbLine
 10
-254.7698123564261
 20
218.7412950006021
 30
0.0
 11
-253.2401104178119
 21
218.7412950006021
 31
0.0
  0
LINE
  5
2BA
330
1F
100
AcDbEntity
  8
AM_0
  6
CONTINUOUS
 62
     7
100
AcDbLine
 10
-254.7698123564261
 20
218.7412950006021
 30
0.0
 11
-254.7698123564261
 21
217.211593061988
 31
0.0
  0
LINE
  5
2BB
330
1F
100
AcDbEntity
  8
AM_0
  6
CONTINUOUS
 62
     7
100
AcDbLine
 10
-255.2748123564262
 20
218.7412950006021
 30
0.0
 11
-255.2748123564262
 21
217.211593061988
 31
0.0
  0
LINE
  5
2BC
330
1F
100
AcDbEntity
  8
AM_0
  6
CONTINUOUS
 62
     7
100
AcDbLine
 10
-254.7698123564261
 20
217.211593061988
 30
0.0
 11
-255.2748123564262
 21
217.211593061988
 31
0.0
  0
LINE
  5
2BD
330
1F
100
AcDbEntity
  8
AM_0
  6
CONTINUOUS
 62
     7
100
AcDbLine
 10
-256.8045142950403
 20
219.2462950006021
 30
0.0
 11
-255.2748123564262
 21
219.2462950006021
 31
0.0
  0
LINE
  5
2BE
330
1F
100
AcDbEntity
  8
AM_0
  6
CONTINUOUS
 62
     7
100
AcDbLine
 10
-254.7698123564261
 20
219.2462950006021
 30
0.0
 11
-253.2401104178119
 21
219.2462950006021
 31
0.0
  0
LINE
  5
2BF
330
1F
100
AcDbEntity
  8
AM_0
  6
CONTINUOUS
 62
     7
100
AcDbLine
 10
-255.2748123564262
 20
220.7759969392163
 30
0.0
 11
-255.2748123564262
 21
219.2462950006021
 31
0.0
  0
LINE
  5
2C0
330
1F
100
AcDbEntity
  8
AM_0
  6
CONTINUOUS
 62
     7
100
AcDbLine
 10
-254.7698123564261
 20
220.7759969392163
 30
0.0
 11
-254.7698123564261
 21
219.2462950006021
 31
0.0
  0
LINE
  5
2C1
330
1F
100
AcDbEntity
  8
AM_0
  6
CONTINUOUS
 62
     7
100
AcDbLine
 10
-254.7698123564261
 20
220.7759969392163
 30
0.0
 11
-255.2748123564262
 21
220.7759969392163
 31
0.0
  0
CIRCLE
  5
2C2
330
1F
100
AcDbEntity
  8
AM_0
  6
CONTINUOUS
 62
     7
100
AcDbCircle
 10
-255.0223123564261
 20
218.9937950006022
 30
0.0
 40
3.0
  0
CIRCLE
  5
2C3
330
1F
100
AcDbEntity
  8
AM_0
  6
CONTINUOUS
 62
     7
100
AcDbCircle
 10
-255.0223123564261
 20
193.9937950006022
 30
0.0
 40
2.75
  0
LINE
  5
2C4
330
1F
100
AcDbEntity
  8
AM_0
  6
CONTINUOUS
 62
     7
100
AcDbLine
 10
-256.8045142950403
 20
194.2462950006021
 30
0.0
 11
-256.8045142950403
 21
193.7412950006021
 31
0.0
  0
LINE
  5
2C5
330
1F
100
AcDbEntity
  8
AM_0
  6
CONTINUOUS
 62
     7
100
AcDbLine
 10
-253.2401104178119
 20
194.2462950006021
 30
0.0
 11
-253.2401104178119
 21
193.7412950006021
 31
0.0
  0
LINE
  5
2C6
330
1F
100
AcDbEntity
  8
AM_0
  6
CONTINUOUS
 62
     7
100
AcDbLine
 10
-256.8045142950403
 20
194.2462950006021
 30
0.0
 11
-255.2748123564262
 21
194.2462950006021
 31
0.0
  0
LINE
  5
2C7
330
1F
100
AcDbEntity
  8
AM_0
  6
CONTINUOUS
 62
     7
100
AcDbLine
 10
-254.7698123564261
 20
194.2462950006021
 30
0.0
 11
-253.2401104178119
 21
194.2462950006021
 31
0.0
  0
LINE
  5
2C8
330
1F
100
AcDbEntity
  8
AM_0
  6
CONTINUOUS
 62
     7
100
AcDbLine
 10
-254.7698123564261
 20
194.2462950006021
 30
0.0
 11
-254.7698123564261
 21
195.7759969392163
 31
0.0
  0
LINE
  5
2C9
330
1F
100
AcDbEntity
  8
AM_0
  6
CONTINUOUS
 62
     7
100
AcDbLine
 10
-255.2748123564262
 20
194.2462950006021
 30
0.0
 11
-255.2748123564262
 21
195.7759969392163
 31
0.0
  0
LINE
  5
2CA
330
1F
100
AcDbEntity
  8
AM_0
  6
CONTINUOUS
 62
     7
100
AcDbLine
 10
-254.7698123564261
 20
195.7759969392163
 30
0.0
 11
-255.2748123564262
 21
195.7759969392163
 31
0.0
  0
LINE
  5
2CB
330
1F
100
AcDbEntity
  8
AM_0
  6
CONTINUOUS
 62
     7
100
AcDbLine
 10
-256.8045142950403
 20
193.7412950006021
 30
0.0
 11
-255.2748123564262
 21
193.7412950006021
 31
0.0
  0
LINE
  5
2CC
330
1F
100
AcDbEntity
  8
AM_0
  6
CONTINUOUS
 62
     7
100
AcDbLine
 10
-254.7698123564261
 20
193.7412950006021
 30
0.0
 11
-253.2401104178119
 21
193.7412950006021
 31
0.0
  0
LINE
  5
2CD
330
1F
100
AcDbEntity
  8
AM_0
  6
CONTINUOUS
 62
     7
100
AcDbLine
 10
-255.2748123564262
 20
192.211593061988
 30
0.0
 11
-255.2748123564262
 21
193.7412950006021
 31
0.0
  0
LINE
  5
2CE
330
1F
100
AcDbEntity
  8
AM_0
  6
CONTINUOUS
 62
     7
100
AcDbLine
 10
-254.7698123564261
 20
192.211593061988
 30
0.0
 11
-254.7698123564261
 21
193.7412950006021
 31
0.0
  0
LINE
  5
2CF
330
1F
100
AcDbEntity
  8
AM_0
  6
CONTINUOUS
 62
     7
100
AcDbLine
 10
-254.7698123564261
 20
192.211593061988
 30
0.0
 11
-255.2748123564262
 21
192.211593061988
 31
0.0
  0
CIRCLE
  5
2D0
330
1F
100
AcDbEntity
  8
AM_0
  6
CONTINUOUS
 62
     7
100
AcDbCircle
 10
-255.0223123564261
 20
193.9937950006022
 30
0.0
 40
3.0
  0
LINE
  5
2D1
330
1F
100
AcDbEntity
  8
AM_0
  6
CONTINUOUS
 62
     7
100
AcDbLine
 10
-265.5223123564261
 20
193.4937950006022
 30
0.0
 11
-268.5223123564262
 21
193.4937950006022
 31
0.0
  0
LINE
  5
2D2
330
1F
100
AcDbEntity
  8
AM_0
  6
CONTINUOUS
 62
     7
100
AcDbLine
 10
-265.5223123564261
 20
229.4937950006022
 30
0.0
 11
-268.5223123564262
 21
229.4937950006022
 31
0.0
  0
LINE
  5
2D3
330
1F
100
AcDbEntity
  8
AM_0
  6
CONTINUOUS
 62
     7
100
AcDbLine
 10
-265.5223123564261
 20
232.4937950006023
 30
0.0
 11
-265.5223123564261
 21
190.4937950006022
 31
0.0
  0
LINE
  5
2D4
330
1F
100
AcDbEntity
  8
AM_0
  6
CONTINUOUS
 62
     7
100
AcDbLine
 10
-259.0223123564261
 20
232.4937950006023
 30
0.0
 11
-265.5223123564261
 21
232.4937950006023
 31
0.0
  0
LINE
  5
2D5
330
1F
100
AcDbEntity
  8
AM_0
  6
CONTINUOUS
 62
     7
100
AcDbLine
 10
-262.0223123564262
 20
190.4937950006022
 30
0.0
 11
-265.5223123564261
 21
190.4937950006022
 31
0.0
  0
LINE
  5
2D6
330
1F
100
AcDbEntity
  8
AM_0
  6
CONTINUOUS
 62
     7
100
AcDbLine
 10
-185.5223123564261
 20
229.4937950006022
 30
0.0
 11
-185.5223123564261
 21
193.4937950006022
 31
0.0
  0
LINE
  5
2D7
330
1F
100
AcDbEntity
  8
AM_0
  6
CONTINUOUS
 62
     7
100
AcDbLine
 10
-176.5223123564261
 20
229.4937950006022
 30
0.0
 11
-176.5223123564261
 21
193.4937950006022
 31
0.0
  0
LINE
  5
2D8
330
1F
100
AcDbEntity
  8
AM_0
  6
CONTINUOUS
 62
     7
100
AcDbLine
 10
-170.5223123564262
 20
229.4937950006022
 30
0.0
 11
-170.5223123564262
 21
193.4937950006022
 31
0.0
  0
LINE
  5
2D9
330
1F
100
AcDbEntity
  8
AM_0
  6
CONTINUOUS
 62
     7
100
AcDbLine
 10
-129.5223123564261
 20
229.4937950006022
 30
0.0
 11
-129.5223123564261
 21
193.4937950006022
 31
0.0
  0
LINE
  5
2DA
330
1F
100
AcDbEntity
  8
AM_0
  6
CONTINUOUS
 62
     7
100
AcDbLine
 10
-118.5223123564261
 20
224.7437950006022
 30
0.0
 11
-118.5223123564261
 21
198.2437950006022
 31
0.0
  0
LINE
  5
2DB
330
1F
100
AcDbEntity
  8
AM_0
  6
CONTINUOUS
 62
     7
100
AcDbLine
 10
-94.5223123564262
 20
224.9937950006022
 30
0.0
 11
-94.5223123564262
 21
197.9937950006022
 31
0.0
  0
LINE
  5
2DC
330
1F
100
AcDbEntity
  8
AM_0
  6
CONTINUOUS
 62
     7
100
AcDbLine
 10
-113.5223123564261
 20
224.9937950006022
 30
0.0
 11
-113.5223123564261
 21
197.9937950006022
 31
0.0
  0
LINE
  5
2DD
330
1F
100
AcDbEntity
  8
AM_0
  6
CONTINUOUS
 62
     7
100
AcDbLine
 10
-115.5223123564262
 20
222.1057950006021
 30
0.0
 11
-115.5223123564262
 21
200.8817950006021
 31
0.0
  0
LINE
  5
2DE
330
1F
100
AcDbEntity
  8
AM_0
  6
CONTINUOUS
 62
     7
100
AcDbLine
 10
-115.5223123564262
 20
200.8817950006021
 30
0.0
 11
-113.5223123564261
 21
200.8817950006021
 31
0.0
  0
LINE
  5
2DF
330
1F
100
AcDbEntity
  8
AM_0
  6
CONTINUOUS
 62
     7
100
AcDbLine
 10
-188.5223123564261
 20
193.4937950006022
 30
0.0
 11
-185.5223123564261
 21
193.4937950006022
 31
0.0
  0
LINE
  5
2E0
330
1F
100
AcDbEntity
  8
AM_0
  6
CONTINUOUS
 62
     7
100
AcDbLine
 10
-188.5223123564261
 20
229.4937950006022
 30
0.0
 11
-185.5223123564261
 21
229.4937950006022
 31
0.0
  0
LINE
  5
2E1
330
1F
100
AcDbEntity
  8
AM_0
  6
CONTINUOUS
 62
     7
100
AcDbLine
 10
-176.5223123564261
 20
229.4937950006022
 30
0.0
 11
-185.5223123564261
 21
229.4937950006022
 31
0.0
  0
LINE
  5
2E2
330
1F
100
AcDbEntity
  8
AM_0
  6
CONTINUOUS
 62
     7
100
AcDbLine
 10
-185.5223123564261
 20
225.7616218770295
 30
0.0
 11
-176.5223123564261
 21
225.7616218770295
 31
0.0
  0
LINE
  5
2E3
330
1F
100
AcDbEntity
  8
AM_0
  6
CONTINUOUS
 62
     7
100
AcDbLine
 10
-176.5223123564261
 20
215.2259681241757
 30
0.0
 11
-185.5223123564261
 21
215.2259681241757
 31
0.0
  0
LINE
  5
2E4
330
1F
100
AcDbEntity
  8
AM_0
  6
CONTINUOUS
 62
     7
100
AcDbLine
 10
-176.5223123564261
 20
227.9937950006022
 30
0.0
 11
-170.5223123564262
 21
227.9937950006022
 31
0.0
  0
LINE
  5
2E5
330
1F
100
AcDbEntity
  8
AM_0
  6
CONTINUOUS
 62
     7
100
AcDbLine
 10
-129.5223123564261
 20
229.4937950006022
 30
0.0
 11
-170.5223123564262
 21
229.4937950006022
 31
0.0
  0
LINE
  5
2E6
330
1F
100
AcDbEntity
  8
AM_0
  6
CONTINUOUS
 62
     7
100
AcDbLine
 10
-170.5223123564262
 20
225.7616218770295
 30
0.0
 11
-129.5223123564261
 21
225.7616218770295
 31
0.0
  0
LINE
  5
2E7
330
1F
100
AcDbEntity
  8
AM_0
  6
CONTINUOUS
 62
     7
100
AcDbLine
 10
-129.5223123564261
 20
215.2259681241757
 30
0.0
 11
-170.5223123564262
 21
215.2259681241757
 31
0.0
  0
LINE
  5
2E8
330
1F
100
AcDbEntity
  8
AM_0
  6
CONTINUOUS
 62
     7
100
AcDbLine
 10
-118.5223123564261
 20
198.2437950006022
 30
0.0
 11
-129.5223123564261
 21
198.2437950006022
 31
0.0
  0
LINE
  5
2E9
330
1F
100
AcDbEntity
  8
AM_0
  6
CONTINUOUS
 62
     7
100
AcDbLine
 10
-118.5223123564261
 20
224.7437950006022
 30
0.0
 11
-129.5223123564261
 21
224.7437950006022
 31
0.0
  0
LINE
  5
2EA
330
1F
100
AcDbEntity
  8
AM_0
  6
CONTINUOUS
 62
     7
100
AcDbLine
 10
-113.5223123564261
 20
211.4937950006022
 30
0.0
 11
-94.5223123564262
 21
211.4937950006022
 31
0.0
  0
LINE
  5
2EB
330
1F
100
AcDbEntity
  8
AM_0
  6
CONTINUOUS
 62
     7
100
AcDbLine
 10
-94.5223123564262
 20
203.6995663665423
 30
0.0
 11
-113.5223123564261
 21
203.6995663665423
 31
0.0
  0
LINE
  5
2EC
330
1F
100
AcDbEntity
  8
AM_0
  6
CONTINUOUS
 62
     7
100
AcDbLine
 10
-113.5223123564261
 20
224.9937950006022
 30
0.0
 11
-94.5223123564262
 21
224.9937950006022
 31
0.0
  0
LINE
  5
2ED
330
1F
100
AcDbEntity
  8
AM_0
  6
CONTINUOUS
 62
     7
100
AcDbLine
 10
-94.5223123564262
 20
219.2880236346621
 30
0.0
 11
-113.5223123564261
 21
219.2880236346621
 31
0.0
  0
LINE
  5
2EE
330
1F
100
AcDbEntity
  8
AM_0
  6
CONTINUOUS
 62
     7
100
AcDbLine
 10
-118.5223123564261
 20
200.9755450006021
 30
0.0
 11
-115.5223123564261
 21
200.8817950006021
 31
0.0
  0
LINE
  5
2EF
330
1F
100
AcDbEntity
  8
AM_0
  6
CONTINUOUS
 62
     7
100
AcDbLine
 10
-115.5223123564262
 20
222.1057950006021
 30
0.0
 11
-113.5223123564261
 21
222.1057950006021
 31
0.0
  0
LINE
  5
2F0
330
1F
100
AcDbEntity
  8
AM_0
  6
CONTINUOUS
 62
     7
100
AcDbLine
 10
-118.5223123564261
 20
222.0120450006021
 30
0.0
 11
-115.5223123564261
 21
222.1057950006021
 31
0.0
  0
LINE
  5
2F1
330
1F
100
AcDbEntity
  8
AM_0
  6
CONTINUOUS
 62
     7
100
AcDbLine
 10
-188.5223123564261
 20
232.4937950006023
 30
0.0
 11
-188.5223123564261
 21
190.4937950006022
 31
0.0
  0
LINE
  5
2F2
330
1F
100
AcDbEntity
  8
AM_0
  6
CONTINUOUS
 62
     7
100
AcDbLine
 10
-195.0223123564261
 20
232.4937950006023
 30
0.0
 11
-188.5223123564261
 21
232.4937950006023
 31
0.0
  0
LINE
  5
2F3
330
1F
100
AcDbEntity
  8
AM_0
  6
CONTINUOUS
 62
     7
100
AcDbLine
 10
-192.0223123564261
 20
190.4937950006022
 30
0.0
 11
-188.5223123564261
 21
190.4937950006022
 31
0.0
  0
ARC
  5
2F4
330
1F
100
AcDbEntity
  8
AM_0
  6
CONTINUOUS
 62
     7
100
AcDbCircle
 10
-227.0223123564261
 20
3.265350587454861
 30
0.0
 40
26.0
100
AcDbArc
 50
232.8374797630844
 51
307.1625202369156
  0
LINE
  5
2F5
330
1F
100
AcDbEntity
  8
AM_0
  6
CONTINUOUS
 62
     7
100
AcDbLine
 10
-242.3296496510297
 20
-12.04198670714874
 30
0.0
 11
-242.4333473638486
 21
-12.14568441996755
 31
0.0
  0
ARC
  5
2F6
330
1F
100
AcDbEntity
  8
AM_0
  6
CONTINUOUS
 62
     7
100
AcDbCircle
 10
-227.0223123564261
 20
3.265350587454861
 30
0.0
 40
25.0
100
AcDbArc
 50
232.8374797630845
 51
262.1625202369163
  0
ARC
  5
2F7
330
1F
100
AcDbEntity
  8
AM_0
  6
CONTINUOUS
 62
     7
100
AcDbCircle
 10
-240.3120270202891
 20
-14.26700476352732
 30
0.0
 40
3.0
100
AcDbArc
 50
135.0000000000008
 51
232.8374797630848
  0
ARC
  5
2F8
330
1F
100
AcDbEntity
  8
AM_0
  6
CONTINUOUS
 62
     7
100
AcDbCircle
 10
-230.022312356426
 20
-18.52914413024854
 30
0.0
 40
3.0
100
AcDbArc
 50
262.1625202369163
 51
0.0000000000010687
  0
LINE
  5
2F9
330
1F
100
AcDbEntity
  8
AM_0
  6
CONTINUOUS
 62
     7
100
AcDbLine
 10
-242.6521439416294
 20
-10.95026743537522
 30
0.0
 11
-243.1404541450351
 21
-11.43857763878106
 31
0.0
  0
ARC
  5
2FA
330
1F
100
AcDbEntity
  8
AM_0
  6
CONTINUOUS
 62
     7
100
AcDbCircle
 10
-240.312027020289
 20
-14.26700476352732
 30
0.0
 40
4.0
100
AcDbArc
 50
135.0000000000006
 51
232.8374797630842
  0
ARC
  5
2FB
330
1F
100
AcDbEntity
  8
AM_0
  6
CONTINUOUS
 62
     7
100
AcDbCircle
 10
-227.0223123564261
 20
3.265350587454861
 30
0.0
 40
10.0
100
AcDbArc
 50
335.9248324276384
 51
3.341932763167584
  0
ARC
  5
2FC
330
1F
100
AcDbEntity
  8
AM_0
  6
CONTINUOUS
 62
     7
100
AcDbCircle
 10
-213.7325976925632
 20
-14.26700476352732
 30
0.0
 40
4.0
100
AcDbArc
 50
307.1625202369169
 51
44.99999999999944
  0
ARC
  5
2FD
330
1F
100
AcDbEntity
  8
AM_0
  6
CONTINUOUS
 62
     7
100
AcDbCircle
 10
-214.2401574460399
 20
-2.445736511065945
 30
0.0
 40
4.0
100
AcDbArc
 50
155.9248324276394
 51
224.9999999999994
  0
LINE
  5
2FE
330
1F
100
AcDbEntity
  8
AM_0
  6
CONTINUOUS
 62
     7
100
AcDbLine
 10
-217.0685845707861
 20
-5.274163635812158
 30
0.0
 11
-210.9041705678171
 21
-11.43857763878106
 31
0.0
  0
LINE
  5
2FF
330
1F
100
AcDbEntity
  8
AM_0
  6
CONTINUOUS
 62
     7
100
AcDbLine
 10
-226.3610652111263
 20
-18.65639095405675
 30
0.0
 11
-242.9908967963295
 21
-11.76808917148526
 31
0.0
  0
LINE
  5
300
330
1F
100
AcDbEntity
  8
AM_0
  6
CONTINUOUS
 62
     7
100
AcDbLine
 10
-212.1112567312753
 20
45.79663813137529
 30
0.0
 11
-212.8766235960055
 21
43.94887906635296
 31
0.0
  0
LINE
  5
301
330
1F
100
AcDbEntity
  8
AM_0
  6
CONTINUOUS
 62
     7
100
AcDbLine
 10
-217.4688247843866
 20
32.86232467621755
 30
0.0
 11
-224.7398099993233
 21
15.30861355850305
 31
0.0
  0
LINE
  5
302
330
1F
100
AcDbEntity
  8
AM_0
  6
CONTINUOUS
 62
     7
100
AcDbLine
 10
-201.4866421073957
 20
41.39577865917676
 30
0.0
 11
-226.3610652111263
 21
-18.65639095405675
 31
0.0
  0
ARC
  5
303
330
1F
100
AcDbEntity
  8
AM_0
  6
CONTINUOUS
 62
     7
100
AcDbCircle
 10
-209.8015578999972
 20
44.83992955046278
 30
0.0
 40
9.0
100
AcDbArc
 50
337.4999999999973
 51
157.4999999999973
  0
LINE
  5
304
330
1F
100
AcDbEntity
  8
AM_0
  6
CONTINUOUS
 62
     7
100
AcDbLine
 10
-218.1164736925988
 20
48.28408044174836
 30
0.0
 11
-242.9908967963295
 21
-11.76808917148526
 31
0.0
  0
LINE
  5
305
330
1F
100
AcDbEntity
  8
AM_0
  6
CONTINUOUS
 62
     7
100
AcDbLine
 10
-225.6390170919365
 20
-0.5548056727405424
 30
0.0
 11
-225.3987240559875
 21
-0.6543383071743278
 31
0.0
  0
LINE
  5
306
330
1F
100
AcDbEntity
  8
AM_0
  6
CONTINUOUS
 62
     7
100
AcDbLine
 10
-228.6459006568648
 20
7.185039482084051
 30
0.0
 11
-228.4056076209155
 21
7.085506847649867
 31
0.0
  0
LINE
  5
307
330
1F
100
AcDbEntity
  8
AM_0
  6
CONTINUOUS
 62
     7
100
AcDbLine
 10
-225.2690106013676
 20
-0.3411823258087452
 30
0.0
 11
-225.3987240559875
 21
-0.6543383071743278
 31
0.0
  0
LINE
  5
308
330
1F
100
AcDbEntity
  8
AM_0
  6
CONTINUOUS
 62
     7
100
AcDbLine
 10
-228.6459006568648
 20
7.185039482084051
 30
0.0
 11
-228.7756141114849
 21
6.871883500717786
 31
0.0
  0
ARC
  5
309
330
1F
100
AcDbEntity
  8
AM_0
  6
CONTINUOUS
 62
     7
100
AcDbCircle
 10
-209.8015578999972
 20
44.83992955046278
 30
0.0
 40
2.5
100
AcDbArc
 50
337.4999999999971
 51
157.4999999999971
  0
LINE
  5
30A
330
1F
100
AcDbEntity
  8
AM_0
  6
CONTINUOUS
 62
     7
100
AcDbLine
 10
-207.4918590687189
 20
43.88322096955
 30
0.0
 11
-208.257225933449
 21
42.03546190452749
 31
0.0
  0
LINE
  5
30B
330
1F
100
AcDbEntity
  8
AM_0
  6
CONTINUOUS
 62
     7
100
AcDbLine
 10
-212.84942712183
 20
30.94890751439226
 30
0.0
 11
-220.1204123367669
 21
13.39519639667736
 31
0.0
  0
CIRCLE
  5
30C
330
1F
100
AcDbEntity
  8
AM_0
  6
CONTINUOUS
 62
     7
100
AcDbCircle
 10
-212.8630253589178
 20
37.44889329037238
 30
0.0
 40
2.5
  0
LINE
  5
30D
330
1F
100
AcDbEntity
  8
AM_0
  6
CONTINUOUS
 62
     7
100
AcDbLine
 10
-220.7024031481761
 20
34.20171668949524
 30
0.0
 11
-217.0068850181308
 21
32.67098296003496
 31
0.0
  0
LINE
  5
30E
330
1F
100
AcDbEntity
  8
AM_0
  6
CONTINUOUS
 62
     7
100
AcDbLine
 10
-213.3113668880858
 20
31.1402492305744
 30
0.0
 11
-209.6158487580406
 21
29.60951550111406
 31
0.0
  0
LINE
  5
30F
330
1F
100
AcDbEntity
  8
AM_0
  6
CONTINUOUS
 62
     7
100
AcDbLine
 10
-216.110201959795
 20
45.28827107963059
 30
0.0
 11
-205.0236475696595
 21
40.69606989124958
 31
0.0
  0
LINE
  5
310
330
1F
100
AcDbEntity
  8
AM_0
  6
CONTINUOUS
 62
     7
100
AcDbLine
 10
-218.1549353152262
 20
29.8993443625011
 30
0.0
 11
-214.4594171851811
 21
28.36861063304065
 31
0.0
  0
LINE
  5
311
330
1F
100
AcDbEntity
  8
AM_0
  6
CONTINUOUS
 62
     7
100
AcDbLine
 10
-216.110201959795
 20
45.28827107963059
 30
0.0
 11
-220.7024031481761
 21
34.20171668949524
 31
0.0
  0
LINE
  5
312
330
1F
100
AcDbEntity
  8
AM_0
  6
CONTINUOUS
 62
     7
100
AcDbLine
 10
-205.0236475696595
 20
40.69606989124958
 30
0.0
 11
-209.6158487580406
 21
29.60951550111406
 31
0.0
  0
LINE
  5
313
330
1F
100
AcDbEntity
  8
AM_0
  6
CONTINUOUS
 62
     7
100
AcDbLine
 10
-213.3113668880858
 20
31.1402492305744
 30
0.0
 11
-214.4594171851811
 21
28.36861063304065
 31
0.0
  0
LINE
  5
314
330
1F
100
AcDbEntity
  8
AM_0
  6
CONTINUOUS
 62
     7
100
AcDbLine
 10
-217.0068850181308
 20
32.67098296003496
 30
0.0
 11
-218.1549353152262
 21
29.8993443625011
 31
0.0
  0
LINE
  5
315
330
1F
100
AcDbEntity
  8
AM_0
  6
CONTINUOUS
 62
     7
100
AcDbLine
 10
-19.29945584062079
 20
12.26535058745486
 30
0.0
 11
-21.79945584062079
 21
12.26535058745486
 31
0.0
  0
LINE
  5
316
330
1F
100
AcDbEntity
  8
AM_0
  6
CONTINUOUS
 62
     7
100
AcDbLine
 10
-19.29945584062079
 20
12.26535058745486
 30
0.0
 11
-19.29945584062079
 21
-16.34669212277851
 31
0.0
  0
LINE
  5
317
330
1F
100
AcDbEntity
  8
AM_0
  6
CONTINUOUS
 62
     7
100
AcDbLine
 10
-21.79945584062079
 20
12.26535058745486
 30
0.0
 11
-21.79945584062079
 21
-16.34669212277851
 31
0.0
  0
LINE
  5
318
330
1F
100
AcDbEntity
  8
AM_0
  6
CONTINUOUS
 62
     7
100
AcDbLine
 10
-33.79945584062068
 20
53.83992955046267
 30
0.0
 11
-33.79945584062068
 21
-16.34669212277851
 31
0.0
  0
LINE
  5
319
330
1F
100
AcDbEntity
  8
AM_0
  6
CONTINUOUS
 62
     7
100
AcDbLine
 10
-31.29945584062079
 20
53.83992955046267
 30
0.0
 11
-31.29945584062079
 21
-16.34669212277851
 31
0.0
  0
LINE
  5
31A
330
1F
100
AcDbEntity
  8
AM_0
  6
CONTINUOUS
 62
     7
100
AcDbLine
 10
-21.79945584062079
 20
-16.34669212277851
 30
0.0
 11
-31.29945584062079
 21
-16.34669212277851
 31
0.0
  0
LINE
  5
31B
330
1F
100
AcDbEntity
  8
AM_0
  6
CONTINUOUS
 62
     7
100
AcDbLine
 10
-31.29945584062079
 20
53.83992955046267
 30
0.0
 11
-33.79945584062068
 21
53.83992955046267
 31
0.0
  0
LINE
  5
31C
330
1F
100
AcDbEntity
  8
AM_0
  6
CONTINUOUS
 62
     7
100
AcDbLine
 10
-22.29945584062079
 20
34.94889329037238
 30
0.0
 11
-26.29945584062079
 21
34.94889329037238
 31
0.0
  0
LINE
  5
31D
330
1F
100
AcDbEntity
  8
AM_0
  6
CONTINUOUS
 62
     7
100
AcDbLine
 10
-22.29945584062079
 20
39.94889329037215
 30
0.0
 11
-26.29945584062079
 21
39.94889329037215
 31
0.0
  0
LINE
  5
31E
330
1F
100
AcDbEntity
  8
AM_0
  6
CONTINUOUS
 62
     7
100
AcDbLine
 10
-22.29945584062079
 20
39.94889329037215
 30
0.0
 11
-22.29945584062079
 21
34.94889329037238
 31
0.0
  0
LINE
  5
31F
330
1F
100
AcDbEntity
  8
AM_0
  6
CONTINUOUS
 62
     7
100
AcDbLine
 10
-53.29945584062079
 20
39.94889329037215
 30
0.0
 11
-53.29945584062079
 21
34.94889329037238
 31
0.0
  0
LINE
  5
320
330
1F
100
AcDbEntity
  8
AM_0
  6
CONTINUOUS
 62
     7
100
AcDbLine
 10
-30.29945584062079
 20
32.14889329037265
 30
0.0
 11
-30.29945584062079
 21
42.74889329037205
 31
0.0
  0
LINE
  5
321
330
1F
100
AcDbEntity
  8
AM_0
  6
CONTINUOUS
 62
     7
100
AcDbLine
 10
-26.29945584062079
 20
33.44889329037176
 30
0.0
 11
-26.29945584062079
 21
41.44889329037238
 31
0.0
  0
LINE
  5
322
330
1F
100
AcDbEntity
  8
AM_0
  6
CONTINUOUS
 62
     7
100
AcDbLine
 10
-26.65672143052871
 20
42.06769544388908
 30
0.0
 11
-30.29945584062079
 21
42.06769544388908
 31
0.0
  0
LINE
  5
323
330
1F
100
AcDbEntity
  8
AM_0
  6
CONTINUOUS
 62
     7
100
AcDbLine
 10
-26.65672143052871
 20
39.75829436713076
 30
0.0
 11
-30.29945584062079
 21
39.75829436713076
 31
0.0
  0
LINE
  5
324
330
1F
100
AcDbEntity
  8
AM_0
  6
CONTINUOUS
 62
     7
100
AcDbLine
 10
-26.65672143052871
 20
35.13949221361378
 30
0.0
 11
-30.29945584062079
 21
35.13949221361378
 31
0.0
  0
LINE
  5
325
330
1F
100
AcDbEntity
  8
AM_0
  6
CONTINUOUS
 62
     7
100
AcDbLine
 10
-30.29945584062079
 20
42.74889329037205
 30
0.0
 11
-31.29945584062079
 21
42.74889329037205
 31
0.0
  0
LINE
  5
326
330
1F
100
AcDbEntity
  8
AM_0
  6
CONTINUOUS
 62
     7
100
AcDbLine
 10
-30.29945584062079
 20
32.14889329037265
 30
0.0
 11
-31.29945584062079
 21
32.14889329037265
 31
0.0
  0
LINE
  5
327
330
1F
100
AcDbEntity
  8
AM_0
  6
CONTINUOUS
 62
     7
100
AcDbLine
 10
-26.29945584062079
 20
41.44889329037238
 30
0.0
 11
-26.65672143052871
 21
42.06769544388908
 31
0.0
  0
ARC
  5
328
330
1F
100
AcDbEntity
  8
AM_0
  6
CONTINUOUS
 62
     7
100
AcDbCircle
 10
-33.9421902507147
 20
37.44889329037238
 30
0.0
 40
7.642734410093918
100
AcDbArc
 50
342.4120462260094
 51
17.58795377399057
  0
ARC
  5
329
330
1F
100
AcDbEntity
  8
AM_0
  6
CONTINUOUS
 62
     7
100
AcDbCircle
 10
-28.3441140393594
 20
40.91299490551006
 30
0.0
 40
2.044658198738654
100
AcDbArc
 50
325.6157525319599
 51
34.38424746804012
  0
LINE
  5
32A
330
1F
100
AcDbEntity
  8
AM_0
  6
CONTINUOUS
 62
     7
100
AcDbLine
 10
-26.65672143052871
 20
32.83009113685506
 30
0.0
 11
-30.29945584062079
 21
32.83009113685506
 31
0.0
  0
LINE
  5
32B
330
1F
100
AcDbEntity
  8
AM_0
  6
CONTINUOUS
 62
     7
100
AcDbLine
 10
-26.29945584062079
 20
33.44889329037176
 30
0.0
 11
-26.65672143052871
 21
32.83009113685506
 31
0.0
  0
ARC
  5
32C
330
1F
100
AcDbEntity
  8
AM_0
  6
CONTINUOUS
 62
     7
100
AcDbCircle
 10
-28.3441140393594
 20
33.98479167523516
 30
0.0
 40
2.044658198738654
100
AcDbArc
 50
325.6157525319599
 51
34.38424746804012
  0
LINE
  5
32D
330
1F
100
AcDbEntity
  8
AM_0
  6
CONTINUOUS
 62
     7
100
AcDbLine
 10
-35.79945584062079
 20
34.94889329037238
 30
0.0
 11
-53.29945584062079
 21
34.94889329037238
 31
0.0
  0
LINE
  5
32E
330
1F
100
AcDbEntity
  8
AM_0
  6
CONTINUOUS
 62
     7
100
AcDbLine
 10
-35.79945584062079
 20
39.94889329037215
 30
0.0
 11
-53.29945584062079
 21
39.94889329037215
 31
0.0
  0
ELLIPSE
  5
32F
330
1F
100
AcDbEntity
  8
AM_0
  6
CONTINUOUS
 62
     7
100
AcDbEllipse
 10
-21.79945584062079
 20
-16.34669212277851
 30
0.0
 11
2.5
 21
0.0
 31
0.0
210
0.0
220
0.0
230
1.0
 40
0.9238795325113187
 41
4.712388980385613
 42
6.283185307179586
  0
ELLIPSE
  5
330
330
1F
100
AcDbEntity
  8
AM_0
  6
CONTINUOUS
 62
     7
100
AcDbEllipse
 10
-31.29945584062079
 20
-16.34669212277851
 30
0.0
 11
-2.5
 21
0.0
 31
0.0
210
0.0
220
0.0
230
1.0
 40
0.9238795325113187
 41
0.0
 42
1.570796326793973
  0
LINE
  5
331
330
1F
100
AcDbEntity
  8
AM_0
  6
CONTINUOUS
 62
     7
100
AcDbLine
 10
-31.29945584062079
 20
-9.458390340206904
 30
0.0
 11
-21.79945584062079
 21
-9.458390340206904
 31
0.0
  0
LINE
  5
332
330
1F
100
AcDbEntity
  8
AM_0
  6
CONTINUOUS
 62
     7
100
AcDbLine
 10
-31.29945584062079
 20
-18.65639095405675
 30
0.0
 11
-21.79945584062079
 21
-18.65639095405675
 31
0.0
  0
LINE
  5
333
330
1F
100
AcDbEntity
  8
AM_0
  6
CONTINUOUS
 62
     7
100
AcDbLine
 10
-19.29945584062079
 20
9.765350587454748
 30
0.0
 11
-16.29945584062068
 21
9.765350587454748
 31
0.0
  0
LINE
  5
334
330
1F
100
AcDbEntity
  8
AM_0
  6
CONTINUOUS
 62
     7
100
AcDbLine
 10
-19.29945584062079
 20
-3.234649412545252
 30
0.0
 11
-16.29945584062068
 21
-3.234649412545252
 31
0.0
  0
LINE
  5
335
330
1F
100
AcDbEntity
  8
AM_0
  6
CONTINUOUS
 62
     7
100
AcDbLine
 10
-25.79945584062079
 20
-0.7346494125454228
 30
0.0
 11
-25.79945584062079
 21
7.265350587454861
 31
0.0
  0
LINE
  5
336
330
1F
100
AcDbEntity
  8
AM_0
  6
CONTINUOUS
 62
     7
100
AcDbLine
 10
-25.44219025071231
 20
7.884152740971842
 30
0.0
 11
-22.29945584062079
 21
7.884152740971842
 31
0.0
  0
LINE
  5
337
330
1F
100
AcDbEntity
  8
AM_0
  6
CONTINUOUS
 62
     7
100
AcDbLine
 10
-25.44219025071231
 20
5.574751664213295
 30
0.0
 11
-22.29945584062079
 21
5.574751664213295
 31
0.0
  0
LINE
  5
338
330
1F
100
AcDbEntity
  8
AM_0
  6
CONTINUOUS
 62
     7
100
AcDbLine
 10
-25.442190250713
 20
0.9559495106962572
 30
0.0
 11
-22.29945584062079
 21
0.9559495106962572
 31
0.0
  0
LINE
  5
339
330
1F
100
AcDbEntity
  8
AM_0
  6
CONTINUOUS
 62
     7
100
AcDbLine
 10
-25.79945584062079
 20
7.265350587454861
 30
0.0
 11
-25.44219025071231
 21
7.884152740971842
 31
0.0
  0
ARC
  5
33A
330
1F
100
AcDbEntity
  8
AM_0
  6
CONTINUOUS
 62
     7
100
AcDbCircle
 10
-18.15672143052689
 20
3.265350587454748
 30
0.0
 40
7.642734410093918
100
AcDbArc
 50
162.4120462260099
 51
197.587953773981
  0
ARC
  5
33B
330
1F
100
AcDbEntity
  8
AM_0
  6
CONTINUOUS
 62
     7
100
AcDbCircle
 10
-23.75479764188231
 20
6.729452202592483
 30
0.0
 40
2.044658198738654
100
AcDbArc
 50
145.6157525319484
 51
214.3842474680299
  0
LINE
  5
33C
330
1F
100
AcDbEntity
  8
AM_0
  6
CONTINUOUS
 62
     7
100
AcDbLine
 10
-25.44219025071231
 20
-1.353451566062404
 30
0.0
 11
-22.29945584062079
 21
-1.353451566062404
 31
0.0
  0
LINE
  5
33D
330
1F
100
AcDbEntity
  8
AM_0
  6
CONTINUOUS
 62
     7
100
AcDbLine
 10
-25.79945584062079
 20
-0.7346494125454228
 30
0.0
 11
-25.44219025071231
 21
-1.353451566062404
 31
0.0
  0
ARC
  5
33E
330
1F
100
AcDbEntity
  8
AM_0
  6
CONTINUOUS
 62
     7
100
AcDbCircle
 10
-23.75479764188231
 20
-0.1987510276825333
 30
0.0
 40
2.044658198738654
100
AcDbArc
 50
145.615752531963
 51
214.384247468037
  0
LINE
  5
33F
330
1F
100
AcDbEntity
  8
AM_0
  6
CONTINUOUS
 62
     7
100
AcDbLine
 10
-22.29945584062079
 20
8.265350587454748
 30
0.0
 11
-22.29945584062079
 21
-1.734649412545139
 31
0.0
  0
LINE
  5
340
330
1F
100
AcDbEntity
  8
AM_0
  6
CONTINUOUS
 62
     7
100
AcDbLine
 10
-21.79945584062079
 20
8.265350587454748
 30
0.0
 11
-22.29945584062079
 21
8.265350587454748
 31
0.0
  0
LINE
  5
341
330
1F
100
AcDbEntity
  8
AM_0
  6
CONTINUOUS
 62
     7
100
AcDbLine
 10
-21.79945584062079
 20
-1.734649412545139
 30
0.0
 11
-22.29945584062079
 21
-1.734649412545139
 31
0.0
  0
ARC
  5
342
330
1F
100
AcDbEntity
  8
AM_0
  6
CONTINUOUS
 62
     7
100
AcDbCircle
 10
-227.0223123564261
 20
3.265350587454861
 30
0.0
 40
10.0
100
AcDbArc
 50
131.6580672368343
 51
183.3419327631663
  0
CIRCLE
  5
343
330
1F
100
AcDbEntity
  8
AM_0
  6
CONTINUOUS
 62
     7
100
AcDbCircle
 10
-227.0223123564261
 20
3.265350587454748
 30
0.0
 40
6.000000000000007
  0
ARC
  5
344
330
1F
100
AcDbEntity
  8
AM_0
  6
CONTINUOUS
 62
     7
100
AcDbCircle
 10
-222.430111168046
 20
14.35190497759066
 30
0.0
 40
2.5
100
AcDbArc
 50
157.5000000000013
 51
337.5000000000013
  0
LINE
  5
345
330
1F
100
AcDbEntity
  8
AM_0
  6
CONTINUOUS
 62
     7
100
AcDbLine
 10
-211.0675791181981
 20
18.26535058745475
 30
0.0
 11
-202.911218726591
 21
18.26535058745475
 31
0.0
  0
LINE
  5
346
330
1F
100
AcDbEntity
  8
AM_0
  6
CONTINUOUS
 62
     7
100
AcDbLine
 10
-33.79945584062068
 20
29.60951550111406
 30
0.0
 11
-35.79945584062079
 21
29.60951550111406
 31
0.0
  0
LINE
  5
347
330
1F
100
AcDbEntity
  8
AM_0
  6
CONTINUOUS
 62
     7
100
AcDbLine
 10
-33.79945584062068
 20
45.28827107963059
 30
0.0
 11
-35.79945584062079
 21
45.28827107963059
 31
0.0
  0
LINE
  5
348
330
1F
100
AcDbEntity
  8
AM_0
  6
CONTINUOUS
 62
     7
100
AcDbLine
 10
-35.79945584062079
 20
29.60951550111406
 30
0.0
 11
-35.79945584062079
 21
45.28827107963059
 31
0.0
  0
LINE
  5
349
330
1F
100
AcDbEntity
  8
AM_0
  6
CONTINUOUS
 62
     7
100
AcDbLine
 10
-35.79945584062079
 20
32.67098296003496
 30
0.0
 11
-33.79945584062068
 21
32.67098296003496
 31
0.0
  0
ELLIPSE
  5
34A
330
1F
100
AcDbEntity
  8
AM_0
  6
CONTINUOUS
 62
     7
100
AcDbEllipse
 10
-33.29945584062068
 20
30.71192672882614
 30
0.0
 11
-2.5
 21
0.0
 31
0.0
210
0.0
220
0.0
230
1.0
 40
0.9238795325113187
 41
0.4975756059100638
 42
1.369438406004568
  0
LINE
  5
34B
330
1F
100
AcDbEntity
  8
AM_0
  6
CONTINUOUS
 62
     7
100
AcDbLine
 10
-35.79945584062079
 20
40.69606989124958
 30
0.0
 11
-33.79945584062068
 21
40.69606989124958
 31
0.0
  0
LINE
  5
34C
330
1F
100
AcDbEntity
  8
AM_0
  6
CONTINUOUS
 62
     7
100
AcDbLine
 10
-233.5223123564261
 20
169.4937950006022
 30
0.0
 11
-233.5223123564261
 21
172.4937950006022
 31
0.0
  0
LINE
  5
34D
330
1F
100
AcDbEntity
  8
AM_0
  6
CONTINUOUS
 62
     7
100
AcDbLine
 10
-220.5223123564261
 20
169.4937950006022
 30
0.0
 11
-220.5223123564261
 21
172.4937950006022
 31
0.0
  0
LINE
  5
34E
330
1F
100
AcDbEntity
  8
AM_0
  6
CONTINUOUS
 62
     7
100
AcDbLine
 10
-210.3630253589177
 20
166.4937950006022
 30
0.0
 11
-210.3630253589177
 21
162.4937950006022
 31
0.0
  0
LINE
  5
34F
330
1F
100
AcDbEntity
  8
AM_0
  6
CONTINUOUS
 62
     7
100
AcDbLine
 10
-215.3630253589178
 20
166.4937950006022
 30
0.0
 11
-215.3630253589178
 21
162.4937950006022
 31
0.0
  0
LINE
  5
350
330
1F
100
AcDbEntity
  8
AM_0
  6
CONTINUOUS
 62
     7
100
AcDbLine
 10
-205.0236475696595
 20
154.9937950006022
 30
0.0
 11
-205.0236475696595
 21
152.9937950006022
 31
0.0
  0
LINE
  5
351
330
1F
100
AcDbEntity
  8
AM_0
  6
CONTINUOUS
 62
     7
100
AcDbLine
 10
-220.7024031481761
 20
154.9937950006022
 30
0.0
 11
-220.7024031481761
 21
152.9937950006022
 31
0.0
  0
LINE
  5
352
330
1F
100
AcDbEntity
  8
AM_0
  6
CONTINUOUS
 62
     7
100
AcDbLine
 10
-215.3630253589178
 20
166.4937950006022
 30
0.0
 11
-210.3630253589177
 21
166.4937950006022
 31
0.0
  0
LINE
  5
353
330
1F
100
AcDbEntity
  8
AM_0
  6
CONTINUOUS
 62
     7
100
AcDbLine
 10
-215.3630253589178
 20
135.4937950006022
 30
0.0
 11
-210.3630253589177
 21
135.4937950006022
 31
0.0
  0
LINE
  5
354
330
1F
100
AcDbEntity
  8
AM_0
  6
CONTINUOUS
 62
     7
100
AcDbLine
 10
-205.0236475696595
 20
152.9937950006022
 30
0.0
 11
-220.7024031481761
 21
152.9937950006022
 31
0.0
  0
LINE
  5
355
330
1F
100
AcDbEntity
  8
AM_0
  6
CONTINUOUS
 62
     7
100
AcDbLine
 10
-207.5630253589181
 20
158.4937950006022
 30
0.0
 11
-218.1630253589176
 21
158.4937950006022
 31
0.0
  0
LINE
  5
356
330
1F
100
AcDbEntity
  8
AM_0
  6
CONTINUOUS
 62
     7
100
AcDbLine
 10
-208.8630253589174
 20
162.4937950006022
 30
0.0
 11
-216.8630253589177
 21
162.4937950006022
 31
0.0
  0
LINE
  5
357
330
1F
100
AcDbEntity
  8
AM_0
  6
CONTINUOUS
 62
     7
100
AcDbLine
 10
-217.4818275124346
 20
162.1365294106942
 30
0.0
 11
-217.4818275124346
 21
158.4937950006022
 31
0.0
  0
LINE
  5
358
330
1F
100
AcDbEntity
  8
AM_0
  6
CONTINUOUS
 62
     7
100
AcDbLine
 10
-215.1724264356764
 20
162.1365294106942
 30
0.0
 11
-215.1724264356764
 21
158.4937950006022
 31
0.0
  0
LINE
  5
359
330
1F
100
AcDbEntity
  8
AM_0
  6
CONTINUOUS
 62
     7
100
AcDbLine
 10
-210.5536242821592
 20
162.1365294106942
 30
0.0
 11
-210.5536242821592
 21
158.4937950006022
 31
0.0
  0
LINE
  5
35A
330
1F
100
AcDbEntity
  8
AM_0
  6
CONTINUOUS
 62
     7
100
AcDbLine
 10
-218.1630253589176
 20
158.4937950006022
 30
0.0
 11
-218.1630253589176
 21
157.4937950006022
 31
0.0
  0
LINE
  5
35B
330
1F
100
AcDbEntity
  8
AM_0
  6
CONTINUOUS
 62
     7
100
AcDbLine
 10
-207.5630253589181
 20
158.4937950006022
 30
0.0
 11
-207.5630253589181
 21
157.4937950006022
 31
0.0
  0
LINE
  5
35C
330
1F
100
AcDbEntity
  8
AM_0
  6
CONTINUOUS
 62
     7
100
AcDbLine
 10
-216.8630253589177
 20
162.4937950006022
 30
0.0
 11
-217.4818275124346
 21
162.1365294106942
 31
0.0
  0
ARC
  5
35D
330
1F
100
AcDbEntity
  8
AM_0
  6
CONTINUOUS
 62
     7
100
AcDbCircle
 10
-212.8630253589178
 20
154.851060590508
 30
0.0
 40
7.642734410093918
100
AcDbArc
 50
72.41204622600904
 51
107.587953773991
  0
ARC
  5
35E
330
1F
100
AcDbEntity
  8
AM_0
  6
CONTINUOUS
 62
     7
100
AcDbCircle
 10
-216.3271269740555
 20
160.4491368018637
 30
0.0
 40
2.044658198738654
100
AcDbArc
 50
55.61575253196169
 51
124.3842474680383
  0
LINE
  5
35F
330
1F
100
AcDbEntity
  8
AM_0
  6
CONTINUOUS
 62
     7
100
AcDbLine
 10
-208.2442232054006
 20
162.1365294106942
 30
0.0
 11
-208.2442232054006
 21
158.4937950006022
 31
0.0
  0
LINE
  5
360
330
1F
100
AcDbEntity
  8
AM_0
  6
CONTINUOUS
 62
     7
100
AcDbLine
 10
-208.8630253589174
 20
162.4937950006022
 30
0.0
 11
-208.2442232054006
 21
162.1365294106942
 31
0.0
  0
ARC
  5
361
330
1F
100
AcDbEntity
  8
AM_0
  6
CONTINUOUS
 62
     7
100
AcDbCircle
 10
-209.3989237437806
 20
160.4491368018637
 30
0.0
 40
2.044658198738654
100
AcDbArc
 50
55.61575253196169
 51
124.3842474680383
  0
LINE
  5
362
330
1F
100
AcDbEntity
  8
AM_0
  6
CONTINUOUS
 62
     7
100
AcDbLine
 10
-210.3630253589177
 20
152.9937950006022
 30
0.0
 11
-210.3630253589177
 21
135.4937950006022
 31
0.0
  0
LINE
  5
363
330
1F
100
AcDbEntity
  8
AM_0
  6
CONTINUOUS
 62
     7
100
AcDbLine
 10
-215.3630253589178
 20
152.9937950006022
 30
0.0
 11
-215.3630253589178
 21
135.4937950006022
 31
0.0
  0
LINE
  5
364
330
1F
100
AcDbEntity
  8
AM_0
  6
CONTINUOUS
 62
     7
100
AcDbLine
 10
-242.9908967963295
 20
166.9937950006022
 30
0.0
 11
-242.9908967963295
 21
157.4937950006022
 31
0.0
  0
LINE
  5
365
330
1F
100
AcDbEntity
  8
AM_0
  6
CONTINUOUS
 62
     7
100
AcDbLine
 10
-242.0341882154168
 20
157.4937950006022
 30
0.0
 11
-242.0341882154168
 21
166.9937950006022
 31
0.0
  0
LINE
  5
366
330
1F
100
AcDbEntity
  8
AM_0
  6
CONTINUOUS
 62
     7
100
AcDbLine
 10
-200.8015578999971
 20
154.9937950006022
 30
0.0
 11
-242.0341882154168
 21
154.9937950006022
 31
0.0
  0
LINE
  5
367
330
1F
100
AcDbEntity
  8
AM_0
  6
CONTINUOUS
 62
     7
100
AcDbLine
 10
-242.0341882154168
 20
157.4937950006022
 30
0.0
 11
-200.8015578999971
 21
157.4937950006022
 31
0.0
  0
LINE
  5
368
330
1F
100
AcDbEntity
  8
AM_0
  6
CONTINUOUS
 62
     7
100
AcDbLine
 10
-242.0341882154168
 20
169.4937950006022
 30
0.0
 11
-218.0223123564261
 21
169.4937950006022
 31
0.0
  0
LINE
  5
369
330
1F
100
AcDbEntity
  8
AM_0
  6
CONTINUOUS
 62
     7
100
AcDbLine
 10
-242.0341882154168
 20
166.9937950006022
 30
0.0
 11
-218.0223123564261
 21
166.9937950006022
 31
0.0
  0
LINE
  5
36A
330
1F
100
AcDbEntity
  8
AM_0
  6
CONTINUOUS
 62
     7
100
AcDbLine
 10
-218.0223123564261
 20
169.4937950006022
 30
0.0
 11
-218.0223123564261
 21
166.9937950006022
 31
0.0
  0
LINE
  5
36B
330
1F
100
AcDbEntity
  8
AM_0
  6
CONTINUOUS
 62
     7
100
AcDbLine
 10
-200.8015578999971
 20
157.4937950006022
 30
0.0
 11
-200.8015578999971
 21
154.9937950006022
 31
0.0
  0
LINE
  5
36C
330
1F
100
AcDbEntity
  8
AM_0
  6
CONTINUOUS
 62
     7
100
AcDbLine
 10
-216.110201959795
 20
154.9937950006022
 30
0.0
 11
-216.110201959795
 21
152.9937950006022
 31
0.0
  0
ELLIPSE
  5
36D
330
1F
100
AcDbEntity
  8
AM_0
  6
CONTINUOUS
 62
     7
100
AcDbEllipse
 10
-242.0341882154168
 20
166.9937950006022
 30
0.0
 11
0.0
 21
2.5
 31
0.0
210
0.0
220
0.0
230
1.0
 40
0.3826834323650928
 41
0.0
 42
1.570796326794514
  0
ELLIPSE
  5
36E
330
1F
100
AcDbEntity
  8
AM_0
  6
CONTINUOUS
 62
     7
100
AcDbEllipse
 10
-242.0341882154168
 20
157.4937950006022
 30
0.0
 11
0.0
 21
-2.5
 31
0.0
210
0.0
220
0.0
230
1.0
 40
0.3826834323650928
 41
4.712388980385072
 42
6.283185307179586
  0
LINE
  5
36F
330
1F
100
AcDbEntity
  8
AM_0
  6
CONTINUOUS
 62
     7
100
AcDbLine
 10
-225.4043566302136
 20
162.9937950006022
 30
0.0
 11
-225.4043566302136
 21
157.4937950006022
 31
0.0
  0
LINE
  5
370
330
1F
100
AcDbEntity
  8
AM_0
  6
CONTINUOUS
 62
     7
100
AcDbLine
 10
230.7184856469381
 20
45.79663813137557
 30
0.0
 11
231.991547684976
 21
42.72319449340165
 31
0.0
  0
LINE
  5
371
330
1F
100
AcDbEntity
  8
AM_0
  6
CONTINUOUS
 62
     7
100
AcDbLine
 10
235.5683585267413
 20
34.08800924916869
 30
0.0
 11
242.1223183372233
 21
18.26535058745475
 31
0.0
  0
LINE
  5
372
330
1F
100
AcDbEntity
  8
AM_0
  6
CONTINUOUS
 62
     7
100
AcDbLine
 10
220.0938710230582
 20
41.39577865917698
 30
0.0
 11
229.6748080338609
 21
18.26535058745475
 31
0.0
  0
ARC
  5
373
330
1F
100
AcDbEntity
  8
AM_0
  6
CONTINUOUS
 62
     7
100
AcDbCircle
 10
228.4087868156598
 20
44.83992955046278
 30
0.0
 40
9.0
100
AcDbArc
 50
22.50000000000026
 51
202.4999999999996
  0
LINE
  5
374
330
1F
100
AcDbEntity
  8
AM_0
  6
CONTINUOUS
 62
     7
100
AcDbLine
 10
236.7237026082614
 20
48.28408044174836
 30
0.0
 11
249.1578676391241
 21
18.26535058745475
 31
0.0
  0
ARC
  5
375
330
1F
100
AcDbEntity
  8
AM_0
  6
CONTINUOUS
 62
     7
100
AcDbCircle
 10
228.4087868156598
 20
44.83992955046278
 30
0.0
 40
2.5
100
AcDbArc
 50
22.50000000000046
 51
202.5000000000004
  0
LINE
  5
376
330
1F
100
AcDbEntity
  8
AM_0
  6
CONTINUOUS
 62
     7
100
AcDbLine
 10
226.0990879843816
 20
43.88322096955
 30
0.0
 11
227.3721500224199
 21
40.80977733157624
 31
0.0
  0
LINE
  5
377
330
1F
100
AcDbEntity
  8
AM_0
  6
CONTINUOUS
 62
     7
100
AcDbLine
 10
230.9489608641849
 20
32.17459208734329
 30
0.0
 11
236.7103573357613
 21
18.26535058745475
 31
0.0
  0
CIRCLE
  5
378
330
1F
100
AcDbEntity
  8
AM_0
  6
CONTINUOUS
 62
     7
100
AcDbCircle
 10
231.4702542745805
 20
37.44889329037238
 30
0.0
 40
4.0
  0
CIRCLE
  5
379
330
1F
100
AcDbEntity
  8
AM_0
  6
CONTINUOUS
 62
     7
100
AcDbCircle
 10
231.4702542745805
 20
37.44889329037238
 30
0.0
 40
5.299999999999726
  0
LINE
  5
37A
330
1F
100
AcDbEntity
  8
AM_0
  6
CONTINUOUS
 62
     7
100
AcDbLine
 10
233.0666461008435
 20
28.36861063304065
 30
0.0
 11
236.7621642308891
 21
29.8993443625011
 31
0.0
  0
LINE
  5
37B
330
1F
100
AcDbEntity
  8
AM_0
  6
CONTINUOUS
 62
     7
100
AcDbLine
 10
226.8644548491116
 20
42.03546190452749
 30
0.0
 11
231.4838525116683
 21
43.94887906635296
 31
0.0
  0
LINE
  5
37C
330
1F
100
AcDbEntity
  8
AM_0
  6
CONTINUOUS
 62
     7
100
AcDbLine
 10
232.6839626684789
 20
29.29249016555195
 30
0.0
 11
236.3794807985239
 21
30.82322389501229
 31
0.0
  0
LINE
  5
37D
330
1F
100
AcDbEntity
  8
AM_0
  6
CONTINUOUS
 62
     7
100
AcDbLine
 10
235.6141139337935
 20
32.67098296003496
 30
0.0
 11
236.7621642308891
 21
29.8993443625011
 31
0.0
  0
LINE
  5
37E
330
1F
100
AcDbEntity
  8
AM_0
  6
CONTINUOUS
 62
     7
100
AcDbLine
 10
231.9185958037484
 20
31.14024923057457
 30
0.0
 11
233.0666461008435
 21
28.36861063304065
 31
0.0
  0
LINE
  5
37F
330
1F
100
AcDbEntity
  8
AM_0
  6
CONTINUOUS
 62
     7
100
AcDbLine
 10
235.6141139337935
 20
32.67098296003496
 30
0.0
 11
236.0760537000492
 21
32.86232467621738
 31
0.0
  0
LINE
  5
380
330
1F
100
AcDbEntity
  8
AM_0
  6
CONTINUOUS
 62
     7
100
AcDbLine
 10
231.9185958037484
 20
31.14024923057457
 30
0.0
 11
231.456656037493
 21
30.94890751439198
 31
0.0
  0
CIRCLE
  5
381
330
1F
100
AcDbEntity
  8
AM_0
  6
CONTINUOUS
 62
     7
100
AcDbCircle
 10
231.4702542745805
 20
37.44889329037238
 30
0.0
 40
2.5
  0
LINE
  5
382
330
1F
100
AcDbEntity
  8
AM_0
  6
CONTINUOUS
 62
     7
100
AcDbLine
 10
-113.5223123564261
 20
197.9937950006022
 30
0.0
 11
-94.5223123564262
 21
197.9937950006022
 31
0.0
  0
LINE
  5
383
330
1F
100
AcDbEntity
  8
AM_0
  6
CONTINUOUS
 62
     7
100
AcDbLine
 10
-170.5223123564262
 20
197.2259681241748
 30
0.0
 11
-129.5223123564261
 21
197.2259681241748
 31
0.0
  0
LINE
  5
384
330
1F
100
AcDbEntity
  8
AM_0
  6
CONTINUOUS
 62
     7
100
AcDbLine
 10
-129.5223123564261
 20
207.7616218770286
 30
0.0
 11
-170.5223123564262
 21
207.7616218770286
 31
0.0
  0
LINE
  5
385
330
1F
100
AcDbEntity
  8
AM_0
  6
CONTINUOUS
 62
     7
100
AcDbLine
 10
-176.5223123564261
 20
193.4937950006022
 30
0.0
 11
-185.5223123564261
 21
193.4937950006022
 31
0.0
  0
LINE
  5
386
330
1F
100
AcDbEntity
  8
AM_0
  6
CONTINUOUS
 62
     7
100
AcDbLine
 10
-185.5223123564261
 20
197.2259681241748
 30
0.0
 11
-176.5223123564261
 21
197.2259681241748
 31
0.0
  0
LINE
  5
387
330
1F
100
AcDbEntity
  8
AM_0
  6
CONTINUOUS
 62
     7
100
AcDbLine
 10
-129.5223123564261
 20
193.4937950006022
 30
0.0
 11
-170.5223123564262
 21
193.4937950006022
 31
0.0
  0
LINE
  5
388
330
1F
100
AcDbEntity
  8
AM_0
  6
CONTINUOUS
 62
     7
100
AcDbLine
 10
-176.5223123564261
 20
194.9937950006022
 30
0.0
 11
-170.5223123564262
 21
194.9937950006022
 31
0.0
  0
LINE
  5
389
330
1F
100
AcDbEntity
  8
AM_0
  6
CONTINUOUS
 62
     7
100
AcDbLine
 10
-176.5223123564261
 20
207.7616218770286
 30
0.0
 11
-185.5223123564261
 21
207.7616218770286
 31
0.0
  0
LINE
  5
38A
330
1F
100
AcDbEntity
  8
AM_0
  6
CONTINUOUS
 62
     7
100
AcDbLine
 10
-268.5223123564262
 20
229.4937950006022
 30
0.0
 11
-268.5223123564262
 21
193.4937950006022
 31
0.0
  0
LINE
  5
38B
330
1F
100
AcDbEntity
  8
AM_0
  6
CONTINUOUS
 62
     7
100
AcDbLine
 10
-277.5223123564261
 20
229.4937950006022
 30
0.0
 11
-277.5223123564261
 21
193.4937950006022
 31
0.0
  0
LINE
  5
38C
330
1F
100
AcDbEntity
  8
AM_0
  6
CONTINUOUS
 62
     7
100
AcDbLine
 10
-283.5223123564261
 20
229.4937950006022
 30
0.0
 11
-283.5223123564261
 21
193.4937950006022
 31
0.0
  0
LINE
  5
38D
330
1F
100
AcDbEntity
  8
AM_0
  6
CONTINUOUS
 62
     7
100
AcDbLine
 10
-324.5223123564261
 20
229.4937950006022
 30
0.0
 11
-324.5223123564261
 21
193.4937950006022
 31
0.0
  0
LINE
  5
38E
330
1F
100
AcDbEntity
  8
AM_0
  6
CONTINUOUS
 62
     7
100
AcDbLine
 10
-335.5223123564261
 20
224.7437950006022
 30
0.0
 11
-335.5223123564261
 21
198.2437950006022
 31
0.0
  0
LINE
  5
38F
330
1F
100
AcDbEntity
  8
AM_0
  6
CONTINUOUS
 62
     7
100
AcDbLine
 10
-359.5223123564261
 20
224.9937950006022
 30
0.0
 11
-359.5223123564261
 21
197.9937950006022
 31
0.0
  0
LINE
  5
390
330
1F
100
AcDbEntity
  8
AM_0
  6
CONTINUOUS
 62
     7
100
AcDbLine
 10
-340.5223123564261
 20
224.9937950006022
 30
0.0
 11
-340.5223123564261
 21
197.9937950006022
 31
0.0
  0
LINE
  5
391
330
1F
100
AcDbEntity
  8
AM_0
  6
CONTINUOUS
 62
     7
100
AcDbLine
 10
-338.5223123564261
 20
222.1057950006021
 30
0.0
 11
-338.5223123564261
 21
200.8817950006021
 31
0.0
  0
LINE
  5
392
330
1F
100
AcDbEntity
  8
AM_0
  6
CONTINUOUS
 62
     7
100
AcDbLine
 10
-338.5223123564261
 20
200.8817950006021
 30
0.0
 11
-340.5223123564261
 21
200.8817950006021
 31
0.0
  0
LINE
  5
393
330
1F
100
AcDbEntity
  8
AM_0
  6
CONTINUOUS
 62
     7
100
AcDbLine
 10
-277.5223123564261
 20
229.4937950006022
 30
0.0
 11
-268.5223123564262
 21
229.4937950006022
 31
0.0
  0
LINE
  5
394
330
1F
100
AcDbEntity
  8
AM_0
  6
CONTINUOUS
 62
     7
100
AcDbLine
 10
-268.5223123564262
 20
225.7616218770295
 30
0.0
 11
-277.5223123564261
 21
225.7616218770295
 31
0.0
  0
LINE
  5
395
330
1F
100
AcDbEntity
  8
AM_0
  6
CONTINUOUS
 62
     7
100
AcDbLine
 10
-277.5223123564261
 20
215.2259681241757
 30
0.0
 11
-268.5223123564262
 21
215.2259681241757
 31
0.0
  0
LINE
  5
396
330
1F
100
AcDbEntity
  8
AM_0
  6
CONTINUOUS
 62
     7
100
AcDbLine
 10
-277.5223123564261
 20
227.9937950006022
 30
0.0
 11
-283.5223123564261
 21
227.9937950006022
 31
0.0
  0
LINE
  5
397
330
1F
100
AcDbEntity
  8
AM_0
  6
CONTINUOUS
 62
     7
100
AcDbLine
 10
-324.5223123564261
 20
229.4937950006022
 30
0.0
 11
-283.5223123564261
 21
229.4937950006022
 31
0.0
  0
LINE
  5
398
330
1F
100
AcDbEntity
  8
AM_0
  6
CONTINUOUS
 62
     7
100
AcDbLine
 10
-283.5223123564261
 20
225.7616218770295
 30
0.0
 11
-324.5223123564261
 21
225.7616218770295
 31
0.0
  0
LINE
  5
399
330
1F
100
AcDbEntity
  8
AM_0
  6
CONTINUOUS
 62
     7
100
AcDbLine
 10
-324.5223123564261
 20
215.2259681241757
 30
0.0
 11
-283.5223123564261
 21
215.2259681241757
 31
0.0
  0
LINE
  5
39A
330
1F
100
AcDbEntity
  8
AM_0
  6
CONTINUOUS
 62
     7
100
AcDbLine
 10
-335.5223123564261
 20
198.2437950006022
 30
0.0
 11
-324.5223123564261
 21
198.2437950006022
 31
0.0
  0
LINE
  5
39B
330
1F
100
AcDbEntity
  8
AM_0
  6
CONTINUOUS
 62
     7
100
AcDbLine
 10
-335.5223123564261
 20
224.7437950006022
 30
0.0
 11
-324.5223123564261
 21
224.7437950006022
 31
0.0
  0
LINE
  5
39C
330
1F
100
AcDbEntity
  8
AM_0
  6
CONTINUOUS
 62
     7
100
AcDbLine
 10
-340.5223123564261
 20
211.4937950006022
 30
0.0
 11
-359.5223123564261
 21
211.4937950006022
 31
0.0
  0
LINE
  5
39D
330
1F
100
AcDbEntity
  8
AM_0
  6
CONTINUOUS
 62
     7
100
AcDbLine
 10
-359.5223123564261
 20
203.6995663665423
 30
0.0
 11
-340.5223123564261
 21
203.6995663665423
 31
0.0
  0
LINE
  5
39E
330
1F
100
AcDbEntity
  8
AM_0
  6
CONTINUOUS
 62
     7
100
AcDbLine
 10
-340.5223123564261
 20
224.9937950006022
 30
0.0
 11
-359.5223123564261
 21
224.9937950006022
 31
0.0
  0
LINE
  5
39F
330
1F
100
AcDbEntity
  8
AM_0
  6
CONTINUOUS
 62
     7
100
AcDbLine
 10
-359.5223123564261
 20
219.2880236346621
 30
0.0
 11
-340.5223123564261
 21
219.2880236346621
 31
0.0
  0
LINE
  5
3A0
330
1F
100
AcDbEntity
  8
AM_0
  6
CONTINUOUS
 62
     7
100
AcDbLine
 10
-335.5223123564261
 20
200.9755450006021
 30
0.0
 11
-338.5223123564262
 21
200.8817950006021
 31
0.0
  0
LINE
  5
3A1
330
1F
100
AcDbEntity
  8
AM_0
  6
CONTINUOUS
 62
     7
100
AcDbLine
 10
-338.5223123564261
 20
222.1057950006021
 30
0.0
 11
-340.5223123564261
 21
222.1057950006021
 31
0.0
  0
LINE
  5
3A2
330
1F
100
AcDbEntity
  8
AM_0
  6
CONTINUOUS
 62
     7
100
AcDbLine
 10
-335.5223123564261
 20
222.0120450006021
 30
0.0
 11
-338.5223123564262
 21
222.1057950006021
 31
0.0
  0
LINE
  5
3A3
330
1F
100
AcDbEntity
  8
AM_0
  6
CONTINUOUS
 62
     7
100
AcDbLine
 10
-340.5223123564261
 20
197.9937950006022
 30
0.0
 11
-359.5223123564261
 21
197.9937950006022
 31
0.0
  0
LINE
  5
3A4
330
1F
100
AcDbEntity
  8
AM_0
  6
CONTINUOUS
 62
     7
100
AcDbLine
 10
-283.5223123564261
 20
197.2259681241748
 30
0.0
 11
-324.5223123564261
 21
197.2259681241748
 31
0.0
  0
LINE
  5
3A5
330
1F
100
AcDbEntity
  8
AM_0
  6
CONTINUOUS
 62
     7
100
AcDbLine
 10
-324.5223123564261
 20
207.7616218770286
 30
0.0
 11
-283.5223123564261
 21
207.7616218770286
 31
0.0
  0
LINE
  5
3A6
330
1F
100
AcDbEntity
  8
AM_0
  6
CONTINUOUS
 62
     7
100
AcDbLine
 10
-277.5223123564261
 20
193.4937950006022
 30
0.0
 11
-268.5223123564262
 21
193.4937950006022
 31
0.0
  0
LINE
  5
3A7
330
1F
100
AcDbEntity
  8
AM_0
  6
CONTINUOUS
 62
     7
100
AcDbLine
 10
-268.5223123564262
 20
197.2259681241748
 30
0.0
 11
-277.5223123564261
 21
197.2259681241748
 31
0.0
  0
LINE
  5
3A8
330
1F
100
AcDbEntity
  8
AM_0
  6
CONTINUOUS
 62
     7
100
AcDbLine
 10
-324.5223123564261
 20
193.4937950006022
 30
0.0
 11
-283.5223123564261
 21
193.4937950006022
 31
0.0
  0
LINE
  5
3A9
330
1F
100
AcDbEntity
  8
AM_0
  6
CONTINUOUS
 62
     7
100
AcDbLine
 10
-277.5223123564261
 20
194.9937950006022
 30
0.0
 11
-283.5223123564261
 21
194.9937950006022
 31
0.0
  0
LINE
  5
3AA
330
1F
100
AcDbEntity
  8
AM_0
  6
CONTINUOUS
 62
     7
100
AcDbLine
 10
-277.5223123564261
 20
207.7616218770286
 30
0.0
 11
-268.5223123564262
 21
207.7616218770286
 31
0.0
  0
LINE
  5
3AB
330
1F
100
AcDbEntity
  8
AM_0
  6
CONTINUOUS
 62
     7
100
AcDbLine
 10
-274.5223123564262
 20
159.4937950006022
 30
0.0
 11
-268.5223123564262
 21
159.4937950006022
 31
0.0
  0
LINE
  5
3AC
330
1F
100
AcDbEntity
  8
AM_0
  6
CONTINUOUS
 62
     7
100
AcDbLine
 10
-274.5223123564262
 20
159.9937950006022
 30
0.0
 11
-268.5223123564262
 21
159.9937950006022
 31
0.0
  0
LINE
  5
3AD
330
1F
100
AcDbEntity
  8
AM_0
  6
CONTINUOUS
 62
     7
100
AcDbLine
 10
-269.5223123564261
 20
159.9937950006022
 30
0.0
 11
-269.5223123564261
 21
164.4937950006022
 31
0.0
  0
LINE
  5
3AE
330
1F
100
AcDbEntity
  8
AM_0
  6
CONTINUOUS
 62
     7
100
AcDbLine
 10
-273.5223123564261
 20
159.9937950006022
 30
0.0
 11
-273.5223123564261
 21
164.4937950006022
 31
0.0
  0
LINE
  5
3AF
330
1F
100
AcDbEntity
  8
AM_0
  6
CONTINUOUS
 62
     7
100
AcDbLine
 10
-274.5223123564262
 20
159.4937950006022
 30
0.0
 11
-274.5223123564262
 21
159.9937950006022
 31
0.0
  0
LINE
  5
3B0
330
1F
100
AcDbEntity
  8
AM_0
  6
CONTINUOUS
 62
     7
100
AcDbLine
 10
-268.5223123564262
 20
159.4937950006022
 30
0.0
 11
-268.5223123564262
 21
159.9937950006022
 31
0.0
  0
LINE
  5
3B1
330
1F
100
AcDbEntity
  8
AM_0
  6
CONTINUOUS
 62
     7
100
AcDbLine
 10
-269.5223123564261
 20
186.4937950006022
 30
0.0
 11
-269.5223123564261
 21
193.4937950006022
 31
0.0
  0
LINE
  5
3B2
330
1F
100
AcDbEntity
  8
AM_0
  6
CONTINUOUS
 62
     7
100
AcDbLine
 10
-273.5223123564261
 20
186.4937950006022
 30
0.0
 11
-273.5223123564261
 21
193.4937950006022
 31
0.0
  0
LINE
  5
3B3
330
1F
100
AcDbEntity
  8
AM_0
  6
CONTINUOUS
 62
     7
100
AcDbLine
 10
-223.0223123564259
 20
162.9937950006022
 30
0.0
 11
-231.0223123564261
 21
162.9937950006022
 31
0.0
  0
LINE
  5
3B4
330
1F
100
AcDbEntity
  8
AM_0
  6
CONTINUOUS
 62
     7
100
AcDbLine
 10
-231.6411145099431
 20
163.3510605905103
 30
0.0
 11
-231.6411145099431
 21
166.4937950006022
 31
0.0
  0
LINE
  5
3B5
330
1F
100
AcDbEntity
  8
AM_0
  6
CONTINUOUS
 62
     7
100
AcDbLine
 10
-229.3317134331846
 20
163.3510605905103
 30
0.0
 11
-229.3317134331846
 21
166.4937950006022
 31
0.0
  0
LINE
  5
3B6
330
1F
100
AcDbEntity
  8
AM_0
  6
CONTINUOUS
 62
     7
100
AcDbLine
 10
-224.7129112796676
 20
163.3510605905101
 30
0.0
 11
-224.7129112796676
 21
166.4937950006022
 31
0.0
  0
LINE
  5
3B7
330
1F
100
AcDbEntity
  8
AM_0
  6
CONTINUOUS
 62
     7
100
AcDbLine
 10
-231.0223123564261
 20
162.9937950006022
 30
0.0
 11
-231.6411145099431
 21
163.3510605905103
 31
0.0
  0
ARC
  5
3B8
330
1F
100
AcDbEntity
  8
AM_0
  6
CONTINUOUS
 62
     7
100
AcDbCircle
 10
-227.022312356426
 20
170.6365294106961
 30
0.0
 40
7.642734410093918
100
AcDbArc
 50
252.412046226009
 51
287.5879537739771
  0
ARC
  5
3B9
330
1F
100
AcDbEntity
  8
AM_0
  6
CONTINUOUS
 62
     7
100
AcDbCircle
 10
-230.4864139715637
 20
165.0384531993408
 30
0.0
 40
2.044658198738654
100
AcDbArc
 50
235.6157525319458
 51
304.38424746803
  0
LINE
  5
3BA
330
1F
100
AcDbEntity
  8
AM_0
  6
CONTINUOUS
 62
     7
100
AcDbLine
 10
-222.4035102029089
 20
163.3510605905103
 30
0.0
 11
-222.4035102029089
 21
166.4937950006022
 31
0.0
  0
LINE
  5
3BB
330
1F
100
AcDbEntity
  8
AM_0
  6
CONTINUOUS
 62
     7
100
AcDbLine
 10
-223.0223123564259
 20
162.9937950006022
 30
0.0
 11
-222.4035102029089
 21
163.3510605905103
 31
0.0
  0
ARC
  5
3BC
330
1F
100
AcDbEntity
  8
AM_0
  6
CONTINUOUS
 62
     7
100
AcDbCircle
 10
-223.5582107412887
 20
165.0384531993408
 30
0.0
 40
2.044658198738654
100
AcDbArc
 50
235.6157525319617
 51
304.3842474680383
  0
LINE
  5
3BD
330
1F
100
AcDbEntity
  8
AM_0
  6
CONTINUOUS
 62
     7
100
AcDbLine
 10
-232.0223123564261
 20
166.4937950006022
 30
0.0
 11
-222.0223123564261
 21
166.4937950006022
 31
0.0
  0
LINE
  5
3BE
330
1F
100
AcDbEntity
  8
AM_0
  6
CONTINUOUS
 62
     7
100
AcDbLine
 10
-232.0223123564261
 20
166.9937950006022
 30
0.0
 11
-232.0223123564261
 21
166.4937950006022
 31
0.0
  0
LINE
  5
3BF
330
1F
100
AcDbEntity
  8
AM_0
  6
CONTINUOUS
 62
     7
100
AcDbLine
 10
-222.0223123564261
 20
166.9937950006022
 30
0.0
 11
-222.0223123564261
 21
166.4937950006022
 31
0.0
  0
LINE
  5
3C0
330
1F
100
AcDbEntity
  8
AM_0
  6
CONTINUOUS
 62
     7
100
AcDbLine
 10
-210.3630253589177
 20
142.4937950006022
 30
0.0
 11
-197.0223123564261
 21
142.4937950006022
 31
0.0
  0
LINE
  5
3C1
330
1F
100
AcDbEntity
  8
AM_0
  6
CONTINUOUS
 62
     7
100
AcDbLine
 10
-222.4035102029089
 20
164.4937950006022
 30
0.0
 11
-215.3630253589178
 21
164.4937950006022
 31
0.0
  0
LINE
  5
3C2
330
1F
100
AcDbEntity
  8
AM_0
  6
CONTINUOUS
 62
     7
100
AcDbLine
 10
-210.3630253589177
 20
164.4937950006022
 30
0.0
 11
-179.5223123564261
 21
164.4937950006022
 31
0.0
  0
LINE
  5
3C3
330
1F
100
AcDbEntity
  8
AM_0
  6
CONTINUOUS
 62
     7
100
AcDbLine
 10
-238.6334059862611
 20
213.9937950006022
 30
0.0
 11
-262.0223123564262
 21
213.9937950006022
 31
0.0
  0
LINE
  5
3C4
330
1F
100
AcDbEntity
  8
AM_0
  6
CONTINUOUS
 62
     7
100
AcDbLine
 10
-38.29945584062079
 20
39.94889329037215
 30
0.0
 11
-38.29945584062079
 21
34.94889329037238
 31
0.0
  0
LINE
  5
3C5
330
1F
100
AcDbEntity
  8
AM_0
  6
CONTINUOUS
 62
     7
100
AcDbLine
 10
-215.3630253589178
 20
150.4937950006022
 30
0.0
 11
-210.3630253589177
 21
150.4937950006022
 31
0.0
  0
CIRCLE
  5
3C6
330
1F
100
AcDbEntity
  8
AM_0
  6
CONTINUOUS
 62
     7
100
AcDbCircle
 10
-227.022312356426
 20
3.265350587454748
 30
0.0
 40
4.0
  0
CIRCLE
  5
3C7
330
1F
100
AcDbEntity
  8
AM_0
  6
CONTINUOUS
 62
     7
100
AcDbCircle
 10
-227.022312356426
 20
3.265350587454748
 30
0.0
 40
5.0
  0
LINE
  5
3C8
330
1F
100
AcDbEntity
  8
AM_0
  6
CONTINUOUS
 62
     7
100
AcDbLine
 10
-258.0223123564262
 20
-24.73464941254525
 30
0.0
 11
-258.0223123564262
 21
-25.73464941254514
 31
0.0
  0
LINE
  5
3C9
330
1F
100
AcDbEntity
  8
AM_0
  6
CONTINUOUS
 62
     7
100
AcDbLine
 10
-252.3087658017258
 20
-23.74648201101633
 30
0.0
 11
-252.2223123564261
 21
-24.73464941254525
 31
0.0
  0
LINE
  5
3CA
330
1F
100
AcDbEntity
  8
AM_0
  6
CONTINUOUS
 62
     7
100
AcDbLine
 10
-257.7358589111264
 20
-23.74648201101633
 30
0.0
 11
-257.822312356426
 21
-24.73464941254525
 31
0.0
  0
ARC
  5
3CB
330
1F
100
AcDbEntity
  8
AM_0
  6
CONTINUOUS
 62
     7
100
AcDbCircle
 10
-255.0223123564261
 20
-27.33464941254505
 30
0.0
 40
5.0
100
AcDbArc
 50
66.4528627629341
 51
113.5471372370659
  0
ARC
  5
3CC
330
1F
100
AcDbEntity
  8
AM_0
  6
CONTINUOUS
 62
     7
100
AcDbCircle
 10
-256.5404252734164
 20
-23.85106890231322
 30
0.0
 40
1.199999999999999
100
AcDbArc
 50
113.5471372370654
 51
175.0000000000008
  0
ARC
  5
3CD
330
1F
100
AcDbEntity
  8
AM_0
  6
CONTINUOUS
 62
     7
100
AcDbCircle
 10
-253.5041994394358
 20
-23.85106890231322
 30
0.0
 40
1.199999999999999
100
AcDbArc
 50
4.99999999999925
 51
66.45286276293463
  0
LINE
  5
3CE
330
1F
100
AcDbEntity
  8
AM_0
  6
CONTINUOUS
 62
     7
100
AcDbLine
 10
-258.0223123564262
 20
-24.73464941254525
 30
0.0
 11
-252.0223123564262
 21
-24.73464941254525
 31
0.0
  0
LINE
  5
3CF
330
1F
100
AcDbEntity
  8
AM_0
  6
CONTINUOUS
 62
     7
100
AcDbLine
 10
-252.0223123564262
 20
-24.73464941254525
 30
0.0
 11
-252.0223123564262
 21
-25.73464941254514
 31
0.0
  0
LINE
  5
3D0
330
1F
100
AcDbEntity
  8
AM_0
  6
CONTINUOUS
 62
     7
100
AcDbLine
 10
-196.0223123564259
 20
-24.73464941254525
 30
0.0
 11
-196.0223123564259
 21
-25.73464941254514
 31
0.0
  0
LINE
  5
3D1
330
1F
100
AcDbEntity
  8
AM_0
  6
CONTINUOUS
 62
     7
100
AcDbLine
 10
-201.7358589111262
 20
-23.74648201101633
 30
0.0
 11
-201.8223123564258
 21
-24.73464941254525
 31
0.0
  0
LINE
  5
3D2
330
1F
100
AcDbEntity
  8
AM_0
  6
CONTINUOUS
 62
     7
100
AcDbLine
 10
-196.3087658017256
 20
-23.74648201101633
 30
0.0
 11
-196.2223123564259
 21
-24.73464941254525
 31
0.0
  0
ARC
  5
3D3
330
1F
100
AcDbEntity
  8
AM_0
  6
CONTINUOUS
 62
     7
100
AcDbCircle
 10
-199.0223123564259
 20
-27.33464941254505
 30
0.0
 40
5.0
100
AcDbArc
 50
66.4528627629341
 51
113.5471372370659
  0
ARC
  5
3D4
330
1F
100
AcDbEntity
  8
AM_0
  6
CONTINUOUS
 62
     7
100
AcDbCircle
 10
-197.5041994394356
 20
-23.85106890231322
 30
0.0
 40
1.199999999999999
100
AcDbArc
 50
4.99999999999925
 51
66.45286276293463
  0
ARC
  5
3D5
330
1F
100
AcDbEntity
  8
AM_0
  6
CONTINUOUS
 62
     7
100
AcDbCircle
 10
-200.5404252734161
 20
-23.85106890231322
 30
0.0
 40
1.199999999999999
100
AcDbArc
 50
113.5471372370654
 51
175.0000000000008
  0
LINE
  5
3D6
330
1F
100
AcDbEntity
  8
AM_0
  6
CONTINUOUS
 62
     7
100
AcDbLine
 10
-196.0223123564259
 20
-24.73464941254525
 30
0.0
 11
-202.0223123564259
 21
-24.73464941254525
 31
0.0
  0
LINE
  5
3D7
330
1F
100
AcDbEntity
  8
AM_0
  6
CONTINUOUS
 62
     7
100
AcDbLine
 10
-202.0223123564259
 20
-24.73464941254525
 30
0.0
 11
-202.0223123564259
 21
-25.73464941254514
 31
0.0
  0
LINE
  5
3D8
330
1F
100
AcDbEntity
  8
AM_0
  6
CONTINUOUS
 62
     7
100
AcDbLine
 10
-229.022312356426
 20
3.54870792707959
 30
0.0
 11
-229.022312356426
 21
2.981993247829791
 31
0.0
  0
LINE
  5
3D9
330
1F
100
AcDbEntity
  8
AM_0
  6
CONTINUOUS
 62
     7
100
AcDbLine
 10
-225.022312356426
 20
3.54870792707959
 30
0.0
 11
-225.022312356426
 21
2.981993247829791
 31
0.0
  0
LINE
  5
3DA
330
1F
100
AcDbEntity
  8
AM_0
  6
CONTINUOUS
 62
     7
100
AcDbLine
 10
-229.022312356426
 20
3.54870792707959
 30
0.0
 11
-227.3056696960509
 21
3.54870792707959
 31
0.0
  0
LINE
  5
3DB
330
1F
100
AcDbEntity
  8
AM_0
  6
CONTINUOUS
 62
     7
100
AcDbLine
 10
-226.738955016801
 20
3.54870792707959
 30
0.0
 11
-225.022312356426
 21
3.54870792707959
 31
0.0
  0
LINE
  5
3DC
330
1F
100
AcDbEntity
  8
AM_0
  6
CONTINUOUS
 62
     7
100
AcDbLine
 10
-226.738955016801
 20
3.54870792707959
 30
0.0
 11
-226.738955016801
 21
5.265350587454748
 31
0.0
  0
LINE
  5
3DD
330
1F
100
AcDbEntity
  8
AM_0
  6
CONTINUOUS
 62
     7
100
AcDbLine
 10
-227.3056696960509
 20
3.54870792707959
 30
0.0
 11
-227.3056696960509
 21
5.265350587454748
 31
0.0
  0
LINE
  5
3DE
330
1F
100
AcDbEntity
  8
AM_0
  6
CONTINUOUS
 62
     7
100
AcDbLine
 10
-226.738955016801
 20
5.265350587454748
 30
0.0
 11
-227.3056696960509
 21
5.265350587454748
 31
0.0
  0
LINE
  5
3DF
330
1F
100
AcDbEntity
  8
AM_0
  6
CONTINUOUS
 62
     7
100
AcDbLine
 10
-229.022312356426
 20
2.981993247829791
 30
0.0
 11
-227.3056696960509
 21
2.981993247829791
 31
0.0
  0
LINE
  5
3E0
330
1F
100
AcDbEntity
  8
AM_0
  6
CONTINUOUS
 62
     7
100
AcDbLine
 10
-226.738955016801
 20
2.981993247829791
 30
0.0
 11
-225.022312356426
 21
2.981993247829791
 31
0.0
  0
LINE
  5
3E1
330
1F
100
AcDbEntity
  8
AM_0
  6
CONTINUOUS
 62
     7
100
AcDbLine
 10
-227.3056696960509
 20
1.265350587454748
 30
0.0
 11
-227.3056696960509
 21
2.981993247829791
 31
0.0
  0
LINE
  5
3E2
330
1F
100
AcDbEntity
  8
AM_0
  6
CONTINUOUS
 62
     7
100
AcDbLine
 10
-226.738955016801
 20
1.265350587454748
 30
0.0
 11
-226.738955016801
 21
2.981993247829791
 31
0.0
  0
LINE
  5
3E3
330
1F
100
AcDbEntity
  8
AM_0
  6
CONTINUOUS
 62
     7
100
AcDbLine
 10
-226.738955016801
 20
1.265350587454748
 30
0.0
 11
-227.3056696960509
 21
1.265350587454748
 31
0.0
  0
LINE
  5
3E4
330
1F
100
AcDbEntity
  8
AM_0
  6
CONTINUOUS
 62
     7
100
AcDbLine
 10
239.6295412720889
 20
-203.7346494125451
 30
0.0
 11
251.6295412720888
 21
-203.7346494125451
 31
0.0
  0
LINE
  5
3E5
330
1F
100
AcDbEntity
  8
AM_0
  6
CONTINUOUS
 62
     7
100
AcDbLine
 10
10.70054415937921
 20
-204.734649412545
 30
0.0
 11
10.70054415937921
 21
-203.7346494125451
 31
0.0
  0
LINE
  5
3E6
330
1F
100
AcDbEntity
  8
AM_0
  6
CONTINUOUS
 62
     7
100
AcDbLine
 10
16.41409071407952
 20
-205.722816814074
 30
0.0
 11
16.50054415937939
 21
-204.734649412545
 31
0.0
  0
LINE
  5
3E7
330
1F
100
AcDbEntity
  8
AM_0
  6
CONTINUOUS
 62
     7
100
AcDbLine
 10
10.98699760467889
 20
-205.722816814074
 30
0.0
 11
10.90054415937936
 21
-204.734649412545
 31
0.0
  0
ARC
  5
3E8
330
1F
100
AcDbEntity
  8
AM_0
  6
CONTINUOUS
 62
     7
100
AcDbCircle
 10
13.70054415937921
 20
-202.1346494125451
 30
0.0
 40
5.0
100
AcDbArc
 50
246.4528627629342
 51
293.5471372370658
  0
ARC
  5
3E9
330
1F
100
AcDbEntity
  8
AM_0
  6
CONTINUOUS
 62
     7
100
AcDbCircle
 10
12.18243124238916
 20
-205.618229922777
 30
0.0
 40
1.199999999999999
100
AcDbArc
 50
184.9999999999995
 51
246.4528627629341
  0
ARC
  5
3EA
330
1F
100
AcDbEntity
  8
AM_0
  6
CONTINUOUS
 62
     7
100
AcDbCircle
 10
15.21865707636971
 20
-205.618229922777
 30
0.0
 40
1.199999999999999
100
AcDbArc
 50
293.547137237066
 51
355.0000000000005
  0
LINE
  5
3EB
330
1F
100
AcDbEntity
  8
AM_0
  6
CONTINUOUS
 62
     7
100
AcDbLine
 10
10.70054415937921
 20
-204.734649412545
 30
0.0
 11
16.70054415937932
 21
-204.734649412545
 31
0.0
  0
LINE
  5
3EC
330
1F
100
AcDbEntity
  8
AM_0
  6
CONTINUOUS
 62
     7
100
AcDbLine
 10
16.70054415937932
 20
-204.734649412545
 30
0.0
 11
16.70054415937932
 21
-203.7346494125451
 31
0.0
  0
LINE
  5
3ED
330
1F
100
AcDbEntity
  8
AM_0
  6
CONTINUOUS
 62
     7
100
AcDbLine
 10
239.6295412720889
 20
-195.7346494125451
 30
0.0
 11
239.6295412720889
 21
-203.7346494125451
 31
0.0
  0
LINE
  5
3EE
330
1F
100
AcDbEntity
  8
AM_0
  6
CONTINUOUS
 62
     7
100
AcDbLine
 10
251.6295412720888
 20
-195.7346494125451
 30
0.0
 11
251.6295412720888
 21
-203.7346494125451
 31
0.0
  0
LINE
  5
3EF
330
1F
100
AcDbEntity
  8
AM_0
  6
CONTINUOUS
 62
     7
100
AcDbLine
 10
242.6295412720889
 20
-204.734649412545
 30
0.0
 11
242.6295412720889
 21
-203.7346494125451
 31
0.0
  0
LINE
  5
3F0
330
1F
100
AcDbEntity
  8
AM_0
  6
CONTINUOUS
 62
     7
100
AcDbLine
 10
248.3430878267891
 20
-205.722816814074
 30
0.0
 11
248.4295412720887
 21
-204.734649412545
 31
0.0
  0
LINE
  5
3F1
330
1F
100
AcDbEntity
  8
AM_0
  6
CONTINUOUS
 62
     7
100
AcDbLine
 10
242.9159947173882
 20
-205.722816814074
 30
0.0
 11
242.8295412720887
 21
-204.734649412545
 31
0.0
  0
ARC
  5
3F2
330
1F
100
AcDbEntity
  8
AM_0
  6
CONTINUOUS
 62
     7
100
AcDbCircle
 10
245.6295412720888
 20
-202.1346494125451
 30
0.0
 40
5.0
100
AcDbArc
 50
246.4528627629342
 51
293.5471372370658
  0
ARC
  5
3F3
330
1F
100
AcDbEntity
  8
AM_0
  6
CONTINUOUS
 62
     7
100
AcDbCircle
 10
244.1114283550986
 20
-205.618229922777
 30
0.0
 40
1.199999999999999
100
AcDbArc
 50
184.9999999999995
 51
246.4528627629341
  0
ARC
  5
3F4
330
1F
100
AcDbEntity
  8
AM_0
  6
CONTINUOUS
 62
     7
100
AcDbCircle
 10
247.147654189079
 20
-205.618229922777
 30
0.0
 40
1.199999999999999
100
AcDbArc
 50
293.547137237066
 51
355.0000000000005
  0
LINE
  5
3F5
330
1F
100
AcDbEntity
  8
AM_0
  6
CONTINUOUS
 62
     7
100
AcDbLine
 10
242.6295412720889
 20
-204.734649412545
 30
0.0
 11
248.6295412720887
 21
-204.734649412545
 31
0.0
  0
LINE
  5
3F6
330
1F
100
AcDbEntity
  8
AM_0
  6
CONTINUOUS
 62
     7
100
AcDbLine
 10
248.6295412720887
 20
-204.734649412545
 30
0.0
 11
248.6295412720887
 21
-203.7346494125451
 31
0.0
  0
LINE
  5
3F7
330
1F
100
AcDbEntity
  8
AM_0
  6
CONTINUOUS
 62
     7
100
AcDbLine
 10
267.0159049084523
 20
-11.73464941254525
 30
0.0
 11
253.1295412720887
 21
-11.73464941254525
 31
0.0
  0
LINE
  5
3F8
330
1F
100
AcDbEntity
  8
AM_0
  6
CONTINUOUS
 62
     7
100
AcDbLine
 10
238.1295412720889
 20
-20.48464941254514
 30
0.0
 11
253.1295412720889
 21
-20.48464941254514
 31
0.0
  0
LINE
  5
3F9
330
1F
100
AcDbEntity
  8
AM_0
  6
CONTINUOUS
 62
     7
100
AcDbLine
 10
-238.6334059862611
 20
213.9937950006022
 30
0.0
 11
-238.6334059862611
 21
218.4937950006022
 31
0.0
  0
LINE
  5
3FA
330
1F
100
AcDbEntity
  8
AM_0
  6
CONTINUOUS
 62
     7
100
AcDbLine
 10
-215.411218726591
 20
213.9937950006022
 30
0.0
 11
-215.411218726591
 21
218.4937950006022
 31
0.0
  0
INSERT
  5
3FB
330
1F
100
AcDbEntity
  8
AM_0
  6
CONTINUOUS
100
AcDbBlockReference
  2
DC_GROUP_1
 10
0.0
 20
0.0
 30
0.0
  0
INSERT
  5
3FC
330
1F
100
AcDbEntity
  8
AM_0
  6
CONTINUOUS
100
AcDbBlockReference
  2
DC_GROUP_2
 10
0.0
 20
0.0
 30
0.0
  0
INSERT
  5
3FD
330
1F
100
AcDbEntity
  8
AM_0
  6
CONTINUOUS
100
AcDbBlockReference
  2
DC_GROUP_3
 10
0.0
 20
0.0
 30
0.0
  0
LINE
  5
3FE
330
1F
100
AcDbEntity
  8
AM_7
  6
CENTER
 62
     4
100
AcDbLine
 10
48.70054415937921
 20
-185.2346494125451
 30
0.0
 11
55.70054415937921
 21
-185.2346494125451
 31
0.0
  0
LINE
  5
3FF
330
1F
100
AcDbEntity
  8
AM_7
  6
CENTER
 62
     4
100
AcDbLine
 10
48.70054415937921
 20
-70.23464941254514
 30
0.0
 11
55.70054415937921
 21
-70.23464941254514
 31
0.0
  0
LINE
  5
400
330
1F
100
AcDbEntity
  8
AM_7
  6
CENTER
 62
     4
100
AcDbLine
 10
22.70054415937921
 20
-145.9215333548683
 30
0.0
 11
22.70054415937921
 21
-199.5477654702219
 31
0.0
  0
LINE
  5
401
330
1F
100
AcDbEntity
  8
AM_7
  6
CENTER
 62
     4
100
AcDbLine
 10
49.5136602170561
 20
-172.7346494125451
 30
0.0
 11
-4.11257189829746
 21
-172.7346494125451
 31
0.0
  0
LINE
  5
402
330
1F
100
AcDbEntity
  8
AM_7
  6
CENTER
 62
     4
100
AcDbLine
 10
17.70054415937921
 20
23.26535058745486
 30
0.0
 11
17.70054415937921
 21
-50.73464941254514
 31
0.0
  0
LINE
  5
403
330
1F
100
AcDbEntity
  8
AM_7
  6
CENTER
 62
     4
100
AcDbLine
 10
253.629541272089
 20
-185.2346494125451
 30
0.0
 11
272.6295412720889
 21
-185.2346494125451
 31
0.0
  0
LINE
  5
404
330
1F
100
AcDbEntity
  8
AM_7
  6
CENTER
 62
     4
100
AcDbLine
 10
263.1295412720889
 20
-194.7346494125451
 30
0.0
 11
263.1295412720889
 21
-175.7346494125451
 31
0.0
  0
LINE
  5
405
330
1F
100
AcDbEntity
  8
AM_7
  6
CENTER
 62
     4
100
AcDbLine
 10
253.629541272089
 20
-70.23464941254514
 30
0.0
 11
272.6295412720889
 21
-70.23464941254514
 31
0.0
  0
LINE
  5
406
330
1F
100
AcDbEntity
  8
AM_7
  6
CENTER
 62
     4
100
AcDbLine
 10
263.1295412720889
 20
-79.73464941254514
 30
0.0
 11
263.1295412720889
 21
-60.73464941254514
 31
0.0
  0
LINE
  5
407
330
1F
100
AcDbEntity
  8
AM_7
  6
CENTER
 62
     4
100
AcDbLine
 10
237.629541272089
 20
-185.2346494125451
 30
0.0
 11
218.6295412720888
 21
-185.2346494125451
 31
0.0
  0
LINE
  5
408
330
1F
100
AcDbEntity
  8
AM_7
  6
CENTER
 62
     4
100
AcDbLine
 10
228.1295412720889
 20
-194.7346494125451
 30
0.0
 11
228.1295412720889
 21
-175.7346494125451
 31
0.0
  0
LINE
  5
409
330
1F
100
AcDbEntity
  8
AM_7
  6
CENTER
 62
     4
100
AcDbLine
 10
237.629541272089
 20
-70.23464941254514
 30
0.0
 11
218.6295412720888
 21
-70.23464941254514
 31
0.0
  0
LINE
  5
40A
330
1F
100
AcDbEntity
  8
AM_7
  6
CENTER
 62
     4
100
AcDbLine
 10
228.1295412720889
 20
-79.73464941254514
 30
0.0
 11
228.1295412720889
 21
-60.73464941254514
 31
0.0
  0
LINE
  5
40B
330
1F
100
AcDbEntity
  8
AM_7
  6
CENTER
 62
     4
100
AcDbLine
 10
-227.0223123564261
 20
53.83992955046267
 30
0.0
 11
-227.0223123564261
 21
-212.7346494125451
 31
0.0
  0
LINE
  5
40C
330
1F
100
AcDbEntity
  8
AM_7
  6
CENTER
 62
     4
100
AcDbLine
 10
-244.5223123564261
 20
237.4937950006023
 30
0.0
 11
-244.5223123564261
 21
244.4937950006023
 31
0.0
  0
LINE
  5
40D
330
1F
100
AcDbEntity
  8
AM_7
  6
CENTER
 62
     4
100
AcDbLine
 10
-209.5223123564261
 20
237.4937950006023
 30
0.0
 11
-209.5223123564261
 21
244.4937950006023
 31
0.0
  0
LINE
  5
40E
330
1F
100
AcDbEntity
  8
AM_7
  6
CENTER
 62
     4
100
AcDbLine
 10
-223.9495797490533
 20
42.04109447875328
 30
0.0
 11
-201.7764709687824
 21
32.85669210199126
 31
0.0
  0
LINE
  5
40F
330
1F
100
AcDbEntity
  8
AM_7
  6
CENTER
 62
     4
100
AcDbLine
 10
-204.8266732792509
 20
56.85036347310938
 30
0.0
 11
-237.9081067025568
 21
-23.01528176017854
 31
0.0
  0
LINE
  5
410
330
1F
100
AcDbEntity
  8
AM_7
  6
CENTER
 62
     4
100
AcDbLine
 10
-238.1088667465616
 20
7.857551775835759
 30
0.0
 11
-215.9357579662906
 21
-1.326850600926434
 31
0.0
  0
LINE
  5
411
330
1F
100
AcDbEntity
  8
AM_7
  6
CENTER
 62
     4
100
AcDbLine
 10
40.20054415937921
 20
3.265350587454861
 30
0.0
 11
-37.79945584062068
 21
3.265350587454861
 31
0.0
  0
LINE
  5
412
330
1F
100
AcDbEntity
  8
AM_7
  6
CENTER
 62
     4
100
AcDbLine
 10
-18.29945584062079
 20
37.44889329037238
 30
0.0
 11
-56.29945584062079
 21
37.44889329037238
 31
0.0
  0
LINE
  5
413
330
1F
100
AcDbEntity
  8
AM_7
  6
CENTER
 62
     4
100
AcDbLine
 10
-239.0223123564262
 20
3.265350587454748
 30
0.0
 11
-215.0223123564261
 21
3.265350587454748
 31
0.0
  0
LINE
  5
414
330
1F
100
AcDbEntity
  8
AM_7
  6
CENTER
 62
     4
100
AcDbLine
 10
-212.8630253589178
 20
170.4937950006022
 30
0.0
 11
-212.8630253589178
 21
132.4937950006022
 31
0.0
  0
LINE
  5
415
330
1F
100
AcDbEntity
  8
AM_7
  6
CENTER
 62
     4
100
AcDbLine
 10
-227.0223123564261
 20
245.4937950006023
 30
0.0
 11
-227.0223123564261
 21
131.4937950006022
 31
0.0
  0
LINE
  5
416
330
1F
100
AcDbEntity
  8
AM_7
  6
CENTER
 62
     4
100
AcDbLine
 10
242.5568086647158
 20
42.04109447875339
 30
0.0
 11
220.3836998844449
 21
32.85669210199126
 31
0.0
  0
LINE
  5
417
330
1F
100
AcDbEntity
  8
AM_7
  6
CENTER
 62
     4
100
AcDbLine
 10
223.4339021949136
 20
56.85036347310938
 30
0.0
 11
254.8139436488509
 21
-18.90775819281612
 31
0.0
  0
LINE
  5
418
330
1F
100
AcDbEntity
  8
AM_7
  6
CENTER
 62
     4
100
AcDbLine
 10
233.6295412720889
 20
3.265350587454577
 30
0.0
 11
257.6295412720889
 21
3.265350587454577
 31
0.0
  0
LINE
  5
419
330
1F
100
AcDbEntity
  8
AM_7
  6
CENTER
 62
     4
100
AcDbLine
 10
245.629541272089
 20
53.83992955046267
 30
0.0
 11
245.629541272089
 21
-212.7346494125451
 31
0.0
  0
LINE
  5
41A
330
1F
100
AcDbEntity
  8
AM_7
  6
CENTER
 62
     4
100
AcDbLine
 10
-89.52231235642608
 20
-172.7346494125451
 30
0.0
 11
-364.5223123564261
 21
-172.7346494125451
 31
0.0
  0
LINE
  5
41B
330
1F
100
AcDbEntity
  8
AM_7
  6
CENTER
 62
     4
100
AcDbLine
 10
383.1295412720887
 20
-172.7346494125451
 30
0.0
 11
108.129541272089
 21
-172.7346494125451
 31
0.0
  0
LINE
  5
41C
330
1F
100
AcDbEntity
  8
AM_7
  6
CENTER
 62
     4
100
AcDbLine
 10
-89.52231235642608
 20
211.4937950006022
 30
0.0
 11
-364.5223123564261
 21
211.4937950006022
 31
0.0
  0
CIRCLE
  5
41D
330
1F
100
AcDbEntity
  8
AM_4
  6
CONTINUOUS
 62
     3
100
AcDbCircle
 10
22.70054415937921
 20
-172.7346494125451
 30
0.0
 40
10.612
  0
CIRCLE
  5
41E
330
1F
100
AcDbEntity
  8
AM_4
  6
CONTINUOUS
 62
     3
100
AcDbCircle
 10
263.1295412720889
 20
-185.2346494125451
 30
0.0
 40
2.5
  0
CIRCLE
  5
41F
330
1F
100
AcDbEntity
  8
AM_4
  6
CONTINUOUS
 62
     3
100
AcDbCircle
 10
263.1295412720889
 20
-70.23464941254514
 30
0.0
 40
2.5
  0
CIRCLE
  5
420
330
1F
100
AcDbEntity
  8
AM_4
  6
CONTINUOUS
 62
     3
100
AcDbCircle
 10
286.1295412720887
 20
-54.73464941254514
 30
0.0
 40
2.0
  0
CIRCLE
  5
421
330
1F
100
AcDbEntity
  8
AM_4
  6
CONTINUOUS
 62
     3
100
AcDbCircle
 10
286.1295412720887
 20
-200.7346494125451
 30
0.0
 40
2.0
  0
CIRCLE
  5
422
330
1F
100
AcDbEntity
  8
AM_4
  6
CONTINUOUS
 62
     3
100
AcDbCircle
 10
286.1295412720887
 20
-127.7346494125451
 30
0.0
 40
2.0
  0
CIRCLE
  5
423
330
1F
100
AcDbEntity
  8
AM_4
  6
CONTINUOUS
 62
     3
100
AcDbCircle
 10
228.1295412720889
 20
-185.2346494125451
 30
0.0
 40
2.5
  0
CIRCLE
  5
424
330
1F
100
AcDbEntity
  8
AM_4
  6
CONTINUOUS
 62
     3
100
AcDbCircle
 10
228.1295412720889
 20
-70.23464941254514
 30
0.0
 40
2.5
  0
CIRCLE
  5
425
330
1F
100
AcDbEntity
  8
AM_4
  6
CONTINUOUS
 62
     3
100
AcDbCircle
 10
205.1295412720889
 20
-54.73464941254514
 30
0.0
 40
2.0
  0
CIRCLE
  5
426
330
1F
100
AcDbEntity
  8
AM_4
  6
CONTINUOUS
 62
     3
100
AcDbCircle
 10
205.1295412720889
 20
-200.7346494125451
 30
0.0
 40
2.0
  0
CIRCLE
  5
427
330
1F
100
AcDbEntity
  8
AM_4
  6
CONTINUOUS
 62
     3
100
AcDbCircle
 10
205.1295412720889
 20
-127.7346494125451
 30
0.0
 40
2.0
  0
LINE
  5
428
330
1F
100
AcDbEntity
  8
AM_4
  6
CONTINUOUS
 62
     3
100
AcDbLine
 10
354.1295412720887
 20
-163.6678994125452
 30
0.0
 11
357.1295412720887
 21
-163.5741494125452
 31
0.0
  0
LINE
  5
429
330
1F
100
AcDbEntity
  8
AM_4
  6
CONTINUOUS
 62
     3
100
AcDbLine
 10
354.1295412720887
 20
-181.8013994125451
 30
0.0
 11
357.1295412720887
 21
-181.8951494125451
 31
0.0
  0
LINE
  5
42A
330
1F
100
AcDbEntity
  8
AM_4
  6
CONTINUOUS
 62
     3
100
AcDbLine
 10
137.1295412720889
 20
-163.6678994125452
 30
0.0
 11
134.1295412720888
 21
-163.5741494125452
 31
0.0
  0
LINE
  5
42B
330
1F
100
AcDbEntity
  8
AM_4
  6
CONTINUOUS
 62
     3
100
AcDbLine
 10
137.1295412720889
 20
-181.8013994125451
 30
0.0
 11
134.1295412720888
 21
-181.8951494125451
 31
0.0
  0
LINE
  5
42C
330
1F
100
AcDbEntity
  8
AM_4
  6
CONTINUOUS
 62
     3
100
AcDbLine
 10
-118.5223123564261
 20
-163.6678994125452
 30
0.0
 11
-115.5223123564261
 21
-163.5741494125452
 31
0.0
  0
LINE
  5
42D
330
1F
100
AcDbEntity
  8
AM_4
  6
CONTINUOUS
 62
     3
100
AcDbLine
 10
-118.5223123564261
 20
-181.8013994125451
 30
0.0
 11
-115.5223123564261
 21
-181.8951494125451
 31
0.0
  0
LINE
  5
42E
330
1F
100
AcDbEntity
  8
AM_4
  6
CONTINUOUS
 62
     3
100
AcDbLine
 10
-335.5223123564261
 20
-163.6678994125452
 30
0.0
 11
-338.5223123564262
 21
-163.5741494125452
 31
0.0
  0
LINE
  5
42F
330
1F
100
AcDbEntity
  8
AM_4
  6
CONTINUOUS
 62
     3
100
AcDbLine
 10
-335.5223123564261
 20
-181.8013994125451
 30
0.0
 11
-338.5223123564262
 21
-181.8951494125451
 31
0.0
  0
LINE
  5
430
330
1F
100
AcDbEntity
  8
AM_4
  6
CONTINUOUS
 62
     3
100
AcDbLine
 10
-118.5223123564261
 20
202.4270450006022
 30
0.0
 11
-115.5223123564261
 21
202.3332950006022
 31
0.0
  0
LINE
  5
431
330
1F
100
AcDbEntity
  8
AM_4
  6
CONTINUOUS
 62
     3
100
AcDbLine
 10
-118.5223123564261
 20
220.5605450006021
 30
0.0
 11
-115.5223123564261
 21
220.6542950006021
 31
0.0
  0
LINE
  5
432
330
1F
100
AcDbEntity
  8
AM_4
  6
CONTINUOUS
 62
     3
100
AcDbLine
 10
-22.29945584062079
 20
35.44889329037227
 30
0.0
 11
-26.29945584062079
 21
35.44889329037227
 31
0.0
  0
LINE
  5
433
330
1F
100
AcDbEntity
  8
AM_4
  6
CONTINUOUS
 62
     3
100
AcDbLine
 10
-22.29945584062079
 20
39.44889329037227
 30
0.0
 11
-26.29945584062079
 21
39.44889329037227
 31
0.0
  0
LINE
  5
434
330
1F
100
AcDbEntity
  8
AM_4
  6
CONTINUOUS
 62
     3
100
AcDbLine
 10
-210.8630253589178
 20
166.4937950006022
 30
0.0
 11
-210.8630253589178
 21
162.4937950006022
 31
0.0
  0
LINE
  5
435
330
1F
100
AcDbEntity
  8
AM_4
  6
CONTINUOUS
 62
     3
100
AcDbLine
 10
-214.8630253589178
 20
166.4937950006022
 30
0.0
 11
-214.8630253589178
 21
162.4937950006022
 31
0.0
  0
CIRCLE
  5
436
330
1F
100
AcDbEntity
  8
AM_4
  6
CONTINUOUS
 62
     3
100
AcDbCircle
 10
231.4702542745805
 20
37.44889329037238
 30
0.0
 40
2.0
  0
LINE
  5
437
330
1F
100
AcDbEntity
  8
AM_4
  6
CONTINUOUS
 62
     3
100
AcDbLine
 10
-335.5223123564261
 20
202.4270450006022
 30
0.0
 11
-338.5223123564262
 21
202.3332950006022
 31
0.0
  0
LINE
  5
438
330
1F
100
AcDbEntity
  8
AM_4
  6
CONTINUOUS
 62
     3
100
AcDbLine
 10
-335.5223123564261
 20
220.5605450006021
 30
0.0
 11
-338.5223123564262
 21
220.6542950006021
 31
0.0
  0
LINE
  5
439
330
1F
100
AcDbEntity
  8
AM_4
  6
CONTINUOUS
 62
     3
100
AcDbLine
 10
-210.8630253589179
 20
152.9937950006022
 30
0.0
 11
-210.8630253589179
 21
150.4937950006022
 31
0.0
  0
LINE
  5
43A
330
1F
100
AcDbEntity
  8
AM_4
  6
CONTINUOUS
 62
     3
100
AcDbLine
 10
-214.8630253589179
 20
152.9937950006022
 30
0.0
 11
-214.8630253589179
 21
150.4937950006022
 31
0.0
  0
LINE
  5
43B
330
1F
100
AcDbEntity
  8
AM_4
  6
CONTINUOUS
 62
     3
100
AcDbLine
 10
-35.79945584062079
 20
35.44889329037227
 30
0.0
 11
-38.29945584062079
 21
35.44889329037227
 31
0.0
  0
LINE
  5
43C
330
1F
100
AcDbEntity
  8
AM_4
  6
CONTINUOUS
 62
     3
100
AcDbLine
 10
-35.79945584062079
 20
39.44889329037227
 30
0.0
 11
-38.29945584062079
 21
39.44889329037227
 31
0.0
  0
LINE
  5
43D
330
1F
100
AcDbEntity
  8
AM_3
  6
CENTER
 62
     6
100
AcDbLine
 10
364.1295412720887
 20
-162.560149412545
 30
0.0
 11
378.1295412720887
 21
-162.122649412545
 31
0.0
  0
LINE
  5
43E
330
1F
100
AcDbEntity
  8
AM_3
  6
CENTER
 62
     6
100
AcDbLine
 10
364.1295412720887
 20
-164.0116494125452
 30
0.0
 11
378.1295412720887
 21
-163.5741494125452
 31
0.0
  0
LINE
  5
43F
330
1F
100
AcDbEntity
  8
AM_3
  6
CENTER
 62
     6
100
AcDbLine
 10
364.1295412720887
 20
-182.909149412545
 30
0.0
 11
378.1295412720887
 21
-183.346649412545
 31
0.0
  0
LINE
  5
440
330
1F
100
AcDbEntity
  8
AM_3
  6
CENTER
 62
     6
100
AcDbLine
 10
364.1295412720887
 20
-181.4576494125451
 30
0.0
 11
378.1295412720887
 21
-181.8951494125451
 31
0.0
  0
LINE
  5
441
330
1F
100
AcDbEntity
  8
AM_3
  6
CENTER
 62
     6
100
AcDbLine
 10
364.1295412720887
 20
-182.9091494125452
 30
0.0
 11
364.1295412720887
 21
-162.560149412545
 31
0.0
  0
LINE
  5
442
330
1F
100
AcDbEntity
  8
AM_3
  6
CENTER
 62
     6
100
AcDbLine
 10
364.1295412720887
 20
-162.560149412545
 30
0.0
 11
360.7300708116758
 21
-164.0116494125452
 31
0.0
  0
LINE
  5
443
330
1F
100
AcDbEntity
  8
AM_3
  6
CENTER
 62
     6
100
AcDbLine
 10
364.1295412720887
 20
-164.0116494125452
 30
0.0
 11
356.7928651969536
 21
-164.0116494125452
 31
0.0
  0
LINE
  5
444
330
1F
100
AcDbEntity
  8
AM_3
  6
CENTER
 62
     6
100
AcDbLine
 10
364.1295412720887
 20
-182.9091494125452
 30
0.0
 11
360.7300708116758
 21
-181.4576494125451
 31
0.0
  0
LINE
  5
445
330
1F
100
AcDbEntity
  8
AM_3
  6
CENTER
 62
     6
100
AcDbLine
 10
364.1295412720887
 20
-181.4576494125451
 30
0.0
 11
356.7928651969536
 21
-181.4576494125451
 31
0.0
  0
LINE
  5
446
330
1F
100
AcDbEntity
  8
AM_3
  6
CENTER
 62
     6
100
AcDbLine
 10
127.1295412720889
 20
-162.560149412545
 30
0.0
 11
113.1295412720889
 21
-162.122649412545
 31
0.0
  0
LINE
  5
447
330
1F
100
AcDbEntity
  8
AM_3
  6
CENTER
 62
     6
100
AcDbLine
 10
127.1295412720889
 20
-164.0116494125452
 30
0.0
 11
113.1295412720889
 21
-163.5741494125452
 31
0.0
  0
LINE
  5
448
330
1F
100
AcDbEntity
  8
AM_3
  6
CENTER
 62
     6
100
AcDbLine
 10
127.1295412720889
 20
-182.909149412545
 30
0.0
 11
113.1295412720889
 21
-183.346649412545
 31
0.0
  0
LINE
  5
449
330
1F
100
AcDbEntity
  8
AM_3
  6
CENTER
 62
     6
100
AcDbLine
 10
127.1295412720889
 20
-181.4576494125451
 30
0.0
 11
113.1295412720889
 21
-181.8951494125451
 31
0.0
  0
LINE
  5
44A
330
1F
100
AcDbEntity
  8
AM_3
  6
CENTER
 62
     6
100
AcDbLine
 10
127.1295412720889
 20
-182.9091494125452
 30
0.0
 11
127.1295412720889
 21
-162.560149412545
 31
0.0
  0
LINE
  5
44B
330
1F
100
AcDbEntity
  8
AM_3
  6
CENTER
 62
     6
100
AcDbLine
 10
127.1295412720889
 20
-162.560149412545
 30
0.0
 11
130.5290117325021
 21
-164.0116494125452
 31
0.0
  0
LINE
  5
44C
330
1F
100
AcDbEntity
  8
AM_3
  6
CENTER
 62
     6
100
AcDbLine
 10
127.1295412720889
 20
-164.0116494125452
 30
0.0
 11
134.4662173472238
 21
-164.0116494125452
 31
0.0
  0
LINE
  5
44D
330
1F
100
AcDbEntity
  8
AM_3
  6
CENTER
 62
     6
100
AcDbLine
 10
127.1295412720889
 20
-182.9091494125452
 30
0.0
 11
130.5290117325021
 21
-181.4576494125451
 31
0.0
  0
LINE
  5
44E
330
1F
100
AcDbEntity
  8
AM_3
  6
CENTER
 62
     6
100
AcDbLine
 10
127.1295412720889
 20
-181.4576494125451
 30
0.0
 11
134.4662173472238
 21
-181.4576494125451
 31
0.0
  0
LINE
  5
44F
330
1F
100
AcDbEntity
  8
AM_3
  6
CENTER
 62
     6
100
AcDbLine
 10
-108.5223123564261
 20
-162.560149412545
 30
0.0
 11
-94.5223123564262
 21
-162.122649412545
 31
0.0
  0
LINE
  5
450
330
1F
100
AcDbEntity
  8
AM_3
  6
CENTER
 62
     6
100
AcDbLine
 10
-108.5223123564261
 20
-164.0116494125452
 30
0.0
 11
-94.5223123564262
 21
-163.5741494125452
 31
0.0
  0
LINE
  5
451
330
1F
100
AcDbEntity
  8
AM_3
  6
CENTER
 62
     6
100
AcDbLine
 10
-108.5223123564261
 20
-182.909149412545
 30
0.0
 11
-94.5223123564262
 21
-183.346649412545
 31
0.0
  0
LINE
  5
452
330
1F
100
AcDbEntity
  8
AM_3
  6
CENTER
 62
     6
100
AcDbLine
 10
-108.5223123564261
 20
-181.4576494125451
 30
0.0
 11
-94.5223123564262
 21
-181.8951494125451
 31
0.0
  0
LINE
  5
453
330
1F
100
AcDbEntity
  8
AM_3
  6
CENTER
 62
     6
100
AcDbLine
 10
-108.5223123564261
 20
-182.9091494125452
 30
0.0
 11
-108.5223123564261
 21
-162.560149412545
 31
0.0
  0
LINE
  5
454
330
1F
100
AcDbEntity
  8
AM_3
  6
CENTER
 62
     6
100
AcDbLine
 10
-108.5223123564261
 20
-162.560149412545
 30
0.0
 11
-111.9217828168392
 21
-164.0116494125452
 31
0.0
  0
LINE
  5
455
330
1F
100
AcDbEntity
  8
AM_3
  6
CENTER
 62
     6
100
AcDbLine
 10
-108.5223123564261
 20
-164.0116494125452
 30
0.0
 11
-115.8589884315612
 21
-164.0116494125452
 31
0.0
  0
LINE
  5
456
330
1F
100
AcDbEntity
  8
AM_3
  6
CENTER
 62
     6
100
AcDbLine
 10
-108.5223123564261
 20
-182.9091494125452
 30
0.0
 11
-111.9217828168392
 21
-181.4576494125451
 31
0.0
  0
LINE
  5
457
330
1F
100
AcDbEntity
  8
AM_3
  6
CENTER
 62
     6
100
AcDbLine
 10
-108.5223123564261
 20
-181.4576494125451
 30
0.0
 11
-115.8589884315612
 21
-181.4576494125451
 31
0.0
  0
LINE
  5
458
330
1F
100
AcDbEntity
  8
AM_3
  6
CENTER
 62
     6
100
AcDbLine
 10
-345.5223123564261
 20
-162.560149412545
 30
0.0
 11
-359.5223123564261
 21
-162.122649412545
 31
0.0
  0
LINE
  5
459
330
1F
100
AcDbEntity
  8
AM_3
  6
CENTER
 62
     6
100
AcDbLine
 10
-345.5223123564261
 20
-164.0116494125452
 30
0.0
 11
-359.5223123564261
 21
-163.5741494125452
 31
0.0
  0
LINE
  5
45A
330
1F
100
AcDbEntity
  8
AM_3
  6
CENTER
 62
     6
100
AcDbLine
 10
-345.5223123564261
 20
-182.909149412545
 30
0.0
 11
-359.5223123564261
 21
-183.346649412545
 31
0.0
  0
LINE
  5
45B
330
1F
100
AcDbEntity
  8
AM_3
  6
CENTER
 62
     6
100
AcDbLine
 10
-345.5223123564261
 20
-181.4576494125451
 30
0.0
 11
-359.5223123564261
 21
-181.8951494125451
 31
0.0
  0
LINE
  5
45C
330
1F
100
AcDbEntity
  8
AM_3
  6
CENTER
 62
     6
100
AcDbLine
 10
-345.5223123564261
 20
-182.9091494125452
 30
0.0
 11
-345.5223123564261
 21
-162.560149412545
 31
0.0
  0
LINE
  5
45D
330
1F
100
AcDbEntity
  8
AM_3
  6
CENTER
 62
     6
100
AcDbLine
 10
-345.5223123564261
 20
-162.560149412545
 30
0.0
 11
-342.1228418960131
 21
-164.0116494125452
 31
0.0
  0
LINE
  5
45E
330
1F
100
AcDbEntity
  8
AM_3
  6
CENTER
 62
     6
100
AcDbLine
 10
-345.5223123564261
 20
-164.0116494125452
 30
0.0
 11
-338.185636281291
 21
-164.0116494125452
 31
0.0
  0
LINE
  5
45F
330
1F
100
AcDbEntity
  8
AM_3
  6
CENTER
 62
     6
100
AcDbLine
 10
-345.5223123564261
 20
-182.9091494125452
 30
0.0
 11
-342.1228418960131
 21
-181.4576494125451
 31
0.0
  0
LINE
  5
460
330
1F
100
AcDbEntity
  8
AM_3
  6
CENTER
 62
     6
100
AcDbLine
 10
-345.5223123564261
 20
-181.4576494125451
 30
0.0
 11
-338.185636281291
 21
-181.4576494125451
 31
0.0
  0
LINE
  5
461
330
1F
100
AcDbEntity
  8
AM_3
  6
CENTER
 62
     6
100
AcDbLine
 10
-108.5223123564261
 20
201.319295000602
 30
0.0
 11
-94.5223123564262
 21
200.881795000602
 31
0.0
  0
LINE
  5
462
330
1F
100
AcDbEntity
  8
AM_3
  6
CENTER
 62
     6
100
AcDbLine
 10
-108.5223123564261
 20
202.7707950006021
 30
0.0
 11
-94.5223123564262
 21
202.3332950006022
 31
0.0
  0
LINE
  5
463
330
1F
100
AcDbEntity
  8
AM_3
  6
CENTER
 62
     6
100
AcDbLine
 10
-108.5223123564261
 20
221.6682950006019
 30
0.0
 11
-94.5223123564262
 21
222.1057950006021
 31
0.0
  0
LINE
  5
464
330
1F
100
AcDbEntity
  8
AM_3
  6
CENTER
 62
     6
100
AcDbLine
 10
-108.5223123564261
 20
220.2167950006021
 30
0.0
 11
-94.5223123564262
 21
220.6542950006021
 31
0.0
  0
LINE
  5
465
330
1F
100
AcDbEntity
  8
AM_3
  6
CENTER
 62
     6
100
AcDbLine
 10
-108.5223123564261
 20
221.668295000602
 30
0.0
 11
-108.5223123564261
 21
201.319295000602
 31
0.0
  0
LINE
  5
466
330
1F
100
AcDbEntity
  8
AM_3
  6
CENTER
 62
     6
100
AcDbLine
 10
-108.5223123564261
 20
201.319295000602
 30
0.0
 11
-111.9217828168392
 21
202.7707950006021
 31
0.0
  0
LINE
  5
467
330
1F
100
AcDbEntity
  8
AM_3
  6
CENTER
 62
     6
100
AcDbLine
 10
-108.5223123564261
 20
202.7707950006021
 30
0.0
 11
-115.8589884315612
 21
202.7707950006021
 31
0.0
  0
LINE
  5
468
330
1F
100
AcDbEntity
  8
AM_3
  6
CENTER
 62
     6
100
AcDbLine
 10
-108.5223123564261
 20
221.668295000602
 30
0.0
 11
-111.9217828168392
 21
220.2167950006021
 31
0.0
  0
LINE
  5
469
330
1F
100
AcDbEntity
  8
AM_3
  6
CENTER
 62
     6
100
AcDbLine
 10
-108.5223123564261
 20
220.2167950006021
 30
0.0
 11
-115.8589884315612
 21
220.2167950006021
 31
0.0
  0
LINE
  5
46A
330
1F
100
AcDbEntity
  8
AM_3
  6
CENTER
 62
     6
100
AcDbLine
 10
-345.5223123564261
 20
201.319295000602
 30
0.0
 11
-359.5223123564261
 21
200.881795000602
 31
0.0
  0
LINE
  5
46B
330
1F
100
AcDbEntity
  8
AM_3
  6
CENTER
 62
     6
100
AcDbLine
 10
-345.5223123564261
 20
202.7707950006021
 30
0.0
 11
-359.5223123564261
 21
202.3332950006022
 31
0.0
  0
LINE
  5
46C
330
1F
100
AcDbEntity
  8
AM_3
  6
CENTER
 62
     6
100
AcDbLine
 10
-345.5223123564261
 20
221.6682950006019
 30
0.0
 11
-359.5223123564261
 21
222.1057950006021
 31
0.0
  0
LINE
  5
46D
330
1F
100
AcDbEntity
  8
AM_3
  6
CENTER
 62
     6
100
AcDbLine
 10
-345.5223123564261
 20
220.2167950006021
 30
0.0
 11
-359.5223123564261
 21
220.6542950006021
 31
0.0
  0
LINE
  5
46E
330
1F
100
AcDbEntity
  8
AM_3
  6
CENTER
 62
     6
100
AcDbLine
 10
-345.5223123564261
 20
221.668295000602
 30
0.0
 11
-345.5223123564261
 21
201.319295000602
 31
0.0
  0
LINE
  5
46F
330
1F
100
AcDbEntity
  8
AM_3
  6
CENTER
 62
     6
100
AcDbLine
 10
-345.5223123564261
 20
201.319295000602
 30
0.0
 11
-342.1228418960131
 21
202.7707950006021
 31
0.0
  0
LINE
  5
470
330
1F
100
AcDbEntity
  8
AM_3
  6
CENTER
 62
     6
100
AcDbLine
 10
-345.5223123564261
 20
202.7707950006021
 30
0.0
 11
-338.185636281291
 21
202.7707950006021
 31
0.0
  0
LINE
  5
471
330
1F
100
AcDbEntity
  8
AM_3
  6
CENTER
 62
     6
100
AcDbLine
 10
-345.5223123564261
 20
221.668295000602
 30
0.0
 11
-342.1228418960131
 21
220.2167950006021
 31
0.0
  0
LINE
  5
472
330
1F
100
AcDbEntity
  8
AM_3
  6
CENTER
 62
     6
100
AcDbLine
 10
-345.5223123564261
 20
220.2167950006021
 30
0.0
 11
-338.185636281291
 21
220.2167950006021
 31
0.0
  0
TEXT
  5
474
330
1F
100
AcDbEntity
  8
AM_0
 62
     7
100
AcDbText
 10
349.5735131600967
 20
-262.4756084272076
 30
0.0
 40
15.0
  1
000
 41
0.6631578947368421
  7
DCSTYLE0
 72
     5
 11
376.5735131600967
 21
-262.4756084272076
 31
0.0
100
AcDbText
  0
VIEWPORT
  5
B5
330
1B
100
AcDbEntity
 67
     1
  8
0
100
AcDbViewport
 10
9.303614457831372
 20
-8.49090671330265
 30
0.0
 40
2242.955560885544
 41
1523.90821028343
 68
     1
 69
     1
1001
ACAD
1000
MVIEW
1002
{
1070
    16
1010
0.0
1020
0.0
1030
0.0
1010
0.0
1020
0.0
1030
1.0
1040
0.0
1040
1523.90821028343
1040
9.303614457831372
1040
-8.49090671330265
1040
50.0
1040
0.0
1040
0.0
1070
     0
1070
   100
1070
     0
1070
     3
1070
     0
1070
     0
1070
     0
1070
     0
1040
0.0
1040
0.0
1040
0.0
1040
0.5
1040
0.5
1040
0.0
1040
0.0
1070
     0
1002
{
1002
}
1002
}
  0
ENDSEC
  0
SECTION
  2
OBJECTS
  0
DICTIONARY
  5
C
330
0
100
AcDbDictionary
  3
ACAD_GROUP
350
D
  3
ACAD_LAYOUT
350
1A
  3
ACAD_MATERIAL
350
43
  3
ACAD_MLEADERSTYLE
350
6B
  3
ACAD_MLINESTYLE
350
17
  3
ACAD_PLOTSETTINGS
350
19
  3
ACAD_SCALELIST
350
47
  3
ACAD_VISUALSTYLE
350
2A
  3
ACDBHEADERROUNDTRIPXREC
350
475
  3
ACDBVARIABLEDICTIONARY
350
496
  0
DICTIONARY
  5
49D
330
8
100
AcDbDictionary
280
     1
  3
ACAD_XREC_ROUNDTRIP
360
49E
  0
DICTIONARY
  5
D
102
{ACAD_REACTORS
330
C
102
}
330
C
100
AcDbDictionary
  0
DICTIONARY
  5
1A
102
{ACAD_REACTORS
330
C
102
}
330
C
100
AcDbDictionary
  0
DICTIONARY
  5
43
102
{ACAD_REACTORS
330
C
102
}
330
C
100
AcDbDictionary
  3
BYBLOCK
350
45
  3
BYLAYER
350
44
  3
GLOBAL
350
46
  0
DICTIONARY
  5
6B
102
{ACAD_REACTORS
330
C
102
}
330
C
100
AcDbDictionary
  3
STANDARD
350
6C
  0
DICTIONARY
  5
17
102
{ACAD_REACTORS
330
C
102
}
330
C
100
AcDbDictionary
  3
STANDARD
350
18
  0
DICTIONARY
  5
19
102
{ACAD_REACTORS
330
C
102
}
330
C
100
AcDbDictionary
  0
DICTIONARY
  5
47
102
{ACAD_REACTORS
330
C
102
}
330
C
100
AcDbDictionary
  3
A0
350
48
  3
A1
350
49
  3
A2
350
4A
  3
A3
350
4B
  3
A4
350
4C
  3
A5
350
4D
  3
A6
350
4E
  3
A7
350
4F
  3
A8
350
50
  3
A9
350
51
  3
B0
350
52
  3
B1
350
53
  3
B2
350
54
  3
B3
350
55
  3
B4
350
56
  3
B5
350
57
  3
B6
350
58
  3
B7
350
59
  3
B8
350
5A
  3
B9
350
5B
  3
C0
350
5C
  3
C1
350
5D
  3
C2
350
5E
  3
C3
350
5F
  3
C4
350
60
  3
C5
350
61
  3
C6
350
62
  3
C7
350
63
  3
C8
350
64
  3
C9
350
65
  3
D0
350
66
  3
D1
350
67
  3
D2
350
68
  0
DICTIONARY
  5
2A
102
{ACAD_REACTORS
330
C
102
}
330
C
100
AcDbDictionary
  3
2DWIREFRAME
350
2F
  3
BASIC
350
32
  3
BRIGHTEN
350
36
  3
COLORCHANGE
350
3A
  3
CONCEPTUAL
350
34
  3
DIM
350
35
  3
EDGECOLOROFF
350
3D
  3
FACEPATTERN
350
39
  3
FLAT
350
2B
  3
FLATWITHEDGES
350
2C
  3
GOURAUD
350
2D
  3
GOURAUDWITHEDGES
350
2E
  3
HIDDEN
350
31
  3
JITTEROFF
350
3B
  3
LINEPATTERN
350
38
  3
OVERHANGOFF
350
3C
  3
REALISTIC
350
33
  3
SHADED
350
42
  3
SHADED_WITH_EDGES
350
41
  3
SHADES_OF_GRAY
350
3E
  3
SKETCHY
350
3F
  3
THICKEN
350
37
  3
WIREFRAME
350
30
  3
X-RAY
350
40
  0
DICTIONARY
  5
475
102
{ACAD_REACTORS
330
C
102
}
330
C
100
AcDbDictionary
  3
CEPSNID
350
47F
  3
CEPSNTYPE
350
47E
  3
DIMSTYLEDATA
350
495
  3
FINGERPRINTGUID
350
480
  3
HYPERLINKBASE
350
478
  3
INSUNITS
350
47D
  3
LAYOUTDICT
350
47A
  3
LWETCUNION
350
47C
  3
PLOTSETDICT
350
47B
  3
PSVPSCALE
350
482
  3
PUCSBASE
350
485
  3
PUCSORGBACK
350
48B
  3
PUCSORGBOTTOM
350
487
  3
PUCSORGFRONT
350
48A
  3
PUCSORGLEFT
350
488
  3
PUCSORGRIGHT
350
489
  3
PUCSORGTOP
350
486
  3
PUCSORTHOREF
350
483
  3
PUCSORTHOVIEW
350
484
  3
STYLESHEET
350
479
  3
TSTACKALIGN
350
476
  3
TSTACKSIZE
350
477
  3
UCSBASE
350
48E
  3
UCSORGBACK
350
494
  3
UCSORGBOTTOM
350
490
  3
UCSORGFRONT
350
493
  3
UCSORGLEFT
350
491
  3
UCSORGRIGHT
350
492
  3
UCSORGTOP
350
48F
  3
UCSORTHOREF
350
48C
  3
UCSORTHOVIEW
350
48D
  3
VERSIONGUID
350
481
  0
DICTIONARY
  5
496
102
{ACAD_REACTORS
330
C
102
}
330
C
100
AcDbDictionary
  3
CANNOSCALE
350
49F
  3
CMLEADERSTYLE
350
498
  3
CTABLESTYLE
350
497
  3
DIMASSOC
350
49B
  3
HIDETEXT
350
49C
  3
MSLTSCALE
350
4A0
  0
XRECORD
  5
49E
102
{ACAD_REACTORS
330
49D
102
}
330
49D
100
AcDbXrecord
102
VTR_0.000_0.000_1.000_1.000_VISUALSTYLE
340
2F
102
VTR_0.000_0.000_1.000_1.000_GRIDDISPLAY
 70
     3
102
VTR_0.000_0.000_1.000_1.000_GRIDMAJOR
 70
     5
102
VTR_0.000_0.000_1.000_1.000_DEFAULTLIGHTING
280
     1
102
VTR_0.000_0.000_1.000_1.000_DEFAULTLIGHTINGTYPE
 70
     1
102
VTR_0.000_0.000_1.000_1.000_BRIGHTNESS
141
0.0
102
VTR_0.000_0.000_1.000_1.000_CONTRAST
142
0.0
  0
MATERIAL
  5
45
102
{ACAD_REACTORS
330
43
102
}
102
{ACAD_XDICTIONARY
360
4A3
102
}
330
43
100
AcDbMaterial
  1
BYBLOCK
  0
MATERIAL
  5
44
102
{ACAD_REACTORS
330
43
102
}
102
{ACAD_XDICTIONARY
360
4A1
102
}
330
43
100
AcDbMaterial
  1
BYLAYER
  0
MATERIAL
  5
46
102
{ACAD_REACTORS
330
43
102
}
102
{ACAD_XDICTIONARY
360
4A5
102
}
330
43
100
AcDbMaterial
  1
GLOBAL
  0
ACAD_PROXY_OBJECT
  5
6C
102
{ACAD_REACTORS
330
6B
102
}
330
6B
100
AcDbProxyObject
 90
      499
 91
      505
 93
      610
310
40901902A4063FBFFFFFE056BD1B81E855B9FC0AD7A3703D0AD73F4214DD185B99185C9900AD7A3703D0AC73F90141901A02B5E8DC0F42B1CFC02B5E8DC0F42B1CFE5764000000000000300FC0
340
14
340
0
340
11
340
0
 94
        0
1001
ACAD_MLEADERVER
1070
     2
  0
MLINESTYLE
  5
18
102
{ACAD_REACTORS
330
17
102
}
330
17
100
AcDbMlineStyle
  2
Standard
 70
     0
  3

 62
   256
 51
90.0
 52
90.0
 71
     2
 49
0.5
 62
   256
  6
BYLAYER
 49
-0.5
 62
   256
  6
BYLAYER
  0
ACAD_PROXY_OBJECT
  5
48
102
{ACAD_REACTORS
330
47
102
}
330
47
100
AcDbProxyObject
 90
      499
 91
      503
 93
       41
310
903313A31580
  0
ACAD_PROXY_OBJECT
  5
49
102
{ACAD_REACTORS
330
47
102
}
330
47
100
AcDbProxyObject
 90
      499
 91
      503
 93
      105
310
903313A324000000000000004000
  0
ACAD_PROXY_OBJECT
  5
4A
102
{ACAD_REACTORS
330
47
102
}
330
47
100
AcDbProxyObject
 90
      499
 91
      503
 93
      105
310
903313A344000000000000104000
  0
ACAD_PROXY_OBJECT
  5
4B
102
{ACAD_REACTORS
330
47
102
}
330
47
100
AcDbProxyObject
 90
      499
 91
      503
 93
      105
310
903313A354000000000000144000
  0
ACAD_PROXY_OBJECT
  5
4C
102
{ACAD_REACTORS
330
47
102
}
330
47
100
AcDbProxyObject
 90
      499
 91
      503
 93
      105
310
903313A384000000000000204000
  0
ACAD_PROXY_OBJECT
  5
4D
102
{ACAD_REACTORS
330
47
102
}
330
47
100
AcDbProxyObject
 90
      499
 91
      503
 93
      113
310
904313A31304000000000000244000
  0
ACAD_PROXY_OBJECT
  5
4E
102
{ACAD_REACTORS
330
47
102
}
330
47
100
AcDbProxyObject
 90
      499
 91
      503
 93
      113
310
904313A31364000000000000304000
  0
ACAD_PROXY_OBJECT
  5
4F
102
{ACAD_REACTORS
330
47
102
}
330
47
100
AcDbProxyObject
 90
      499
 91
      503
 93
      113
310
904313A32304000000000000344000
  0
ACAD_PROXY_OBJECT
  5
50
102
{ACAD_REACTORS
330
47
102
}
330
47
100
AcDbProxyObject
 90
      499
 91
      503
 93
      113
310
904313A333040000000000003E4000
  0
ACAD_PROXY_OBJECT
  5
51
102
{ACAD_REACTORS
330
47
102
}
330
47
100
AcDbProxyObject
 90
      499
 91
      503
 93
      113
310
904313A34304000000000000444000
  0
ACAD_PROXY_OBJECT
  5
52
102
{ACAD_REACTORS
330
47
102
}
330
47
100
AcDbProxyObject
 90
      499
 91
      503
 93
      113
310
904313A35304000000000000494000
  0
ACAD_PROXY_OBJECT
  5
53
102
{ACAD_REACTORS
330
47
102
}
330
47
100
AcDbProxyObject
 90
      499
 91
      503
 93
      121
310
905313A3130304000000000000594000
  0
ACAD_PROXY_OBJECT
  5
54
102
{ACAD_REACTORS
330
47
102
}
330
47
100
AcDbProxyObject
 90
      499
 91
      503
 93
      105
310
903323A310000000000000010100
  0
ACAD_PROXY_OBJECT
  5
55
102
{ACAD_REACTORS
330
47
102
}
330
47
100
AcDbProxyObject
 90
      499
 91
      503
 93
      105
310
903343A310000000000000410100
  0
ACAD_PROXY_OBJECT
  5
56
102
{ACAD_REACTORS
330
47
102
}
330
47
100
AcDbProxyObject
 90
      499
 91
      503
 93
      105
310
903383A310000000000000810100
  0
ACAD_PROXY_OBJECT
  5
57
102
{ACAD_REACTORS
330
47
102
}
330
47
100
AcDbProxyObject
 90
      499
 91
      503
 93
      113
310
90431303A310000000000000910100
  0
ACAD_PROXY_OBJECT
  5
58
102
{ACAD_REACTORS
330
47
102
}
330
47
100
AcDbProxyObject
 90
      499
 91
      503
 93
      121
310
9053130303A310000000000001650100
  0
ACAD_PROXY_OBJECT
  5
59
102
{ACAD_REACTORS
330
47
102
}
330
47
100
AcDbProxyObject
 90
      499
 91
      503
 93
      257
310
90E312F31323822203D2031272D3022000000000000200FC000000000000284000
  0
ACAD_PROXY_OBJECT
  5
5A
102
{ACAD_REACTORS
330
47
102
}
330
47
100
AcDbProxyObject
 90
      499
 91
      503
 93
      249
310
90D312F363422203D2031272D3022000000000000240FC000000000000284000
  0
ACAD_PROXY_OBJECT
  5
5B
102
{ACAD_REACTORS
330
47
102
}
330
47
100
AcDbProxyObject
 90
      499
 91
      503
 93
      249
310
90D312F333222203D2031272D3022000000000000280FC000000000000284000
  0
ACAD_PROXY_OBJECT
  5
5C
102
{ACAD_REACTORS
330
47
102
}
330
47
100
AcDbProxyObject
 90
      499
 91
      503
 93
      249
310
90D312F313622203D2031272D30220000000000002C0FC000000000000284000
  0
ACAD_PROXY_OBJECT
  5
5D
102
{ACAD_REACTORS
330
47
102
}
330
47
100
AcDbProxyObject
 90
      499
 91
      503
 93
      249
310
90D332F333222203D2031272D30220000000000002E0FC000000000000284000
  0
ACAD_PROXY_OBJECT
  5
5E
102
{ACAD_REACTORS
330
47
102
}
330
47
100
AcDbProxyObject
 90
      499
 91
      503
 93
      241
310
90C312F3822203D2031272D3022000000000000300FC000000000000284000
  0
ACAD_PROXY_OBJECT
  5
5F
102
{ACAD_REACTORS
330
47
102
}
330
47
100
AcDbProxyObject
 90
      499
 91
      503
 93
      249
310
90D332F313622203D2031272D3022000000000000320FC000000000000284000
  0
ACAD_PROXY_OBJECT
  5
60
102
{ACAD_REACTORS
330
47
102
}
330
47
100
AcDbProxyObject
 90
      499
 91
      503
 93
      241
310
90C312F3422203D2031272D3022000000000000340FC000000000000284000
  0
ACAD_PROXY_OBJECT
  5
61
102
{ACAD_REACTORS
330
47
102
}
330
47
100
AcDbProxyObject
 90
      499
 91
      503
 93
      241
310
90C332F3822203D2031272D3022000000000000360FC000000000000284000
  0
ACAD_PROXY_OBJECT
  5
62
102
{ACAD_REACTORS
330
47
102
}
330
47
100
AcDbProxyObject
 90
      499
 91
      503
 93
      241
310
90C312F3222203D2031272D3022000000000000380FC000000000000284000
  0
ACAD_PROXY_OBJECT
  5
63
102
{ACAD_REACTORS
330
47
102
}
330
47
100
AcDbProxyObject
 90
      499
 91
      503
 93
      241
310
90C332F3422203D2031272D30220000000000003A0FC000000000000284000
  0
ACAD_PROXY_OBJECT
  5
64
102
{ACAD_REACTORS
330
47
102
}
330
47
100
AcDbProxyObject
 90
      499
 91
      503
 93
      161
310
90A3122203D2031272D30224000000000000284000
  0
ACAD_PROXY_OBJECT
  5
65
102
{ACAD_REACTORS
330
47
102
}
330
47
100
AcDbProxyObject
 90
      499
 91
      503
 93
      257
310
90E312D312F3222203D2031272D30220000000000003E0FC000000000000284000
  0
ACAD_PROXY_OBJECT
  5
66
102
{ACAD_REACTORS
330
47
102
}
330
47
100
AcDbProxyObject
 90
      499
 91
      503
 93
      225
310
90A3322203D2031272D302200000000000002100000000000000284000
  0
ACAD_PROXY_OBJECT
  5
67
102
{ACAD_REACTORS
330
47
102
}
330
47
100
AcDbProxyObject
 90
      499
 91
      503
 93
      225
310
90A3622203D2031272D302200000000000006100000000000000284000
  0
ACAD_PROXY_OBJECT
  5
68
102
{ACAD_REACTORS
330
47
102
}
330
47
100
AcDbProxyObject
 90
      499
 91
      503
 93
      249
310
90D31272D3022203D2031272D30220000000000000A100000000000000284000
  0
ACAD_PROXY_OBJECT
  5
2F
102
{ACAD_REACTORS
330
2A
102
}
330
2A
100
AcDbProxyObject
 90
      499
 91
      501
 93
      436
310
42CC9915DA5C99599C985B595049028333333333333E33F0000000000000F90107901411070040501600405405064090741402480A0340
1001
ACAD
1000
AcDbSavedByObjectVersion
1070
     0
  0
ACAD_PROXY_OBJECT
  5
32
102
{ACAD_REACTORS
330
2A
102
}
330
2A
100
AcDbProxyObject
 90
      499
 91
      501
 93
      388
310
4150985CDA58D07406404333333333333E33F0000000000000F90107A41107004050150841D405064090741402480A0350
1001
ACAD
1000
AcDbSavedByObjectVersion
1070
     0
  0
ACAD_PROXY_OBJECT
  5
36
102
{ACAD_REACTORS
330
2A
102
}
330
2A
100
AcDbProxyObject
 90
      499
 91
      501
 93
      428
310
42109C9A59DA1D195B90C409028333333333333E33F0000000000000F9010790141107004050150841D405064090741402480A029950
1001
ACAD
1000
AcDbSavedByObjectVersion
1070
     0
  0
ACAD_PROXY_OBJECT
  5
3A
102
{ACAD_REACTORS
330
2A
102
}
330
2A
100
AcDbProxyObject
 90
      499
 91
      501
 93
      452
310
42D0DBDB1BDC90DA185B99D95104090240C333333333333E33F0000000000000F90108901411070040501508421405064090741402480A0350
1001
ACAD
1000
AcDbSavedByObjectVersion
1070
     0
  0
ACAD_PROXY_OBJECT
  5
34
102
{ACAD_REACTORS
330
2A
102
}
330
2A
100
AcDbProxyObject
 90
      499
 91
      501
 93
      500
310
4290DBDB98D95C1D1D585B10940D028333333333333E33F0000000000000F90107902409070040501000000000018199010841D405064090740C02480A0340
1001
ACAD
1000
AcDbSavedByObjectVersion
1070
     0
  0
ACAD_PROXY_OBJECT
  5
35
102
{ACAD_REACTORS
330
2A
102
}
330
2A
100
AcDbProxyObject
 90
      499
 91
      501
 93
      412
310
40D11A5B50B409028333333333333E33F0000000000000F9010790141107004050150841D405064090741402480A02677FFFFFD0
1001
ACAD
1000
AcDbSavedByObjectVersion
1070
     0
  0
ACAD_PROXY_OBJECT
  5
3D
102
{ACAD_REACTORS
330
2A
102
}
330
2A
100
AcDbProxyObject
 90
      499
 91
      501
 93
      452
310
43115919D950DBDB1BDC93D999916409028333333333333E33F0000000000000F9010790141107004050150841D405064090741402480A0350
1001
ACAD
1000
AcDbSavedByObjectVersion
1070
     0
  0
ACAD_PROXY_OBJECT
  5
39
102
{ACAD_REACTORS
330
2A
102
}
330
2A
100
AcDbProxyObject
 90
      499
 91
      501
 93
      444
310
42D19858D95C185D1D195C9B90F409028333333333333E33F0000000000000F9010790141107004050150841D405064090741402480A0350
1001
ACAD
1000
AcDbSavedByObjectVersion
1070
     0
  0
ACAD_PROXY_OBJECT
  5
2B
102
{ACAD_REACTORS
330
2A
102
}
330
2A
100
AcDbProxyObject
 90
      499
 91
      501
 93
      380
310
41119B185D240901404333333333333E33F0000000000000F9010740A907004050150841D405064090741402480A1B50
1001
ACAD
1000
AcDbSavedByObjectVersion
1070
     0
  0
ACAD_PROXY_OBJECT
  5
2C
102
{ACAD_REACTORS
330
2A
102
}
330
2A
100
AcDbProxyObject
 90
      499
 91
      501
 93
      468
310
43519B185D15DA5D1A115919D95CD0140901404333333333333E33F0000000000000F90107409019070040501600405405064090741402480A1B50
1001
ACAD
1000
AcDbSavedByObjectVersion
1070
     0
  0
ACAD_PROXY_OBJECT
  5
2D
102
{ACAD_REACTORS
330
2A
102
}
330
2A
100
AcDbProxyObject
 90
      499
 91
      501
 93
      404
310
41D1DBDD5C985D5910240902404333333333333E33F0000000000000F9010740A9070040501641D405064090741402480A1B50
1001
ACAD
1000
AcDbSavedByObjectVersion
1070
     0
  0
ACAD_PROXY_OBJECT
  5
2E
102
{ACAD_REACTORS
330
2A
102
}
330
2A
100
AcDbProxyObject
 90
      499
 91
      501
 93
      492
310
4411DBDD5C985D5915DA5D1A115919D95CD0340902404333333333333E33F0000000000000F90107409019070040501600405405064090741402480A1B50
1001
ACAD
1000
AcDbSavedByObjectVersion
1070
     0
  0
ACAD_PROXY_OBJECT
  5
31
102
{ACAD_REACTORS
330
2A
102
}
330
2A
100
AcDbProxyObject
 90
      499
 91
      501
 93
      476
310
41921A5919195B90640502408333333333333E33F0000000000000F901079024090700405020000000000001110200405405064090740C02480A0340
1001
ACAD
1000
AcDbSavedByObjectVersion
1070
     0
  0
ACAD_PROXY_OBJECT
  5
3B
102
{ACAD_REACTORS
330
2A
102
}
330
2A
100
AcDbProxyObject
 90
      499
 91
      501
 93
      428
310
42529A5D1D195C93D999914409028333333333333E33F0000000000000F9010790141107004050150A41D405064090741402480A0350
1001
ACAD
1000
AcDbSavedByObjectVersion
1070
     0
  0
ACAD_PROXY_OBJECT
  5
38
102
{ACAD_REACTORS
330
2A
102
}
330
2A
100
AcDbProxyObject
 90
      499
 91
      501
 93
      444
310
42D31A5B995C185D1D195C9B90E409028333333333333E33F0000000000000F9010790141107004050750841D405064090741402483A0350
1001
ACAD
1000
AcDbSavedByObjectVersion
1070
     0
  0
ACAD_PROXY_OBJECT
  5
3C
102
{ACAD_REACTORS
330
2A
102
}
330
2A
100
AcDbProxyObject
 90
      499
 91
      501
 93
      444
310
42D3DD995C9A185B99D3D999915409028333333333333E33F0000000000000F9010790141107004050150941D405064090741402480A0350
1001
ACAD
1000
AcDbSavedByObjectVersion
1070
     0
  0
ACAD_PROXY_OBJECT
  5
33
102
{ACAD_REACTORS
330
2A
102
}
330
2A
100
AcDbProxyObject
 90
      499
 91
      501
 93
      428
310
425499585B1A5CDD1A58D08409038333333333333E33F0000000000000F9010740A907004050150800405405064090740C02480A1B40
1001
ACAD
1000
AcDbSavedByObjectVersion
1070
     0
  0
ACAD_PROXY_OBJECT
  5
42
102
{ACAD_REACTORS
330
2A
102
}
330
2A
100
AcDbProxyObject
 90
      499
 91
      501
 93
      420
310
4194DA1859195911B40902404333333333333E33F0000000000000F9010740A41107004050150800405405064090840C02480A0B40
1001
ACAD
1000
AcDbSavedByObjectVersion
1070
     0
  0
ACAD_PROXY_OBJECT
  5
41
102
{ACAD_REACTORS
330
2A
102
}
330
2A
100
AcDbProxyObject
 90
      499
 91
      501
 93
      516
310
4454DA18591959081DDA5D1A08195919D95CD1A40902404333333333333E33F0000000000000F901074090142907004050250800405405064090740C02480A0B40
1001
ACAD
1000
AcDbSavedByObjectVersion
1070
     0
  0
ACAD_PROXY_OBJECT
  5
3E
102
{ACAD_REACTORS
330
2A
102
}
330
2A
100
AcDbProxyObject
 90
      499
 91
      501
 93
      532
310
4394DA1859195CC81BD98811DC985E5174090240C333333333333E33F0000000000000F901079024090741D01000000000000111010841D405064090740C02480A0340
1001
ACAD
1000
AcDbSavedByObjectVersion
1070
     0
  0
ACAD_PROXY_OBJECT
  5
3F
102
{ACAD_REACTORS
330
2A
102
}
330
2A
100
AcDbProxyObject
 90
      499
 91
      501
 93
      476
310
41D4DAD95D18DA1E51840502408333333333333E33F0000000000000F901079024090741D01000000000000111010B41D405064090741802480A0340
1001
ACAD
1000
AcDbSavedByObjectVersion
1070
     0
  0
ACAD_PROXY_OBJECT
  5
37
102
{ACAD_REACTORS
330
2A
102
}
330
2A
100
AcDbProxyObject
 90
      499
 91
      501
 93
      412
310
41D51A1A58DAD95B90D409028333333333333E33F0000000000000F9010790141107004050150C41D405064090741402480A0350
1001
ACAD
1000
AcDbSavedByObjectVersion
1070
     0
  0
ACAD_PROXY_OBJECT
  5
30
102
{ACAD_REACTORS
330
2A
102
}
330
2A
100
AcDbProxyObject
 90
      499
 91
      501
 93
      420
310
4255DA5C99599C985B595059028333333333333E33F0000000000000F90107901411070040501600405405064090740C02480A0340
1001
ACAD
1000
AcDbSavedByObjectVersion
1070
     0
  0
ACAD_PROXY_OBJECT
  5
40
102
{ACAD_REACTORS
330
2A
102
}
330
2A
100
AcDbProxyObject
 90
      499
 91
      501
 93
      404
310
41560B54985E51940902404000000000000E03F0000000000000F9010740501907004050150841D405064090740C02480A1B40
1001
ACAD
1000
AcDbSavedByObjectVersion
1070
     0
  0
XRECORD
  5
47F
102
{ACAD_REACTORS
330
475
102
}
330
475
100
AcDbXrecord
340
0
  0
XRECORD
  5
47E
102
{ACAD_REACTORS
330
475
102
}
330
475
100
AcDbXrecord
 90
        0
  0
XRECORD
  5
495
102
{ACAD_REACTORS
330
475
102
}
330
475
100
AcDbXrecord
1000
DSTYLE
1002
{
1070
   179
 70
     3
1070
   171
 70
     2
1070
   143
 40
0.0393700787401575
1070
    41
 40
2.000107526779175
1070
    79
 70
     2
1070
   141
 40
0.0
1070
   271
 70
     3
1070
    43
 40
10.0
1070
   278
 70
    46
1070
    44
 40
1.0
1070
    42
 40
1.0
1070
   147
 40
0.09
1070
   272
 70
     3
1070
   146
 40
0.65
1070
   172
 70
     0
1070
   340
340
11
1070
   140
 40
3.5
1070
   284
 70
     0
1070
    90
 70
     1
1002
}
  0
XRECORD
  5
480
102
{ACAD_REACTORS
330
475
102
}
330
475
100
AcDbXrecord
  1
{3c40320b-f428-46e0-a8b0-29812af49249}
  0
XRECORD
  5
478
102
{ACAD_REACTORS
330
475
102
}
330
475
100
AcDbXrecord
  1

  0
XRECORD
  5
47D
102
{ACAD_REACTORS
330
475
102
}
330
475
100
AcDbXrecord
 90
        4
  0
XRECORD
  5
47A
102
{ACAD_REACTORS
330
475
102
}
330
475
100
AcDbXrecord
340
1A
  0
XRECORD
  5
47C
102
{ACAD_REACTORS
330
475
102
}
330
475
100
AcDbXrecord
 90
    10781
  0
XRECORD
  5
47B
102
{ACAD_REACTORS
330
475
102
}
330
475
100
AcDbXrecord
340
19
  0
XRECORD
  5
482
102
{ACAD_REACTORS
330
475
102
}
330
475
100
AcDbXrecord
 40
0.0
  0
XRECORD
  5
485
102
{ACAD_REACTORS
330
475
102
}
330
475
100
AcDbXrecord
340
0
  0
XRECORD
  5
48B
102
{ACAD_REACTORS
330
475
102
}
330
475
100
AcDbXrecord
 10
0.0
 20
0.0
 30
0.0
  0
XRECORD
  5
487
102
{ACAD_REACTORS
330
475
102
}
330
475
100
AcDbXrecord
 10
0.0
 20
0.0
 30
0.0
  0
XRECORD
  5
48A
102
{ACAD_REACTORS
330
475
102
}
330
475
100
AcDbXrecord
 10
0.0
 20
0.0
 30
0.0
  0
XRECORD
  5
488
102
{ACAD_REACTORS
330
475
102
}
330
475
100
AcDbXrecord
 10
0.0
 20
0.0
 30
0.0
  0
XRECORD
  5
489
102
{ACAD_REACTORS
330
475
102
}
330
475
100
AcDbXrecord
 10
0.0
 20
0.0
 30
0.0
  0
XRECORD
  5
486
102
{ACAD_REACTORS
330
475
102
}
330
475
100
AcDbXrecord
 10
0.0
 20
0.0
 30
0.0
  0
XRECORD
  5
483
102
{ACAD_REACTORS
330
475
102
}
330
475
100
AcDbXrecord
340
0
  0
XRECORD
  5
484
102
{ACAD_REACTORS
330
475
102
}
330
475
100
AcDbXrecord
 70
     0
  0
XRECORD
  5
479
102
{ACAD_REACTORS
330
475
102
}
330
475
100
AcDbXrecord
  1

  0
XRECORD
  5
476
102
{ACAD_REACTORS
330
475
102
}
330
475
100
AcDbXrecord
 90
        1
  0
XRECORD
  5
477
102
{ACAD_REACTORS
330
475
102
}
330
475
100
AcDbXrecord
 90
       70
  0
XRECORD
  5
48E
102
{ACAD_REACTORS
330
475
102
}
330
475
100
AcDbXrecord
340
0
  0
XRECORD
  5
494
102
{ACAD_REACTORS
330
475
102
}
330
475
100
AcDbXrecord
 10
0.0
 20
0.0
 30
0.0
  0
XRECORD
  5
490
102
{ACAD_REACTORS
330
475
102
}
330
475
100
AcDbXrecord
 10
0.0
 20
0.0
 30
0.0
  0
XRECORD
  5
493
102
{ACAD_REACTORS
330
475
102
}
330
475
100
AcDbXrecord
 10
0.0
 20
0.0
 30
0.0
  0
XRECORD
  5
491
102
{ACAD_REACTORS
330
475
102
}
330
475
100
AcDbXrecord
 10
0.0
 20
0.0
 30
0.0
  0
XRECORD
  5
492
102
{ACAD_REACTORS
330
475
102
}
330
475
100
AcDbXrecord
 10
0.0
 20
0.0
 30
0.0
  0
XRECORD
  5
48F
102
{ACAD_REACTORS
330
475
102
}
330
475
100
AcDbXrecord
 10
0.0
 20
0.0
 30
0.0
  0
XRECORD
  5
48C
102
{ACAD_REACTORS
330
475
102
}
330
475
100
AcDbXrecord
340
0
  0
XRECORD
  5
48D
102
{ACAD_REACTORS
330
475
102
}
330
475
100
AcDbXrecord
 70
     0
  0
XRECORD
  5
481
102
{ACAD_REACTORS
330
475
102
}
330
475
100
AcDbXrecord
  1
{FAEB1C32-E019-11D5-929B-00C0DF256EC4}
  0
DICTIONARYVAR
  5
49F
102
{ACAD_REACTORS
330
496
102
}
330
496
100
DictionaryVariables
280
     0
  1
1:1
  0
DICTIONARYVAR
  5
498
102
{ACAD_REACTORS
330
496
102
}
330
496
100
DictionaryVariables
280
     0
  1
Standard
  0
DICTIONARYVAR
  5
497
102
{ACAD_REACTORS
330
496
102
}
330
496
100
DictionaryVariables
280
     0
  1
Standard
  0
DICTIONARYVAR
  5
49B
102
{ACAD_REACTORS
330
496
102
}
330
496
100
DictionaryVariables
280
     0
  1
2
  0
DICTIONARYVAR
  5
49C
102
{ACAD_REACTORS
330
496
102
}
330
496
100
DictionaryVariables
280
     0
  1
1
  0
DICTIONARYVAR
  5
4A0
102
{ACAD_REACTORS
330
496
102
}
330
496
100
DictionaryVariables
280
     0
  1
1
  0
DICTIONARY
  5
4A3
330
45
100
AcDbDictionary
280
     1
  3
ACAD_XREC_ROUNDTRIP
360
4A4
  0
DICTIONARY
  5
4A1
330
44
100
AcDbDictionary
280
     1
  3
ACAD_XREC_ROUNDTRIP
360
4A2
  0
DICTIONARY
  5
4A5
330
46
100
AcDbDictionary
280
     1
  3
ACAD_XREC_ROUNDTRIP
360
4A6
  0
XRECORD
  5
4A4
102
{ACAD_REACTORS
330
4A3
102
}
330
4A3
100
AcDbXrecord
102
MATERIAL
148
0.0
149
0.0
149
0.0
 93
        0
 94
      127
282
     0
 72
     1
 77
     1
171
     1
175
     1
179
     1
273
     0
  0
XRECORD
  5
4A2
102
{ACAD_REACTORS
330
4A1
102
}
330
4A1
100
AcDbXrecord
102
MATERIAL
148
0.0
149
0.0
149
0.0
 93
        0
 94
      127
282
     0
 72
     1
 77
     1
171
     1
175
     1
179
     1
273
     0
  0
XRECORD
  5
4A6
102
{ACAD_REACTORS
330
4A5
102
}
330
4A5
100
AcDbXrecord
102
MATERIAL
148
0.0
149
0.0
149
0.0
 93
        0
 94
      127
282
     0
 72
     1
 77
     1
171
     1
175
     1
179
     1
273
     0
  0
ENDSEC
  0
EOF
