  0
SECTION
  2
HEADER
  9
$ACADVER
  1
AC1014
  9
$ACADMAINTVER
 70
       0
  9
$DWGCODEPAGE
  3
ANSI_932
  9
$INSBASE
 10
0.0
 20
0.0
 30
0.0
  9
$EXTMIN
 10
-4.27475143
 20
-144.74657302
 30
0.0
  9
$EXTMAX
 10
218.01232288
 20
2.8381681
 30
0.0
  9
$LIMMIN
 10
-11.2212225
 20
-149.35859618
  9
$LIMMAX
 10
224.95879395
 20
7.45019126
  9
$ORTHOMODE
 70
       0
  9
$REGENMODE
 70
       1
  9
$FILLMODE
 70
       1
  9
$QTEXTMODE
 70
       0
  9
$MIRRTEXT
 70
       1
  9
$DRAGMODE
 70
       2
  9
$LTSCALE
 40
1.0
  9
$OSMODE
 70
       0
  9
$ATTMODE
 70
       1
  9
$TEXTSIZE
 40
0.2
  9
$TRACEWID
 40
0.05
  9
$TEXTSTYLE
  7
STANDARD
  9
$CLAYER
  8
0
  9
$CELTYPE
  6
CONTINUOUS
  9
$CECOLOR
 62
     256
  9
$CELTSCALE
 40
1.0
  9
$DELOBJ
 70
       1
  9
$DISPSILH
 70
       0
  9
$DIMSCALE
 40
1.0
  9
$DIMASZ
 40
0.18
  9
$DIMEXO
 40
0.0625
  9
$DIMDLI
 40
0.38
  9
$DIMRND
 40
0.0
  9
$DIMDLE
 40
0.0
  9
$DIMEXE
 40
0.18
  9
$DIMTP
 40
0.0
  9
$DIMTM
 40
0.0
  9
$DIMTXT
 40
0.18
  9
$DIMCEN
 40
0.09
  9
$DIMTSZ
 40
0.0
  9
$DIMTOL
 70
       0
  9
$DIMLIM
 70
       0
  9
$DIMTIH
 70
       1
  9
$DIMTOH
 70
       1
  9
$DIMSE1
 70
       0
  9
$DIMSE2
 70
       0
  9
$DIMTAD
 70
       0
  9
$DIMZIN
 70
       0
  9
$DIMBLK
  1

  9
$DIMASO
 70
       1
  9
$DIMSHO
 70
       1
  9
$DIMPOST
  1

  9
$DIMAPOST
  1

  9
$DIMALT
 70
       0
  9
$DIMALTD
 70
       2
  9
$DIMALTF
 40
25.4
  9
$DIMLFAC
 40
1.0
  9
$DIMTOFL
 70
       0
  9
$DIMTVP
 40
0.0
  9
$DIMTIX
 70
       0
  9
$DIMSOXD
 70
       0
  9
$DIMSAH
 70
       0
  9
$DIMBLK1
  1

  9
$DIMBLK2
  1

  9
$DIMSTYLE
  2
STANDARD
  9
$DIMCLRD
 70
       0
  9
$DIMCLRE
 70
       0
  9
$DIMCLRT
 70
       0
  9
$DIMTFAC
 40
1.0
  9
$DIMGAP
 40
0.09
  9
$DIMJUST
 70
       0
  9
$DIMSD1
 70
       0
  9
$DIMSD2
 70
       0
  9
$DIMTOLJ
 70
       1
  9
$DIMTZIN
 70
       0
  9
$DIMALTZ
 70
       0
  9
$DIMALTTZ
 70
       0
  9
$DIMFIT
 70
       3
  9
$DIMUPT
 70
       0
  9
$DIMUNIT
 70
       2
  9
$DIMDEC
 70
       4
  9
$DIMTDEC
 70
       4
  9
$DIMALTU
 70
       2
  9
$DIMALTTD
 70
       2
  9
$DIMTXSTY
  7
STANDARD
  9
$DIMAUNIT
 70
       0
  9
$LUNITS
 70
       2
  9
$LUPREC
 70
       4
  9
$SKETCHINC
 40
0.1
  9
$FILLETRAD
 40
0.0
  9
$AUNITS
 70
       0
  9
$AUPREC
 70
       0
  9
$MENU
  1
acad
  9
$ELEVATION
 40
0.0
  9
$PELEVATION
 40
0.0
  9
$THICKNESS
 40
0.0
  9
$LIMCHECK
 70
       0
  9
$BLIPMODE
 70
       1
  9
$CHAMFERA
 40
0.0
  9
$CHAMFERB
 40
0.0
  9
$CHAMFERC
 40
0.0
  9
$CHAMFERD
 40
0.0
  9
$SKPOLY
 70
       0
  9
$TDCREATE
 40
0.000000000
  9
$TDUPDATE
 40
0.000000000
  9
$TDINDWG
 40
0.0000000000
  9
$TDUSRTIMER
 40
0.0000000000
  9
$USRTIMER
 70
       1
  9
$ANGBASE
 50
0.0
  9
$ANGDIR
 70
       0
  9
$PDMODE
 70
       0
  9
$PDSIZE
 40
1.0
  9
$PLINEWID
 40
0.0
  9
$COORDS
 70
       1
  9
$SPLFRAME
 70
       0
  9
$SPLINETYPE
 70
       6
  9
$SPLINESEGS
 70
       8
  9
$ATTDIA
 70
       0
  9
$ATTREQ
 70
       1
  9
$HANDLING
 70
       1
  9
$HANDSEED
  5
300
  9
$SURFTAB1
 70
       6
  9
$SURFTAB2
 70
       6
  9
$SURFTYPE
 70
       6
  9
$SURFU
 70
       6
  9
$SURFV
 70
       6
  9
$UCSNAME
  2

  9
$UCSORG
 10
0.0
 20
0.0
 30
0.0
  9
$UCSXDIR
 10
1.0
 20
0.0
 30
0.0
  9
$UCSYDIR
 10
0.0
 20
1.0
 30
0.0
  9
$PUCSNAME
  2

  9
$PUCSORG
 10
0.0
 20
0.0
 30
0.0
  9
$PUCSXDIR
 10
1.0
 20
0.0
 30
0.0
  9
$PUCSYDIR
 10
0.0
 20
1.0
 30
0.0
  9
$USERI1
 70
       0
  9
$USERI2
 70
       0
  9
$USERI3
 70
       0
  9
$USERI4
 70
       0
  9
$USERI5
 70
       0
  9
$USERR1
 40
0.0
  9
$USERR2
 40
0.0
  9
$USERR3
 40
0.0
  9
$USERR4
 40
0.0
  9
$USERR5
 40
0.0
  9
$WORLDVIEW
 70
       1
  9
$SHADEDGE
 70
       3
  9
$SHADEDIF
 70
      70
  9
$TILEMODE
 70
       1
  9
$MAXACTVP
 70
      16
  9
$PINSBASE
 10
0.0
 20
0.0
 30
0.0
  9
$PLIMCHECK
 70
       0
  9
$PEXTMIN
 10
1.00000000E+20
 20
1.00000000E+20
 30
1.00000000E+20
  9
$PEXTMAX
 10
-1.00000000E+20
 20
-1.00000000E+20
 30
-1.00000000E+20
  9
$PLIMMIN
 10
0.0
 20
0.0
  9
$PLIMMAX
 10
12.0
 20
9.0
  9
$UNITMODE
 70
       0
  9
$VISRETAIN
 70
       0
  9
$PLINEGEN
 70
       1
  9
$PSLTSCALE
 70
       0
  9
$TREEDEPTH
 70
    3020
  9
$PICKSTYLE
 70
       1
  9
$CMLSTYLE
  2
STANDARD
  9
$CMLJUST
 70
       0
  9
$CMLSCALE
 40
1.0
  9
$PROXYGRAPHICS
 70
       0
  9
$MEASUREMENT
 70
       0
  0
ENDSEC
  0
SECTION
  2
CLASSES
  0
CLASS
  1
LWPOLYLINE
  2
AcDbPolyline
  3
"AutoCAD"
 90
        0
280
       0
281
       1
  0
CLASS
  1
IMAGE
  2
AcDbRasterImage
  3
ISM
 90
      127
280
       0
281
       1
  0
CLASS
  1
OLE2FRAME
  2
AcDbOle2Frame
  3
""
 90
        0
280
       0
281
       1
  0
CLASS
  1
HATCH
  2
AcDbHatch
  3
"ACAD_SEDONA"
 90
        0
280
       0
281
       1
  0
CLASS
  1
DICTIONARYVAR
  2
AcDbDictionaryVar
  3
"AutoCAD"
 90
        0
280
       0
281
       0
  0
CLASS
  1
RASTERVARIABLES
  2
AcDbRasterVariables
  3
ISM
 90
        0
280
       0
281
       0
  0
CLASS
  1
IMAGEDEF
  2
AcDbRasterImageDef
  3
ISM
 90
        0
280
       0
281
       0
  0
CLASS
  1
IMAGEDEF_REACTOR
  2
AcDbRasterImageDefReactor
  3
ISM
 90
        1
280
       0
281
       0
  0
CLASS
  1
IDBUFFER
  2
AcDbIdBuffer
  3
"Acad"
 90
        0
280
       0
281
       0
  0
CLASS
  1
SPATIAL_FILTER
  2
AcDbSpatialFilter
  3
"Acad"
 90
        0
280
       0
281
       0
  0
CLASS
  1
XRECORD
  2
AcDbXrecord
  3
"<Built In>"
 90
        0
280
       0
281
       0
  0
CLASS
  1
SORTENTSTABLE
  2
AcDbSortentsTable
  3
"AutoCAD"
 90
        0
280
       0
281
       0
  0
CLASS
  1
LAYER_INDEX
  2
AcDbLayerIndex
  3
"Acad"
 90
        0
280
       0
281
       0
  0
CLASS
  1
SPATIAL_INDEX
  2
AcDbSpatialIndex
  3
"Acad"
 90
        0
280
       0
281
       0
  0
CLASS
  1
OBJECT_PTR
  2
CAseDLPNTableRecord
  3
"ASE-LPNTableRecord"
 90
        1
280
       0
281
       0
  0
CLASS
  1
LAYOUT
  2
AcDbLayout
  3
"AutoCAD 2000"
 90
        1
280
       0
281
       0
  0
CLASS
  1
PLOTSETTINGS
  2
AcDbPlotSettings
  3
"AutoCAD 2000"
 90
        1
280
       0
281
       0
  0
CLASS
  1
ACDBDICTIONARYWDFLT
  2
AcDbDictionaryWithDefault
  3
"AutoCAD 2000"
 90
        1
280
       0
281
       0
  0
CLASS
  1
ACDBPLACEHOLDER
  2
AcDbPlaceHolder
  3
"AutoCAD 2000"
 90
        1
280
       0
281
       0
  0
CLASS
  1
VBA_PROJECT
  2
AcDbVbaProject
  3
"acadvba"
 90
        1
280
       0
281
       0
  0
CLASS
  1
WIPEOUT
  2
AcDbWipeout
  3
WipeOut|AutoCAD Express Tool|expresstools@autodesk.com
 90
      127
280
       0
281
       1
  0
CLASS
  1
WIPEOUTVARIABLES
  2
AcDbWipeoutVariables
  3
WipeOut|AutoCAD Express Tool|expresstools@autodesk.com
 90
        0
280
       0
281
       0
  0
CLASS
  1
RTEXT
  2
RText
  3
RText|AutoCAD Express Tool|expresstools@autodesk.com
 90
        0
280
       0
281
       1
  0
CLASS
  1
ARCALIGNEDTEXT
  2
AcDbArcAlignedText
  3
ATEXT|AutoCAD Express Tool|expresstools@autodesk.com
 90
        0
280
       0
281
       1
  0
ENDSEC
  0
SECTION
  2
TABLES
  0
TABLE
  2
VPORT
  5
7
100
AcDbSymbolTable
 70
       1
  0
VPORT
  5
15
100
AcDbSymbolTableRecord
100
AcDbViewportTableRecord
  2
*ACTIVE
 70
       0
 10
0.0
 20
0.0
 11
1.0
 21
1.0
 12
106.86878573
 22
-70.95420246
 13
0.0
 23
0.0
 14
1.0
 24
1.0
 15
0.0
 25
0.0
 16
0.0
 26
0.0
 36
1.0
 17
0.0
 27
0.0
 37
0.0
 40
156.80878744
 41
1.5061657
 42
50.0
 43
0.0
 44
0.0
 50
0.0
 51
0.0
 71
       0
 72
     100
 73
       1
 74
       1
 75
       0
 76
       0
 77
       0
 78
       0
  0
ENDTAB
  0
TABLE
  2
LTYPE
  5
4
100
AcDbSymbolTable
 70
      30
  0
LTYPE
  5
11
100
AcDbSymbolTableRecord
100
AcDbLinetypeTableRecord
  2
BYBLOCK
 70
      64
  3

 72
      65
 73
       0
 40
0.0
  0
LTYPE
  5
12
100
AcDbSymbolTableRecord
100
AcDbLinetypeTableRecord
  2
BYLAYER
 70
      64
  3

 72
      65
 73
       0
 40
0.0
  0
LTYPE
  5
13
100
AcDbSymbolTableRecord
100
AcDbLinetypeTableRecord
  2
CONTINUOUS
 70
      64
  3
Solid line
 72
      65
 73
       0
 40
0.0
  0
LTYPE
  5
1D
100
AcDbSymbolTableRecord
100
AcDbLinetypeTableRecord
  2
HIDDENX2
 70
      64
  3
CADPAC LINETYPE
 72
      65
 73
       2
 40
21.25699398
 49
15.94274548
 74
       0
 49
-5.31424849
 74
       0
  0
LTYPE
  5
1E
100
AcDbSymbolTableRecord
100
AcDbLinetypeTableRecord
  2
HIDDEN
 70
      64
  3
CADPAC LINETYPE
 72
      65
 73
       2
 40
15.94274548
 49
10.62849699
 74
       0
 49
-5.31424849
 74
       0
  0
LTYPE
  5
1F
100
AcDbSymbolTableRecord
100
AcDbLinetypeTableRecord
  2
HIDDEN2
 70
      64
  3
CADPAC LINETYPE
 72
      65
 73
       2
 40
13.28562124
 49
7.97137274
 74
       0
 49
-5.31424849
 74
       0
  0
LTYPE
  5
20
100
AcDbSymbolTableRecord
100
AcDbLinetypeTableRecord
  2
DASHED
 70
      64
  3
CADPAC LINETYPE
 72
      65
 73
       2
 40
15.94274548
 49
10.62849699
 74
       0
 49
-5.31424849
 74
       0
  0
LTYPE
  5
21
100
AcDbSymbolTableRecord
100
AcDbLinetypeTableRecord
  2
DASHED2
 70
      64
  3
CADPAC LINETYPE
 72
      65
 73
       2
 40
11.95705911
 49
7.97137274
 74
       0
 49
-3.98568637
 74
       0
  0
LTYPE
  5
22
100
AcDbSymbolTableRecord
100
AcDbLinetypeTableRecord
  2
DASHEDX2
 70
      64
  3
CADPAC LINETYPE
 72
      65
 73
       2
 40
23.91411823
 49
15.94274548
 74
       0
 49
-7.97137274
 74
       0
  0
LTYPE
  5
23
100
AcDbSymbolTableRecord
100
AcDbLinetypeTableRecord
  2
DOTX2
 70
      64
  3
CADPAC LINETYPE
 72
      65
 73
       2
 40
6.64281062
 49
0.0
 74
       0
 49
-6.64281062
 74
       0
  0
LTYPE
  5
24
100
AcDbSymbolTableRecord
100
AcDbLinetypeTableRecord
  2
DOT
 70
      64
  3
CADPAC LINETYPE
 72
      65
 73
       2
 40
5.31424849
 49
0.0
 74
       0
 49
-5.31424849
 74
       0
  0
LTYPE
  5
25
100
AcDbSymbolTableRecord
100
AcDbLinetypeTableRecord
  2
DOT2
 70
      64
  3
CADPAC LINETYPE
 72
      65
 73
       2
 40
3.98568637
 49
0.0
 74
       0
 49
-3.98568637
 74
       0
  0
LTYPE
  5
26
100
AcDbSymbolTableRecord
100
AcDbLinetypeTableRecord
  2
CENTERX2
 70
      64
  3
CADPAC LINETYPE
 72
      65
 73
       4
 40
31.88549097
 49
13.28562124
 74
       0
 49
-6.64281062
 74
       0
 49
5.31424849
 74
       0
 49
-6.64281062
 74
       0
  0
LTYPE
  5
27
100
AcDbSymbolTableRecord
100
AcDbLinetypeTableRecord
  2
CENTER
 70
      64
  3
CADPAC LINETYPE
 72
      65
 73
       4
 40
24.44554308
 49
10.62849699
 74
       0
 49
-5.31424849
 74
       0
 49
3.1885491
 74
       0
 49
-5.31424849
 74
       0
  0
LTYPE
  5
28
100
AcDbSymbolTableRecord
100
AcDbLinetypeTableRecord
  2
CENTER2
 70
      64
  3
CADPAC LINETYPE
 72
      65
 73
       4
 40
17.00559518
 49
7.97137274
 74
       0
 49
-3.98568637
 74
       0
 49
1.0628497
 74
       0
 49
-3.98568637
 74
       0
  0
LTYPE
  5
29
100
AcDbSymbolTableRecord
100
AcDbLinetypeTableRecord
  2
DASHDOTX2
 70
      64
  3
CADPAC LINETYPE
 72
      65
 73
       4
 40
26.57124247
 49
13.28562124
 74
       0
 49
-6.64281062
 74
       0
 49
0.0
 74
       0
 49
-6.64281062
 74
       0
  0
LTYPE
  5
2A
100
AcDbSymbolTableRecord
100
AcDbLinetypeTableRecord
  2
DASHDOT
 70
      64
  3
CADPAC LINETYPE
 72
      65
 73
       4
 40
21.25699398
 49
10.62849699
 74
       0
 49
-5.31424849
 74
       0
 49
0.0
 74
       0
 49
-5.31424849
 74
       0
  0
LTYPE
  5
2B
100
AcDbSymbolTableRecord
100
AcDbLinetypeTableRecord
  2
DASHDOT2
 70
      64
  3
CADPAC LINETYPE
 72
      65
 73
       4
 40
15.94274548
 49
7.97137274
 74
       0
 49
-3.98568637
 74
       0
 49
0.0
 74
       0
 49
-3.98568637
 74
       0
  0
LTYPE
  5
2C
100
AcDbSymbolTableRecord
100
AcDbLinetypeTableRecord
  2
DIVIDEX2
 70
      64
  3
CADPAC LINETYPE
 72
      65
 73
       6
 40
33.21405309
 49
13.28562124
 74
       0
 49
-6.64281062
 74
       0
 49
0.0
 74
       0
 49
-6.64281062
 74
       0
 49
0.0
 74
       0
 49
-6.64281062
 74
       0
  0
LTYPE
  5
2D
100
AcDbSymbolTableRecord
100
AcDbLinetypeTableRecord
  2
DIVIDE
 70
      64
  3
CADPAC LINETYPE
 72
      65
 73
       6
 40
26.57124247
 49
10.62849699
 74
       0
 49
-5.31424849
 74
       0
 49
0.0
 74
       0
 49
-5.31424849
 74
       0
 49
0.0
 74
       0
 49
-5.31424849
 74
       0
  0
LTYPE
  5
2E
100
AcDbSymbolTableRecord
100
AcDbLinetypeTableRecord
  2
DIVIDE2
 70
      64
  3
CADPAC LINETYPE
 72
      65
 73
       6
 40
19.92843185
 49
7.97137274
 74
       0
 49
-3.98568637
 74
       0
 49
0.0
 74
       0
 49
-3.98568637
 74
       0
 49
0.0
 74
       0
 49
-3.98568637
 74
       0
  0
LTYPE
  5
2F
100
AcDbSymbolTableRecord
100
AcDbLinetypeTableRecord
  2
BORDERX2
 70
      64
  3
CADPAC LINETYPE
 72
      65
 73
       6
 40
46.49967433
 49
13.28562124
 74
       0
 49
-6.64281062
 74
       0
 49
13.28562124
 74
       0
 49
-6.64281062
 74
       0
 49
0.0
 74
       0
 49
-6.64281062
 74
       0
  0
LTYPE
  5
30
100
AcDbSymbolTableRecord
100
AcDbLinetypeTableRecord
  2
BORDER
 70
      64
  3
CADPAC LINETYPE
 72
      65
 73
       6
 40
37.19973946
 49
10.62849699
 74
       0
 49
-5.31424849
 74
       0
 49
10.62849699
 74
       0
 49
-5.31424849
 74
       0
 49
0.0
 74
       0
 49
-5.31424849
 74
       0
  0
LTYPE
  5
31
100
AcDbSymbolTableRecord
100
AcDbLinetypeTableRecord
  2
BORDER2
 70
      64
  3
CADPAC LINETYPE
 72
      65
 73
       6
 40
27.8998046
 49
7.97137274
 74
       0
 49
-3.98568637
 74
       0
 49
7.97137274
 74
       0
 49
-3.98568637
 74
       0
 49
0.0
 74
       0
 49
-3.98568637
 74
       0
  0
LTYPE
  5
32
100
AcDbSymbolTableRecord
100
AcDbLinetypeTableRecord
  2
PHANTOMX2
 70
      64
  3
CADPAC LINETYPE
 72
      65
 73
       6
 40
39.85686371
 49
13.28562124
 74
       0
 49
-5.31424849
 74
       0
 49
5.31424849
 74
       0
 49
-5.31424849
 74
       0
 49
5.31424849
 74
       0
 49
-5.31424849
 74
       0
  0
LTYPE
  5
33
100
AcDbSymbolTableRecord
100
AcDbLinetypeTableRecord
  2
PHANTOM
 70
      64
  3
CADPAC LINETYPE
 72
      65
 73
       6
 40
32.94834067
 49
10.62849699
 74
       0
 49
-5.31424849
 74
       0
 49
3.1885491
 74
       0
 49
-5.31424849
 74
       0
 49
3.1885491
 74
       0
 49
-5.31424849
 74
       0
  0
LTYPE
  5
34
100
AcDbSymbolTableRecord
100
AcDbLinetypeTableRecord
  2
PHANTOM2
 70
      64
  3
CADPAC LINETYPE
 72
      65
 73
       6
 40
28.16551702
 49
7.97137274
 74
       0
 49
-5.31424849
 74
       0
 49
2.1256994
 74
       0
 49
-5.31424849
 74
       0
 49
2.1256994
 74
       0
 49
-5.31424849
 74
       0
  0
LTYPE
  5
35
100
AcDbSymbolTableRecord
100
AcDbLinetypeTableRecord
  2
ACAD_ISO06W100
 70
      64
  3
CADPAC LINETYPE
 72
      65
 73
       8
 40
35.87117734
 49
13.28562124
 74
       0
 49
-6.64281062
 74
       0
 49
0.0
 74
       0
 49
-5.31424849
 74
       0
 49
0.0
 74
       0
 49
-5.31424849
 74
       0
 49
0.0
 74
       0
 49
-5.31424849
 74
       0
  0
LTYPE
  5
36
100
AcDbSymbolTableRecord
100
AcDbLinetypeTableRecord
  2
ACAD_ISO13W100
 70
      64
  3
CADPAC LINETYPE
 72
      65
 73
       8
 40
42.51398796
 49
10.62849699
 74
       0
 49
-5.31424849
 74
       0
 49
10.62849699
 74
       0
 49
-5.31424849
 74
       0
 49
0.0
 74
       0
 49
-5.31424849
 74
       0
 49
0.0
 74
       0
 49
-5.31424849
 74
       0
  0
LTYPE
  5
37
100
AcDbSymbolTableRecord
100
AcDbLinetypeTableRecord
  2
ACAD_ISO14W100
 70
      64
  3
CADPAC LINETYPE
 72
      65
 73
       8
 40
31.88549097
 49
10.62849699
 74
       0
 49
-5.31424849
 74
       0
 49
0.0
 74
       0
 49
-5.31424849
 74
       0
 49
0.0
 74
       0
 49
-5.31424849
 74
       0
 49
0.0
 74
       0
 49
-5.31424849
 74
       0
  0
ENDTAB
  0
TABLE
  2
LAYER
  5
2
100
AcDbSymbolTable
 70
       3
  0
LAYER
  5
14
100
AcDbSymbolTableRecord
100
AcDbLayerTableRecord
  2
0
 70
       0
 62
       7
  6
CONTINUOUS
  0
LAYER
  5
38
100
AcDbSymbolTableRecord
100
AcDbLayerTableRecord
  2
SLD-0_0
 70
       0
 62
       7
  6
CONTINUOUS
  0
LAYER
  5
39
100
AcDbSymbolTableRecord
100
AcDbLayerTableRecord
  2
SLD-0
 70
       0
 62
       7
  6
CONTINUOUS
  0
ENDTAB
  0
TABLE
  2
STYLE
  5
3
100
AcDbSymbolTable
 70
       1
  0
STYLE
  5
17
100
AcDbSymbolTableRecord
100
AcDbTextStyleTableRecord
  2
STANDARD
 70
       0
 40
0.0
 41
1.0
 50
0.0
 71
       0
 42
5.0
  3
txt.shx
  4
bigfont.shx
  0
ENDTAB
  0
TABLE
  2
VIEW
  5
5
100
AcDbSymbolTable
 70
       1
  0
VIEW
  5
3A
100
AcDbSymbolTableRecord
100
AcDbViewTableRecord
  2
QQQQ
 70
       0
 40
156.80878744
 10
106.86878573
 20
-70.95420246
 41
236.18001646
 11
0.0
 21
0.0
 31
1.0
 12
100.0
 22
100.0
 32
0.0
 42
50.0
 43
0.0
 44
0.0
 50
0.0
 71
       0
  0
ENDTAB
  0
TABLE
  2
UCS
  5
6
100
AcDbSymbolTable
 70
       0
  0
ENDTAB
  0
TABLE
  2
APPID
  5
8
100
AcDbSymbolTable
 70
       1
  0
APPID
  5
16
100
AcDbSymbolTableRecord
100
AcDbRegAppTableRecord
  2
ACAD
 70
       0
  0
ENDTAB
  0
TABLE
  2
DIMSTYLE
  5
9
100
AcDbSymbolTable
 70
       1
  0
DIMSTYLE
105
18
100
AcDbSymbolTableRecord
100
AcDbDimStyleTableRecord
  2
STANDARD
 70
       0
  3

  4

  5

  6

  7

 40
1.0
 41
0.18
 42
0.0625
 43
0.38
 44
0.18
 45
0.0
 46
0.0
 47
0.0
 48
0.0
 71
       0
 72
       0
 73
       1
 74
       1
 75
       0
 76
       0
 77
       0
 78
       0
140
0.18
141
0.09
142
0.0
143
25.4
144
1.0
145
0.0
146
1.0
147
0.09
170
       0
171
       2
172
       0
173
       0
174
       0
175
       0
176
       0
177
       0
178
       0
270
       2
271
       4
272
       4
273
       2
274
       2
275
       0
280
       0
281
       0
282
       0
283
       1
284
       0
285
       0
286
       0
287
       0
288
       0
340
17
  0
ENDTAB
  0
TABLE
  2
BLOCK_RECORD
  5
1
100
AcDbSymbolTable
 70
       0
  0
BLOCK_RECORD
  5
A
100
AcDbSymbolTableRecord
100
AcDbBlockTableRecord
  2
*MODEL_SPACE
  0
BLOCK_RECORD
  5
B
100
AcDbSymbolTableRecord
100
AcDbBlockTableRecord
  2
*PAPER_SPACE
  0
ENDTAB
  0
ENDSEC
  0
SECTION
  2
BLOCKS
  0
BLOCK
  5
D
100
AcDbEntity
  8
0
100
AcDbBlockBegin
  2
*MODEL_SPACE
 70
       0
 10
0.0
 20
0.0
 30
0.0
  3
*MODEL_SPACE
  1

  0
ENDBLK
  5
E
100
AcDbEntity
  8
0
100
AcDbBlockEnd
  0
BLOCK
  5
F
100
AcDbEntity
 67
       1
  8
0
100
AcDbBlockBegin
  2
*PAPER_SPACE
 70
       0
 10
0.0
 20
0.0
 30
0.0
  3
*PAPER_SPACE
  1

  0
ENDBLK
  5
10
100
AcDbEntity
 67
       1
  8
0
100
AcDbBlockEnd
  0
ENDSEC
  0
SECTION
  2
ENTITIES
  0
LINE
  5
3B
100
AcDbEntity
  8
SLD-0
  6
CONTINUOUS
 62
       3
100
AcDbLine
 10
34.90947593
 20
-17.23627199
 30
0.0
 11
34.90947593
 21
-107.23627199
 31
0.0
  0
LINE
  5
3C
100
AcDbEntity
  8
SLD-0
  6
CONTINUOUS
 62
       3
100
AcDbLine
 10
52.90947593
 20
-17.23627199
 30
0.0
 11
52.90947593
 21
-107.23627199
 31
0.0
  0
LINE
  5
3D
100
AcDbEntity
  8
SLD-0
  6
CONTINUOUS
 62
       3
100
AcDbLine
 10
52.90947593
 20
-17.23627199
 30
0.0
 11
34.90947593
 21
-17.23627199
 31
0.0
  0
LINE
  5
3E
100
AcDbEntity
  8
SLD-0
  6
CONTINUOUS
 62
       3
100
AcDbLine
 10
52.90947593
 20
-107.23627199
 30
0.0
 11
34.90947593
 21
-107.23627199
 31
0.0
  0
LINE
  5
3F
100
AcDbEntity
  8
SLD-0
  6
CONTINUOUS
 62
       3
100
AcDbLine
 10
46.90947588
 20
-11.63627199
 30
0.0
 11
40.90947513
 21
-11.63627199
 31
0.0
  0
LINE
  5
40
100
AcDbEntity
  8
SLD-0
  6
CONTINUOUS
 62
       3
100
AcDbLine
 10
46.90947588
 20
-11.63627199
 30
0.0
 11
46.90947588
 21
-17.23627199
 31
0.0
  0
LINE
  5
41
100
AcDbEntity
  8
SLD-0
  6
CONTINUOUS
 62
       3
100
AcDbLine
 10
40.90947513
 20
-17.23627199
 30
0.0
 11
40.90947513
 21
-11.63627199
 31
0.0
  0
LINE
  5
42
100
AcDbEntity
  8
SLD-0
  6
CONTINUOUS
 62
       3
100
AcDbLine
 10
34.90947593
 20
-104.90330559
 30
0.0
 11
52.90947593
 21
-104.90330559
 31
0.0
  0
LINE
  5
43
100
AcDbEntity
  8
SLD-0
  6
CONTINUOUS
 62
       3
100
AcDbLine
 10
52.90947593
 20
-19.23627209
 30
0.0
 11
34.90947593
 21
-19.23627209
 31
0.0
  0
LINE
  5
44
100
AcDbEntity
  8
SLD-0
  6
CONTINUOUS
 62
       3
100
AcDbLine
 10
52.90947593
 20
-64.3241388
 30
0.0
 11
34.90947593
 21
-64.3241388
 31
0.0
  0
LINE
  5
45
100
AcDbEntity
  8
SLD-0
  6
CONTINUOUS
 62
       3
100
AcDbLine
 10
34.90947593
 20
-64.1120096
 30
0.0
 11
34.90947593
 21
-64.3241388
 31
0.0
  0
LINE
  5
46
100
AcDbEntity
  8
SLD-0
  6
CONTINUOUS
 62
       3
100
AcDbLine
 10
52.90947593
 20
-64.1120096
 30
0.0
 11
52.90947593
 21
-64.3241388
 31
0.0
  0
LINE
  5
47
100
AcDbEntity
  8
SLD-0
  6
CONTINUOUS
 62
       3
100
AcDbLine
 10
206.41204718
 20
-22.236272
 30
0.0
 11
213.51239834
 21
-22.236272
 31
0.0
  0
LINE
  5
48
100
AcDbEntity
  8
SLD-0
  6
CONTINUOUS
 62
       3
100
AcDbLine
 10
211.31397954
 20
-20.23627055
 30
0.0
 11
206.41204885
 21
-20.23627055
 31
0.0
  0
LINE
  5
49
100
AcDbEntity
  8
SLD-0
  6
CONTINUOUS
 62
       3
100
AcDbLine
 10
211.31397954
 20
-19.77967568
 30
0.0
 11
211.31397954
 21
-20.23627055
 31
0.0
  0
LINE
  5
4A
100
AcDbEntity
  8
SLD-0
  6
CONTINUOUS
 62
       3
100
AcDbLine
 10
213.73757145
 20
-21.73806545
 30
0.0
 11
211.83913371
 21
-19.58145881
 31
0.0
  0
LINE
  5
4B
100
AcDbEntity
  8
SLD-0
  6
CONTINUOUS
 62
       3
100
AcDbLine
 10
187.06400696
 20
-13.37878278
 30
0.0
 11
189.26499042
 21
-17.19100012
 31
0.0
  0
LINE
  5
4C
100
AcDbEntity
  8
SLD-0
  6
CONTINUOUS
 62
       3
100
AcDbLine
 10
189.26499042
 20
-17.19100012
 30
0.0
 11
189.24231831
 21
-17.23027102
 31
0.0
  0
LINE
  5
4D
100
AcDbEntity
  8
SLD-0
  6
CONTINUOUS
 62
       3
100
AcDbLine
 10
186.78705025
 20
-12.68963853
 30
0.0
 11
187.14369092
 21
-13.30735593
 31
0.0
  0
LINE
  5
4E
100
AcDbEntity
  8
SLD-0
  6
CONTINUOUS
 62
       3
100
AcDbLine
 10
187.06400696
 20
-13.37878278
 30
0.0
 11
187.14369092
 21
-13.30735593
 31
0.0
  0
LINE
  5
4F
100
AcDbEntity
  8
SLD-0
  6
CONTINUOUS
 62
       3
100
AcDbLine
 10
184.11204967
 20
-17.23627199
 30
0.0
 11
184.11204967
 21
-17.13678441
 31
0.0
  0
LINE
  5
50
100
AcDbEntity
  8
SLD-0
  6
CONTINUOUS
 62
       3
100
AcDbLine
 10
182.88993466
 20
-14.93963611
 30
0.0
 11
184.07186124
 21
-16.98679011
 31
0.0
  0
LINE
  5
51
100
AcDbEntity
  8
SLD-0
  6
CONTINUOUS
 62
       3
100
AcDbLine
 10
185.48801172
 20
-13.43963726
 30
0.0
 11
187.67999861
 21
-17.23627199
 31
0.0
  0
LINE
  5
52
100
AcDbEntity
  8
SLD-0
  6
CONTINUOUS
 62
       3
100
AcDbLine
 10
185.61205063
 20
-17.23627199
 30
0.0
 11
185.61205063
 21
-16.73485909
 31
0.0
  0
LINE
  5
53
100
AcDbEntity
  8
SLD-0
  6
CONTINUOUS
 62
       3
100
AcDbLine
 10
185.57186053
 20
-16.58486763
 30
0.0
 11
184.18897319
 21
-14.18963738
 31
0.0
  0
LINE
  5
54
100
AcDbEntity
  8
SLD-0
  6
CONTINUOUS
 62
       3
100
AcDbLine
 10
197.01172415
 20
-15.22989653
 30
0.0
 11
197.75013629
 21
-14.98615195
 31
0.0
  0
LINE
  5
55
100
AcDbEntity
  8
SLD-0
  6
CONTINUOUS
 62
       3
100
AcDbLine
 10
196.62593308
 20
-14.55473842
 30
0.0
 11
197.01172415
 21
-15.22989653
 31
0.0
  0
LINE
  5
56
100
AcDbEntity
  8
SLD-0
  6
CONTINUOUS
 62
       3
100
AcDbLine
 10
199.16332516
 20
-16.18759171
 30
0.0
 11
199.92318008
 21
-16.0223674
 31
0.0
  0
LINE
  5
57
100
AcDbEntity
  8
SLD-0
  6
CONTINUOUS
 62
       3
100
AcDbLine
 10
198.85022196
 20
-15.47580585
 30
0.0
 11
199.16332516
 21
-16.18759171
 31
0.0
  0
LINE
  5
58
100
AcDbEntity
  8
SLD-0
  6
CONTINUOUS
 62
       3
100
AcDbLine
 10
198.10006026
 20
-15.6805733
 30
0.0
 11
198.85022196
 21
-15.47580585
 31
0.0
  0
LINE
  5
59
100
AcDbEntity
  8
SLD-0
  6
CONTINUOUS
 62
       3
100
AcDbLine
 10
197.75013629
 20
-14.98615195
 30
0.0
 11
198.10006026
 21
-15.6805733
 31
0.0
  0
LINE
  5
5A
100
AcDbEntity
  8
SLD-0
  6
CONTINUOUS
 62
       3
100
AcDbLine
 10
194.7717965
 20
-14.50235176
 30
0.0
 11
195.48069689
 21
-14.18275607
 31
0.0
  0
LINE
  5
5B
100
AcDbEntity
  8
SLD-0
  6
CONTINUOUS
 62
       3
100
AcDbLine
 10
194.3175495
 20
-13.8712182
 30
0.0
 11
194.7717965
 21
-14.50235176
 31
0.0
  0
LINE
  5
5C
100
AcDbEntity
  8
SLD-0
  6
CONTINUOUS
 62
       3
100
AcDbLine
 10
195.90128961
 20
-14.83679691
 30
0.0
 11
196.62593308
 21
-14.55473842
 31
0.0
  0
LINE
  5
5D
100
AcDbEntity
  8
SLD-0
  6
CONTINUOUS
 62
       3
100
AcDbLine
 10
195.48069689
 20
-14.18275607
 30
0.0
 11
195.90128961
 21
-14.83679691
 31
0.0
  0
LINE
  5
5E
100
AcDbEntity
  8
SLD-0
  6
CONTINUOUS
 62
       3
100
AcDbLine
 10
190.12585286
 20
-13.76698853
 30
0.0
 11
190.75281176
 21
-13.30698899
 31
0.0
  0
LINE
  5
5F
100
AcDbEntity
  8
SLD-0
  6
CONTINUOUS
 62
       3
100
AcDbLine
 10
189.55031413
 20
-13.24409072
 30
0.0
 11
190.12585286
 21
-13.76698853
 31
0.0
  0
LINE
  5
60
100
AcDbEntity
  8
SLD-0
  6
CONTINUOUS
 62
       3
100
AcDbLine
 10
193.62635169
 20
-14.22747772
 30
0.0
 11
194.3175495
 21
-13.8712182
 31
0.0
  0
LINE
  5
61
100
AcDbEntity
  8
SLD-0
  6
CONTINUOUS
 62
       3
100
AcDbLine
 10
193.13970211
 20
-13.62098369
 30
0.0
 11
193.62635169
 21
-14.22747772
 31
0.0
  0
LINE
  5
62
100
AcDbEntity
  8
SLD-0
  6
CONTINUOUS
 62
       3
100
AcDbLine
 10
192.4680956
 20
-14.01292824
 30
0.0
 11
193.13970211
 21
-13.62098369
 31
0.0
  0
LINE
  5
63
100
AcDbEntity
  8
SLD-0
  6
CONTINUOUS
 62
       3
100
AcDbLine
 10
191.95036593
 20
-13.43273476
 30
0.0
 11
192.4680956
 21
-14.01292824
 31
0.0
  0
LINE
  5
64
100
AcDbEntity
  8
SLD-0
  6
CONTINUOUS
 62
       3
100
AcDbLine
 10
188.94829232
 20
-13.73627212
 30
0.0
 11
189.55031413
 21
-13.24409072
 31
0.0
  0
LINE
  5
65
100
AcDbEntity
  8
SLD-0
  6
CONTINUOUS
 62
       3
100
AcDbLine
 10
188.34617365
 20
-13.24421272
 30
0.0
 11
188.94829232
 21
-13.73627212
 31
0.0
  0
LINE
  5
66
100
AcDbEntity
  8
SLD-0
  6
CONTINUOUS
 62
       3
100
AcDbLine
 10
191.30019474
 20
-13.85929145
 30
0.0
 11
191.95036593
 21
-13.43273476
 31
0.0
  0
LINE
  5
67
100
AcDbEntity
  8
SLD-0
  6
CONTINUOUS
 62
       3
100
AcDbLine
 10
190.75281176
 20
-13.30698899
 30
0.0
 11
191.30019474
 21
-13.85929145
 31
0.0
  0
LINE
  5
68
100
AcDbEntity
  8
SLD-0
  6
CONTINUOUS
 62
       3
100
AcDbLine
 10
187.77073551
 20
-13.76722672
 30
0.0
 11
188.34617365
 21
-13.24421272
 31
0.0
  0
LINE
  5
69
100
AcDbEntity
  8
SLD-0
  6
CONTINUOUS
 62
       3
100
AcDbLine
 10
187.14369092
 20
-13.30735593
 30
0.0
 11
187.77073551
 21
-13.76722672
 31
0.0
  0
LINE
  5
6A
100
AcDbEntity
  8
SLD-0
  6
CONTINUOUS
 62
       3
100
AcDbLine
 10
199.92318008
 20
-16.0223674
 30
0.0
 11
200.19859824
 21
-16.74956214
 31
0.0
  0
LINE
  5
6B
100
AcDbEntity
  8
SLD-0
  6
CONTINUOUS
 62
       3
100
AcDbLine
 10
200.96605274
 20
-16.62433229
 30
0.0
 11
201.16186145
 21
-17.23627196
 31
0.0
  0
LINE
  5
6C
100
AcDbEntity
  8
SLD-0
  6
CONTINUOUS
 62
       3
100
AcDbLine
 10
200.19859824
 20
-16.74956214
 30
0.0
 11
200.96605274
 21
-16.62433229
 31
0.0
  0
LINE
  5
6D
100
AcDbEntity
  8
SLD-0
  6
CONTINUOUS
 62
       3
100
AcDbLine
 10
116.49991786
 20
-64.32413893
 30
0.0
 11
126.41205072
 21
-74.23627253
 31
0.0
  0
LINE
  5
6E
100
AcDbEntity
  8
SLD-0
  6
CONTINUOUS
 62
       3
100
AcDbLine
 10
116.41205072
 20
-19.23627201
 30
0.0
 11
116.41205072
 21
-64.11200784
 31
0.0
  0
LINE
  5
6F
100
AcDbEntity
  8
SLD-0
  6
CONTINUOUS
 62
       3
100
AcDbLine
 10
129.91205069
 20
-107.23627557
 30
0.0
 11
129.91205069
 21
-17.23627199
 31
0.0
  0
LINE
  5
70
100
AcDbEntity
  8
SLD-0
  6
CONTINUOUS
 62
       3
100
AcDbLine
 10
127.91204756
 20
-107.2362722
 30
0.0
 11
196.31204757
 21
-107.23641625
 31
0.0
  0
LINE
  5
71
100
AcDbEntity
  8
SLD-0
  6
CONTINUOUS
 62
       3
100
AcDbLine
 10
196.31204757
 20
-107.23641625
 30
0.0
 11
196.31205064
 21
-101.23627199
 31
0.0
  0
LINE
  5
72
100
AcDbEntity
  8
SLD-0
  6
CONTINUOUS
 62
       3
100
AcDbLine
 10
206.41205064
 20
-88.48440938
 30
0.0
 11
206.41204718
 21
-26.63627186
 31
0.0
  0
LINE
  5
73
100
AcDbEntity
  8
SLD-0
  6
CONTINUOUS
 62
       3
100
AcDbLine
 10
206.41204828
 20
-101.23627086
 30
0.0
 11
196.31205064
 21
-101.23627199
 31
0.0
  0
LINE
  5
74
100
AcDbEntity
  8
SLD-0
  6
CONTINUOUS
 62
       3
100
AcDbLine
 10
196.39821375
 20
-99.73627527
 30
0.0
 11
207.91205043
 21
-99.73627527
 31
0.0
  0
LINE
  5
75
100
AcDbEntity
  8
SLD-0
  6
CONTINUOUS
 62
       3
100
AcDbLine
 10
207.91205043
 20
-99.73627527
 30
0.0
 11
207.91205043
 21
-101.23627086
 31
0.0
  0
LINE
  5
76
100
AcDbEntity
  8
SLD-0
  6
CONTINUOUS
 62
       3
100
AcDbLine
 10
210.91205085
 20
-101.23627199
 30
0.0
 11
210.91204906
 21
-95.85759242
 31
0.0
  0
LINE
  5
77
100
AcDbEntity
  8
SLD-0
  6
CONTINUOUS
 62
       3
100
AcDbLine
 10
210.91204906
 20
-95.85759242
 30
0.0
 11
204.25046259
 21
-89.19600596
 31
0.0
  0
LINE
  5
78
100
AcDbEntity
  8
SLD-0
  6
CONTINUOUS
 62
       3
100
AcDbLine
 10
205.81545049
 20
-88.6396711
 30
0.0
 11
212.41205299
 21
-95.2362736
 31
0.0
  0
LINE
  5
79
100
AcDbEntity
  8
SLD-0
  6
CONTINUOUS
 62
       3
100
AcDbLine
 10
212.41205299
 20
-95.2362736
 30
0.0
 11
212.41205299
 21
-101.23627086
 31
0.0
  0
LINE
  5
7A
100
AcDbEntity
  8
SLD-0
  6
CONTINUOUS
 62
       3
100
AcDbLine
 10
206.41204718
 20
-26.03627194
 30
0.0
 11
206.41204718
 21
-26.63627186
 31
0.0
  0
LINE
  5
7B
100
AcDbEntity
  8
SLD-0
  6
CONTINUOUS
 62
       3
100
AcDbLine
 10
118.41205064
 20
-17.23627199
 30
0.0
 11
206.41204718
 21
-17.23627199
 31
0.0
  0
LINE
  5
7C
100
AcDbEntity
  8
SLD-0
  6
CONTINUOUS
 62
       3
100
AcDbLine
 10
206.41204718
 20
-17.23627199
 30
0.0
 11
206.41204718
 21
-26.03627194
 31
0.0
  0
LINE
  5
7D
100
AcDbEntity
  8
SLD-0
  6
CONTINUOUS
 62
       3
100
AcDbLine
 10
195.71205232
 20
-106.53627117
 30
0.0
 11
195.61205063
 21
-106.53627117
 31
0.0
  0
LINE
  5
7E
100
AcDbEntity
  8
SLD-0
  6
CONTINUOUS
 62
       3
100
AcDbLine
 10
130.91205064
 20
-107.23627557
 30
0.0
 11
130.91205064
 21
-17.23627199
 31
0.0
  0
LINE
  5
7F
100
AcDbEntity
  8
SLD-0
  6
CONTINUOUS
 62
       3
100
AcDbLine
 10
211.61392501
 20
-19.47965896
 30
0.0
 11
211.60344244
 21
-19.48075358
 31
0.0
  0
LINE
  5
80
100
AcDbEntity
  8
SLD-0
  6
CONTINUOUS
 62
       3
100
AcDbLine
 10
211.60344244
 20
-19.48075358
 30
0.0
 11
211.59297236
 21
-19.48189224
 31
0.0
  0
LINE
  5
81
100
AcDbEntity
  8
SLD-0
  6
CONTINUOUS
 62
       3
100
AcDbLine
 10
211.59297236
 20
-19.48189224
 30
0.0
 11
211.58252729
 21
-19.48311898
 31
0.0
  0
LINE
  5
82
100
AcDbEntity
  8
SLD-0
  6
CONTINUOUS
 62
       3
100
AcDbLine
 10
211.58252729
 20
-19.48311898
 30
0.0
 11
211.57211973
 21
-19.48447785
 31
0.0
  0
LINE
  5
83
100
AcDbEntity
  8
SLD-0
  6
CONTINUOUS
 62
       3
100
AcDbLine
 10
211.57211973
 20
-19.48447785
 30
0.0
 11
211.56176217
 21
-19.48601287
 31
0.0
  0
LINE
  5
84
100
AcDbEntity
  8
SLD-0
  6
CONTINUOUS
 62
       3
100
AcDbLine
 10
211.56176217
 20
-19.48601287
 30
0.0
 11
211.55146712
 21
-19.48776809
 31
0.0
  0
LINE
  5
85
100
AcDbEntity
  8
SLD-0
  6
CONTINUOUS
 62
       3
100
AcDbLine
 10
211.55146712
 20
-19.48776809
 30
0.0
 11
211.54124708
 21
-19.48978756
 31
0.0
  0
LINE
  5
86
100
AcDbEntity
  8
SLD-0
  6
CONTINUOUS
 62
       3
100
AcDbLine
 10
211.54124708
 20
-19.48978756
 30
0.0
 11
211.53111456
 21
-19.49211531
 31
0.0
  0
LINE
  5
87
100
AcDbEntity
  8
SLD-0
  6
CONTINUOUS
 62
       3
100
AcDbLine
 10
211.53111456
 20
-19.49211531
 30
0.0
 11
211.52108205
 21
-19.49479538
 31
0.0
  0
LINE
  5
88
100
AcDbEntity
  8
SLD-0
  6
CONTINUOUS
 62
       3
100
AcDbLine
 10
211.52108205
 20
-19.49479538
 30
0.0
 11
211.51116205
 21
-19.49787181
 31
0.0
  0
LINE
  5
89
100
AcDbEntity
  8
SLD-0
  6
CONTINUOUS
 62
       3
100
AcDbLine
 10
211.51116205
 20
-19.49787181
 30
0.0
 11
211.501367
 21
-19.501383
 31
0.0
  0
LINE
  5
8A
100
AcDbEntity
  8
SLD-0
  6
CONTINUOUS
 62
       3
100
AcDbLine
 10
211.501367
 20
-19.501383
 30
0.0
 11
211.4917088
 21
-19.50532687
 31
0.0
  0
LINE
  5
8B
100
AcDbEntity
  8
SLD-0
  6
CONTINUOUS
 62
       3
100
AcDbLine
 10
211.4917088
 20
-19.50532687
 30
0.0
 11
211.48219912
 21
-19.50968371
 31
0.0
  0
LINE
  5
8C
100
AcDbEntity
  8
SLD-0
  6
CONTINUOUS
 62
       3
100
AcDbLine
 10
211.48219912
 20
-19.50968371
 30
0.0
 11
211.47284962
 21
-19.51443373
 31
0.0
  0
LINE
  5
8D
100
AcDbEntity
  8
SLD-0
  6
CONTINUOUS
 62
       3
100
AcDbLine
 10
211.47284962
 20
-19.51443373
 30
0.0
 11
211.46367199
 21
-19.51955715
 31
0.0
  0
LINE
  5
8E
100
AcDbEntity
  8
SLD-0
  6
CONTINUOUS
 62
       3
100
AcDbLine
 10
211.46367199
 20
-19.51955715
 30
0.0
 11
211.45467789
 21
-19.52503418
 31
0.0
  0
LINE
  5
8F
100
AcDbEntity
  8
SLD-0
  6
CONTINUOUS
 62
       3
100
AcDbLine
 10
211.45467789
 20
-19.52503418
 30
0.0
 11
211.445879
 21
-19.53084503
 31
0.0
  0
LINE
  5
90
100
AcDbEntity
  8
SLD-0
  6
CONTINUOUS
 62
       3
100
AcDbLine
 10
211.445879
 20
-19.53084503
 30
0.0
 11
211.43728698
 21
-19.53696992
 31
0.0
  0
LINE
  5
91
100
AcDbEntity
  8
SLD-0
  6
CONTINUOUS
 62
       3
100
AcDbLine
 10
211.43728698
 20
-19.53696992
 30
0.0
 11
211.42891351
 21
-19.54338907
 31
0.0
  0
LINE
  5
92
100
AcDbEntity
  8
SLD-0
  6
CONTINUOUS
 62
       3
100
AcDbLine
 10
211.42891351
 20
-19.54338907
 30
0.0
 11
211.42077025
 21
-19.55008267
 31
0.0
  0
LINE
  5
93
100
AcDbEntity
  8
SLD-0
  6
CONTINUOUS
 62
       3
100
AcDbLine
 10
211.42077025
 20
-19.55008267
 30
0.0
 11
211.41286888
 21
-19.55703096
 31
0.0
  0
LINE
  5
94
100
AcDbEntity
  8
SLD-0
  6
CONTINUOUS
 62
       3
100
AcDbLine
 10
211.41286888
 20
-19.55703096
 30
0.0
 11
211.40522055
 21
-19.56421666
 31
0.0
  0
LINE
  5
95
100
AcDbEntity
  8
SLD-0
  6
CONTINUOUS
 62
       3
100
AcDbLine
 10
211.40522055
 20
-19.56421666
 30
0.0
 11
211.39783379
 21
-19.5716348
 31
0.0
  0
LINE
  5
96
100
AcDbEntity
  8
SLD-0
  6
CONTINUOUS
 62
       3
100
AcDbLine
 10
211.39783379
 20
-19.5716348
 30
0.0
 11
211.39071638
 21
-19.57928415
 31
0.0
  0
LINE
  5
97
100
AcDbEntity
  8
SLD-0
  6
CONTINUOUS
 62
       3
100
AcDbLine
 10
211.39071638
 20
-19.57928415
 30
0.0
 11
211.38387608
 21
-19.58716349
 31
0.0
  0
LINE
  5
98
100
AcDbEntity
  8
SLD-0
  6
CONTINUOUS
 62
       3
100
AcDbLine
 10
211.38387608
 20
-19.58716349
 30
0.0
 11
211.37732066
 21
-19.59527159
 31
0.0
  0
LINE
  5
99
100
AcDbEntity
  8
SLD-0
  6
CONTINUOUS
 62
       3
100
AcDbLine
 10
211.37732066
 20
-19.59527159
 30
0.0
 11
211.37105786
 21
-19.60360721
 31
0.0
  0
LINE
  5
9A
100
AcDbEntity
  8
SLD-0
  6
CONTINUOUS
 62
       3
100
AcDbLine
 10
211.37105786
 20
-19.60360721
 30
0.0
 11
211.36509354
 21
-19.61216566
 31
0.0
  0
LINE
  5
9B
100
AcDbEntity
  8
SLD-0
  6
CONTINUOUS
 62
       3
100
AcDbLine
 10
211.36509354
 20
-19.61216566
 30
0.0
 11
211.35942946
 21
-19.62093485
 31
0.0
  0
LINE
  5
9C
100
AcDbEntity
  8
SLD-0
  6
CONTINUOUS
 62
       3
100
AcDbLine
 10
211.35942946
 20
-19.62093485
 30
0.0
 11
211.35406682
 21
-19.62990173
 31
0.0
  0
LINE
  5
9D
100
AcDbEntity
  8
SLD-0
  6
CONTINUOUS
 62
       3
100
AcDbLine
 10
211.35406682
 20
-19.62990173
 30
0.0
 11
211.34900685
 21
-19.63905321
 31
0.0
  0
LINE
  5
9E
100
AcDbEntity
  8
SLD-0
  6
CONTINUOUS
 62
       3
100
AcDbLine
 10
211.34900685
 20
-19.63905321
 30
0.0
 11
211.34425076
 21
-19.64837624
 31
0.0
  0
LINE
  5
9F
100
AcDbEntity
  8
SLD-0
  6
CONTINUOUS
 62
       3
100
AcDbLine
 10
211.34425076
 20
-19.64837624
 30
0.0
 11
211.33979988
 21
-19.65785775
 31
0.0
  0
LINE
  5
A0
100
AcDbEntity
  8
SLD-0
  6
CONTINUOUS
 62
       3
100
AcDbLine
 10
211.33979988
 20
-19.65785775
 30
0.0
 11
211.33566397
 21
-19.66748527
 31
0.0
  0
LINE
  5
A1
100
AcDbEntity
  8
SLD-0
  6
CONTINUOUS
 62
       3
100
AcDbLine
 10
211.33566397
 20
-19.66748527
 30
0.0
 11
211.33186649
 21
-19.67724719
 31
0.0
  0
LINE
  5
A2
100
AcDbEntity
  8
SLD-0
  6
CONTINUOUS
 62
       3
100
AcDbLine
 10
211.33186649
 20
-19.67724719
 30
0.0
 11
211.32843218
 21
-19.68713204
 31
0.0
  0
LINE
  5
A3
100
AcDbEntity
  8
SLD-0
  6
CONTINUOUS
 62
       3
100
AcDbLine
 10
211.32843218
 20
-19.68713204
 30
0.0
 11
211.32538577
 21
-19.69712831
 31
0.0
  0
LINE
  5
A4
100
AcDbEntity
  8
SLD-0
  6
CONTINUOUS
 62
       3
100
AcDbLine
 10
211.32538577
 20
-19.69712831
 30
0.0
 11
211.32275199
 21
-19.70722452
 31
0.0
  0
LINE
  5
A5
100
AcDbEntity
  8
SLD-0
  6
CONTINUOUS
 62
       3
100
AcDbLine
 10
211.32275199
 20
-19.70722452
 30
0.0
 11
211.32055533
 21
-19.71740916
 31
0.0
  0
LINE
  5
A6
100
AcDbEntity
  8
SLD-0
  6
CONTINUOUS
 62
       3
100
AcDbLine
 10
211.32055533
 20
-19.71740916
 30
0.0
 11
211.31878986
 21
-19.72767034
 31
0.0
  0
LINE
  5
A7
100
AcDbEntity
  8
SLD-0
  6
CONTINUOUS
 62
       3
100
AcDbLine
 10
211.31878986
 20
-19.72767034
 30
0.0
 11
211.31738957
 21
-19.73799538
 31
0.0
  0
LINE
  5
A8
100
AcDbEntity
  8
SLD-0
  6
CONTINUOUS
 62
       3
100
AcDbLine
 10
211.31738957
 20
-19.73799538
 30
0.0
 11
211.31628144
 21
-19.74837151
 31
0.0
  0
LINE
  5
A9
100
AcDbEntity
  8
SLD-0
  6
CONTINUOUS
 62
       3
100
AcDbLine
 10
211.31628144
 20
-19.74837151
 30
0.0
 11
211.31539241
 21
-19.75878596
 31
0.0
  0
LINE
  5
AA
100
AcDbEntity
  8
SLD-0
  6
CONTINUOUS
 62
       3
100
AcDbLine
 10
211.31539241
 20
-19.75878596
 30
0.0
 11
211.31464946
 21
-19.76922595
 31
0.0
  0
LINE
  5
AB
100
AcDbEntity
  8
SLD-0
  6
CONTINUOUS
 62
       3
100
AcDbLine
 10
211.31464946
 20
-19.76922595
 30
0.0
 11
211.31397954
 21
-19.77967568
 31
0.0
  0
LINE
  5
AC
100
AcDbEntity
  8
SLD-0
  6
CONTINUOUS
 62
       3
100
AcDbLine
 10
211.61392501
 20
-19.47965896
 30
0.0
 11
211.62120551
 21
-19.48010908
 31
0.0
  0
LINE
  5
AD
100
AcDbEntity
  8
SLD-0
  6
CONTINUOUS
 62
       3
100
AcDbLine
 10
211.62120551
 20
-19.48010908
 30
0.0
 11
211.62848146
 21
-19.48058464
 31
0.0
  0
LINE
  5
AE
100
AcDbEntity
  8
SLD-0
  6
CONTINUOUS
 62
       3
100
AcDbLine
 10
211.62848146
 20
-19.48058464
 30
0.0
 11
211.63574835
 21
-19.48111109
 31
0.0
  0
LINE
  5
AF
100
AcDbEntity
  8
SLD-0
  6
CONTINUOUS
 62
       3
100
AcDbLine
 10
211.63574835
 20
-19.48111109
 30
0.0
 11
211.64300163
 21
-19.48171388
 31
0.0
  0
LINE
  5
B0
100
AcDbEntity
  8
SLD-0
  6
CONTINUOUS
 62
       3
100
AcDbLine
 10
211.64300163
 20
-19.48171388
 30
0.0
 11
211.65023677
 21
-19.48241846
 31
0.0
  0
LINE
  5
B1
100
AcDbEntity
  8
SLD-0
  6
CONTINUOUS
 62
       3
100
AcDbLine
 10
211.65023677
 20
-19.48241846
 30
0.0
 11
211.65744924
 21
-19.48325027
 31
0.0
  0
LINE
  5
B2
100
AcDbEntity
  8
SLD-0
  6
CONTINUOUS
 62
       3
100
AcDbLine
 10
211.65744924
 20
-19.48325027
 30
0.0
 11
211.6646345
 21
-19.48423476
 31
0.0
  0
LINE
  5
B3
100
AcDbEntity
  8
SLD-0
  6
CONTINUOUS
 62
       3
100
AcDbLine
 10
211.6646345
 20
-19.48423476
 30
0.0
 11
211.67178802
 21
-19.48539737
 31
0.0
  0
LINE
  5
B4
100
AcDbEntity
  8
SLD-0
  6
CONTINUOUS
 62
       3
100
AcDbLine
 10
211.67178802
 20
-19.48539737
 30
0.0
 11
211.67890526
 21
-19.48676347
 31
0.0
  0
LINE
  5
B5
100
AcDbEntity
  8
SLD-0
  6
CONTINUOUS
 62
       3
100
AcDbLine
 10
211.67890526
 20
-19.48676347
 30
0.0
 11
211.68598226
 21
-19.48834742
 31
0.0
  0
LINE
  5
B6
100
AcDbEntity
  8
SLD-0
  6
CONTINUOUS
 62
       3
100
AcDbLine
 10
211.68598226
 20
-19.48834742
 30
0.0
 11
211.69301619
 21
-19.49014228
 31
0.0
  0
LINE
  5
B7
100
AcDbEntity
  8
SLD-0
  6
CONTINUOUS
 62
       3
100
AcDbLine
 10
211.69301619
 20
-19.49014228
 30
0.0
 11
211.70000431
 21
-19.49213866
 31
0.0
  0
LINE
  5
B8
100
AcDbEntity
  8
SLD-0
  6
CONTINUOUS
 62
       3
100
AcDbLine
 10
211.70000431
 20
-19.49213866
 30
0.0
 11
211.7069439
 21
-19.49432717
 31
0.0
  0
LINE
  5
B9
100
AcDbEntity
  8
SLD-0
  6
CONTINUOUS
 62
       3
100
AcDbLine
 10
211.7069439
 20
-19.49432717
 30
0.0
 11
211.71383225
 21
-19.49669841
 31
0.0
  0
LINE
  5
BA
100
AcDbEntity
  8
SLD-0
  6
CONTINUOUS
 62
       3
100
AcDbLine
 10
211.71383225
 20
-19.49669841
 30
0.0
 11
211.72066663
 21
-19.499243
 31
0.0
  0
LINE
  5
BB
100
AcDbEntity
  8
SLD-0
  6
CONTINUOUS
 62
       3
100
AcDbLine
 10
211.72066663
 20
-19.499243
 30
0.0
 11
211.72744431
 21
-19.50195154
 31
0.0
  0
LINE
  5
BC
100
AcDbEntity
  8
SLD-0
  6
CONTINUOUS
 62
       3
100
AcDbLine
 10
211.72744431
 20
-19.50195154
 30
0.0
 11
211.73416259
 21
-19.50481464
 31
0.0
  0
LINE
  5
BD
100
AcDbEntity
  8
SLD-0
  6
CONTINUOUS
 62
       3
100
AcDbLine
 10
211.73416259
 20
-19.50481464
 30
0.0
 11
211.7408186
 21
-19.50782319
 31
0.0
  0
LINE
  5
BE
100
AcDbEntity
  8
SLD-0
  6
CONTINUOUS
 62
       3
100
AcDbLine
 10
211.7408186
 20
-19.50782319
 30
0.0
 11
211.74740656
 21
-19.51097458
 31
0.0
  0
LINE
  5
BF
100
AcDbEntity
  8
SLD-0
  6
CONTINUOUS
 62
       3
100
AcDbLine
 10
211.74740656
 20
-19.51097458
 30
0.0
 11
211.75391776
 21
-19.51427269
 31
0.0
  0
LINE
  5
C0
100
AcDbEntity
  8
SLD-0
  6
CONTINUOUS
 62
       3
100
AcDbLine
 10
211.75391776
 20
-19.51427269
 30
0.0
 11
211.76034333
 21
-19.51772168
 31
0.0
  0
LINE
  5
C1
100
AcDbEntity
  8
SLD-0
  6
CONTINUOUS
 62
       3
100
AcDbLine
 10
211.76034333
 20
-19.51772168
 30
0.0
 11
211.76667443
 21
-19.52132572
 31
0.0
  0
LINE
  5
C2
100
AcDbEntity
  8
SLD-0
  6
CONTINUOUS
 62
       3
100
AcDbLine
 10
211.76667443
 20
-19.52132572
 30
0.0
 11
211.7729022
 21
-19.52508899
 31
0.0
  0
LINE
  5
C3
100
AcDbEntity
  8
SLD-0
  6
CONTINUOUS
 62
       3
100
AcDbLine
 10
211.7729022
 20
-19.52508899
 30
0.0
 11
211.7790178
 21
-19.52901564
 31
0.0
  0
LINE
  5
C4
100
AcDbEntity
  8
SLD-0
  6
CONTINUOUS
 62
       3
100
AcDbLine
 10
211.7790178
 20
-19.52901564
 30
0.0
 11
211.78501238
 21
-19.53310985
 31
0.0
  0
LINE
  5
C5
100
AcDbEntity
  8
SLD-0
  6
CONTINUOUS
 62
       3
100
AcDbLine
 10
211.78501238
 20
-19.53310985
 30
0.0
 11
211.79087707
 21
-19.53737578
 31
0.0
  0
LINE
  5
C6
100
AcDbEntity
  8
SLD-0
  6
CONTINUOUS
 62
       3
100
AcDbLine
 10
211.79087707
 20
-19.53737578
 30
0.0
 11
211.7966048
 21
-19.54181588
 31
0.0
  0
LINE
  5
C7
100
AcDbEntity
  8
SLD-0
  6
CONTINUOUS
 62
       3
100
AcDbLine
 10
211.7966048
 20
-19.54181588
 30
0.0
 11
211.80220372
 21
-19.54641768
 31
0.0
  0
LINE
  5
C8
100
AcDbEntity
  8
SLD-0
  6
CONTINUOUS
 62
       3
100
AcDbLine
 10
211.80220372
 20
-19.54641768
 30
0.0
 11
211.8076899
 21
-19.55116102
 31
0.0
  0
LINE
  5
C9
100
AcDbEntity
  8
SLD-0
  6
CONTINUOUS
 62
       3
100
AcDbLine
 10
211.8076899
 20
-19.55116102
 30
0.0
 11
211.81307943
 21
-19.55602569
 31
0.0
  0
LINE
  5
CA
100
AcDbEntity
  8
SLD-0
  6
CONTINUOUS
 62
       3
100
AcDbLine
 10
211.81307943
 20
-19.55602569
 30
0.0
 11
211.81838842
 21
-19.56099145
 31
0.0
  0
LINE
  5
CB
100
AcDbEntity
  8
SLD-0
  6
CONTINUOUS
 62
       3
100
AcDbLine
 10
211.81838842
 20
-19.56099145
 30
0.0
 11
211.82363298
 21
-19.5660381
 31
0.0
  0
LINE
  5
CC
100
AcDbEntity
  8
SLD-0
  6
CONTINUOUS
 62
       3
100
AcDbLine
 10
211.82363298
 20
-19.5660381
 30
0.0
 11
211.82882922
 21
-19.57114541
 31
0.0
  0
LINE
  5
CD
100
AcDbEntity
  8
SLD-0
  6
CONTINUOUS
 62
       3
100
AcDbLine
 10
211.82882922
 20
-19.57114541
 30
0.0
 11
211.83399325
 21
-19.57629317
 31
0.0
  0
LINE
  5
CE
100
AcDbEntity
  8
SLD-0
  6
CONTINUOUS
 62
       3
100
AcDbLine
 10
211.83399325
 20
-19.57629317
 30
0.0
 11
211.83913371
 21
-19.58145881
 31
0.0
  0
LINE
  5
CF
100
AcDbEntity
  8
SLD-0
  6
CONTINUOUS
 62
       3
100
AcDbLine
 10
184.11204967
 20
-17.13678441
 30
0.0
 11
184.11162426
 21
-17.13046791
 31
0.0
  0
LINE
  5
D0
100
AcDbEntity
  8
SLD-0
  6
CONTINUOUS
 62
       3
100
AcDbLine
 10
184.11162426
 20
-17.13046791
 30
0.0
 11
184.11118368
 21
-17.12415547
 31
0.0
  0
LINE
  5
D1
100
AcDbEntity
  8
SLD-0
  6
CONTINUOUS
 62
       3
100
AcDbLine
 10
184.11118368
 20
-17.12415547
 30
0.0
 11
184.11071278
 21
-17.11785115
 31
0.0
  0
LINE
  5
D2
100
AcDbEntity
  8
SLD-0
  6
CONTINUOUS
 62
       3
100
AcDbLine
 10
184.11071278
 20
-17.11785115
 30
0.0
 11
184.11019638
 21
-17.11155903
 31
0.0
  0
LINE
  5
D3
100
AcDbEntity
  8
SLD-0
  6
CONTINUOUS
 62
       3
100
AcDbLine
 10
184.11019638
 20
-17.11155903
 30
0.0
 11
184.10961934
 21
-17.10528315
 31
0.0
  0
LINE
  5
D4
100
AcDbEntity
  8
SLD-0
  6
CONTINUOUS
 62
       3
100
AcDbLine
 10
184.10961934
 20
-17.10528315
 30
0.0
 11
184.10896647
 21
-17.09902759
 31
0.0
  0
LINE
  5
D5
100
AcDbEntity
  8
SLD-0
  6
CONTINUOUS
 62
       3
100
AcDbLine
 10
184.10896647
 20
-17.09902759
 30
0.0
 11
184.10822262
 21
-17.09279641
 31
0.0
  0
LINE
  5
D6
100
AcDbEntity
  8
SLD-0
  6
CONTINUOUS
 62
       3
100
AcDbLine
 10
184.10822262
 20
-17.09279641
 30
0.0
 11
184.10737263
 21
-17.08659366
 31
0.0
  0
LINE
  5
D7
100
AcDbEntity
  8
SLD-0
  6
CONTINUOUS
 62
       3
100
AcDbLine
 10
184.10737263
 20
-17.08659366
 30
0.0
 11
184.10640133
 21
-17.08042342
 31
0.0
  0
LINE
  5
D8
100
AcDbEntity
  8
SLD-0
  6
CONTINUOUS
 62
       3
100
AcDbLine
 10
184.10640133
 20
-17.08042342
 30
0.0
 11
184.10529356
 21
-17.07428975
 31
0.0
  0
LINE
  5
D9
100
AcDbEntity
  8
SLD-0
  6
CONTINUOUS
 62
       3
100
AcDbLine
 10
184.10529356
 20
-17.07428975
 30
0.0
 11
184.10403416
 21
-17.0681967
 31
0.0
  0
LINE
  5
DA
100
AcDbEntity
  8
SLD-0
  6
CONTINUOUS
 62
       3
100
AcDbLine
 10
184.10403416
 20
-17.0681967
 30
0.0
 11
184.10260795
 21
-17.06214834
 31
0.0
  0
LINE
  5
DB
100
AcDbEntity
  8
SLD-0
  6
CONTINUOUS
 62
       3
100
AcDbLine
 10
184.10260795
 20
-17.06214834
 30
0.0
 11
184.10100042
 21
-17.05614857
 31
0.0
  0
LINE
  5
DC
100
AcDbEntity
  8
SLD-0
  6
CONTINUOUS
 62
       3
100
AcDbLine
 10
184.10100042
 20
-17.05614857
 30
0.0
 11
184.09921155
 21
-17.05019738
 31
0.0
  0
LINE
  5
DD
100
AcDbEntity
  8
SLD-0
  6
CONTINUOUS
 62
       3
100
AcDbLine
 10
184.09921155
 20
-17.05019738
 30
0.0
 11
184.09725589
 21
-17.04429088
 31
0.0
  0
LINE
  5
DE
100
AcDbEntity
  8
SLD-0
  6
CONTINUOUS
 62
       3
100
AcDbLine
 10
184.09725589
 20
-17.04429088
 30
0.0
 11
184.09514859
 21
-17.03842502
 31
0.0
  0
LINE
  5
DF
100
AcDbEntity
  8
SLD-0
  6
CONTINUOUS
 62
       3
100
AcDbLine
 10
184.09514859
 20
-17.03842502
 30
0.0
 11
184.09290481
 21
-17.03259571
 31
0.0
  0
LINE
  5
E0
100
AcDbEntity
  8
SLD-0
  6
CONTINUOUS
 62
       3
100
AcDbLine
 10
184.09290481
 20
-17.03259571
 30
0.0
 11
184.09053973
 21
-17.02679891
 31
0.0
  0
LINE
  5
E1
100
AcDbEntity
  8
SLD-0
  6
CONTINUOUS
 62
       3
100
AcDbLine
 10
184.09053973
 20
-17.02679891
 30
0.0
 11
184.0880685
 21
-17.02103055
 31
0.0
  0
LINE
  5
E2
100
AcDbEntity
  8
SLD-0
  6
CONTINUOUS
 62
       3
100
AcDbLine
 10
184.0880685
 20
-17.02103055
 30
0.0
 11
184.08550629
 21
-17.01528657
 31
0.0
  0
LINE
  5
E3
100
AcDbEntity
  8
SLD-0
  6
CONTINUOUS
 62
       3
100
AcDbLine
 10
184.08550629
 20
-17.01528657
 30
0.0
 11
184.08286826
 21
-17.0095629
 31
0.0
  0
LINE
  5
E4
100
AcDbEntity
  8
SLD-0
  6
CONTINUOUS
 62
       3
100
AcDbLine
 10
184.08286826
 20
-17.0095629
 30
0.0
 11
184.08016958
 21
-17.00385549
 31
0.0
  0
LINE
  5
E5
100
AcDbEntity
  8
SLD-0
  6
CONTINUOUS
 62
       3
100
AcDbLine
 10
184.08016958
 20
-17.00385549
 30
0.0
 11
184.07742541
 21
-16.99816026
 31
0.0
  0
LINE
  5
E6
100
AcDbEntity
  8
SLD-0
  6
CONTINUOUS
 62
       3
100
AcDbLine
 10
184.07742541
 20
-16.99816026
 30
0.0
 11
184.0746509
 21
-16.99247315
 31
0.0
  0
LINE
  5
E7
100
AcDbEntity
  8
SLD-0
  6
CONTINUOUS
 62
       3
100
AcDbLine
 10
184.0746509
 20
-16.99247315
 30
0.0
 11
184.07186124
 21
-16.98679011
 31
0.0
  0
ARC
  5
E8
100
AcDbEntity
  8
SLD-0
  6
CONTINUOUS
 62
       3
100
AcDbCircle
 10
184.83849328
 20
-13.81463874
 30
0.0
 40
2.24999995
100
AcDbArc
 50
30.00000693
 51
209.99992349
  0
ARC
  5
E9
100
AcDbEntity
  8
SLD-0
  6
CONTINUOUS
 62
       3
100
AcDbCircle
 10
184.83849328
 20
-13.81463874
 30
0.0
 40
0.75000021
100
AcDbArc
 50
30.00012103
 51
209.99987071
  0
ARC
  5
EA
100
AcDbEntity
  8
SLD-0
  6
CONTINUOUS
 62
       3
100
AcDbCircle
 10
116.71205042
 20
-64.11200784
 30
0.0
 40
0.2999997
100
AcDbArc
 50
180.0
 51
224.99980148
  0
ARC
  5
EB
100
AcDbEntity
  8
SLD-0
  6
CONTINUOUS
 62
       3
100
AcDbCircle
 10
118.41205064
 20
-19.23627191
 30
0.0
 40
1.99999992
100
AcDbArc
 50
90.0
 51
180.00000286
  0
ARC
  5
EC
100
AcDbEntity
  8
SLD-0
  6
CONTINUOUS
 62
       3
100
AcDbCircle
 10
209.41205064
 20
-101.23627199
 30
0.0
 40
13.1
100
AcDbArc
 50
103.23865404
 51
180.0
  0
ARC
  5
ED
100
AcDbEntity
  8
SLD-0
  6
CONTINUOUS
 62
       3
100
AcDbCircle
 10
209.41205064
 20
-101.23627199
 30
0.0
 40
1.50000021
100
AcDbArc
 50
179.99995684
 51
360.0
  0
ARC
  5
EE
100
AcDbEntity
  8
SLD-0
  6
CONTINUOUS
 62
       3
100
AcDbCircle
 10
209.41205064
 20
-101.23627199
 30
0.0
 40
3.00000236
100
AcDbArc
 50
179.99997842
 51
360.00002158
  0
ELLIPSE
  5
EF
100
AcDbEntity
  8
SLD-0
  6
CONTINUOUS
 62
       3
100
AcDbEllipse
 10
213.51234812
 20
-21.93626057
 30
0.0
 11
-0.2734361415896558
 21
0.123584322299962
 31
0.0
210
0.0
220
0.0
230
1.0
 40
0.99977559
 41
1.9953685878172125
 42
4.2878173422347405
  0
ELLIPSE
  5
F0
100
AcDbEntity
  8
SLD-0
  6
CONTINUOUS
 62
       3
100
AcDbEllipse
 10
185.31203921
 20
-16.73486674
 30
0.0
 11
0.2897895743643346
 21
0.0776488824257342
 31
0.0
210
0.0
220
0.0
230
1.0
 40
0.99995919
 41
6.0214012164506121
 42
6.5449694972869139
  0
LINE
  5
F1
100
AcDbEntity
  8
SLD-0
  6
CENTERX2
 62
       3
100
AcDbLine
 10
60.91457168
 20
-62.23627199
 30
0.0
 11
29.92008684
 21
-62.23627199
 31
0.0
  0
LINE
  5
F2
100
AcDbEntity
  8
SLD-0
  6
CENTERX2
 62
       3
100
AcDbLine
 10
43.90947593
 20
-9.09106334
 30
0.0
 11
43.90947593
 21
-109.23627199
 31
0.0
  0
LINE
  5
F3
100
AcDbEntity
  8
SLD-0
  6
CENTERX2
 62
       3
100
AcDbLine
 10
112.94206328
 20
-62.23627199
 30
0.0
 11
210.63850956
 21
-62.23627199
 31
0.0
  0
LINE
  5
F4
100
AcDbEntity
  8
SLD-0_0
  6
CONTINUOUS
 62
       3
100
AcDbLine
 10
126.41205072
 20
-74.23627253
 30
0.0
 11
126.41205072
 21
-105.7362722
 31
0.0
  0
ARC
  5
F5
100
AcDbEntity
  8
SLD-0_0
  6
CONTINUOUS
 62
       3
100
AcDbCircle
 10
127.91205072
 20
-105.7362722
 30
0.0
 40
1.5
100
AcDbArc
 50
180.0
 51
269.99987934
  0
LINE
  5
F6
100
AcDbEntity
  8
0
  6
CONTINUOUS
 62
       3
100
AcDbLine
 10
120.07011224
 20
-93.34906811
 30
0.0
 11
120.07011224
 21
-91.65552807
 31
0.0
  0
LINE
  5
F7
100
AcDbEntity
  8
0
  6
CONTINUOUS
 62
       3
100
AcDbLine
 10
119.11761224
 20
-88.35433423
 30
0.0
 11
120.07011224
 21
-88.35433423
 31
0.0
  0
LINE
  5
F8
100
AcDbEntity
  8
0
  6
CONTINUOUS
 62
       3
100
AcDbLine
 10
123.24623412
 20
-99.00387204
 30
0.0
 11
123.38703849
 21
-98.93717173
 31
0.0
  0
LINE
  5
F9
100
AcDbEntity
  8
0
  6
CONTINUOUS
 62
       3
100
AcDbLine
 10
124.2104338
 20
-97.86039189
 30
0.0
 11
124.23823556
 21
-97.70216248
 31
0.0
  0
LINE
  5
FA
100
AcDbEntity
  8
0
  6
CONTINUOUS
 62
       3
100
AcDbLine
 10
122.86536061
 20
-95.88589831
 30
0.0
 11
122.70352379
 21
-95.86973164
 31
0.0
  0
LINE
  5
FB
100
AcDbEntity
  8
0
  6
CONTINUOUS
 62
       3
100
AcDbLine
 10
122.06851988
 20
-95.96369423
 30
0.0
 11
121.9241003
 21
-96.02375578
 31
0.0
  0
LINE
  5
FC
100
AcDbEntity
  8
0
  6
CONTINUOUS
 62
       3
100
AcDbLine
 10
121.65823484
 20
-96.1822868
 30
0.0
 11
121.53835146
 21
-96.27918859
 31
0.0
  0
LINE
  5
FD
100
AcDbEntity
  8
0
  6
CONTINUOUS
 62
       3
100
AcDbLine
 10
121.13070325
 20
-98.15917925
 30
0.0
 11
121.20059876
 21
-98.29817126
 31
0.0
  0
LINE
  5
FE
100
AcDbEntity
  8
0
  6
CONTINUOUS
 62
       3
100
AcDbLine
 10
121.59712432
 20
-98.76652509
 30
0.0
 11
121.72158535
 21
-98.85779508
 31
0.0
  0
LINE
  5
FF
100
AcDbEntity
  8
0
  6
CONTINUOUS
 62
       3
100
AcDbLine
 10
121.85461574
 20
-98.93717173
 30
0.0
 11
121.99543423
 21
-99.00387204
 31
0.0
  0
LINE
  5
100
100
AcDbEntity
  8
0
  6
CONTINUOUS
 62
       3
100
AcDbLine
 10
123.58342585
 20
-91.18706426
 30
0.0
 11
123.45457482
 21
-91.10169633
 31
0.0
  0
LINE
  5
101
100
AcDbEntity
  8
0
  6
CONTINUOUS
 62
       3
100
AcDbLine
 10
122.78502189
 20
-89.1290738
 30
0.0
 11
122.94444197
 21
-89.10511952
 31
0.0
  0
LINE
  5
102
100
AcDbEntity
  8
0
  6
CONTINUOUS
 62
       3
100
AcDbLine
 10
124.23823556
 20
-87.71175409
 30
0.0
 11
124.25042588
 21
-87.5486882
 31
0.0
  0
LINE
  5
103
100
AcDbEntity
  8
0
  6
CONTINUOUS
 62
       3
100
AcDbLine
 10
122.21955569
 20
-85.92704525
 30
0.0
 11
122.06851988
 21
-85.97322857
 31
0.0
  0
LINE
  5
104
100
AcDbEntity
  8
0
  6
CONTINUOUS
 62
       3
100
AcDbLine
 10
122.06851988
 20
-85.97322857
 30
0.0
 11
121.9241003
 21
-86.03325468
 31
0.0
  0
LINE
  5
105
100
AcDbEntity
  8
0
  6
CONTINUOUS
 62
       3
100
AcDbLine
 10
121.24027369
 20
-86.64035995
 30
0.0
 11
121.16404273
 21
-86.7754106
 31
0.0
  0
LINE
  5
106
100
AcDbEntity
  8
0
  6
CONTINUOUS
 62
       3
100
AcDbLine
 10
121.05096074
 20
-87.06750905
 30
0.0
 11
121.01567221
 21
-87.22299434
 31
0.0
  0
LINE
  5
107
100
AcDbEntity
  8
0
  6
CONTINUOUS
 62
       3
100
AcDbLine
 10
121.13070325
 20
-88.16867624
 30
0.0
 11
121.20059876
 21
-88.30762095
 31
0.0
  0
LINE
  5
108
100
AcDbEntity
  8
0
  6
CONTINUOUS
 62
       3
100
AcDbLine
 10
123.58342585
 20
-81.19622479
 30
0.0
 11
123.45457482
 21
-81.11081925
 31
0.0
  0
LINE
  5
109
100
AcDbEntity
  8
0
  6
CONTINUOUS
 62
       3
100
AcDbLine
 10
123.45457482
 20
-81.11081925
 30
0.0
 11
123.31755893
 21
-81.03769377
 31
0.0
  0
LINE
  5
10A
100
AcDbEntity
  8
0
  6
CONTINUOUS
 62
       3
100
AcDbLine
 10
121.65823484
 20
-81.19622479
 30
0.0
 11
121.53835146
 21
-81.29312657
 31
0.0
  0
LINE
  5
10B
100
AcDbEntity
  8
0
  6
CONTINUOUS
 62
       3
100
AcDbLine
 10
121.03146406
 20
-82.87432988
 30
0.0
 11
121.0740646
 21
-83.02692979
 31
0.0
  0
LINE
  5
10C
100
AcDbEntity
  8
0
  6
CONTINUOUS
 62
       3
100
AcDbLine
 10
122.78502189
 20
-79.13867586
 30
0.0
 11
122.94444197
 21
-79.11472157
 31
0.0
  0
LINE
  5
10D
100
AcDbEntity
  8
0
  6
CONTINUOUS
 62
       3
100
AcDbLine
 10
123.75967862
 20
-78.68303162
 30
0.0
 11
123.86468816
 21
-78.57038091
 31
0.0
  0
LINE
  5
10E
100
AcDbEntity
  8
0
  6
CONTINUOUS
 62
       3
100
AcDbLine
 10
124.2104338
 20
-77.87956362
 30
0.0
 11
124.23823556
 21
-77.72135614
 31
0.0
  0
LINE
  5
10F
100
AcDbEntity
  8
0
  6
CONTINUOUS
 62
       3
100
AcDbLine
 10
124.19092358
 20
-77.0770402
 30
0.0
 11
124.14117438
 21
-76.92753036
 31
0.0
  0
LINE
  5
110
100
AcDbEntity
  8
0
  6
CONTINUOUS
 62
       3
100
AcDbLine
 10
121.9241003
 20
-76.04210104
 30
0.0
 11
121.7870782
 21
-76.11526174
 31
0.0
  0
LINE
  5
111
100
AcDbEntity
  8
0
  6
CONTINUOUS
 62
       3
100
AcDbLine
 10
123.64454459
 20
-98.76652509
 30
0.0
 11
123.75967862
 21
-98.66414473
 31
0.0
  0
LINE
  5
112
100
AcDbEntity
  8
0
  6
CONTINUOUS
 62
       3
100
AcDbLine
 10
123.95878936
 20
-98.42918482
 30
0.0
 11
124.04119838
 21
-98.29817126
 31
0.0
  0
LINE
  5
113
100
AcDbEntity
  8
0
  6
CONTINUOUS
 62
       3
100
AcDbLine
 10
124.07777336
 20
-96.7660809
 30
0.0
 11
124.00150438
 21
-96.63103273
 31
0.0
  0
LINE
  5
114
100
AcDbEntity
  8
0
  6
CONTINUOUS
 62
       3
100
AcDbLine
 10
121.16404273
 20
-96.7660809
 30
0.0
 11
121.10067799
 21
-96.90870603
 31
0.0
  0
LINE
  5
115
100
AcDbEntity
  8
0
  6
CONTINUOUS
 62
       3
100
AcDbLine
 10
122.78502189
 20
-94.12473779
 30
0.0
 11
122.94444197
 21
-94.100783
 31
0.0
  0
LINE
  5
116
100
AcDbEntity
  8
0
  6
CONTINUOUS
 62
       3
100
AcDbLine
 10
124.07777336
 20
-91.7707646
 30
0.0
 11
124.00150438
 21
-91.63571396
 31
0.0
  0
LINE
  5
117
100
AcDbEntity
  8
0
  6
CONTINUOUS
 62
       3
100
AcDbLine
 10
121.01567221
 20
-92.21834834
 30
0.0
 11
120.99559366
 21
-92.37908269
 31
0.0
  0
LINE
  5
118
100
AcDbEntity
  8
0
  6
CONTINUOUS
 62
       3
100
AcDbLine
 10
123.64454459
 20
-88.7757531
 30
0.0
 11
123.75967862
 21
-88.67342956
 31
0.0
  0
LINE
  5
119
100
AcDbEntity
  8
0
  6
CONTINUOUS
 62
       3
100
AcDbLine
 10
124.00150438
 20
-86.64035995
 30
0.0
 11
123.91315129
 21
-86.51368333
 31
0.0
  0
LINE
  5
11A
100
AcDbEntity
  8
0
  6
CONTINUOUS
 62
       3
100
AcDbLine
 10
123.70332818
 20
-86.28857724
 30
0.0
 11
123.58342585
 21
-86.19171026
 31
0.0
  0
LINE
  5
11B
100
AcDbEntity
  8
0
  6
CONTINUOUS
 62
       3
100
AcDbLine
 10
122.14325958
 20
-89.06615056
 30
0.0
 11
122.29731054
 21
-89.10511952
 31
0.0
  0
LINE
  5
11C
100
AcDbEntity
  8
0
  6
CONTINUOUS
 62
       3
100
AcDbLine
 10
124.07777336
 20
-81.78001889
 30
0.0
 11
124.00150438
 21
-81.64497072
 31
0.0
  0
LINE
  5
11D
100
AcDbEntity
  8
0
  6
CONTINUOUS
 62
       3
100
AcDbLine
 10
123.70332818
 20
-81.29312657
 30
0.0
 11
123.58342585
 21
-81.19622479
 31
0.0
  0
LINE
  5
11E
100
AcDbEntity
  8
0
  6
CONTINUOUS
 62
       3
100
AcDbLine
 10
122.70352379
 20
-80.88366964
 30
0.0
 11
122.53835102
 21
-80.88366964
 31
0.0
  0
LINE
  5
11F
100
AcDbEntity
  8
0
  6
CONTINUOUS
 62
       3
100
AcDbLine
 10
122.53835102
 20
-80.88366964
 30
0.0
 11
122.37642649
 21
-80.8998363
 31
0.0
  0
LINE
  5
120
100
AcDbEntity
  8
0
  6
CONTINUOUS
 62
       3
100
AcDbLine
 10
122.29731054
 20
-84.1100497
 30
0.0
 11
122.45680586
 21
-84.1340231
 31
0.0
  0
LINE
  5
121
100
AcDbEntity
  8
0
  6
CONTINUOUS
 62
       3
100
AcDbLine
 10
123.24623412
 20
-79.02255025
 30
0.0
 11
123.38703849
 21
-78.95589572
 31
0.0
  0
LINE
  5
122
100
AcDbEntity
  8
0
  6
CONTINUOUS
 62
       3
100
AcDbLine
 10
42.42150474
 20
-80.3719214
 30
0.0
 11
42.42150474
 21
-84.34191163
 31
0.0
  0
LINE
  5
123
100
AcDbEntity
  8
0
  6
CONTINUOUS
 62
       3
100
AcDbLine
 10
45.72672935
 20
-90.741521
 30
0.0
 11
37.43545249
 21
-90.741521
 31
0.0
  0
LINE
  5
124
100
AcDbEntity
  8
0
  6
CONTINUOUS
 62
       3
100
AcDbLine
 10
42.63482505
 20
-104.71400147
 30
0.0
 11
42.63482505
 21
-100.43612305
 31
0.0
  0
LINE
  5
125
100
AcDbEntity
  8
0
  6
CONTINUOUS
 62
       3
100
AcDbLine
 10
37.43545249
 20
-79.15711183
 30
0.0
 11
45.72672935
 21
-79.15711183
 31
0.0
  0
LINE
  5
126
100
AcDbEntity
  8
0
  6
CONTINUOUS
 62
       3
100
AcDbLine
 10
46.67085776
 20
-100.43612305
 30
0.0
 11
46.67085776
 21
-74.64730958
 31
0.0
  0
LINE
  5
127
100
AcDbEntity
  8
0
  6
CONTINUOUS
 62
       3
100
AcDbLine
 10
41.02617923
 20
-71.86394321
 30
0.0
 11
40.9378532
 21
-71.7372666
 31
0.0
  0
LINE
  5
128
100
AcDbEntity
  8
0
  6
CONTINUOUS
 62
       3
100
AcDbLine
 10
40.9378532
 20
-71.7372666
 30
0.0
 11
40.83822809
 21
-71.61974528
 31
0.0
  0
LINE
  5
129
100
AcDbEntity
  8
0
  6
CONTINUOUS
 62
       3
100
AcDbLine
 10
39.4013224
 20
-71.11906924
 30
0.0
 11
39.24445161
 21
-71.15062852
 31
0.0
  0
LINE
  5
12A
100
AcDbEntity
  8
0
  6
CONTINUOUS
 62
       3
100
AcDbLine
 10
39.24445161
 20
-71.15062852
 30
0.0
 11
39.09341578
 21
-71.19681184
 31
0.0
  0
LINE
  5
12B
100
AcDbEntity
  8
0
  6
CONTINUOUS
 62
       3
100
AcDbLine
 10
38.15559917
 20
-73.39231204
 30
0.0
 11
38.22549467
 21
-73.5312804
 31
0.0
  0
LINE
  5
12C
100
AcDbEntity
  8
0
  6
CONTINUOUS
 62
       3
100
AcDbLine
 10
38.62202024
 20
-73.99952339
 30
0.0
 11
38.74648127
 21
-74.09076594
 31
0.0
  0
LINE
  5
12D
100
AcDbEntity
  8
0
  6
CONTINUOUS
 62
       3
100
AcDbLine
 10
39.83937338
 20
-103.92573905
 30
0.0
 11
39.99879344
 21
-103.90179432
 31
0.0
  0
LINE
  5
12E
100
AcDbEntity
  8
0
  6
CONTINUOUS
 62
       3
100
AcDbLine
 10
38.97839362
 20
-100.83022661
 30
0.0
 11
38.84134717
 21
-100.90331425
 31
0.0
  0
LINE
  5
12F
100
AcDbEntity
  8
0
  6
CONTINUOUS
 62
       3
100
AcDbLine
 10
38.38274711
 20
-101.31065527
 30
0.0
 11
38.29440409
 21
-101.43733189
 31
0.0
  0
LINE
  5
130
100
AcDbEntity
  8
0
  6
CONTINUOUS
 62
       3
100
AcDbLine
 10
42.42150474
 20
-75.18712159
 30
0.0
 11
42.42150474
 21
-79.15711183
 31
0.0
  0
LINE
  5
131
100
AcDbEntity
  8
0
  6
CONTINUOUS
 62
       3
100
AcDbLine
 10
45.72672935
 20
-84.34191163
 30
0.0
 11
45.72672935
 21
-80.37254152
 31
0.0
  0
LINE
  5
132
100
AcDbEntity
  8
0
  6
CONTINUOUS
 62
       3
100
AcDbLine
 10
37.43545249
 20
-80.37254152
 30
0.0
 11
37.43545249
 21
-84.34191163
 31
0.0
  0
LINE
  5
133
100
AcDbEntity
  8
0
  6
CONTINUOUS
 62
       3
100
AcDbLine
 10
39.80991443
 20
-74.35296375
 30
0.0
 11
39.96932495
 21
-74.32899991
 31
0.0
  0
LINE
  5
134
100
AcDbEntity
  8
0
  6
CONTINUOUS
 62
       3
100
AcDbLine
 10
40.54487025
 20
-74.09076594
 30
0.0
 11
40.66931746
 21
-73.99952339
 31
0.0
  0
LINE
  5
135
100
AcDbEntity
  8
0
  6
CONTINUOUS
 62
       3
100
AcDbLine
 10
38.87951165
 20
-74.17011699
 30
0.0
 11
39.02033014
 21
-74.23679441
 31
0.0
  0
LINE
  5
136
100
AcDbEntity
  8
0
  6
CONTINUOUS
 62
       3
100
AcDbLine
 10
39.67531577
 20
-103.93389405
 30
0.0
 11
39.83937338
 21
-103.92573905
 31
0.0
  0
LINE
  5
137
100
AcDbEntity
  8
0
  6
CONTINUOUS
 62
       3
100
AcDbLine
 10
40.37191041
 20
-100.83022661
 30
0.0
 11
40.2275135
 21
-100.77020051
 31
0.0
  0
LINE
  5
138
100
AcDbEntity
  8
0
  6
CONTINUOUS
 62
       3
100
AcDbLine
 10
38.65135277
 20
-103.57253802
 30
0.0
 11
38.77584124
 21
-103.66372568
 31
0.0
  0
LINE
  5
139
100
AcDbEntity
  8
0
  6
CONTINUOUS
 62
       3
100
AcDbLine
 10
38.90889722
 20
-103.74302553
 30
0.0
 11
39.0497386
 21
-103.80965719
 31
0.0
  0
LINE
  5
13A
100
AcDbEntity
  8
0
  6
CONTINUOUS
 62
       3
100
AcDbLine
 10
45.72672935
 20
-99.89569092
 30
0.0
 11
45.72672935
 21
-95.92632081
 31
0.0
  0
LINE
  5
13B
100
AcDbEntity
  8
0
  6
CONTINUOUS
 62
       3
100
AcDbLine
 10
45.72672935
 20
-80.37254152
 30
0.0
 11
37.43545249
 21
-80.37254152
 31
0.0
  0
LINE
  5
13C
100
AcDbEntity
  8
0
  6
CONTINUOUS
 62
       3
100
AcDbLine
 10
36.08607748
 20
-100.43612305
 30
0.0
 11
51.09818441
 21
-100.43612305
 31
0.0
  0
LINE
  5
13D
100
AcDbEntity
  8
0
  6
CONTINUOUS
 62
       3
100
AcDbLine
 10
40.60821263
 20
-71.41529353
 30
0.0
 11
40.47938822
 21
-71.32992559
 31
0.0
  0
LINE
  5
13E
100
AcDbEntity
  8
0
  6
CONTINUOUS
 62
       3
100
AcDbLine
 10
40.34239667
 20
-71.25683794
 30
0.0
 11
40.19802099
 21
-71.19681184
 31
0.0
  0
LINE
  5
13F
100
AcDbEntity
  8
0
  6
CONTINUOUS
 62
       3
100
AcDbLine
 10
38.07585665
 20
-72.29109231
 30
0.0
 11
38.04056813
 21
-72.44657761
 31
0.0
  0
LINE
  5
140
100
AcDbEntity
  8
0
  6
CONTINUOUS
 62
       3
100
AcDbLine
 10
40.44138997
 20
-103.74302553
 30
0.0
 11
40.57442141
 21
-103.66372568
 31
0.0
  0
LINE
  5
141
100
AcDbEntity
  8
0
  6
CONTINUOUS
 62
       3
100
AcDbLine
 10
40.96750276
 20
-101.31065527
 30
0.0
 11
40.86784942
 21
-101.19313395
 31
0.0
  0
LINE
  5
142
100
AcDbEntity
  8
0
  6
CONTINUOUS
 62
       3
100
AcDbLine
 10
38.08552167
 20
-102.66691732
 30
0.0
 11
38.12813826
 21
-102.81946905
 31
0.0
  0
LINE
  5
143
100
AcDbEntity
  8
0
  6
CONTINUOUS
 62
       3
100
AcDbLine
 10
45.72672935
 20
-79.15711183
 30
0.0
 11
45.72672935
 21
-75.18774171
 31
0.0
  0
LINE
  5
144
100
AcDbEntity
  8
0
  6
CONTINUOUS
 62
       3
100
AcDbLine
 10
51.09818441
 20
-74.64730958
 30
0.0
 11
36.08607748
 21
-74.64730958
 31
0.0
  0
LINE
  5
145
100
AcDbEntity
  8
0
  6
CONTINUOUS
 62
       3
100
AcDbLine
 10
40.98347753
 20
-73.66226783
 30
0.0
 11
41.06586041
 21
-73.5312804
 31
0.0
  0
LINE
  5
146
100
AcDbEntity
  8
0
  6
CONTINUOUS
 62
       3
100
AcDbLine
 10
38.09896052
 20
-73.24614488
 30
0.0
 11
38.15559917
 21
-73.39231204
 31
0.0
  0
LINE
  5
147
100
AcDbEntity
  8
0
  6
CONTINUOUS
 62
       3
100
AcDbLine
 10
38.40193125
 20
-73.78449221
 30
0.0
 11
38.50690981
 21
-73.89717144
 31
0.0
  0
LINE
  5
148
100
AcDbEntity
  8
0
  6
CONTINUOUS
 62
       3
100
AcDbLine
 10
41.16548283
 20
-102.96559564
 30
0.0
 11
41.22215593
 21
-102.81946905
 31
0.0
  0
LINE
  5
149
100
AcDbEntity
  8
0
  6
CONTINUOUS
 62
       3
100
AcDbLine
 10
41.24527506
 20
-101.86448098
 30
0.0
 11
41.19552586
 21
-101.71502598
 31
0.0
  0
LINE
  5
14A
100
AcDbEntity
  8
0
  6
CONTINUOUS
 62
       3
100
AcDbLine
 10
40.07651946
 20
-100.72401719
 30
0.0
 11
39.91971209
 21
-100.69245792
 31
0.0
  0
LINE
  5
14B
100
AcDbEntity
  8
0
  6
CONTINUOUS
 62
       3
100
AcDbLine
 10
42.42150474
 20
-90.741521
 30
0.0
 11
42.42150474
 21
-94.71089112
 31
0.0
  0
LINE
  5
14C
100
AcDbEntity
  8
0
  6
CONTINUOUS
 62
       3
100
AcDbLine
 10
41.23503583
 20
-73.09356102
 30
0.0
 11
41.26282664
 21
-72.93534258
 31
0.0
  0
LINE
  5
14D
100
AcDbEntity
  8
0
  6
CONTINUOUS
 62
       3
100
AcDbLine
 10
41.27501196
 20
-72.77227168
 30
0.0
 11
41.27091892
 21
-72.60731194
 31
0.0
  0
LINE
  5
14E
100
AcDbEntity
  8
0
  6
CONTINUOUS
 62
       3
100
AcDbLine
 10
40.04704413
 20
-71.15062852
 30
0.0
 11
39.89024909
 21
-71.11906924
 31
0.0
  0
LINE
  5
14F
100
AcDbEntity
  8
0
  6
CONTINUOUS
 62
       3
100
AcDbLine
 10
39.72841885
 20
-71.10291526
 30
0.0
 11
39.56324693
 21
-71.10291526
 31
0.0
  0
LINE
  5
150
100
AcDbEntity
  8
0
  6
CONTINUOUS
 62
       3
100
AcDbLine
 10
39.56324693
 20
-71.10291526
 30
0.0
 11
39.4013224
 21
-71.11906924
 31
0.0
  0
LINE
  5
151
100
AcDbEntity
  8
0
  6
CONTINUOUS
 62
       3
100
AcDbLine
 10
38.22549467
 20
-73.5312804
 30
0.0
 11
38.30786578
 21
-73.66226783
 31
0.0
  0
LINE
  5
152
100
AcDbEntity
  8
0
  6
CONTINUOUS
 62
       3
100
AcDbLine
 10
38.74648127
 20
-74.09076594
 30
0.0
 11
38.87951165
 21
-74.17011699
 31
0.0
  0
LINE
  5
153
100
AcDbEntity
  8
0
  6
CONTINUOUS
 62
       3
100
AcDbLine
 10
39.32220646
 20
-74.32899991
 30
0.0
 11
39.48170177
 21
-74.35296375
 31
0.0
  0
LINE
  5
154
100
AcDbEntity
  8
0
  6
CONTINUOUS
 62
       3
100
AcDbLine
 10
39.99879344
 20
-103.90179432
 30
0.0
 11
40.15279214
 21
-103.86284024
 31
0.0
  0
LINE
  5
155
100
AcDbEntity
  8
0
  6
CONTINUOUS
 62
       3
100
AcDbLine
 10
40.75767965
 20
-101.08554917
 30
0.0
 11
40.63777734
 21
-100.98868219
 31
0.0
  0
LINE
  5
156
100
AcDbEntity
  8
0
  6
CONTINUOUS
 62
       3
100
AcDbLine
 10
38.33711361
 20
-103.23545185
 30
0.0
 11
38.43120684
 21
-103.35762071
 31
0.0
  0
LINE
  5
157
100
AcDbEntity
  8
0
  6
CONTINUOUS
 62
       3
100
AcDbLine
 10
37.43545249
 20
-90.741521
 30
0.0
 11
37.43545249
 21
-94.71089112
 31
0.0
  0
LINE
  5
158
100
AcDbEntity
  8
0
  6
CONTINUOUS
 62
       3
100
AcDbLine
 10
39.96932495
 20
-74.32899991
 30
0.0
 11
40.12330876
 21
-74.29001609
 31
0.0
  0
LINE
  5
159
100
AcDbEntity
  8
0
  6
CONTINUOUS
 62
       3
100
AcDbLine
 10
41.21553307
 20
-72.29109231
 30
0.0
 11
41.16580215
 21
-72.14163732
 31
0.0
  0
LINE
  5
15A
100
AcDbEntity
  8
0
  6
CONTINUOUS
 62
       3
100
AcDbLine
 10
41.16580215
 20
-72.14163732
 30
0.0
 11
41.10242321
 21
-71.99899387
 31
0.0
  0
LINE
  5
15B
100
AcDbEntity
  8
0
  6
CONTINUOUS
 62
       3
100
AcDbLine
 10
38.04056813
 20
-72.44657761
 30
0.0
 11
38.02048958
 21
-72.60731194
 31
0.0
  0
LINE
  5
15C
100
AcDbEntity
  8
0
  6
CONTINUOUS
 62
       3
100
AcDbLine
 10
41.26478528
 20
-102.66691732
 30
0.0
 11
41.29258704
 21
-102.5087208
 31
0.0
  0
LINE
  5
15D
100
AcDbEntity
  8
0
  6
CONTINUOUS
 62
       3
100
AcDbLine
 10
39.75787527
 20
-100.67630392
 30
0.0
 11
39.59270164
 21
-100.67630392
 31
0.0
  0
LINE
  5
15E
100
AcDbEntity
  8
0
  6
CONTINUOUS
 62
       3
100
AcDbLine
 10
39.59270164
 20
-100.67630392
 30
0.0
 11
39.43077053
 21
-100.69245792
 31
0.0
  0
LINE
  5
15F
100
AcDbEntity
  8
0
  6
CONTINUOUS
 62
       3
100
AcDbLine
 10
38.84134717
 20
-100.90331425
 30
0.0
 11
38.71247717
 21
-100.98868219
 31
0.0
  0
LINE
  5
160
100
AcDbEntity
  8
0
  6
CONTINUOUS
 62
       3
100
AcDbLine
 10
38.59256576
 20
-101.08554917
 30
0.0
 11
38.48239503
 21
-101.19313395
 31
0.0
  0
LINE
  5
161
100
AcDbEntity
  8
0
  6
CONTINUOUS
 62
       3
100
AcDbLine
 10
39.0497386
 20
-103.80965719
 30
0.0
 11
39.19758326
 21
-103.86284024
 31
0.0
  0
LINE
  5
162
100
AcDbEntity
  8
0
  6
CONTINUOUS
 62
       3
100
AcDbLine
 10
41.06586041
 20
-73.5312804
 30
0.0
 11
41.13576974
 21
-73.39231204
 31
0.0
  0
LINE
  5
163
100
AcDbEntity
  8
0
  6
CONTINUOUS
 62
       3
100
AcDbLine
 10
41.25083299
 20
-72.44657761
 30
0.0
 11
41.21553307
 21
-72.29109231
 31
0.0
  0
LINE
  5
164
100
AcDbEntity
  8
0
  6
CONTINUOUS
 62
       3
100
AcDbLine
 10
40.91903963
 20
-103.35762071
 30
0.0
 11
41.01314084
 21
-103.23545185
 31
0.0
  0
LINE
  5
165
100
AcDbEntity
  8
0
  6
CONTINUOUS
 62
       3
100
AcDbLine
 10
40.86784942
 20
-101.19313395
 30
0.0
 11
40.75767965
 21
-101.08554917
 31
0.0
  0
LINE
  5
166
100
AcDbEntity
  8
0
  6
CONTINUOUS
 62
       3
100
AcDbLine
 10
38.21814814
 20
-101.57238253
 30
0.0
 11
38.15476133
 21
-101.71502598
 31
0.0
  0
LINE
  5
167
100
AcDbEntity
  8
0
  6
CONTINUOUS
 62
       3
100
AcDbLine
 10
42.42150474
 20
-95.92632081
 30
0.0
 11
42.42150474
 21
-99.89569092
 31
0.0
  0
LINE
  5
168
100
AcDbEntity
  8
0
  6
CONTINUOUS
 62
       3
100
AcDbLine
 10
45.72672935
 20
-95.92632081
 30
0.0
 11
37.43545249
 21
-95.92632081
 31
0.0
  0
LINE
  5
169
100
AcDbEntity
  8
0
  6
CONTINUOUS
 62
       3
100
AcDbLine
 10
37.43545249
 20
-85.55734132
 30
0.0
 11
37.43545249
 21
-89.52671143
 31
0.0
  0
LINE
  5
16A
100
AcDbEntity
  8
0
  6
CONTINUOUS
 62
       3
100
AcDbLine
 10
40.83822809
 20
-71.61974528
 30
0.0
 11
40.72808691
 21
-71.51216051
 31
0.0
  0
LINE
  5
16B
100
AcDbEntity
  8
0
  6
CONTINUOUS
 62
       3
100
AcDbLine
 10
40.47938822
 20
-71.32992559
 30
0.0
 11
40.34239667
 21
-71.25683794
 31
0.0
  0
LINE
  5
16C
100
AcDbEntity
  8
0
  6
CONTINUOUS
 62
       3
100
AcDbLine
 10
38.94899621
 20
-71.25683794
 30
0.0
 11
38.81197412
 21
-71.32992559
 31
0.0
  0
LINE
  5
16D
100
AcDbEntity
  8
0
  6
CONTINUOUS
 62
       3
100
AcDbLine
 10
38.02048958
 20
-72.60731194
 30
0.0
 11
38.01639818
 21
-72.77227168
 31
0.0
  0
LINE
  5
16E
100
AcDbEntity
  8
0
  6
CONTINUOUS
 62
       3
100
AcDbLine
 10
40.57442141
 20
-103.66372568
 30
0.0
 11
40.69889608
 21
-103.57253802
 31
0.0
  0
LINE
  5
16F
100
AcDbEntity
  8
0
  6
CONTINUOUS
 62
       3
100
AcDbLine
 10
39.91971209
 20
-100.69245792
 30
0.0
 11
39.75787527
 21
-100.67630392
 31
0.0
  0
LINE
  5
170
100
AcDbEntity
  8
0
  6
CONTINUOUS
 62
       3
100
AcDbLine
 10
37.43545249
 20
-99.89569092
 30
0.0
 11
45.72672935
 21
-99.89569092
 31
0.0
  0
LINE
  5
171
100
AcDbEntity
  8
0
  6
CONTINUOUS
 62
       3
100
AcDbLine
 10
36.72107749
 20
-100.43612305
 30
0.0
 11
36.72107749
 21
-104.71400147
 31
0.0
  0
LINE
  5
172
100
AcDbEntity
  8
0
  6
CONTINUOUS
 62
       3
100
AcDbLine
 10
36.08607748
 20
-74.64730958
 30
0.0
 11
36.08607748
 21
-100.43612305
 31
0.0
  0
LINE
  5
173
100
AcDbEntity
  8
0
  6
CONTINUOUS
 62
       3
100
AcDbLine
 10
40.12330876
 20
-74.29001609
 30
0.0
 11
40.27108292
 21
-74.23679441
 31
0.0
  0
LINE
  5
174
100
AcDbEntity
  8
0
  6
CONTINUOUS
 62
       3
100
AcDbLine
 10
38.45310522
 20
-71.61974528
 30
0.0
 11
38.35348555
 21
-71.7372666
 31
0.0
  0
LINE
  5
175
100
AcDbEntity
  8
0
  6
CONTINUOUS
 62
       3
100
AcDbLine
 10
40.69889608
 20
-103.57253802
 30
0.0
 11
40.8140301
 21
-103.47024289
 31
0.0
  0
LINE
  5
176
100
AcDbEntity
  8
0
  6
CONTINUOUS
 62
       3
100
AcDbLine
 10
41.30477736
 20
-102.34565991
 30
0.0
 11
41.30068262
 21
-102.18070062
 31
0.0
  0
LINE
  5
177
100
AcDbEntity
  8
0
  6
CONTINUOUS
 62
       3
100
AcDbLine
 10
41.19552586
 20
-101.71502598
 30
0.0
 11
41.13212484
 21
-101.57238253
 31
0.0
  0
LINE
  5
178
100
AcDbEntity
  8
0
  6
CONTINUOUS
 62
       3
100
AcDbLine
 10
40.63777734
 20
-100.98868219
 30
0.0
 11
40.5089263
 21
-100.90331425
 31
0.0
  0
LINE
  5
179
100
AcDbEntity
  8
0
  6
CONTINUOUS
 62
       3
100
AcDbLine
 10
39.43077053
 20
-100.69245792
 30
0.0
 11
39.27388741
 21
-100.72401719
 31
0.0
  0
LINE
  5
17A
100
AcDbEntity
  8
0
  6
CONTINUOUS
 62
       3
100
AcDbLine
 10
38.71247717
 20
-100.98868219
 30
0.0
 11
38.59256576
 21
-101.08554917
 31
0.0
  0
LINE
  5
17B
100
AcDbEntity
  8
0
  6
CONTINUOUS
 62
       3
100
AcDbLine
 10
39.19758326
 20
-103.86284024
 30
0.0
 11
39.35164908
 21
-103.90179432
 31
0.0
  0
LINE
  5
17C
100
AcDbEntity
  8
0
  6
CONTINUOUS
 62
       3
100
AcDbLine
 10
39.35164908
 20
-103.90179432
 30
0.0
 11
39.51115396
 21
-103.92573905
 31
0.0
  0
LINE
  5
17D
100
AcDbEntity
  8
0
  6
CONTINUOUS
 62
       3
100
AcDbLine
 10
37.43545249
 20
-95.92632081
 30
0.0
 11
37.43545249
 21
-99.89569092
 31
0.0
  0
LINE
  5
17E
100
AcDbEntity
  8
0
  6
CONTINUOUS
 62
       3
100
AcDbLine
 10
40.78442308
 20
-73.89717144
 30
0.0
 11
40.88940409
 21
-73.78449221
 31
0.0
  0
LINE
  5
17F
100
AcDbEntity
  8
0
  6
CONTINUOUS
 62
       3
100
AcDbLine
 10
41.13576974
 20
-73.39231204
 30
0.0
 11
41.19242255
 21
-73.24614488
 31
0.0
  0
LINE
  5
180
100
AcDbEntity
  8
0
  6
CONTINUOUS
 62
       3
100
AcDbLine
 10
41.10242321
 20
-71.99899387
 30
0.0
 11
41.02617923
 21
-71.86394321
 31
0.0
  0
LINE
  5
181
100
AcDbEntity
  8
0
  6
CONTINUOUS
 62
       3
100
AcDbLine
 10
40.19802099
 20
-71.19681184
 30
0.0
 11
40.04704413
 21
-71.15062852
 31
0.0
  0
LINE
  5
182
100
AcDbEntity
  8
0
  6
CONTINUOUS
 62
       3
100
AcDbLine
 10
39.89024909
 20
-71.11906924
 30
0.0
 11
39.72841885
 21
-71.10291526
 31
0.0
  0
LINE
  5
183
100
AcDbEntity
  8
0
  6
CONTINUOUS
 62
       3
100
AcDbLine
 10
38.26516961
 20
-71.86394321
 30
0.0
 11
38.18893864
 21
-71.99899387
 31
0.0
  0
LINE
  5
184
100
AcDbEntity
  8
0
  6
CONTINUOUS
 62
       3
100
AcDbLine
 10
38.05635997
 20
-73.09356102
 30
0.0
 11
38.09896052
 21
-73.24614488
 31
0.0
  0
LINE
  5
185
100
AcDbEntity
  8
0
  6
CONTINUOUS
 62
       3
100
AcDbLine
 10
40.15279214
 20
-103.86284024
 30
0.0
 11
40.3005856
 21
-103.80965719
 31
0.0
  0
LINE
  5
186
100
AcDbEntity
  8
0
  6
CONTINUOUS
 62
       3
100
AcDbLine
 10
41.29258704
 20
-102.5087208
 30
0.0
 11
41.30477736
 21
-102.34565991
 31
0.0
  0
LINE
  5
187
100
AcDbEntity
  8
0
  6
CONTINUOUS
 62
       3
100
AcDbLine
 10
38.43120684
 20
-103.35762071
 30
0.0
 11
38.53621393
 21
-103.47024289
 31
0.0
  0
LINE
  5
188
100
AcDbEntity
  8
0
  6
CONTINUOUS
 62
       3
100
AcDbLine
 10
42.42150474
 20
-85.5567212
 30
0.0
 11
42.42150474
 21
-89.52671143
 31
0.0
  0
LINE
  5
189
100
AcDbEntity
  8
0
  6
CONTINUOUS
 62
       3
100
AcDbLine
 10
37.43545249
 20
-89.52671143
 30
0.0
 11
45.72672935
 21
-89.52671143
 31
0.0
  0
LINE
  5
18A
100
AcDbEntity
  8
0
  6
CONTINUOUS
 62
       3
100
AcDbLine
 10
45.72672935
 20
-89.52671143
 30
0.0
 11
45.72672935
 21
-85.55734132
 31
0.0
  0
LINE
  5
18B
100
AcDbEntity
  8
0
  6
CONTINUOUS
 62
       3
100
AcDbLine
 10
36.72107749
 20
-104.71400147
 30
0.0
 11
42.63482505
 21
-104.71400147
 31
0.0
  0
LINE
  5
18C
100
AcDbEntity
  8
0
  6
CONTINUOUS
 62
       3
100
AcDbLine
 10
41.27091892
 20
-72.60731194
 30
0.0
 11
41.25083299
 21
-72.44657761
 31
0.0
  0
LINE
  5
18D
100
AcDbEntity
  8
0
  6
CONTINUOUS
 62
       3
100
AcDbLine
 10
38.18893864
 20
-71.99899387
 30
0.0
 11
38.12557391
 21
-72.14163732
 31
0.0
  0
LINE
  5
18E
100
AcDbEntity
  8
0
  6
CONTINUOUS
 62
       3
100
AcDbLine
 10
41.01314084
 20
-103.23545185
 30
0.0
 11
41.09554986
 21
-103.1045167
 31
0.0
  0
LINE
  5
18F
100
AcDbEntity
  8
0
  6
CONTINUOUS
 62
       3
100
AcDbLine
 10
41.13212484
 20
-101.57238253
 30
0.0
 11
41.05585587
 21
-101.43733189
 31
0.0
  0
LINE
  5
190
100
AcDbEntity
  8
0
  6
CONTINUOUS
 62
       3
100
AcDbLine
 10
38.29440409
 20
-101.43733189
 30
0.0
 11
38.21814814
 21
-101.57238253
 31
0.0
  0
LINE
  5
191
100
AcDbEntity
  8
0
  6
CONTINUOUS
 62
       3
100
AcDbLine
 10
38.049637
 20
-102.18070062
 30
0.0
 11
38.04554391
 21
-102.34565991
 31
0.0
  0
LINE
  5
192
100
AcDbEntity
  8
0
  6
CONTINUOUS
 62
       3
100
AcDbLine
 10
39.51115396
 20
-103.92573905
 30
0.0
 11
39.67531577
 21
-103.93389405
 31
0.0
  0
LINE
  5
193
100
AcDbEntity
  8
0
  6
CONTINUOUS
 62
       3
100
AcDbLine
 10
45.72672935
 20
-94.71089112
 30
0.0
 11
45.72672935
 21
-90.741521
 31
0.0
  0
LINE
  5
194
100
AcDbEntity
  8
0
  6
CONTINUOUS
 62
       3
100
AcDbLine
 10
37.43545249
 20
-84.34191163
 30
0.0
 11
45.72672935
 21
-84.34191163
 31
0.0
  0
LINE
  5
195
100
AcDbEntity
  8
0
  6
CONTINUOUS
 62
       3
100
AcDbLine
 10
41.19242255
 20
-73.24614488
 30
0.0
 11
41.23503583
 21
-73.09356102
 31
0.0
  0
LINE
  5
196
100
AcDbEntity
  8
0
  6
CONTINUOUS
 62
       3
100
AcDbLine
 10
38.68313075
 20
-71.41529353
 30
0.0
 11
38.56324737
 21
-71.51216051
 31
0.0
  0
LINE
  5
197
100
AcDbEntity
  8
0
  6
CONTINUOUS
 62
       3
100
AcDbLine
 10
39.1681555
 20
-74.29001609
 30
0.0
 11
39.32220646
 21
-74.32899991
 31
0.0
  0
LINE
  5
198
100
AcDbEntity
  8
0
  6
CONTINUOUS
 62
       3
100
AcDbLine
 10
41.2805886
 20
-102.01996627
 30
0.0
 11
41.24527506
 21
-101.86448098
 31
0.0
  0
LINE
  5
199
100
AcDbEntity
  8
0
  6
CONTINUOUS
 62
       3
100
AcDbLine
 10
38.15476133
 20
-101.71502598
 30
0.0
 11
38.10502579
 21
-101.86448098
 31
0.0
  0
LINE
  5
19A
100
AcDbEntity
  8
0
  6
CONTINUOUS
 62
       3
100
AcDbLine
 10
36.72107749
 20
-74.58312745
 30
0.0
 11
42.63482505
 21
-74.58312745
 31
0.0
  0
LINE
  5
19B
100
AcDbEntity
  8
0
  6
CONTINUOUS
 62
       3
100
AcDbLine
 10
37.43545249
 20
-75.18774171
 30
0.0
 11
37.43545249
 21
-79.15711183
 31
0.0
  0
LINE
  5
19C
100
AcDbEntity
  8
0
  6
CONTINUOUS
 62
       3
100
AcDbLine
 10
39.6458602
 20
-74.3611255
 30
0.0
 11
39.80991443
 21
-74.35296375
 31
0.0
  0
LINE
  5
19D
100
AcDbEntity
  8
0
  6
CONTINUOUS
 62
       3
100
AcDbLine
 10
40.66931746
 20
-73.99952339
 30
0.0
 11
40.78442308
 21
-73.89717144
 31
0.0
  0
LINE
  5
19E
100
AcDbEntity
  8
0
  6
CONTINUOUS
 62
       3
100
AcDbLine
 10
41.26282664
 20
-72.93534258
 30
0.0
 11
41.27501196
 21
-72.77227168
 31
0.0
  0
LINE
  5
19F
100
AcDbEntity
  8
0
  6
CONTINUOUS
 62
       3
100
AcDbLine
 10
40.72808691
 20
-71.51216051
 30
0.0
 11
40.60821263
 21
-71.41529353
 31
0.0
  0
LINE
  5
1A0
100
AcDbEntity
  8
0
  6
CONTINUOUS
 62
       3
100
AcDbLine
 10
38.01639818
 20
-72.77227168
 30
0.0
 11
38.02857878
 21
-72.93534258
 31
0.0
  0
LINE
  5
1A1
100
AcDbEntity
  8
0
  6
CONTINUOUS
 62
       3
100
AcDbLine
 10
39.02033014
 20
-74.23679441
 30
0.0
 11
39.1681555
 21
-74.29001609
 31
0.0
  0
LINE
  5
1A2
100
AcDbEntity
  8
0
  6
CONTINUOUS
 62
       3
100
AcDbLine
 10
40.8140301
 20
-103.47024289
 30
0.0
 11
40.91903963
 21
-103.35762071
 31
0.0
  0
LINE
  5
1A3
100
AcDbEntity
  8
0
  6
CONTINUOUS
 62
       3
100
AcDbLine
 10
41.22215593
 20
-102.81946905
 30
0.0
 11
41.26478528
 21
-102.66691732
 31
0.0
  0
LINE
  5
1A4
100
AcDbEntity
  8
0
  6
CONTINUOUS
 62
       3
100
AcDbLine
 10
41.30068262
 20
-102.18070062
 30
0.0
 11
41.2805886
 21
-102.01996627
 31
0.0
  0
LINE
  5
1A5
100
AcDbEntity
  8
0
  6
CONTINUOUS
 62
       3
100
AcDbLine
 10
39.27388741
 20
-100.72401719
 30
0.0
 11
39.1228344
 21
-100.77020051
 31
0.0
  0
LINE
  5
1A6
100
AcDbEntity
  8
0
  6
CONTINUOUS
 62
       3
100
AcDbLine
 10
38.48239503
 20
-101.19313395
 30
0.0
 11
38.38274711
 21
-101.31065527
 31
0.0
  0
LINE
  5
1A7
100
AcDbEntity
  8
0
  6
CONTINUOUS
 62
       3
100
AcDbLine
 10
38.04554391
 20
-102.34565991
 30
0.0
 11
38.05772951
 21
-102.5087208
 31
0.0
  0
LINE
  5
1A8
100
AcDbEntity
  8
0
  6
CONTINUOUS
 62
       3
100
AcDbLine
 10
42.63482505
 20
-70.30524904
 30
0.0
 11
36.72107749
 21
-70.30524904
 31
0.0
  0
LINE
  5
1A9
100
AcDbEntity
  8
0
  6
CONTINUOUS
 62
       3
100
AcDbLine
 10
36.72107749
 20
-70.30524904
 30
0.0
 11
36.72107749
 21
-74.58312745
 31
0.0
  0
LINE
  5
1AA
100
AcDbEntity
  8
0
  6
CONTINUOUS
 62
       3
100
AcDbLine
 10
45.72672935
 20
-75.18774171
 30
0.0
 11
37.43545249
 21
-75.18774171
 31
0.0
  0
LINE
  5
1AB
100
AcDbEntity
  8
0
  6
CONTINUOUS
 62
       3
100
AcDbLine
 10
40.27108292
 20
-74.23679441
 30
0.0
 11
40.4118644
 21
-74.17011699
 31
0.0
  0
LINE
  5
1AC
100
AcDbEntity
  8
0
  6
CONTINUOUS
 62
       3
100
AcDbLine
 10
40.88940409
 20
-73.78449221
 30
0.0
 11
40.98347753
 21
-73.66226783
 31
0.0
  0
LINE
  5
1AD
100
AcDbEntity
  8
0
  6
CONTINUOUS
 62
       3
100
AcDbLine
 10
38.50690981
 20
-73.89717144
 30
0.0
 11
38.62202024
 21
-73.99952339
 31
0.0
  0
LINE
  5
1AE
100
AcDbEntity
  8
0
  6
CONTINUOUS
 62
       3
100
AcDbLine
 10
39.1228344
 20
-100.77020051
 30
0.0
 11
38.97839362
 21
-100.83022661
 31
0.0
  0
LINE
  5
1AF
100
AcDbEntity
  8
0
  6
CONTINUOUS
 62
       3
100
AcDbLine
 10
38.05772951
 20
-102.5087208
 30
0.0
 11
38.08552167
 21
-102.66691732
 31
0.0
  0
LINE
  5
1B0
100
AcDbEntity
  8
0
  6
CONTINUOUS
 62
       3
100
AcDbLine
 10
38.18479721
 20
-102.96559564
 30
0.0
 11
38.25471636
 21
-103.1045167
 31
0.0
  0
LINE
  5
1B1
100
AcDbEntity
  8
0
  6
CONTINUOUS
 62
       3
100
AcDbLine
 10
40.4118644
 20
-74.17011699
 30
0.0
 11
40.54487025
 21
-74.09076594
 31
0.0
  0
LINE
  5
1B2
100
AcDbEntity
  8
0
  6
CONTINUOUS
 62
       3
100
AcDbLine
 10
38.56324737
 20
-71.51216051
 30
0.0
 11
38.45310522
 21
-71.61974528
 31
0.0
  0
LINE
  5
1B3
100
AcDbEntity
  8
0
  6
CONTINUOUS
 62
       3
100
AcDbLine
 10
38.12557391
 20
-72.14163732
 30
0.0
 11
38.07585665
 21
-72.29109231
 31
0.0
  0
LINE
  5
1B4
100
AcDbEntity
  8
0
  6
CONTINUOUS
 62
       3
100
AcDbLine
 10
39.48170177
 20
-74.35296375
 30
0.0
 11
39.6458602
 21
-74.3611255
 31
0.0
  0
LINE
  5
1B5
100
AcDbEntity
  8
0
  6
CONTINUOUS
 62
       3
100
AcDbLine
 10
41.05585587
 20
-101.43733189
 30
0.0
 11
40.96750276
 21
-101.31065527
 31
0.0
  0
LINE
  5
1B6
100
AcDbEntity
  8
0
  6
CONTINUOUS
 62
       3
100
AcDbLine
 10
40.2275135
 20
-100.77020051
 30
0.0
 11
40.07651946
 21
-100.72401719
 31
0.0
  0
LINE
  5
1B7
100
AcDbEntity
  8
0
  6
CONTINUOUS
 62
       3
100
AcDbLine
 10
38.53621393
 20
-103.47024289
 30
0.0
 11
38.65135277
 21
-103.57253802
 31
0.0
  0
LINE
  5
1B8
100
AcDbEntity
  8
0
  6
CONTINUOUS
 62
       3
100
AcDbLine
 10
38.77584124
 20
-103.66372568
 30
0.0
 11
38.90889722
 21
-103.74302553
 31
0.0
  0
LINE
  5
1B9
100
AcDbEntity
  8
0
  6
CONTINUOUS
 62
       3
100
AcDbLine
 10
37.43545249
 20
-94.71089112
 30
0.0
 11
45.72672935
 21
-94.71089112
 31
0.0
  0
LINE
  5
1BA
100
AcDbEntity
  8
0
  6
CONTINUOUS
 62
       3
100
AcDbLine
 10
45.72672935
 20
-85.55734132
 30
0.0
 11
37.43545249
 21
-85.55734132
 31
0.0
  0
LINE
  5
1BB
100
AcDbEntity
  8
0
  6
CONTINUOUS
 62
       3
100
AcDbLine
 10
42.63482505
 20
-74.58312745
 30
0.0
 11
42.63482505
 21
-70.30524904
 31
0.0
  0
LINE
  5
1BC
100
AcDbEntity
  8
0
  6
CONTINUOUS
 62
       3
100
AcDbLine
 10
51.09818441
 20
-100.43612305
 30
0.0
 11
51.09818441
 21
-74.64730958
 31
0.0
  0
LINE
  5
1BD
100
AcDbEntity
  8
0
  6
CONTINUOUS
 62
       3
100
AcDbLine
 10
39.09341578
 20
-71.19681184
 30
0.0
 11
38.94899621
 21
-71.25683794
 31
0.0
  0
LINE
  5
1BE
100
AcDbEntity
  8
0
  6
CONTINUOUS
 62
       3
100
AcDbLine
 10
38.81197412
 20
-71.32992559
 30
0.0
 11
38.68313075
 21
-71.41529353
 31
0.0
  0
LINE
  5
1BF
100
AcDbEntity
  8
0
  6
CONTINUOUS
 62
       3
100
AcDbLine
 10
38.35348555
 20
-71.7372666
 30
0.0
 11
38.26516961
 21
-71.86394321
 31
0.0
  0
LINE
  5
1C0
100
AcDbEntity
  8
0
  6
CONTINUOUS
 62
       3
100
AcDbLine
 10
38.30786578
 20
-73.66226783
 30
0.0
 11
38.40193125
 21
-73.78449221
 31
0.0
  0
LINE
  5
1C1
100
AcDbEntity
  8
0
  6
CONTINUOUS
 62
       3
100
AcDbLine
 10
40.3005856
 20
-103.80965719
 30
0.0
 11
40.44138997
 21
-103.74302553
 31
0.0
  0
LINE
  5
1C2
100
AcDbEntity
  8
0
  6
CONTINUOUS
 62
       3
100
AcDbLine
 10
38.10502579
 20
-101.86448098
 30
0.0
 11
38.06972365
 21
-102.01996627
 31
0.0
  0
LINE
  5
1C3
100
AcDbEntity
  8
0
  6
CONTINUOUS
 62
       3
100
AcDbLine
 10
38.06972365
 20
-102.01996627
 30
0.0
 11
38.049637
 21
-102.18070062
 31
0.0
  0
LINE
  5
1C4
100
AcDbEntity
  8
0
  6
CONTINUOUS
 62
       3
100
AcDbLine
 10
38.25471636
 20
-103.1045167
 30
0.0
 11
38.33711361
 21
-103.23545185
 31
0.0
  0
LINE
  5
1C5
100
AcDbEntity
  8
0
  6
CONTINUOUS
 62
       3
100
AcDbLine
 10
38.02857878
 20
-72.93534258
 30
0.0
 11
38.05635997
 21
-73.09356102
 31
0.0
  0
LINE
  5
1C6
100
AcDbEntity
  8
0
  6
CONTINUOUS
 62
       3
100
AcDbLine
 10
41.09554986
 20
-103.1045167
 30
0.0
 11
41.16548283
 21
-102.96559564
 31
0.0
  0
LINE
  5
1C7
100
AcDbEntity
  8
0
  6
CONTINUOUS
 62
       3
100
AcDbLine
 10
40.5089263
 20
-100.90331425
 30
0.0
 11
40.37191041
 21
-100.83022661
 31
0.0
  0
LINE
  5
1C8
100
AcDbEntity
  8
0
  6
CONTINUOUS
 62
       3
100
AcDbLine
 10
38.12813826
 20
-102.81946905
 30
0.0
 11
38.18479721
 21
-102.96559564
 31
0.0
  0
LINE
  5
1C9
100
AcDbEntity
  8
0
  6
CONTINUOUS
 62
       3
100
AcDbLine
 10
123.70332818
 20
-76.29766065
 30
0.0
 11
123.58342585
 21
-76.20070956
 31
0.0
  0
LINE
  5
1CA
100
AcDbEntity
  8
0
  6
CONTINUOUS
 62
       3
100
AcDbLine
 10
123.31755893
 20
-76.04210104
 30
0.0
 11
123.17316203
 21
-75.98201131
 31
0.0
  0
LINE
  5
1CB
100
AcDbEntity
  8
0
  6
CONTINUOUS
 62
       3
100
AcDbLine
 10
121.4820139
 20
-78.68303162
 30
0.0
 11
121.59712432
 21
-78.78535515
 31
0.0
  0
LINE
  5
1CC
100
AcDbEntity
  8
0
  6
CONTINUOUS
 62
       3
100
AcDbLine
 10
122.43802972
 20
-70.31016431
 30
0.0
 11
119.08288568
 21
-70.31016431
 31
0.0
  0
LINE
  5
1CD
100
AcDbEntity
  8
0
  6
CONTINUOUS
 62
       3
100
AcDbLine
 10
124.00150438
 20
-96.63103273
 30
0.0
 11
123.91315129
 21
-96.50434539
 31
0.0
  0
LINE
  5
1CE
100
AcDbEntity
  8
0
  6
CONTINUOUS
 62
       3
100
AcDbLine
 10
122.53835102
 20
-95.86973164
 30
0.0
 11
122.37642649
 21
-95.88589831
 31
0.0
  0
LINE
  5
1CF
100
AcDbEntity
  8
0
  6
CONTINUOUS
 62
       3
100
AcDbLine
 10
122.21955569
 20
-95.91748046
 30
0.0
 11
122.06851988
 21
-95.96369423
 31
0.0
  0
LINE
  5
1D0
100
AcDbEntity
  8
0
  6
CONTINUOUS
 62
       3
100
AcDbLine
 10
121.10067799
 20
-96.90870603
 30
0.0
 11
121.05096074
 21
-97.05812428
 31
0.0
  0
LINE
  5
1D1
100
AcDbEntity
  8
0
  6
CONTINUOUS
 62
       3
100
AcDbLine
 10
124.16780445
 20
-93.01803467
 30
0.0
 11
124.2104338
 21
-92.86542735
 31
0.0
  0
LINE
  5
1D2
100
AcDbEntity
  8
0
  6
CONTINUOUS
 62
       3
100
AcDbLine
 10
122.21955569
 20
-90.92239926
 30
0.0
 11
122.06851988
 21
-90.96858257
 31
0.0
  0
LINE
  5
1D3
100
AcDbEntity
  8
0
  6
CONTINUOUS
 62
       3
100
AcDbLine
 10
121.4820139
 20
-93.66905663
 30
0.0
 11
121.59712432
 21
-93.77139237
 31
0.0
  0
LINE
  5
1D4
100
AcDbEntity
  8
0
  6
CONTINUOUS
 62
       3
100
AcDbLine
 10
123.52006993
 20
-88.86696821
 30
0.0
 11
123.64454459
 21
-88.7757531
 31
0.0
  0
LINE
  5
1D5
100
AcDbEntity
  8
0
  6
CONTINUOUS
 62
       3
100
AcDbLine
 10
123.58342585
 20
-86.19171026
 30
0.0
 11
123.45457482
 21
-86.10634232
 31
0.0
  0
LINE
  5
1D6
100
AcDbEntity
  8
0
  6
CONTINUOUS
 62
       3
100
AcDbLine
 10
122.70352379
 20
-85.87933199
 30
0.0
 11
122.53835102
 21
-85.87933199
 31
0.0
  0
LINE
  5
1D7
100
AcDbEntity
  8
0
  6
CONTINUOUS
 62
       3
100
AcDbLine
 10
122.62096429
 20
-84.14218823
 30
0.0
 11
122.78502189
 21
-84.1340231
 31
0.0
  0
LINE
  5
1D8
100
AcDbEntity
  8
0
  6
CONTINUOUS
 62
       3
100
AcDbLine
 10
124.16780445
 20
-83.02692979
 30
0.0
 11
124.2104338
 21
-82.87432988
 31
0.0
  0
LINE
  5
1D9
100
AcDbEntity
  8
0
  6
CONTINUOUS
 62
       3
100
AcDbLine
 10
123.38703849
 20
-78.95589572
 30
0.0
 11
123.52006993
 21
-78.87657027
 31
0.0
  0
LINE
  5
1DA
100
AcDbEntity
  8
0
  6
CONTINUOUS
 62
       3
100
AcDbLine
 10
123.86468816
 20
-78.57038091
 30
0.0
 11
123.95878936
 21
-78.44818429
 31
0.0
  0
LINE
  5
1DB
100
AcDbEntity
  8
0
  6
CONTINUOUS
 62
       3
100
AcDbLine
 10
124.23823556
 20
-77.72135614
 30
0.0
 11
124.25042588
 21
-77.55829025
 31
0.0
  0
LINE
  5
1DC
100
AcDbEntity
  8
0
  6
CONTINUOUS
 62
       3
100
AcDbLine
 10
121.20059876
 20
-78.31722301
 30
0.0
 11
121.28296987
 21
-78.44818429
 31
0.0
  0
LINE
  5
1DD
100
AcDbEntity
  8
0
  6
CONTINUOUS
 62
       3
100
AcDbLine
 10
117.34531732
 20
-74.65222486
 30
0.0
 11
117.34531732
 21
-100.4149934
 31
0.0
  0
LINE
  5
1DE
100
AcDbEntity
  8
0
  6
CONTINUOUS
 62
       3
100
AcDbLine
 10
119.05684076
 20
-100.4149934
 30
0.0
 11
119.05684076
 21
-104.7567439
 31
0.0
  0
LINE
  5
1DF
100
AcDbEntity
  8
0
  6
CONTINUOUS
 62
       3
100
AcDbLine
 10
120.07011224
 20
-98.34473217
 30
0.0
 11
120.07011224
 21
-96.65119213
 31
0.0
  0
LINE
  5
1E0
100
AcDbEntity
  8
0
  6
CONTINUOUS
 62
       3
100
AcDbLine
 10
120.07011224
 20
-86.66079419
 30
0.0
 11
119.11761224
 21
-86.66079419
 31
0.0
  0
LINE
  5
1E1
100
AcDbEntity
  8
0
  6
CONTINUOUS
 62
       3
100
AcDbLine
 10
119.11761224
 20
-81.66513013
 30
0.0
 11
119.11761224
 21
-83.35867017
 31
0.0
  0
LINE
  5
1E2
100
AcDbEntity
  8
0
  6
CONTINUOUS
 62
       3
100
AcDbLine
 10
123.38703849
 20
-98.93717173
 30
0.0
 11
123.52006993
 21
-98.85779508
 31
0.0
  0
LINE
  5
1E3
100
AcDbEntity
  8
0
  6
CONTINUOUS
 62
       3
100
AcDbLine
 10
123.81349794
 20
-96.38680272
 30
0.0
 11
123.70332818
 21
-96.27918859
 31
0.0
  0
LINE
  5
1E4
100
AcDbEntity
  8
0
  6
CONTINUOUS
 62
       3
100
AcDbLine
 10
120.99559366
 20
-97.37420475
 30
0.0
 11
120.99150227
 21
-97.53908658
 31
0.0
  0
LINE
  5
1E5
100
AcDbEntity
  8
0
  6
CONTINUOUS
 62
       3
100
AcDbLine
 10
121.20059876
 20
-98.29817126
 30
0.0
 11
121.28296987
 21
-98.42918482
 31
0.0
  0
LINE
  5
1E6
100
AcDbEntity
  8
0
  6
CONTINUOUS
 62
       3
100
AcDbLine
 10
122.14325958
 20
-99.05711302
 30
0.0
 11
122.29731054
 21
-99.09611171
 31
0.0
  0
LINE
  5
1E7
100
AcDbEntity
  8
0
  6
CONTINUOUS
 62
       3
100
AcDbLine
 10
120.99150227
 20
-92.54405629
 30
0.0
 11
121.00368286
 21
-92.70717428
 31
0.0
  0
LINE
  5
1E8
100
AcDbEntity
  8
0
  6
CONTINUOUS
 62
       3
100
AcDbLine
 10
121.13070325
 20
-93.16421544
 30
0.0
 11
121.20059876
 21
-93.30318884
 31
0.0
  0
LINE
  5
1E9
100
AcDbEntity
  8
0
  6
CONTINUOUS
 62
       3
100
AcDbLine
 10
121.37703533
 20
-93.55639025
 30
0.0
 11
121.4820139
 21
-93.66905663
 31
0.0
  0
LINE
  5
1EA
100
AcDbEntity
  8
0
  6
CONTINUOUS
 62
       3
100
AcDbLine
 10
121.99543423
 20
-94.00860763
 30
0.0
 11
122.14325958
 21
-94.06181268
 31
0.0
  0
LINE
  5
1EB
100
AcDbEntity
  8
0
  6
CONTINUOUS
 62
       3
100
AcDbLine
 10
122.37642649
 20
-85.89548598
 30
0.0
 11
122.21955569
 21
-85.92704525
 31
0.0
  0
LINE
  5
1EC
100
AcDbEntity
  8
0
  6
CONTINUOUS
 62
       3
100
AcDbLine
 10
121.03146406
 20
-87.86996156
 30
0.0
 11
121.0740646
 21
-88.02252936
 31
0.0
  0
LINE
  5
1ED
100
AcDbEntity
  8
0
  6
CONTINUOUS
 62
       3
100
AcDbLine
 10
123.75967862
 20
-83.67808272
 30
0.0
 11
123.86468816
 21
-83.56537497
 31
0.0
  0
LINE
  5
1EE
100
AcDbEntity
  8
0
  6
CONTINUOUS
 62
       3
100
AcDbLine
 10
121.05096074
 20
-82.07206227
 30
0.0
 11
121.01567221
 21
-82.2274898
 31
0.0
  0
LINE
  5
1EF
100
AcDbEntity
  8
0
  6
CONTINUOUS
 62
       3
100
AcDbLine
 10
121.37703533
 20
-83.56537497
 30
0.0
 11
121.4820139
 21
-83.67808272
 31
0.0
  0
LINE
  5
1F0
100
AcDbEntity
  8
0
  6
CONTINUOUS
 62
       3
100
AcDbLine
 10
123.52006993
 20
-78.87657027
 30
0.0
 11
123.64454459
 21
-78.78535515
 31
0.0
  0
LINE
  5
1F1
100
AcDbEntity
  8
0
  6
CONTINUOUS
 62
       3
100
AcDbLine
 10
123.95878936
 20
-78.44818429
 30
0.0
 11
124.04119838
 21
-78.31722301
 31
0.0
  0
LINE
  5
1F2
100
AcDbEntity
  8
0
  6
CONTINUOUS
 62
       3
100
AcDbLine
 10
121.72158535
 20
-78.87657027
 30
0.0
 11
121.85461574
 21
-78.95589572
 31
0.0
  0
LINE
  5
1F3
100
AcDbEntity
  8
0
  6
CONTINUOUS
 62
       3
100
AcDbLine
 10
119.11761224
 20
-96.65119213
 30
0.0
 11
119.11761224
 21
-98.34473217
 31
0.0
  0
LINE
  5
1F4
100
AcDbEntity
  8
0
  6
CONTINUOUS
 62
       3
100
AcDbLine
 10
120.07011224
 20
-88.35433423
 30
0.0
 11
120.07011224
 21
-86.66079419
 31
0.0
  0
LINE
  5
1F5
100
AcDbEntity
  8
0
  6
CONTINUOUS
 62
       3
100
AcDbLine
 10
119.11761224
 20
-83.35867017
 30
0.0
 11
120.07011224
 21
-83.35867017
 31
0.0
  0
LINE
  5
1F6
100
AcDbEntity
  8
0
  6
CONTINUOUS
 62
       3
100
AcDbLine
 10
122.62096429
 20
-99.12825024
 30
0.0
 11
122.78502189
 21
-99.12008511
 31
0.0
  0
LINE
  5
1F7
100
AcDbEntity
  8
0
  6
CONTINUOUS
 62
       3
100
AcDbLine
 10
120.99150227
 20
-97.53908658
 30
0.0
 11
121.00368286
 21
-97.70216248
 31
0.0
  0
LINE
  5
1F8
100
AcDbEntity
  8
0
  6
CONTINUOUS
 62
       3
100
AcDbLine
 10
122.53835102
 20
-90.87468599
 30
0.0
 11
122.37642649
 21
-90.89083998
 31
0.0
  0
LINE
  5
1F9
100
AcDbEntity
  8
0
  6
CONTINUOUS
 62
       3
100
AcDbLine
 10
121.53835146
 20
-91.28393125
 30
0.0
 11
121.4282093
 21
-91.39151602
 31
0.0
  0
LINE
  5
1FA
100
AcDbEntity
  8
0
  6
CONTINUOUS
 62
       3
100
AcDbLine
 10
124.25042588
 20
-87.5486882
 30
0.0
 11
124.24633114
 21
-87.38372868
 31
0.0
  0
LINE
  5
1FB
100
AcDbEntity
  8
0
  6
CONTINUOUS
 62
       3
100
AcDbLine
 10
124.22623712
 20
-87.22299434
 30
0.0
 11
124.19092358
 21
-87.06750905
 31
0.0
  0
LINE
  5
1FC
100
AcDbEntity
  8
0
  6
CONTINUOUS
 62
       3
100
AcDbLine
 10
121.16404273
 20
-86.7754106
 30
0.0
 11
121.10067799
 21
-86.91805405
 31
0.0
  0
LINE
  5
1FD
100
AcDbEntity
  8
0
  6
CONTINUOUS
 62
       3
100
AcDbLine
 10
120.99559366
 20
-87.38372868
 30
0.0
 11
120.99150227
 21
-87.5486882
 31
0.0
  0
LINE
  5
1FE
100
AcDbEntity
  8
0
  6
CONTINUOUS
 62
       3
100
AcDbLine
 10
122.86536061
 20
-80.8998363
 30
0.0
 11
122.70352379
 21
-80.88366964
 31
0.0
  0
LINE
  5
1FF
100
AcDbEntity
  8
0
  6
CONTINUOUS
 62
       3
100
AcDbLine
 10
121.7870782
 20
-81.11081925
 30
0.0
 11
121.65823484
 21
-81.19622479
 31
0.0
  0
LINE
  5
200
100
AcDbEntity
  8
0
  6
CONTINUOUS
 62
       3
100
AcDbLine
 10
120.99150227
 20
-82.55302457
 30
0.0
 11
121.00368286
 21
-82.71610047
 31
0.0
  0
LINE
  5
201
100
AcDbEntity
  8
0
  6
CONTINUOUS
 62
       3
100
AcDbLine
 10
123.91315129
 20
-76.52293723
 30
0.0
 11
123.81349794
 21
-76.40533116
 31
0.0
  0
LINE
  5
202
100
AcDbEntity
  8
0
  6
CONTINUOUS
 62
       3
100
AcDbLine
 10
121.65823484
 20
-76.20070956
 30
0.0
 11
121.53835146
 21
-76.29766065
 31
0.0
  0
LINE
  5
203
100
AcDbEntity
  8
0
  6
CONTINUOUS
 62
       3
100
AcDbLine
 10
121.00368286
 20
-77.72135614
 30
0.0
 11
121.03146406
 21
-77.87956362
 31
0.0
  0
LINE
  5
204
100
AcDbEntity
  8
0
  6
CONTINUOUS
 62
       3
100
AcDbLine
 10
122.29731054
 20
-79.11472157
 30
0.0
 11
122.45680586
 21
-79.13867586
 31
0.0
  0
LINE
  5
205
100
AcDbEntity
  8
0
  6
CONTINUOUS
 62
       3
100
AcDbLine
 10
118.06496332
 20
-74.65222486
 30
0.0
 11
118.06496332
 21
-100.4149934
 31
0.0
  0
LINE
  5
206
100
AcDbEntity
  8
0
  6
CONTINUOUS
 62
       3
100
AcDbLine
 10
119.08288568
 20
-70.31016431
 30
0.0
 11
119.08288568
 21
-74.65222486
 31
0.0
  0
LINE
  5
207
100
AcDbEntity
  8
0
  6
CONTINUOUS
 62
       3
100
AcDbLine
 10
119.11761224
 20
-98.34473217
 30
0.0
 11
120.07011224
 21
-98.34473217
 31
0.0
  0
LINE
  5
208
100
AcDbEntity
  8
0
  6
CONTINUOUS
 62
       3
100
AcDbLine
 10
120.07011224
 20
-78.36331616
 30
0.0
 11
120.07011224
 21
-76.66977612
 31
0.0
  0
LINE
  5
209
100
AcDbEntity
  8
0
  6
CONTINUOUS
 62
       3
100
AcDbLine
 10
124.04119838
 20
-98.29817126
 30
0.0
 11
124.11113136
 21
-98.15917925
 31
0.0
  0
LINE
  5
20A
100
AcDbEntity
  8
0
  6
CONTINUOUS
 62
       3
100
AcDbLine
 10
123.70332818
 20
-96.27918859
 30
0.0
 11
123.58342585
 21
-96.1822868
 31
0.0
  0
LINE
  5
20B
100
AcDbEntity
  8
0
  6
CONTINUOUS
 62
       3
100
AcDbLine
 10
123.58342585
 20
-96.1822868
 30
0.0
 11
123.45457482
 21
-96.09688126
 31
0.0
  0
LINE
  5
20C
100
AcDbEntity
  8
0
  6
CONTINUOUS
 62
       3
100
AcDbLine
 10
123.31755893
 20
-96.02375578
 30
0.0
 11
123.17316203
 21
-95.96369423
 31
0.0
  0
LINE
  5
20D
100
AcDbEntity
  8
0
  6
CONTINUOUS
 62
       3
100
AcDbLine
 10
122.29731054
 20
-99.09611171
 30
0.0
 11
122.45680586
 21
-99.12008511
 31
0.0
  0
LINE
  5
20E
100
AcDbEntity
  8
0
  6
CONTINUOUS
 62
       3
100
AcDbLine
 10
122.94444197
 20
-94.100783
 30
0.0
 11
123.09844066
 21
-94.06181268
 31
0.0
  0
LINE
  5
20F
100
AcDbEntity
  8
0
  6
CONTINUOUS
 62
       3
100
AcDbLine
 10
124.23823556
 20
-92.70717428
 30
0.0
 11
124.25042588
 21
-92.54405629
 31
0.0
  0
LINE
  5
210
100
AcDbEntity
  8
0
  6
CONTINUOUS
 62
       3
100
AcDbLine
 10
123.31755893
 20
-91.02860868
 30
0.0
 11
123.17316203
 21
-90.96858257
 31
0.0
  0
LINE
  5
211
100
AcDbEntity
  8
0
  6
CONTINUOUS
 62
       3
100
AcDbLine
 10
120.99559366
 20
-92.37908269
 30
0.0
 11
120.99150227
 21
-92.54405629
 31
0.0
  0
LINE
  5
212
100
AcDbEntity
  8
0
  6
CONTINUOUS
 62
       3
100
AcDbLine
 10
121.00368286
 20
-92.70717428
 30
0.0
 11
121.03146406
 21
-92.86542735
 31
0.0
  0
LINE
  5
213
100
AcDbEntity
  8
0
  6
CONTINUOUS
 62
       3
100
AcDbLine
 10
121.9241003
 20
-86.03325468
 30
0.0
 11
121.7870782
 21
-86.10634232
 31
0.0
  0
LINE
  5
214
100
AcDbEntity
  8
0
  6
CONTINUOUS
 62
       3
100
AcDbLine
 10
121.32858963
 20
-86.51368333
 30
0.0
 11
121.24027369
 21
-86.64035995
 31
0.0
  0
LINE
  5
215
100
AcDbEntity
  8
0
  6
CONTINUOUS
 62
       3
100
AcDbLine
 10
123.86468816
 20
-83.56537497
 30
0.0
 11
123.95878936
 21
-83.44312282
 31
0.0
  0
LINE
  5
216
100
AcDbEntity
  8
0
  6
CONTINUOUS
 62
       3
100
AcDbLine
 10
123.95878936
 20
-83.44312282
 30
0.0
 11
124.04119838
 21
-83.31210925
 31
0.0
  0
LINE
  5
217
100
AcDbEntity
  8
0
  6
CONTINUOUS
 62
       3
100
AcDbLine
 10
124.04119838
 20
-83.31210925
 30
0.0
 11
124.11113136
 21
-83.17311725
 31
0.0
  0
LINE
  5
218
100
AcDbEntity
  8
0
  6
CONTINUOUS
 62
       3
100
AcDbLine
 10
124.2104338
 20
-82.87432988
 30
0.0
 11
124.23823556
 21
-82.71610047
 31
0.0
  0
LINE
  5
219
100
AcDbEntity
  8
0
  6
CONTINUOUS
 62
       3
100
AcDbLine
 10
122.37642649
 20
-80.8998363
 30
0.0
 11
122.21955569
 21
-80.93141845
 31
0.0
  0
LINE
  5
21A
100
AcDbEntity
  8
0
  6
CONTINUOUS
 62
       3
100
AcDbLine
 10
121.4282093
 20
-81.40074071
 30
0.0
 11
121.32858963
 21
-81.51828338
 31
0.0
  0
LINE
  5
21B
100
AcDbEntity
  8
0
  6
CONTINUOUS
 62
       3
100
AcDbLine
 10
123.09844066
 20
-79.07575262
 30
0.0
 11
123.24623412
 21
-79.02255025
 31
0.0
  0
LINE
  5
21C
100
AcDbEntity
  8
0
  6
CONTINUOUS
 62
       3
100
AcDbLine
 10
121.53835146
 20
-76.29766065
 30
0.0
 11
121.4282093
 21
-76.40533116
 31
0.0
  0
LINE
  5
21D
100
AcDbEntity
  8
0
  6
CONTINUOUS
 62
       3
100
AcDbLine
 10
120.99150227
 20
-77.55829025
 30
0.0
 11
121.00368286
 21
-77.72135614
 31
0.0
  0
LINE
  5
21E
100
AcDbEntity
  8
0
  6
CONTINUOUS
 62
       3
100
AcDbLine
 10
121.03146406
 20
-77.87956362
 30
0.0
 11
121.0740646
 21
-78.03213142
 31
0.0
  0
LINE
  5
21F
100
AcDbEntity
  8
0
  6
CONTINUOUS
 62
       3
100
AcDbLine
 10
121.37703533
 20
-78.57038091
 30
0.0
 11
121.4820139
 21
-78.68303162
 31
0.0
  0
LINE
  5
220
100
AcDbEntity
  8
0
  6
CONTINUOUS
 62
       3
100
AcDbLine
 10
119.11761224
 20
-93.34906811
 30
0.0
 11
120.07011224
 21
-93.34906811
 31
0.0
  0
LINE
  5
221
100
AcDbEntity
  8
0
  6
CONTINUOUS
 62
       3
100
AcDbLine
 10
120.07011224
 20
-76.66977612
 30
0.0
 11
119.11761224
 21
-76.66977612
 31
0.0
  0
LINE
  5
222
100
AcDbEntity
  8
0
  6
CONTINUOUS
 62
       3
100
AcDbLine
 10
122.78502189
 20
-99.12008511
 30
0.0
 11
122.94444197
 21
-99.09611171
 31
0.0
  0
LINE
  5
223
100
AcDbEntity
  8
0
  6
CONTINUOUS
 62
       3
100
AcDbLine
 10
124.24633114
 20
-97.37420475
 30
0.0
 11
124.22623712
 21
-97.2135518
 31
0.0
  0
LINE
  5
224
100
AcDbEntity
  8
0
  6
CONTINUOUS
 62
       3
100
AcDbLine
 10
121.53835146
 20
-96.27918859
 30
0.0
 11
121.4282093
 21
-96.38680272
 31
0.0
  0
LINE
  5
225
100
AcDbEntity
  8
0
  6
CONTINUOUS
 62
       3
100
AcDbLine
 10
121.37703533
 20
-98.55143697
 30
0.0
 11
121.4820139
 21
-98.66414473
 31
0.0
  0
LINE
  5
226
100
AcDbEntity
  8
0
  6
CONTINUOUS
 62
       3
100
AcDbLine
 10
123.38703849
 20
-93.94194869
 30
0.0
 11
123.52006993
 21
-93.86261667
 31
0.0
  0
LINE
  5
227
100
AcDbEntity
  8
0
  6
CONTINUOUS
 62
       3
100
AcDbLine
 10
123.02216797
 20
-90.92239926
 30
0.0
 11
122.86536061
 21
-90.89083998
 31
0.0
  0
LINE
  5
228
100
AcDbEntity
  8
0
  6
CONTINUOUS
 62
       3
100
AcDbLine
 10
123.75967862
 20
-88.67342956
 30
0.0
 11
123.86468816
 21
-88.56077886
 31
0.0
  0
LINE
  5
229
100
AcDbEntity
  8
0
  6
CONTINUOUS
 62
       3
100
AcDbLine
 10
124.19092358
 20
-87.06750905
 30
0.0
 11
124.14117438
 21
-86.91805405
 31
0.0
  0
LINE
  5
22A
100
AcDbEntity
  8
0
  6
CONTINUOUS
 62
       3
100
AcDbLine
 10
121.7870782
 20
-86.10634232
 30
0.0
 11
121.65823484
 21
-86.19171026
 31
0.0
  0
LINE
  5
22B
100
AcDbEntity
  8
0
  6
CONTINUOUS
 62
       3
100
AcDbLine
 10
121.65823484
 20
-86.19171026
 30
0.0
 11
121.53835146
 21
-86.28857724
 31
0.0
  0
LINE
  5
22C
100
AcDbEntity
  8
0
  6
CONTINUOUS
 62
       3
100
AcDbLine
 10
121.59712432
 20
-88.7757531
 30
0.0
 11
121.72158535
 21
-88.86696821
 31
0.0
  0
LINE
  5
22D
100
AcDbEntity
  8
0
  6
CONTINUOUS
 62
       3
100
AcDbLine
 10
121.99543423
 20
-89.0129482
 30
0.0
 11
122.14325958
 21
-89.06615056
 31
0.0
  0
LINE
  5
22E
100
AcDbEntity
  8
0
  6
CONTINUOUS
 62
       3
100
AcDbLine
 10
123.09844066
 20
-84.07105102
 30
0.0
 11
123.24623412
 21
-84.01781003
 31
0.0
  0
LINE
  5
22F
100
AcDbEntity
  8
0
  6
CONTINUOUS
 62
       3
100
AcDbLine
 10
123.52006993
 20
-83.87173308
 30
0.0
 11
123.64454459
 21
-83.78046308
 31
0.0
  0
LINE
  5
230
100
AcDbEntity
  8
0
  6
CONTINUOUS
 62
       3
100
AcDbLine
 10
124.00150438
 20
-81.64497072
 30
0.0
 11
123.91315129
 21
-81.51828338
 31
0.0
  0
LINE
  5
231
100
AcDbEntity
  8
0
  6
CONTINUOUS
 62
       3
100
AcDbLine
 10
123.91315129
 20
-81.51828338
 30
0.0
 11
123.81349794
 21
-81.40074071
 31
0.0
  0
LINE
  5
232
100
AcDbEntity
  8
0
  6
CONTINUOUS
 62
       3
100
AcDbLine
 10
121.0740646
 20
-83.02692979
 30
0.0
 11
121.13070325
 21
-83.17311725
 31
0.0
  0
LINE
  5
233
100
AcDbEntity
  8
0
  6
CONTINUOUS
 62
       3
100
AcDbLine
 10
121.59712432
 20
-83.78046308
 30
0.0
 11
121.72158535
 21
-83.87173308
 31
0.0
  0
LINE
  5
234
100
AcDbEntity
  8
0
  6
CONTINUOUS
 62
       3
100
AcDbLine
 10
124.04119838
 20
-78.31722301
 30
0.0
 11
124.11113136
 21
-78.1782783
 31
0.0
  0
LINE
  5
235
100
AcDbEntity
  8
0
  6
CONTINUOUS
 62
       3
100
AcDbLine
 10
124.11113136
 20
-78.1782783
 30
0.0
 11
124.16780445
 21
-78.03213142
 31
0.0
  0
LINE
  5
236
100
AcDbEntity
  8
0
  6
CONTINUOUS
 62
       3
100
AcDbLine
 10
124.25042588
 20
-77.55829025
 30
0.0
 11
124.24633114
 21
-77.39332497
 31
0.0
  0
LINE
  5
237
100
AcDbEntity
  8
0
  6
CONTINUOUS
 62
       3
100
AcDbLine
 10
123.17316203
 20
-75.98201131
 30
0.0
 11
123.02216797
 21
-75.93577641
 31
0.0
  0
LINE
  5
238
100
AcDbEntity
  8
0
  6
CONTINUOUS
 62
       3
100
AcDbLine
 10
121.85461574
 20
-78.95589572
 30
0.0
 11
121.99543423
 21
-79.02255025
 31
0.0
  0
LINE
  5
239
100
AcDbEntity
  8
0
  6
CONTINUOUS
 62
       3
100
AcDbLine
 10
121.99543423
 20
-79.02255025
 30
0.0
 11
122.14325958
 21
-79.07575262
 31
0.0
  0
LINE
  5
23A
100
AcDbEntity
  8
0
  6
CONTINUOUS
 62
       3
100
AcDbLine
 10
117.34531732
 20
-100.4149934
 30
0.0
 11
126.35934075
 21
-100.4149934
 31
0.0
  0
LINE
  5
23B
100
AcDbEntity
  8
0
  6
CONTINUOUS
 62
       3
100
AcDbLine
 10
124.23823556
 20
-97.70216248
 30
0.0
 11
124.25042588
 21
-97.53908658
 31
0.0
  0
LINE
  5
23C
100
AcDbEntity
  8
0
  6
CONTINUOUS
 62
       3
100
AcDbLine
 10
121.72158535
 20
-98.85779508
 30
0.0
 11
121.85461574
 21
-98.93717173
 31
0.0
  0
LINE
  5
23D
100
AcDbEntity
  8
0
  6
CONTINUOUS
 62
       3
100
AcDbLine
 10
123.75967862
 20
-93.66905663
 30
0.0
 11
123.86468816
 21
-93.55639025
 31
0.0
  0
LINE
  5
23E
100
AcDbEntity
  8
0
  6
CONTINUOUS
 62
       3
100
AcDbLine
 10
124.11113136
 20
-93.16421544
 30
0.0
 11
124.16780445
 21
-93.01803467
 31
0.0
  0
LINE
  5
23F
100
AcDbEntity
  8
0
  6
CONTINUOUS
 62
       3
100
AcDbLine
 10
124.00150438
 20
-91.63571396
 30
0.0
 11
123.91315129
 21
-91.50903734
 31
0.0
  0
LINE
  5
240
100
AcDbEntity
  8
0
  6
CONTINUOUS
 62
       3
100
AcDbLine
 10
123.45457482
 20
-91.10169633
 30
0.0
 11
123.31755893
 21
-91.02860868
 31
0.0
  0
LINE
  5
241
100
AcDbEntity
  8
0
  6
CONTINUOUS
 62
       3
100
AcDbLine
 10
122.94444197
 20
-89.10511952
 30
0.0
 11
123.09844066
 21
-89.06615056
 31
0.0
  0
LINE
  5
242
100
AcDbEntity
  8
0
  6
CONTINUOUS
 62
       3
100
AcDbLine
 10
123.45457482
 20
-86.10634232
 30
0.0
 11
123.31755893
 21
-86.03325468
 31
0.0
  0
LINE
  5
243
100
AcDbEntity
  8
0
  6
CONTINUOUS
 62
       3
100
AcDbLine
 10
123.02216797
 20
-85.92704525
 30
0.0
 11
122.86536061
 21
-85.89548598
 31
0.0
  0
LINE
  5
244
100
AcDbEntity
  8
0
  6
CONTINUOUS
 62
       3
100
AcDbLine
 10
122.29731054
 20
-89.10511952
 30
0.0
 11
122.45680586
 21
-89.1290738
 31
0.0
  0
LINE
  5
245
100
AcDbEntity
  8
0
  6
CONTINUOUS
 62
       3
100
AcDbLine
 10
124.19092358
 20
-82.07206227
 30
0.0
 11
124.14117438
 21
-81.92264402
 31
0.0
  0
LINE
  5
246
100
AcDbEntity
  8
0
  6
CONTINUOUS
 62
       3
100
AcDbLine
 10
123.31755893
 20
-81.03769377
 30
0.0
 11
123.17316203
 21
-80.97763222
 31
0.0
  0
LINE
  5
247
100
AcDbEntity
  8
0
  6
CONTINUOUS
 62
       3
100
AcDbLine
 10
123.17316203
 20
-80.97763222
 30
0.0
 11
123.02216797
 21
-80.93141845
 31
0.0
  0
LINE
  5
248
100
AcDbEntity
  8
0
  6
CONTINUOUS
 62
       3
100
AcDbLine
 10
121.9241003
 20
-81.03769377
 30
0.0
 11
121.7870782
 21
-81.11081925
 31
0.0
  0
LINE
  5
249
100
AcDbEntity
  8
0
  6
CONTINUOUS
 62
       3
100
AcDbLine
 10
121.16404273
 20
-81.78001889
 30
0.0
 11
121.10067799
 21
-81.92264402
 31
0.0
  0
LINE
  5
24A
100
AcDbEntity
  8
0
  6
CONTINUOUS
 62
       3
100
AcDbLine
 10
121.01567221
 20
-82.2274898
 30
0.0
 11
120.99559366
 21
-82.38814274
 31
0.0
  0
LINE
  5
24B
100
AcDbEntity
  8
0
  6
CONTINUOUS
 62
       3
100
AcDbLine
 10
121.72158535
 20
-83.87173308
 30
0.0
 11
121.85461574
 21
-83.95110972
 31
0.0
  0
LINE
  5
24C
100
AcDbEntity
  8
0
  6
CONTINUOUS
 62
       3
100
AcDbLine
 10
122.53835102
 20
-75.88800646
 30
0.0
 11
122.37642649
 21
-75.90418017
 31
0.0
  0
LINE
  5
24D
100
AcDbEntity
  8
0
  6
CONTINUOUS
 62
       3
100
AcDbLine
 10
122.21955569
 20
-75.93577641
 30
0.0
 11
122.06851988
 21
-75.98201131
 31
0.0
  0
LINE
  5
24E
100
AcDbEntity
  8
0
  6
CONTINUOUS
 62
       3
100
AcDbLine
 10
121.13070325
 20
-78.1782783
 30
0.0
 11
121.20059876
 21
-78.31722301
 31
0.0
  0
LINE
  5
24F
100
AcDbEntity
  8
0
  6
CONTINUOUS
 62
       3
100
AcDbLine
 10
120.07011224
 20
-83.35867017
 30
0.0
 11
120.07011224
 21
-81.66513013
 31
0.0
  0
LINE
  5
250
100
AcDbEntity
  8
0
  6
CONTINUOUS
 62
       3
100
AcDbLine
 10
119.11761224
 20
-76.66977612
 30
0.0
 11
119.11761224
 21
-78.36331616
 31
0.0
  0
LINE
  5
251
100
AcDbEntity
  8
0
  6
CONTINUOUS
 62
       3
100
AcDbLine
 10
123.52006993
 20
-98.85779508
 30
0.0
 11
123.64454459
 21
-98.76652509
 31
0.0
  0
LINE
  5
252
100
AcDbEntity
  8
0
  6
CONTINUOUS
 62
       3
100
AcDbLine
 10
124.22623712
 20
-97.2135518
 30
0.0
 11
124.19092358
 21
-97.05812428
 31
0.0
  0
LINE
  5
253
100
AcDbEntity
  8
0
  6
CONTINUOUS
 62
       3
100
AcDbLine
 10
123.91315129
 20
-96.50434539
 30
0.0
 11
123.81349794
 21
-96.38680272
 31
0.0
  0
LINE
  5
254
100
AcDbEntity
  8
0
  6
CONTINUOUS
 62
       3
100
AcDbLine
 10
124.25042588
 20
-92.54405629
 30
0.0
 11
124.24633114
 21
-92.37908269
 31
0.0
  0
LINE
  5
255
100
AcDbEntity
  8
0
  6
CONTINUOUS
 62
       3
100
AcDbLine
 10
124.19092358
 20
-92.06286305
 30
0.0
 11
124.14117438
 21
-91.91340805
 31
0.0
  0
LINE
  5
256
100
AcDbEntity
  8
0
  6
CONTINUOUS
 62
       3
100
AcDbLine
 10
123.81349794
 20
-91.39151602
 30
0.0
 11
123.70332818
 21
-91.28393125
 31
0.0
  0
LINE
  5
257
100
AcDbEntity
  8
0
  6
CONTINUOUS
 62
       3
100
AcDbLine
 10
122.06851988
 20
-90.96858257
 30
0.0
 11
121.9241003
 21
-91.02860868
 31
0.0
  0
LINE
  5
258
100
AcDbEntity
  8
0
  6
CONTINUOUS
 62
       3
100
AcDbLine
 10
121.59712432
 20
-93.77139237
 30
0.0
 11
121.72158535
 21
-93.86261667
 31
0.0
  0
LINE
  5
259
100
AcDbEntity
  8
0
  6
CONTINUOUS
 62
       3
100
AcDbLine
 10
123.81349794
 20
-86.39616202
 30
0.0
 11
123.70332818
 21
-86.28857724
 31
0.0
  0
LINE
  5
25A
100
AcDbEntity
  8
0
  6
CONTINUOUS
 62
       3
100
AcDbLine
 10
123.17316203
 20
-85.97322857
 30
0.0
 11
123.02216797
 21
-85.92704525
 31
0.0
  0
LINE
  5
25B
100
AcDbEntity
  8
0
  6
CONTINUOUS
 62
       3
100
AcDbLine
 10
123.64454459
 20
-83.78046308
 30
0.0
 11
123.75967862
 21
-83.67808272
 31
0.0
  0
LINE
  5
25C
100
AcDbEntity
  8
0
  6
CONTINUOUS
 62
       3
100
AcDbLine
 10
124.22623712
 20
-82.2274898
 30
0.0
 11
124.19092358
 21
-82.07206227
 31
0.0
  0
LINE
  5
25D
100
AcDbEntity
  8
0
  6
CONTINUOUS
 62
       3
100
AcDbLine
 10
122.21955569
 20
-80.93141845
 30
0.0
 11
122.06851988
 21
-80.97763222
 31
0.0
  0
LINE
  5
25E
100
AcDbEntity
  8
0
  6
CONTINUOUS
 62
       3
100
AcDbLine
 10
121.53835146
 20
-81.29312657
 30
0.0
 11
121.4282093
 21
-81.40074071
 31
0.0
  0
LINE
  5
25F
100
AcDbEntity
  8
0
  6
CONTINUOUS
 62
       3
100
AcDbLine
 10
121.32858963
 20
-81.51828338
 30
0.0
 11
121.24027369
 21
-81.64497072
 31
0.0
  0
LINE
  5
260
100
AcDbEntity
  8
0
  6
CONTINUOUS
 62
       3
100
AcDbLine
 10
122.45680586
 20
-84.1340231
 30
0.0
 11
122.62096429
 21
-84.14218823
 31
0.0
  0
LINE
  5
261
100
AcDbEntity
  8
0
  6
CONTINUOUS
 62
       3
100
AcDbLine
 10
123.64454459
 20
-78.78535515
 30
0.0
 11
123.75967862
 21
-78.68303162
 31
0.0
  0
LINE
  5
262
100
AcDbEntity
  8
0
  6
CONTINUOUS
 62
       3
100
AcDbLine
 10
124.24633114
 20
-77.39332497
 30
0.0
 11
124.22623712
 21
-77.23256635
 31
0.0
  0
LINE
  5
263
100
AcDbEntity
  8
0
  6
CONTINUOUS
 62
       3
100
AcDbLine
 10
123.45457482
 20
-76.11526174
 30
0.0
 11
123.31755893
 21
-76.04210104
 31
0.0
  0
LINE
  5
264
100
AcDbEntity
  8
0
  6
CONTINUOUS
 62
       3
100
AcDbLine
 10
122.14325958
 20
-79.07575262
 30
0.0
 11
122.29731054
 21
-79.11472157
 31
0.0
  0
LINE
  5
265
100
AcDbEntity
  8
0
  6
CONTINUOUS
 62
       3
100
AcDbLine
 10
125.6917846
 20
-74.65222486
 30
0.0
 11
125.6917846
 21
-100.4149934
 31
0.0
  0
LINE
  5
266
100
AcDbEntity
  8
0
  6
CONTINUOUS
 62
       3
100
AcDbLine
 10
119.11761224
 20
-78.36331616
 30
0.0
 11
120.07011224
 21
-78.36331616
 31
0.0
  0
LINE
  5
267
100
AcDbEntity
  8
0
  6
CONTINUOUS
 62
       3
100
AcDbLine
 10
123.17316203
 20
-95.96369423
 30
0.0
 11
123.02216797
 21
-95.91748046
 31
0.0
  0
LINE
  5
268
100
AcDbEntity
  8
0
  6
CONTINUOUS
 62
       3
100
AcDbLine
 10
121.7870782
 20
-96.09688126
 30
0.0
 11
121.65823484
 21
-96.1822868
 31
0.0
  0
LINE
  5
269
100
AcDbEntity
  8
0
  6
CONTINUOUS
 62
       3
100
AcDbLine
 10
121.05096074
 20
-97.05812428
 30
0.0
 11
121.01567221
 21
-97.2135518
 31
0.0
  0
LINE
  5
26A
100
AcDbEntity
  8
0
  6
CONTINUOUS
 62
       3
100
AcDbLine
 10
121.03146406
 20
-97.86039189
 30
0.0
 11
121.0740646
 21
-98.01299181
 31
0.0
  0
LINE
  5
26B
100
AcDbEntity
  8
0
  6
CONTINUOUS
 62
       3
100
AcDbLine
 10
123.64454459
 20
-93.77139237
 30
0.0
 11
123.75967862
 21
-93.66905663
 31
0.0
  0
LINE
  5
26C
100
AcDbEntity
  8
0
  6
CONTINUOUS
 62
       3
100
AcDbLine
 10
122.86536061
 20
-90.89083998
 30
0.0
 11
122.70352379
 21
-90.87468599
 31
0.0
  0
LINE
  5
26D
100
AcDbEntity
  8
0
  6
CONTINUOUS
 62
       3
100
AcDbLine
 10
121.4282093
 20
-91.39151602
 30
0.0
 11
121.32858963
 21
-91.50903734
 31
0.0
  0
LINE
  5
26E
100
AcDbEntity
  8
0
  6
CONTINUOUS
 62
       3
100
AcDbLine
 10
121.16404273
 20
-91.7707646
 30
0.0
 11
121.10067799
 21
-91.91340805
 31
0.0
  0
LINE
  5
26F
100
AcDbEntity
  8
0
  6
CONTINUOUS
 62
       3
100
AcDbLine
 10
123.24623412
 20
-89.0129482
 30
0.0
 11
123.38703849
 21
-88.94629366
 31
0.0
  0
LINE
  5
270
100
AcDbEntity
  8
0
  6
CONTINUOUS
 62
       3
100
AcDbLine
 10
123.86468816
 20
-88.56077886
 30
0.0
 11
123.95878936
 21
-88.43858224
 31
0.0
  0
LINE
  5
271
100
AcDbEntity
  8
0
  6
CONTINUOUS
 62
       3
100
AcDbLine
 10
121.85461574
 20
-88.94629366
 30
0.0
 11
121.99543423
 21
-89.0129482
 31
0.0
  0
LINE
  5
272
100
AcDbEntity
  8
0
  6
CONTINUOUS
 62
       3
100
AcDbLine
 10
124.11113136
 20
-83.17311725
 30
0.0
 11
124.16780445
 21
-83.02692979
 31
0.0
  0
LINE
  5
273
100
AcDbEntity
  8
0
  6
CONTINUOUS
 62
       3
100
AcDbLine
 10
121.20059876
 20
-83.31210925
 30
0.0
 11
121.28296987
 21
-83.44312282
 31
0.0
  0
LINE
  5
274
100
AcDbEntity
  8
0
  6
CONTINUOUS
 62
       3
100
AcDbLine
 10
122.14325958
 20
-84.07105102
 30
0.0
 11
122.29731054
 21
-84.1100497
 31
0.0
  0
LINE
  5
275
100
AcDbEntity
  8
0
  6
CONTINUOUS
 62
       3
100
AcDbLine
 10
122.94444197
 20
-79.11472157
 30
0.0
 11
123.09844066
 21
-79.07575262
 31
0.0
  0
LINE
  5
276
100
AcDbEntity
  8
0
  6
CONTINUOUS
 62
       3
100
AcDbLine
 10
124.00150438
 20
-76.64969503
 30
0.0
 11
123.91315129
 21
-76.52293723
 31
0.0
  0
LINE
  5
277
100
AcDbEntity
  8
0
  6
CONTINUOUS
 62
       3
100
AcDbLine
 10
122.70352379
 20
-75.88800646
 30
0.0
 11
122.53835102
 21
-75.88800646
 31
0.0
  0
LINE
  5
278
100
AcDbEntity
  8
0
  6
CONTINUOUS
 62
       3
100
AcDbLine
 10
121.4282093
 20
-76.40533116
 30
0.0
 11
121.32858963
 21
-76.52293723
 31
0.0
  0
LINE
  5
279
100
AcDbEntity
  8
0
  6
CONTINUOUS
 62
       3
100
AcDbLine
 10
121.10067799
 20
-76.92753036
 30
0.0
 11
121.05096074
 21
-77.0770402
 31
0.0
  0
LINE
  5
27A
100
AcDbEntity
  8
0
  6
CONTINUOUS
 62
       3
100
AcDbLine
 10
126.41205072
 20
-74.65222486
 30
0.0
 11
117.34531732
 21
-74.65222486
 31
0.0
  0
LINE
  5
27B
100
AcDbEntity
  8
0
  6
CONTINUOUS
 62
       3
100
AcDbLine
 10
119.05684076
 20
-104.7567439
 30
0.0
 11
126.41205072
 21
-104.7567439
 31
0.0
  0
LINE
  5
27C
100
AcDbEntity
  8
0
  6
CONTINUOUS
 62
       3
100
AcDbLine
 10
123.75967862
 20
-98.66414473
 30
0.0
 11
123.86468816
 21
-98.55143697
 31
0.0
  0
LINE
  5
27D
100
AcDbEntity
  8
0
  6
CONTINUOUS
 62
       3
100
AcDbLine
 10
124.14117438
 20
-96.90870603
 30
0.0
 11
124.07777336
 21
-96.7660809
 31
0.0
  0
LINE
  5
27E
100
AcDbEntity
  8
0
  6
CONTINUOUS
 62
       3
100
AcDbLine
 10
123.02216797
 20
-95.91748046
 30
0.0
 11
122.86536061
 21
-95.88589831
 31
0.0
  0
LINE
  5
27F
100
AcDbEntity
  8
0
  6
CONTINUOUS
 62
       3
100
AcDbLine
 10
121.99543423
 20
-99.00387204
 30
0.0
 11
122.14325958
 21
-99.05711302
 31
0.0
  0
LINE
  5
280
100
AcDbEntity
  8
0
  6
CONTINUOUS
 62
       3
100
AcDbLine
 10
122.45680586
 20
-99.12008511
 30
0.0
 11
122.62096429
 21
-99.12825024
 31
0.0
  0
LINE
  5
281
100
AcDbEntity
  8
0
  6
CONTINUOUS
 62
       3
100
AcDbLine
 10
122.45680586
 20
-94.12473779
 30
0.0
 11
122.62096429
 21
-94.13289624
 31
0.0
  0
LINE
  5
282
100
AcDbEntity
  8
0
  6
CONTINUOUS
 62
       3
100
AcDbLine
 10
124.07777336
 20
-86.7754106
 30
0.0
 11
124.00150438
 21
-86.64035995
 31
0.0
  0
LINE
  5
283
100
AcDbEntity
  8
0
  6
CONTINUOUS
 62
       3
100
AcDbLine
 10
121.20059876
 20
-88.30762095
 30
0.0
 11
121.28296987
 21
-88.43858224
 31
0.0
  0
LINE
  5
284
100
AcDbEntity
  8
0
  6
CONTINUOUS
 62
       3
100
AcDbLine
 10
124.24633114
 20
-82.38814274
 30
0.0
 11
124.22623712
 21
-82.2274898
 31
0.0
  0
LINE
  5
285
100
AcDbEntity
  8
0
  6
CONTINUOUS
 62
       3
100
AcDbLine
 10
121.99543423
 20
-84.01781003
 30
0.0
 11
122.14325958
 21
-84.07105102
 31
0.0
  0
LINE
  5
286
100
AcDbEntity
  8
0
  6
CONTINUOUS
 62
       3
100
AcDbLine
 10
124.16780445
 20
-78.03213142
 30
0.0
 11
124.2104338
 21
-77.87956362
 31
0.0
  0
LINE
  5
287
100
AcDbEntity
  8
0
  6
CONTINUOUS
 62
       3
100
AcDbLine
 10
122.86536061
 20
-75.90418017
 30
0.0
 11
122.70352379
 21
-75.88800646
 31
0.0
  0
LINE
  5
288
100
AcDbEntity
  8
0
  6
CONTINUOUS
 62
       3
100
AcDbLine
 10
121.28296987
 20
-78.44818429
 30
0.0
 11
121.37703533
 21
-78.57038091
 31
0.0
  0
LINE
  5
289
100
AcDbEntity
  8
0
  6
CONTINUOUS
 62
       3
100
AcDbLine
 10
123.86468816
 20
-98.55143697
 30
0.0
 11
123.95878936
 21
-98.42918482
 31
0.0
  0
LINE
  5
28A
100
AcDbEntity
  8
0
  6
CONTINUOUS
 62
       3
100
AcDbLine
 10
124.16780445
 20
-98.01299181
 30
0.0
 11
124.2104338
 21
-97.86039189
 31
0.0
  0
LINE
  5
28B
100
AcDbEntity
  8
0
  6
CONTINUOUS
 62
       3
100
AcDbLine
 10
123.09844066
 20
-94.06181268
 30
0.0
 11
123.24623412
 21
-94.00860763
 31
0.0
  0
LINE
  5
28C
100
AcDbEntity
  8
0
  6
CONTINUOUS
 62
       3
100
AcDbLine
 10
123.95878936
 20
-93.43417404
 30
0.0
 11
124.04119838
 21
-93.30318884
 31
0.0
  0
LINE
  5
28D
100
AcDbEntity
  8
0
  6
CONTINUOUS
 62
       3
100
AcDbLine
 10
124.14117438
 20
-91.91340805
 30
0.0
 11
124.07777336
 21
-91.7707646
 31
0.0
  0
LINE
  5
28E
100
AcDbEntity
  8
0
  6
CONTINUOUS
 62
       3
100
AcDbLine
 10
121.32858963
 20
-91.50903734
 30
0.0
 11
121.24027369
 21
-91.63571396
 31
0.0
  0
LINE
  5
28F
100
AcDbEntity
  8
0
  6
CONTINUOUS
 62
       3
100
AcDbLine
 10
122.29731054
 20
-94.100783
 30
0.0
 11
122.45680586
 21
-94.12473779
 31
0.0
  0
LINE
  5
290
100
AcDbEntity
  8
0
  6
CONTINUOUS
 62
       3
100
AcDbLine
 10
123.09844066
 20
-89.06615056
 30
0.0
 11
123.24623412
 21
-89.0129482
 31
0.0
  0
LINE
  5
291
100
AcDbEntity
  8
0
  6
CONTINUOUS
 62
       3
100
AcDbLine
 10
124.11113136
 20
-88.16867624
 30
0.0
 11
124.16780445
 21
-88.02252936
 31
0.0
  0
LINE
  5
292
100
AcDbEntity
  8
0
  6
CONTINUOUS
 62
       3
100
AcDbLine
 10
124.24633114
 20
-87.38372868
 30
0.0
 11
124.22623712
 21
-87.22299434
 31
0.0
  0
LINE
  5
293
100
AcDbEntity
  8
0
  6
CONTINUOUS
 62
       3
100
AcDbLine
 10
122.53835102
 20
-85.87933199
 30
0.0
 11
122.37642649
 21
-85.89548598
 31
0.0
  0
LINE
  5
294
100
AcDbEntity
  8
0
  6
CONTINUOUS
 62
       3
100
AcDbLine
 10
121.28296987
 20
-88.43858224
 30
0.0
 11
121.37703533
 21
-88.56077886
 31
0.0
  0
LINE
  5
295
100
AcDbEntity
  8
0
  6
CONTINUOUS
 62
       3
100
AcDbLine
 10
124.25042588
 20
-82.55302457
 30
0.0
 11
124.24633114
 21
-82.38814274
 31
0.0
  0
LINE
  5
296
100
AcDbEntity
  8
0
  6
CONTINUOUS
 62
       3
100
AcDbLine
 10
121.28296987
 20
-83.44312282
 30
0.0
 11
121.37703533
 21
-83.56537497
 31
0.0
  0
LINE
  5
297
100
AcDbEntity
  8
0
  6
CONTINUOUS
 62
       3
100
AcDbLine
 10
121.85461574
 20
-83.95110972
 30
0.0
 11
121.99543423
 21
-84.01781003
 31
0.0
  0
LINE
  5
298
100
AcDbEntity
  8
0
  6
CONTINUOUS
 62
       3
100
AcDbLine
 10
121.7870782
 20
-76.11526174
 30
0.0
 11
121.65823484
 21
-76.20070956
 31
0.0
  0
LINE
  5
299
100
AcDbEntity
  8
0
  6
CONTINUOUS
 62
       3
100
AcDbLine
 10
121.24027369
 20
-76.64969503
 30
0.0
 11
121.16404273
 21
-76.78482068
 31
0.0
  0
LINE
  5
29A
100
AcDbEntity
  8
0
  6
CONTINUOUS
 62
       3
100
AcDbLine
 10
120.99559366
 20
-77.39332497
 30
0.0
 11
120.99150227
 21
-77.55829025
 31
0.0
  0
LINE
  5
29B
100
AcDbEntity
  8
0
  6
CONTINUOUS
 62
       3
100
AcDbLine
 10
120.07011224
 20
-91.65552807
 30
0.0
 11
119.11761224
 21
-91.65552807
 31
0.0
  0
LINE
  5
29C
100
AcDbEntity
  8
0
  6
CONTINUOUS
 62
       3
100
AcDbLine
 10
122.94444197
 20
-99.09611171
 30
0.0
 11
123.09844066
 21
-99.05711302
 31
0.0
  0
LINE
  5
29D
100
AcDbEntity
  8
0
  6
CONTINUOUS
 62
       3
100
AcDbLine
 10
124.11113136
 20
-98.15917925
 30
0.0
 11
124.16780445
 21
-98.01299181
 31
0.0
  0
LINE
  5
29E
100
AcDbEntity
  8
0
  6
CONTINUOUS
 62
       3
100
AcDbLine
 10
124.19092358
 20
-97.05812428
 30
0.0
 11
124.14117438
 21
-96.90870603
 31
0.0
  0
LINE
  5
29F
100
AcDbEntity
  8
0
  6
CONTINUOUS
 62
       3
100
AcDbLine
 10
123.91315129
 20
-91.50903734
 30
0.0
 11
123.81349794
 21
-91.39151602
 31
0.0
  0
LINE
  5
2A0
100
AcDbEntity
  8
0
  6
CONTINUOUS
 62
       3
100
AcDbLine
 10
121.10067799
 20
-91.91340805
 30
0.0
 11
121.05096074
 21
-92.06286305
 31
0.0
  0
LINE
  5
2A1
100
AcDbEntity
  8
0
  6
CONTINUOUS
 62
       3
100
AcDbLine
 10
121.72158535
 20
-93.86261667
 30
0.0
 11
121.85461574
 21
-93.94194869
 31
0.0
  0
LINE
  5
2A2
100
AcDbEntity
  8
0
  6
CONTINUOUS
 62
       3
100
AcDbLine
 10
122.14325958
 20
-94.06181268
 30
0.0
 11
122.29731054
 21
-94.100783
 31
0.0
  0
LINE
  5
2A3
100
AcDbEntity
  8
0
  6
CONTINUOUS
 62
       3
100
AcDbLine
 10
122.62096429
 20
-89.13723218
 30
0.0
 11
122.78502189
 21
-89.1290738
 31
0.0
  0
LINE
  5
2A4
100
AcDbEntity
  8
0
  6
CONTINUOUS
 62
       3
100
AcDbLine
 10
123.91315129
 20
-86.51368333
 30
0.0
 11
123.81349794
 21
-86.39616202
 31
0.0
  0
LINE
  5
2A5
100
AcDbEntity
  8
0
  6
CONTINUOUS
 62
       3
100
AcDbLine
 10
120.99150227
 20
-87.5486882
 30
0.0
 11
121.00368286
 21
-87.71175409
 31
0.0
  0
LINE
  5
2A6
100
AcDbEntity
  8
0
  6
CONTINUOUS
 62
       3
100
AcDbLine
 10
122.45680586
 20
-89.1290738
 30
0.0
 11
122.62096429
 21
-89.13723218
 31
0.0
  0
LINE
  5
2A7
100
AcDbEntity
  8
0
  6
CONTINUOUS
 62
       3
100
AcDbLine
 10
123.24623412
 20
-84.01781003
 30
0.0
 11
123.38703849
 21
-83.95110972
 31
0.0
  0
LINE
  5
2A8
100
AcDbEntity
  8
0
  6
CONTINUOUS
 62
       3
100
AcDbLine
 10
124.22623712
 20
-77.23256635
 30
0.0
 11
124.19092358
 21
-77.0770402
 31
0.0
  0
LINE
  5
2A9
100
AcDbEntity
  8
0
  6
CONTINUOUS
 62
       3
100
AcDbLine
 10
124.07777336
 20
-76.78482068
 30
0.0
 11
124.00150438
 21
-76.64969503
 31
0.0
  0
LINE
  5
2AA
100
AcDbEntity
  8
0
  6
CONTINUOUS
 62
       3
100
AcDbLine
 10
121.59712432
 20
-78.78535515
 30
0.0
 11
121.72158535
 21
-78.87657027
 31
0.0
  0
LINE
  5
2AB
100
AcDbEntity
  8
0
  6
CONTINUOUS
 62
       3
100
AcDbLine
 10
123.45457482
 20
-96.09688126
 30
0.0
 11
123.31755893
 21
-96.02375578
 31
0.0
  0
LINE
  5
2AC
100
AcDbEntity
  8
0
  6
CONTINUOUS
 62
       3
100
AcDbLine
 10
121.32858963
 20
-96.50434539
 30
0.0
 11
121.24027369
 21
-96.63103273
 31
0.0
  0
LINE
  5
2AD
100
AcDbEntity
  8
0
  6
CONTINUOUS
 62
       3
100
AcDbLine
 10
121.00368286
 20
-97.70216248
 30
0.0
 11
121.03146406
 21
-97.86039189
 31
0.0
  0
LINE
  5
2AE
100
AcDbEntity
  8
0
  6
CONTINUOUS
 62
       3
100
AcDbLine
 10
121.0740646
 20
-98.01299181
 30
0.0
 11
121.13070325
 21
-98.15917925
 31
0.0
  0
LINE
  5
2AF
100
AcDbEntity
  8
0
  6
CONTINUOUS
 62
       3
100
AcDbLine
 10
121.4820139
 20
-98.66414473
 30
0.0
 11
121.59712432
 21
-98.76652509
 31
0.0
  0
LINE
  5
2B0
100
AcDbEntity
  8
0
  6
CONTINUOUS
 62
       3
100
AcDbLine
 10
123.86468816
 20
-93.55639025
 30
0.0
 11
123.95878936
 21
-93.43417404
 31
0.0
  0
LINE
  5
2B1
100
AcDbEntity
  8
0
  6
CONTINUOUS
 62
       3
100
AcDbLine
 10
124.04119838
 20
-93.30318884
 30
0.0
 11
124.11113136
 21
-93.16421544
 31
0.0
  0
LINE
  5
2B2
100
AcDbEntity
  8
0
  6
CONTINUOUS
 62
       3
100
AcDbLine
 10
123.70332818
 20
-91.28393125
 30
0.0
 11
123.58342585
 21
-91.18706426
 31
0.0
  0
LINE
  5
2B3
100
AcDbEntity
  8
0
  6
CONTINUOUS
 62
       3
100
AcDbLine
 10
121.7870782
 20
-91.10169633
 30
0.0
 11
121.65823484
 21
-91.18706426
 31
0.0
  0
LINE
  5
2B4
100
AcDbEntity
  8
0
  6
CONTINUOUS
 62
       3
100
AcDbLine
 10
121.03146406
 20
-92.86542735
 30
0.0
 11
121.0740646
 21
-93.01803467
 31
0.0
  0
LINE
  5
2B5
100
AcDbEntity
  8
0
  6
CONTINUOUS
 62
       3
100
AcDbLine
 10
121.20059876
 20
-93.30318884
 30
0.0
 11
121.28296987
 21
-93.43417404
 31
0.0
  0
LINE
  5
2B6
100
AcDbEntity
  8
0
  6
CONTINUOUS
 62
       3
100
AcDbLine
 10
121.85461574
 20
-93.94194869
 30
0.0
 11
121.99543423
 21
-94.00860763
 31
0.0
  0
LINE
  5
2B7
100
AcDbEntity
  8
0
  6
CONTINUOUS
 62
       3
100
AcDbLine
 10
123.38703849
 20
-88.94629366
 30
0.0
 11
123.52006993
 21
-88.86696821
 31
0.0
  0
LINE
  5
2B8
100
AcDbEntity
  8
0
  6
CONTINUOUS
 62
       3
100
AcDbLine
 10
122.86536061
 20
-85.89548598
 30
0.0
 11
122.70352379
 21
-85.87933199
 31
0.0
  0
LINE
  5
2B9
100
AcDbEntity
  8
0
  6
CONTINUOUS
 62
       3
100
AcDbLine
 10
121.10067799
 20
-86.91805405
 30
0.0
 11
121.05096074
 21
-87.06750905
 31
0.0
  0
LINE
  5
2BA
100
AcDbEntity
  8
0
  6
CONTINUOUS
 62
       3
100
AcDbLine
 10
123.81349794
 20
-81.40074071
 30
0.0
 11
123.70332818
 21
-81.29312657
 31
0.0
  0
LINE
  5
2BB
100
AcDbEntity
  8
0
  6
CONTINUOUS
 62
       3
100
AcDbLine
 10
121.24027369
 20
-81.64497072
 30
0.0
 11
121.16404273
 21
-81.78001889
 31
0.0
  0
LINE
  5
2BC
100
AcDbEntity
  8
0
  6
CONTINUOUS
 62
       3
100
AcDbLine
 10
121.10067799
 20
-81.92264402
 30
0.0
 11
121.05096074
 21
-82.07206227
 31
0.0
  0
LINE
  5
2BD
100
AcDbEntity
  8
0
  6
CONTINUOUS
 62
       3
100
AcDbLine
 10
120.99559366
 20
-82.38814274
 30
0.0
 11
120.99150227
 21
-82.55302457
 31
0.0
  0
LINE
  5
2BE
100
AcDbEntity
  8
0
  6
CONTINUOUS
 62
       3
100
AcDbLine
 10
122.62096429
 20
-79.14683423
 30
0.0
 11
122.78502189
 21
-79.13867586
 31
0.0
  0
LINE
  5
2BF
100
AcDbEntity
  8
0
  6
CONTINUOUS
 62
       3
100
AcDbLine
 10
121.05096074
 20
-77.0770402
 30
0.0
 11
121.01567221
 21
-77.23256635
 31
0.0
  0
LINE
  5
2C0
100
AcDbEntity
  8
0
  6
CONTINUOUS
 62
       3
100
AcDbLine
 10
119.11761224
 20
-86.66079419
 30
0.0
 11
119.11761224
 21
-88.35433423
 31
0.0
  0
LINE
  5
2C1
100
AcDbEntity
  8
0
  6
CONTINUOUS
 62
       3
100
AcDbLine
 10
120.07011224
 20
-81.66513013
 30
0.0
 11
119.11761224
 21
-81.66513013
 31
0.0
  0
LINE
  5
2C2
100
AcDbEntity
  8
0
  6
CONTINUOUS
 62
       3
100
AcDbLine
 10
122.70352379
 20
-95.86973164
 30
0.0
 11
122.53835102
 21
-95.86973164
 31
0.0
  0
LINE
  5
2C3
100
AcDbEntity
  8
0
  6
CONTINUOUS
 62
       3
100
AcDbLine
 10
121.9241003
 20
-96.02375578
 30
0.0
 11
121.7870782
 21
-96.09688126
 31
0.0
  0
LINE
  5
2C4
100
AcDbEntity
  8
0
  6
CONTINUOUS
 62
       3
100
AcDbLine
 10
121.4282093
 20
-96.38680272
 30
0.0
 11
121.32858963
 21
-96.50434539
 31
0.0
  0
LINE
  5
2C5
100
AcDbEntity
  8
0
  6
CONTINUOUS
 62
       3
100
AcDbLine
 10
121.24027369
 20
-96.63103273
 30
0.0
 11
121.16404273
 21
-96.7660809
 31
0.0
  0
LINE
  5
2C6
100
AcDbEntity
  8
0
  6
CONTINUOUS
 62
       3
100
AcDbLine
 10
124.2104338
 20
-92.86542735
 30
0.0
 11
124.23823556
 21
-92.70717428
 31
0.0
  0
LINE
  5
2C7
100
AcDbEntity
  8
0
  6
CONTINUOUS
 62
       3
100
AcDbLine
 10
124.24633114
 20
-92.37908269
 30
0.0
 11
124.22623712
 21
-92.21834834
 31
0.0
  0
LINE
  5
2C8
100
AcDbEntity
  8
0
  6
CONTINUOUS
 62
       3
100
AcDbLine
 10
123.17316203
 20
-90.96858257
 30
0.0
 11
123.02216797
 21
-90.92239926
 31
0.0
  0
LINE
  5
2C9
100
AcDbEntity
  8
0
  6
CONTINUOUS
 62
       3
100
AcDbLine
 10
122.70352379
 20
-90.87468599
 30
0.0
 11
122.53835102
 21
-90.87468599
 31
0.0
  0
LINE
  5
2CA
100
AcDbEntity
  8
0
  6
CONTINUOUS
 62
       3
100
AcDbLine
 10
122.37642649
 20
-90.89083998
 30
0.0
 11
122.21955569
 21
-90.92239926
 31
0.0
  0
LINE
  5
2CB
100
AcDbEntity
  8
0
  6
CONTINUOUS
 62
       3
100
AcDbLine
 10
121.65823484
 20
-91.18706426
 30
0.0
 11
121.53835146
 21
-91.28393125
 31
0.0
  0
LINE
  5
2CC
100
AcDbEntity
  8
0
  6
CONTINUOUS
 62
       3
100
AcDbLine
 10
121.05096074
 20
-92.06286305
 30
0.0
 11
121.01567221
 21
-92.21834834
 31
0.0
  0
LINE
  5
2CD
100
AcDbEntity
  8
0
  6
CONTINUOUS
 62
       3
100
AcDbLine
 10
124.16780445
 20
-88.02252936
 30
0.0
 11
124.2104338
 21
-87.86996156
 31
0.0
  0
LINE
  5
2CE
100
AcDbEntity
  8
0
  6
CONTINUOUS
 62
       3
100
AcDbLine
 10
123.31755893
 20
-86.03325468
 30
0.0
 11
123.17316203
 21
-85.97322857
 31
0.0
  0
LINE
  5
2CF
100
AcDbEntity
  8
0
  6
CONTINUOUS
 62
       3
100
AcDbLine
 10
121.53835146
 20
-86.28857724
 30
0.0
 11
121.4282093
 21
-86.39616202
 31
0.0
  0
LINE
  5
2D0
100
AcDbEntity
  8
0
  6
CONTINUOUS
 62
       3
100
AcDbLine
 10
121.72158535
 20
-88.86696821
 30
0.0
 11
121.85461574
 21
-88.94629366
 31
0.0
  0
LINE
  5
2D1
100
AcDbEntity
  8
0
  6
CONTINUOUS
 62
       3
100
AcDbLine
 10
122.78502189
 20
-84.1340231
 30
0.0
 11
122.94444197
 21
-84.1100497
 31
0.0
  0
LINE
  5
2D2
100
AcDbEntity
  8
0
  6
CONTINUOUS
 62
       3
100
AcDbLine
 10
124.23823556
 20
-82.71610047
 30
0.0
 11
124.25042588
 21
-82.55302457
 31
0.0
  0
LINE
  5
2D3
100
AcDbEntity
  8
0
  6
CONTINUOUS
 62
       3
100
AcDbLine
 10
123.02216797
 20
-80.93141845
 30
0.0
 11
122.86536061
 21
-80.8998363
 31
0.0
  0
LINE
  5
2D4
100
AcDbEntity
  8
0
  6
CONTINUOUS
 62
       3
100
AcDbLine
 10
122.06851988
 20
-80.97763222
 30
0.0
 11
121.9241003
 21
-81.03769377
 31
0.0
  0
LINE
  5
2D5
100
AcDbEntity
  8
0
  6
CONTINUOUS
 62
       3
100
AcDbLine
 10
121.4820139
 20
-83.67808272
 30
0.0
 11
121.59712432
 21
-83.78046308
 31
0.0
  0
LINE
  5
2D6
100
AcDbEntity
  8
0
  6
CONTINUOUS
 62
       3
100
AcDbLine
 10
123.58342585
 20
-76.20070956
 30
0.0
 11
123.45457482
 21
-76.11526174
 31
0.0
  0
LINE
  5
2D7
100
AcDbEntity
  8
0
  6
CONTINUOUS
 62
       3
100
AcDbLine
 10
121.32858963
 20
-76.52293723
 30
0.0
 11
121.24027369
 21
-76.64969503
 31
0.0
  0
LINE
  5
2D8
100
AcDbEntity
  8
0
  6
CONTINUOUS
 62
       3
100
AcDbLine
 10
122.45680586
 20
-79.13867586
 30
0.0
 11
122.62096429
 21
-79.14683423
 31
0.0
  0
LINE
  5
2D9
100
AcDbEntity
  8
0
  6
CONTINUOUS
 62
       3
100
AcDbLine
 10
119.11761224
 20
-91.65552807
 30
0.0
 11
119.11761224
 21
-93.34906811
 31
0.0
  0
LINE
  5
2DA
100
AcDbEntity
  8
0
  6
CONTINUOUS
 62
       3
100
AcDbLine
 10
123.09844066
 20
-99.05711302
 30
0.0
 11
123.24623412
 21
-99.00387204
 31
0.0
  0
LINE
  5
2DB
100
AcDbEntity
  8
0
  6
CONTINUOUS
 62
       3
100
AcDbLine
 10
121.28296987
 20
-98.42918482
 30
0.0
 11
121.37703533
 21
-98.55143697
 31
0.0
  0
LINE
  5
2DC
100
AcDbEntity
  8
0
  6
CONTINUOUS
 62
       3
100
AcDbLine
 10
122.62096429
 20
-94.13289624
 30
0.0
 11
122.78502189
 21
-94.12473779
 31
0.0
  0
LINE
  5
2DD
100
AcDbEntity
  8
0
  6
CONTINUOUS
 62
       3
100
AcDbLine
 10
123.24623412
 20
-94.00860763
 30
0.0
 11
123.38703849
 21
-93.94194869
 31
0.0
  0
LINE
  5
2DE
100
AcDbEntity
  8
0
  6
CONTINUOUS
 62
       3
100
AcDbLine
 10
121.9241003
 20
-91.02860868
 30
0.0
 11
121.7870782
 21
-91.10169633
 31
0.0
  0
LINE
  5
2DF
100
AcDbEntity
  8
0
  6
CONTINUOUS
 62
       3
100
AcDbLine
 10
121.0740646
 20
-93.01803467
 30
0.0
 11
121.13070325
 21
-93.16421544
 31
0.0
  0
LINE
  5
2E0
100
AcDbEntity
  8
0
  6
CONTINUOUS
 62
       3
100
AcDbLine
 10
121.28296987
 20
-93.43417404
 30
0.0
 11
121.37703533
 21
-93.55639025
 31
0.0
  0
LINE
  5
2E1
100
AcDbEntity
  8
0
  6
CONTINUOUS
 62
       3
100
AcDbLine
 10
124.04119838
 20
-88.30762095
 30
0.0
 11
124.11113136
 21
-88.16867624
 31
0.0
  0
LINE
  5
2E2
100
AcDbEntity
  8
0
  6
CONTINUOUS
 62
       3
100
AcDbLine
 10
124.2104338
 20
-87.86996156
 30
0.0
 11
124.23823556
 21
-87.71175409
 31
0.0
  0
LINE
  5
2E3
100
AcDbEntity
  8
0
  6
CONTINUOUS
 62
       3
100
AcDbLine
 10
124.14117438
 20
-86.91805405
 30
0.0
 11
124.07777336
 21
-86.7754106
 31
0.0
  0
LINE
  5
2E4
100
AcDbEntity
  8
0
  6
CONTINUOUS
 62
       3
100
AcDbLine
 10
121.4282093
 20
-86.39616202
 30
0.0
 11
121.32858963
 21
-86.51368333
 31
0.0
  0
LINE
  5
2E5
100
AcDbEntity
  8
0
  6
CONTINUOUS
 62
       3
100
AcDbLine
 10
121.4820139
 20
-88.67342956
 30
0.0
 11
121.59712432
 21
-88.7757531
 31
0.0
  0
LINE
  5
2E6
100
AcDbEntity
  8
0
  6
CONTINUOUS
 62
       3
100
AcDbLine
 10
122.94444197
 20
-84.1100497
 30
0.0
 11
123.09844066
 21
-84.07105102
 31
0.0
  0
LINE
  5
2E7
100
AcDbEntity
  8
0
  6
CONTINUOUS
 62
       3
100
AcDbLine
 10
121.00368286
 20
-82.71610047
 30
0.0
 11
121.03146406
 21
-82.87432988
 31
0.0
  0
LINE
  5
2E8
100
AcDbEntity
  8
0
  6
CONTINUOUS
 62
       3
100
AcDbLine
 10
121.13070325
 20
-83.17311725
 30
0.0
 11
121.20059876
 21
-83.31210925
 31
0.0
  0
LINE
  5
2E9
100
AcDbEntity
  8
0
  6
CONTINUOUS
 62
       3
100
AcDbLine
 10
123.81349794
 20
-76.40533116
 30
0.0
 11
123.70332818
 21
-76.29766065
 31
0.0
  0
LINE
  5
2EA
100
AcDbEntity
  8
0
  6
CONTINUOUS
 62
       3
100
AcDbLine
 10
122.37642649
 20
-75.90418017
 30
0.0
 11
122.21955569
 21
-75.93577641
 31
0.0
  0
LINE
  5
2EB
100
AcDbEntity
  8
0
  6
CONTINUOUS
 62
       3
100
AcDbLine
 10
122.06851988
 20
-75.98201131
 30
0.0
 11
121.9241003
 21
-76.04210104
 31
0.0
  0
LINE
  5
2EC
100
AcDbEntity
  8
0
  6
CONTINUOUS
 62
       3
100
AcDbLine
 10
121.01567221
 20
-77.23256635
 30
0.0
 11
120.99559366
 21
-77.39332497
 31
0.0
  0
LINE
  5
2ED
100
AcDbEntity
  8
0
  6
CONTINUOUS
 62
       3
100
AcDbLine
 10
121.0740646
 20
-78.03213142
 30
0.0
 11
121.13070325
 21
-78.1782783
 31
0.0
  0
LINE
  5
2EE
100
AcDbEntity
  8
0
  6
CONTINUOUS
 62
       3
100
AcDbLine
 10
120.07011224
 20
-96.65119213
 30
0.0
 11
119.11761224
 21
-96.65119213
 31
0.0
  0
LINE
  5
2EF
100
AcDbEntity
  8
0
  6
CONTINUOUS
 62
       3
100
AcDbLine
 10
124.25042588
 20
-97.53908658
 30
0.0
 11
124.24633114
 21
-97.37420475
 31
0.0
  0
LINE
  5
2F0
100
AcDbEntity
  8
0
  6
CONTINUOUS
 62
       3
100
AcDbLine
 10
122.37642649
 20
-95.88589831
 30
0.0
 11
122.21955569
 21
-95.91748046
 31
0.0
  0
LINE
  5
2F1
100
AcDbEntity
  8
0
  6
CONTINUOUS
 62
       3
100
AcDbLine
 10
121.01567221
 20
-97.2135518
 30
0.0
 11
120.99559366
 21
-97.37420475
 31
0.0
  0
LINE
  5
2F2
100
AcDbEntity
  8
0
  6
CONTINUOUS
 62
       3
100
AcDbLine
 10
123.52006993
 20
-93.86261667
 30
0.0
 11
123.64454459
 21
-93.77139237
 31
0.0
  0
LINE
  5
2F3
100
AcDbEntity
  8
0
  6
CONTINUOUS
 62
       3
100
AcDbLine
 10
124.22623712
 20
-92.21834834
 30
0.0
 11
124.19092358
 21
-92.06286305
 31
0.0
  0
LINE
  5
2F4
100
AcDbEntity
  8
0
  6
CONTINUOUS
 62
       3
100
AcDbLine
 10
121.24027369
 20
-91.63571396
 30
0.0
 11
121.16404273
 21
-91.7707646
 31
0.0
  0
LINE
  5
2F5
100
AcDbEntity
  8
0
  6
CONTINUOUS
 62
       3
100
AcDbLine
 10
123.95878936
 20
-88.43858224
 30
0.0
 11
124.04119838
 21
-88.30762095
 31
0.0
  0
LINE
  5
2F6
100
AcDbEntity
  8
0
  6
CONTINUOUS
 62
       3
100
AcDbLine
 10
121.01567221
 20
-87.22299434
 30
0.0
 11
120.99559366
 21
-87.38372868
 31
0.0
  0
LINE
  5
2F7
100
AcDbEntity
  8
0
  6
CONTINUOUS
 62
       3
100
AcDbLine
 10
121.00368286
 20
-87.71175409
 30
0.0
 11
121.03146406
 21
-87.86996156
 31
0.0
  0
LINE
  5
2F8
100
AcDbEntity
  8
0
  6
CONTINUOUS
 62
       3
100
AcDbLine
 10
121.0740646
 20
-88.02252936
 30
0.0
 11
121.13070325
 21
-88.16867624
 31
0.0
  0
LINE
  5
2F9
100
AcDbEntity
  8
0
  6
CONTINUOUS
 62
       3
100
AcDbLine
 10
121.37703533
 20
-88.56077886
 30
0.0
 11
121.4820139
 21
-88.67342956
 31
0.0
  0
LINE
  5
2FA
100
AcDbEntity
  8
0
  6
CONTINUOUS
 62
       3
100
AcDbLine
 10
123.38703849
 20
-83.95110972
 30
0.0
 11
123.52006993
 21
-83.87173308
 31
0.0
  0
LINE
  5
2FB
100
AcDbEntity
  8
0
  6
CONTINUOUS
 62
       3
100
AcDbLine
 10
124.14117438
 20
-81.92264402
 30
0.0
 11
124.07777336
 21
-81.78001889
 31
0.0
  0
LINE
  5
2FC
100
AcDbEntity
  8
0
  6
CONTINUOUS
 62
       3
100
AcDbLine
 10
124.14117438
 20
-76.92753036
 30
0.0
 11
124.07777336
 21
-76.78482068
 31
0.0
  0
LINE
  5
2FD
100
AcDbEntity
  8
0
  6
CONTINUOUS
 62
       3
100
AcDbLine
 10
123.02216797
 20
-75.93577641
 30
0.0
 11
122.86536061
 21
-75.90418017
 31
0.0
  0
LINE
  5
2FE
100
AcDbEntity
  8
0
  6
CONTINUOUS
 62
       3
100
AcDbLine
 10
121.16404273
 20
-76.78482068
 30
0.0
 11
121.10067799
 21
-76.92753036
 31
0.0
  0
TEXT
  5
2FF
100
AcDbEntity
  8
SLD-0_0
 62
       3
100
AcDbText
 10
186.62145016
 20
-141.90840492
 30
0.0
 40
5.0
  1
000
 72
       5
 11
201.62145016
 21
-141.90840492
 31
0.0
100
AcDbText
  0
ENDSEC
  0
SECTION
  2
OBJECTS
  0
DICTIONARY
  5
19
100
AcDbDictionary
  3
ACAD_GROUP
350
1A
  3
ACAD_MLINESTYLE
350
1B
  0
DICTIONARY
  5
1A
102
{ACAD_REACTORS
330
19
102
}
100
AcDbDictionary
  0
DICTIONARY
  5
1B
102
{ACAD_REACTORS
330
19
102
}
100
AcDbDictionary
  3
STANDARD
350
1C
  0
MLINESTYLE
  5
1C
102
{ACAD_REACTORS
330
1B
102
}
100
AcDbMlineStyle
  2
STANDARD
 70
       0
  3

 62
       0
 51
90.0
 52
90.0
 71
       2
 49
0.5
 62
     256
  6
BYLAYER
 49
-0.5
 62
     256
  6
BYLAYER
  0
ENDSEC
  0
EOF
