  0
SECTION
  2
HEADER
  9
$ACADVER
  1
AC1009
  9
$INSBASE
 10
0.0
 20
0.0
 30
0.0
  9
$EXTMIN
 10
-62.9625836892425212
 20
-75.5499896219316582
 30
0.0
  9
$EXTMAX
 10
103.5736362840384004
 20
66.2665304642144548
 30
0.0
  9
$LIMMIN
 10
-148.5
 20
-105.0
  9
$LIMMAX
 10
148.5
 20
105.0
  9
$ORTHOMODE
 70
     0
  9
$REGENMODE
 70
     1
  9
$FILLMODE
 70
     1
  9
$QTEXTMODE
 70
     0
  9
$MIRRTEXT
 70
     1
  9
$DRAGMODE
 70
     2
  9
$LTSCALE
 40
0.25
  9
$OSMODE
 70
  1079
  9
$ATTMODE
 70
     1
  9
$TEXTSIZE
 40
0.2
  9
$TRACEWID
 40
0.05
  9
$TEXTSTYLE
  7
STANDARD
  9
$CLAYER
  8
0
  9
$CELTYPE
  6
BYLAYER
  9
$CECOLOR
 62
   256
  9
$DIMSCALE
 40
1.0
  9
$DIMASZ
 40
3.0000019073486328
  9
$DIMEXO
 40
1.0
  9
$DIMDLI
 40
10.0
  9
$DIMRND
 40
0.0
  9
$DIMDLE
 40
0.0
  9
$DIMEXE
 40
1.0
  9
$DIMTP
 40
0.0
  9
$DIMTM
 40
0.0
  9
$DIMTXT
 40
3.5
  9
$DIMCEN
 40
0.0
  9
$DIMTSZ
 40
0.0
  9
$DIMTOL
 70
     0
  9
$DIMLIM
 70
     0
  9
$DIMTIH
 70
     0
  9
$DIMTOH
 70
     0
  9
$DIMSE1
 70
     0
  9
$DIMSE2
 70
     0
  9
$DIMTAD
 70
     1
  9
$DIMZIN
 70
     8
  9
$DIMBLK
  1

  9
$DIMASO
 70
     1
  9
$DIMSHO
 70
     1
  9
$DIMPOST
  1

  9
$DIMAPOST
  1

  9
$DIMALT
 70
     0
  9
$DIMALTD
 70
     2
  9
$DIMALTF
 40
25.3999999999999986
  9
$DIMLFAC
 40
1.0
  9
$DIMTOFL
 70
     0
  9
$DIMTVP
 40
0.0
  9
$DIMTIX
 70
     0
  9
$DIMSOXD
 70
     0
  9
$DIMSAH
 70
     0
  9
$DIMBLK1
  1

  9
$DIMBLK2
  1

  9
$DIMSTYLE
  2
STANDARD
  9
$DIMCLRD
 70
     0
  9
$DIMCLRE
 70
     0
  9
$DIMCLRT
 70
     0
  9
$DIMTFAC
 40
0.65
  9
$DIMGAP
 40
0.09
  9
$LUNITS
 70
     2
  9
$LUPREC
 70
     4
  9
$SKETCHINC
 40
0.1
  9
$FILLETRAD
 40
0.5
  9
$AUNITS
 70
     0
  9
$AUPREC
 70
     0
  9
$MENU
  1
.
  9
$ELEVATION
 40
0.0
  9
$PELEVATION
 40
0.0
  9
$THICKNESS
 40
0.0
  9
$LIMCHECK
 70
     0
  9
$BLIPMODE
 70
     0
  9
$CHAMFERA
 40
0.0
  9
$CHAMFERB
 40
0.0
  9
$SKPOLY
 70
     0
  9
$TDCREATE
 40
2456882.3951736111193895
  9
$TDUPDATE
 40
2458687.5818402781151235
  9
$TDINDWG
 40
0.0009722338
  9
$TDUSRTIMER
 40
0.0009722338
  9
$USRTIMER
 70
     1
  9
$ANGBASE
 50
0.0
  9
$ANGDIR
 70
     0
  9
$PDMODE
 70
     0
  9
$PDSIZE
 40
1.0
  9
$PLINEWID
 40
0.0
  9
$COORDS
 70
     1
  9
$SPLFRAME
 70
     0
  9
$SPLINETYPE
 70
     6
  9
$SPLINESEGS
 70
     8
  9
$ATTDIA
 70
     1
  9
$ATTREQ
 70
     1
  9
$HANDLING
 70
     1
  9
$HANDSEED
  5
41F
  9
$SURFTAB1
 70
     6
  9
$SURFTAB2
 70
     6
  9
$SURFTYPE
 70
     6
  9
$SURFU
 70
     6
  9
$SURFV
 70
     6
  9
$UCSNAME
  2

  9
$UCSORG
 10
0.0
 20
0.0
 30
0.0
  9
$UCSXDIR
 10
1.0
 20
0.0
 30
0.0
  9
$UCSYDIR
 10
0.0
 20
1.0
 30
0.0
  9
$PUCSNAME
  2

  9
$PUCSORG
 10
0.0
 20
0.0
 30
0.0
  9
$PUCSXDIR
 10
1.0
 20
0.0
 30
0.0
  9
$PUCSYDIR
 10
0.0
 20
1.0
 30
0.0
  9
$USERI1
 70
     0
  9
$USERI2
 70
     0
  9
$USERI3
 70
     0
  9
$USERI4
 70
     0
  9
$USERI5
 70
     0
  9
$USERR1
 40
0.0
  9
$USERR2
 40
0.0
  9
$USERR3
 40
0.0
  9
$USERR4
 40
0.0
  9
$USERR5
 40
0.0
  9
$WORLDVIEW
 70
     1
  9
$SHADEDGE
 70
     3
  9
$SHADEDIF
 70
    70
  9
$TILEMODE
 70
     1
  9
$MAXACTVP
 70
    64
  9
$PLIMCHECK
 70
     0
  9
$PEXTMIN
 10
1.0000000000000000E+20
 20
1.0000000000000000E+20
 30
1.0000000000000000E+20
  9
$PEXTMAX
 10
-1.0000000000000000E+20
 20
-1.0000000000000000E+20
 30
-1.0000000000000000E+20
  9
$PLIMMIN
 10
0.0
 20
0.0
  9
$PLIMMAX
 10
12.0
 20
9.0
  9
$UNITMODE
 70
     0
  9
$VISRETAIN
 70
     0
  9
$PLINEGEN
 70
     1
  9
$PSLTSCALE
 70
     0
  0
ENDSEC
  0
SECTION
  2
TABLES
  0
TABLE
  2
VPORT
 70
     1
  0
VPORT
  2
*ACTIVE
 70
     0
 10
0.0
 20
0.0
 11
1.0
 21
1.0
 12
29.5143526009775599
 22
-10.4289510390547093
 13
0.0
 23
0.0
 14
0.5
 24
0.5
 15
0.5
 25
0.5
 16
0.0
 26
0.0
 36
1.0
 17
0.0
 27
0.0
 37
0.0
 40
186.5418978962674998
 41
2.2158693115519248
 42
50.0
 43
0.0
 44
0.0
 50
0.0
 51
0.0
 71
     0
 72
  1000
 73
     1
 74
     1
 75
     0
 76
     0
 77
     0
 78
     0
  0
ENDTAB
  0
TABLE
  2
LTYPE
 70
    67
  0
LTYPE
  2
CONTINUOUS
 70
     0
  3
Solid line
 72
    65
 73
     0
 40
0.0
  0
LTYPE
  2
HIDDENX2
 70
     0
  3
Hidden (2x) ____ ____ ____ ____ ____ ____ ____ 
 72
    65
 73
     2
 40
19.0500000000000007
 49
12.6999999999999993
 49
-6.3499999999999988
  0
LTYPE
  2
HIDDEN
 70
     0
  3
Hidden __ __ __ __ __ __ __ __ __ __ __ __ __ __
 72
    65
 73
     2
 40
9.5250000000000004
 49
6.3499999999999988
 49
-3.1749999999999989
  0
LTYPE
  2
HIDDEN2
 70
     0
  3
Hidden (.5x) _ _ _ _ _ _ _ _ _ _ _ _ _ _ _ _ _ 
 72
    65
 73
     2
 40
4.7624999999999984
 49
3.1749999999999989
 49
-1.587499999999999
  0
LTYPE
  2
DASHED
 70
     0
  3
Dashed __ __ __ __ __ __ __ __ __ __ __ __ __ _
 72
    65
 73
     2
 40
19.0500000000000007
 49
12.6999999999999993
 49
-6.3499999999999988
  0
LTYPE
  2
DASHED2
 70
     0
  3
Dashed (.5x) _ _ _ _ _ _ _ _ _ _ _ _ _ _ _ _ _ 
 72
    65
 73
     2
 40
9.5250000000000004
 49
6.3499999999999988
 49
-3.1749999999999989
  0
LTYPE
  2
DASHEDX2
 70
     0
  3
Dashed (2x) ____  ____  ____  ____  ____  ___
 72
    65
 73
     2
 40
38.0999999999999872
 49
25.3999999999999986
 49
-12.6999999999999993
  0
LTYPE
  2
DOTX2
 70
     0
  3
Dot (2x) .  .  .  .  .  .  .  .  .  .  .  .  .  .
 72
    65
 73
     2
 40
12.6999999999999993
 49
0.0
 49
-12.6999999999999993
  0
LTYPE
  2
DOT
 70
     0
  3
Dot . . . . . . . . . . . . . . . . . . . . . . . .
 72
    65
 73
     2
 40
6.3499999999999988
 49
0.0
 49
-6.3499999999999988
  0
LTYPE
  2
DOT2
 70
     0
  3
Dot (.5x) ........................................
 72
    65
 73
     2
 40
3.1749999999999989
 49
0.0
 49
-3.1749999999999989
  0
LTYPE
  2
CENTERX2
 70
     0
  3
Center (2x) ________  __  ________  __  _____
 72
    65
 73
     4
 40
101.5999999999999943
 49
63.5
 49
-12.6999999999999993
 49
12.6999999999999993
 49
-12.6999999999999993
  0
LTYPE
  2
CENTER
 70
     0
  3
Center ____ _ ____ _ ____ _ ____ _ ____ _ ____
 72
    65
 73
     4
 40
50.7999999999999972
 49
31.75
 49
-6.3499999999999988
 49
6.3499999999999988
 49
-6.3499999999999988
  0
LTYPE
  2
CENTER2
 70
     0
  3
Center (.5x) ___ _ ___ _ ___ _ ___ _ ___ _ ___
 72
    65
 73
     4
 40
28.5749999999999993
 49
19.0500000000000007
 49
-3.1749999999999989
 49
3.1749999999999989
 49
-3.1749999999999989
  0
LTYPE
  2
DASHDOTX2
 70
     0
  3
Dash dot (2x) ____  .  ____  .  ____  .  ___
 72
    65
 73
     4
 40
50.7999999999999972
 49
25.3999999999999986
 49
-12.6999999999999993
 49
0.0
 49
-12.6999999999999993
  0
LTYPE
  2
DASHDOT
 70
     0
  3
Dash dot __ . __ . __ . __ . __ . __ . __ . __
 72
    65
 73
     4
 40
25.3999999999999986
 49
12.6999999999999993
 49
-6.3499999999999988
 49
0.0
 49
-6.3499999999999988
  0
LTYPE
  2
DASHDOT2
 70
     0
  3
Dash dot (.5x) _._._._._._._._._._._._._._._.
 72
    65
 73
     4
 40
12.6999999999999993
 49
6.3499999999999988
 49
-3.1749999999999989
 49
0.0
 49
-3.1749999999999989
  0
LTYPE
  2
DIVIDEX2
 70
     0
  3
Divide (2x) ________  .  .  ________  .  .  _
 72
    65
 73
     6
 40
63.5
 49
25.3999999999999986
 49
-12.6999999999999993
 49
0.0
 49
-12.6999999999999993
 49
0.0
 49
-12.6999999999999993
  0
LTYPE
  2
DIVIDE
 70
     0
  3
Divide ____ . . ____ . . ____ . . ____ . . ____
 72
    65
 73
     6
 40
31.75
 49
12.6999999999999993
 49
-6.3499999999999988
 49
0.0
 49
-6.3499999999999988
 49
0.0
 49
-6.3499999999999988
  0
LTYPE
  2
DIVIDE2
 70
     0
  3
Divide (.5x) __..__..__..__..__..__..__..__.._
 72
    65
 73
     6
 40
15.875
 49
6.3499999999999988
 49
-3.1749999999999989
 49
0.0
 49
-3.1749999999999989
 49
0.0
 49
-3.1749999999999989
  0
LTYPE
  2
BORDERX2
 70
     0
  3
Border (2x) ____  ____  .  ____  ____  .  ___
 72
    65
 73
     6
 40
88.8999999999999773
 49
25.3999999999999986
 49
-12.6999999999999993
 49
25.3999999999999986
 49
-12.6999999999999993
 49
0.0
 49
-12.6999999999999993
  0
LTYPE
  2
BORDER
 70
     0
  3
Border __ __ . __ __ . __ __ . __ __ . __ __ .
 72
    65
 73
     6
 40
44.4500000000000028
 49
12.6999999999999993
 49
-6.3499999999999988
 49
12.6999999999999993
 49
-6.3499999999999988
 49
0.0
 49
-6.3499999999999988
  0
LTYPE
  2
BORDER2
 70
     0
  3
Border (.5x) __.__.__.__.__.__.__.__.__.__.__.
 72
    65
 73
     6
 40
22.2250000000000014
 49
6.3499999999999988
 49
-3.1749999999999989
 49
6.3499999999999988
 49
-3.1749999999999989
 49
0.0
 49
-3.1749999999999989
  0
LTYPE
  2
PHANTOMX2
 70
     0
  3
Phantom (2x) ____________    ____    ____   _
 72
    65
 73
     6
 40
127.0
 49
63.5
 49
-12.6999999999999993
 49
12.6999999999999993
 49
-12.6999999999999993
 49
12.6999999999999993
 49
-12.6999999999999993
  0
LTYPE
  2
PHANTOM
 70
     0
  3
Phantom ______  __  __  ______  __  __  ______ 
 72
    65
 73
     6
 40
63.5
 49
31.75
 49
-6.3499999999999988
 49
6.3499999999999988
 49
-6.3499999999999988
 49
6.3499999999999988
 49
-6.3499999999999988
  0
LTYPE
  2
PHANTOM2
 70
     0
  3
Phantom (.5x) ___ _ _ ___ _ _ ___ _ _ ___ _ _
 72
    65
 73
     6
 40
31.75
 49
15.875
 49
-3.1749999999999989
 49
3.1749999999999989
 49
-3.1749999999999989
 49
3.1749999999999989
 49
-3.1749999999999989
  0
LTYPE
  2
ACAD_ISO06W100
 70
     0
  3
ISO long-dash triple-dot ____ ... ____ ... ____
 72
    65
 73
     8
 40
36.0
 49
24.0
 49
-3.0
 49
0.0
 49
-3.0
 49
0.0
 49
-3.0
 49
0.0
 49
-3.0
  0
LTYPE
  2
ACAD_ISO13W100
 70
     0
  3
ISO double-dash double-dot __ __ . . __ __ . . _
 72
    65
 73
     8
 40
36.0
 49
12.0
 49
-3.0
 49
12.0
 49
-3.0
 49
0.0
 49
-3.0
 49
0.0
 49
-3.0
  0
LTYPE
  2
ACAD_ISO14W100
 70
     0
  3
ISO dash triple-dot __ . . . __ . . . __ . . . _
 72
    65
 73
     8
 40
24.0
 49
12.0
 49
-3.0
 49
0.0
 49
-3.0
 49
0.0
 49
-3.0
 49
0.0
 49
-3.0
  0
LTYPE
  2
ACAD_ISO02W100
 70
     0
  3
ISO dash __ __ __ __ __ __ __ __ __ __ __ __ __
 72
    65
 73
     2
 40
15.0
 49
12.0
 49
-3.0
  0
LTYPE
  2
ACAD_ISO03W100
 70
     0
  3
ISO dash space __    __    __    __    __    __
 72
    65
 73
     2
 40
30.0
 49
12.0
 49
-18.0
  0
LTYPE
  2
ACAD_ISO04W100
 70
     0
  3
ISO long-dash dot ____ . ____ . ____ . ____ . _
 72
    65
 73
     4
 40
30.0
 49
24.0
 49
-3.0
 49
0.0
 49
-3.0
  0
LTYPE
  2
ACAD_ISO05W100
 70
     0
  3
ISO long-dash double-dot ____ .. ____ .. ____ . 
 72
    65
 73
     6
 40
33.0
 49
24.0
 49
-3.0
 49
0.0
 49
-3.0
 49
0.0
 49
-3.0
  0
LTYPE
  2
ACAD_ISO07W100
 70
     0
  3
ISO dot . . . . . . . . . . . . . . . . . . . . 
 72
    65
 73
     2
 40
3.0
 49
0.0
 49
-3.0
  0
LTYPE
  2
ACAD_ISO08W100
 70
     0
  3
ISO long-dash short-dash ____ __ ____ __ ____ _
 72
    65
 73
     4
 40
36.0
 49
24.0
 49
-3.0
 49
6.0
 49
-3.0
  0
LTYPE
  2
ACAD_ISO09W100
 70
     0
  3
ISO long-dash double-short-dash ____ __ __ ____
 72
    65
 73
     6
 40
45.0
 49
24.0
 49
-3.0
 49
6.0
 49
-3.0
 49
6.0
 49
-3.0
  0
LTYPE
  2
ACAD_ISO10W100
 70
     0
  3
ISO dash dot __ . __ . __ . __ . __ . __ . __ . 
 72
    65
 73
     4
 40
18.0
 49
12.0
 49
-3.0
 49
0.0
 49
-3.0
  0
LTYPE
  2
ACAD_ISO11W100
 70
     0
  3
ISO double-dash dot __ __ . __ __ . __ __ . __ _
 72
    65
 73
     6
 40
33.0
 49
12.0
 49
-3.0
 49
12.0
 49
-3.0
 49
0.0
 49
-3.0
  0
LTYPE
  2
ACAD_ISO12W100
 70
     0
  3
ISO dash double-dot __ . . __ . . __ . . __ . . 
 72
    65
 73
     6
 40
21.0
 49
12.0
 49
-3.0
 49
0.0
 49
-3.0
 49
0.0
 49
-3.0
  0
LTYPE
  2
ACAD_ISO15W100
 70
     0
  3
ISO double-dash triple-dot __ __ . . . __ __ . .
 72
    65
 73
    10
 40
39.0
 49
12.0
 49
-3.0
 49
12.0
 49
-3.0
 49
0.0
 49
-3.0
 49
0.0
 49
-3.0
 49
0.0
 49
-3.0
  0
LTYPE
  2
JIS_02_0_7
 70
     0
  3
HIDDEN0.75 _ _ _ _ _ _ _ _ _ _ _ _ _ _ _ _ _ 
 72
    65
 73
     2
 40
1.3500000000000001
 49
0.75
 49
-0.6
  0
LTYPE
  2
JIS_02_1_0
 70
     0
  3
HIDDEN01 _ _ _ _ _ _ _ _ _ _ _ _ _ _ _ _ _ 
 72
    65
 73
     2
 40
2.0
 49
1.0
 49
-1.0
  0
LTYPE
  2
JIS_02_1_2
 70
     0
  3
HIDDEN01.25  _ _ _ _ _ _ _ _ _ _ _ _ _ _ _ _ _ 
 72
    65
 73
     2
 40
2.5
 49
1.25
 49
-1.25
  0
LTYPE
  2
JIS_02_2_0
 70
     0
  3
HIDDEN02 __ __ __ __ __ __ __ __ __ __ __ 
 72
    65
 73
     2
 40
3.0
 49
2.0
 49
-1.0
  0
LTYPE
  2
JIS_02_4_0
 70
     0
  3
HIDDEN04 ____ ____ ____ ____ ____ ____ ____ 
 72
    65
 73
     2
 40
5.5
 49
4.0
 49
-1.5
  0
LTYPE
  2
JIS_08_11
 70
     0
  3
1SASEN11 ___ _ ___ _ ___ _ ___ _ ___ _ ___
 72
    65
 73
     4
 40
12.8000000000000007
 49
11.0
 49
-0.6
 49
0.6
 49
-0.6
  0
LTYPE
  2
JIS_08_15
 70
     0
  3
1SASEN15 ____ _ ____ _ ____ _ ____ _ ____ 
 72
    65
 73
     4
 40
17.25
 49
15.0
 49
-0.75
 49
0.75
 49
-0.75
  0
LTYPE
  2
JIS_08_25
 70
     0
  3
1SASEN25 ________  __  ________  __  _____
 72
    65
 73
     4
 40
28.0
 49
25.0
 49
-1.125
 49
0.75
 49
-1.125
  0
LTYPE
  2
JIS_08_37
 70
     0
  3
1SASEN37 ________  __  ________  __  _____
 72
    65
 73
     4
 40
40.4999999999999929
 49
37.5
 49
-1.125
 49
0.75
 49
-1.125
  0
LTYPE
  2
JIS_08_50
 70
     0
  3
1SASEN50 _______________  __  ____________
 72
    65
 73
     4
 40
53.0
 49
50.0
 49
-1.125
 49
0.75
 49
-1.125
  0
LTYPE
  2
JIS_09_08
 70
     0
  3
2SASEN8 __ _ _ __ _ _ __ _ _ __ _ _ __ _ _ 
 72
    65
 73
     6
 40
10.75
 49
8.0
 49
-0.55
 49
0.55
 49
-0.55
 49
0.55
 49
-0.55
  0
LTYPE
  2
JIS_09_15
 70
     0
  3
2SASEN15 ___ _ _ ___ _ _ ___ _ _ ___ _ _ ___ 
 72
    65
 73
     6
 40
18.8999999999999986
 49
15.0
 49
-0.9
 49
0.6
 49
-0.9
 49
0.6
 49
-0.9
  0
LTYPE
  2
JIS_09_29
 70
     0
  3
2SASEN29 ______　__  __  ______　__  __  ___
 72
    65
 73
     6
 40
34.0
 49
29.0
 49
-1.1999999999999991
 49
0.7
 49
-1.1999999999999991
 49
0.7
 49
-1.1999999999999991
  0
LTYPE
  2
JIS_09_50
 70
     0
  3
2SASEN50 ____________　__  __  _____________
 72
    65
 73
     6
 40
55.0
 49
50.0
 49
-1.1999999999999991
 49
0.7
 49
-1.1999999999999991
 49
0.7
 49
-1.1999999999999991
  0
LTYPE
  2
SXF_破線
 70
     0
  3
02 dashed -- -- -- -- -- --
 72
    65
 73
     2
 40
7.5
 49
6.0
 49
-1.5
  0
LTYPE
  2
SXF_跳び破線
 70
     0
  3
03 dashed_spaced --  --  --  --
 72
    65
 73
     2
 40
12.0
 49
6.0
 49
-6.0
  0
LTYPE
  2
SXF_一点長鎖線
 70
     0
  3
04 long_dashed_dotted ---- . ---- . ----
 72
    65
 73
     4
 40
15.25
 49
12.0
 49
-1.5
 49
0.25
 49
-1.5
  0
LTYPE
  2
SXF_二点長鎖線
 70
     0
  3
05 long_dashed_double-dotted ---- . . ---- 
 72
    65
 73
     6
 40
17.0
 49
12.0
 49
-1.5
 49
0.25
 49
-1.5
 49
0.25
 49
-1.5
  0
LTYPE
  2
SXF_三点長鎖線
 70
     0
  3
06 long_dashed_triplicate-dotted ---- ... ---- 
 72
    65
 73
     8
 40
18.75
 49
12.0
 49
-1.5
 49
0.25
 49
-1.5
 49
0.25
 49
-1.5
 49
0.25
 49
-1.5
  0
LTYPE
  2
SXF_点線
 70
     0
  3
07 dotted . . . . . . . . . . . . 
 72
    65
 73
     2
 40
1.75
 49
0.25
 49
-1.5
  0
LTYPE
  2
SXF_一点鎖線
 70
     0
  3
08 chain ---- - --- - --- - ---
 72
    65
 73
     4
 40
18.5
 49
12.0
 49
-1.5
 49
3.5
 49
-1.5
  0
LTYPE
  2
SXF_二点鎖線
 70
     0
  3
09 chain_double_dash ---- - - ---- - - ----
 72
    65
 73
     6
 40
23.5
 49
12.0
 49
-1.5
 49
3.5
 49
-1.5
 49
3.5
 49
-1.5
  0
LTYPE
  2
SXF_一点短鎖線
 70
     0
  3
10 dashed_dotted -- . -- . -- . --
 72
    65
 73
     4
 40
9.25
 49
6.0
 49
-1.5
 49
0.25
 49
-1.5
  0
LTYPE
  2
SXF_一点二短鎖線
 70
     0
  3
11 double-dashed_dotted -- -- . -- --
 72
    65
 73
     6
 40
16.75
 49
6.0
 49
-1.5
 49
6.0
 49
-1.5
 49
0.25
 49
-1.5
  0
LTYPE
  2
SXF_二点短鎖線
 70
     0
  3
12 dashed_double_dotted -- . . -- . . --
 72
    65
 73
     6
 40
11.0
 49
6.0
 49
-1.5
 49
0.25
 49
-1.5
 49
0.25
 49
-1.5
  0
LTYPE
  2
SXF_二点二短鎖線
 70
     0
  3
13 double-dashed_double-dotted -- -- . . -- --
 72
    65
 73
     8
 40
18.5
 49
6.0
 49
-1.5
 49
6.0
 49
-1.5
 49
0.25
 49
-1.5
 49
0.25
 49
-1.5
  0
LTYPE
  2
SXF_三点短鎖線
 70
     0
  3
14 dashed triplicate-dotted -- . . . -- . . . --
 72
    65
 73
     8
 40
12.75
 49
6.0
 49
-1.5
 49
0.25
 49
-1.5
 49
0.25
 49
-1.5
 49
0.25
 49
-1.5
  0
LTYPE
  2
SXF_三点二短鎖線
 70
     0
  3
15 double-dashed triplicate-dotted -- -- . . . -- -- 
 72
    65
 73
    10
 40
20.25
 49
6.0
 49
-1.5
 49
6.0
 49
-1.5
 49
0.25
 49
-1.5
 49
0.25
 49
-1.5
 49
0.25
 49
-1.5
  0
ENDTAB
  0
TABLE
  2
LAYER
 70
     1
  0
LAYER
  2
0
 70
     0
 62
     7
  6
CONTINUOUS
  0
ENDTAB
  0
TABLE
  2
STYLE
 70
     2
  0
STYLE
  2
STANDARD
 70
     0
 40
0.0
 41
1.0
 50
0.0
 71
     0
 42
0.2
  3
txt.shx
  4
bigfont.shx
  0
STYLE
  2
DCSTYLE0
 70
     0
 40
0.0
 41
0.7700000000000001
 50
0.0
 71
     0
 42
0.2
  3
ＭＳ ゴシック
  4

  0
ENDTAB
  0
TABLE
  2
VIEW
 70
     0
  0
ENDTAB
  0
TABLE
  2
UCS
 70
     0
  0
ENDTAB
  0
TABLE
  2
APPID
 70
     4
  0
APPID
  2
ACAD
 70
     0
  0
APPID
  2
DAFUSIONOUT
 70
     0
  0
APPID
  2
ACAD_NAV_VCDISPLAY
 70
     0
  0
APPID
  2
ACAD_MLEADERVER
 70
     0
  0
ENDTAB
  0
TABLE
  2
DIMSTYLE
 70
     1
  0
DIMSTYLE
  2
STANDARD
 70
     0
  3

  4

  5

  6

  7

 40
1.0
 41
0.18
 42
0.0625
 43
0.38
 44
0.18
 45
0.0
 46
0.0
 47
0.0
 48
0.0
140
0.18
141
0.09
142
0.0
143
25.3999999999999986
144
1.0
145
0.0
146
1.0
147
0.09
 71
     0
 72
     0
 73
     1
 74
     1
 75
     0
 76
     0
 77
     0
 78
     0
170
     0
171
     2
172
     0
173
     0
174
     0
175
     0
176
     0
177
     0
178
     0
  0
ENDTAB
  0
ENDSEC
  0
SECTION
  2
BLOCKS
  0
BLOCK
  8
0
  2
$MODEL_SPACE
 70
     0
 10
0.0
 20
0.0
 30
0.0
  3
$MODEL_SPACE
  1
*Model_Space
  0
ENDBLK
  5
21
  8
0
  0
BLOCK
 67
     1
  8
0
  2
$PAPER_SPACE
 70
     0
 10
0.0
 20
0.0
 30
0.0
  3
$PAPER_SPACE
  1
*Paper_Space
  0
ENDBLK
  5
1D
 67
     1
  8
0
  0
BLOCK
  8
0
  2
DC_GROUP_R30NECT1_1
 70
     0
 10
0.0
 20
0.0
 30
0.0
  3
DC_GROUP_R30NECT1_1
  1
DC_GROUP_R30NECT1_1
  0
LINE
  5
B4
  8
0
  6
CONTINUOUS
 62
     7
 10
18.1381261787855301
 20
1.0165301810928791
 30
0.0
 11
18.1573375008546911
 21
1.0357452284523441
 31
0.0
  0
LINE
  5
B5
  8
0
  6
CONTINUOUS
 62
     7
 10
18.1573375008546911
 20
1.0357452284523441
 30
0.0
 11
18.2142450354539989
 21
1.092650900406499
 31
0.0
  0
LINE
  5
B6
  8
0
  6
CONTINUOUS
 62
     7
 10
18.2142450354539989
 20
1.092650900406499
 30
0.0
 11
18.3066545865976487
 21
1.1850604515501459
 31
0.0
  0
LINE
  5
B7
  8
0
  6
CONTINUOUS
 62
     7
 10
18.3066545865976487
 20
1.1850604515501459
 30
0.0
 11
18.4310196779215012
 21
1.3094236802288499
 31
0.0
  0
LINE
  5
B8
  8
0
  6
CONTINUOUS
 62
     7
 10
18.4310196779215012
 20
1.3094236802288499
 30
0.0
 11
18.5825533113920294
 21
1.460960107667109
 31
0.0
  0
LINE
  5
B9
  8
0
  6
CONTINUOUS
 62
     7
 10
18.5825533113920294
 20
1.460960107667109
 30
0.0
 11
18.7554403088533483
 21
1.633847105128428
 31
0.0
  0
LINE
  5
BA
  8
0
  6
CONTINUOUS
 62
     7
 10
18.7554403088533483
 20
1.633847105128428
 30
0.0
 11
18.9430347524129985
 21
1.8214396860429249
 31
0.0
  0
LINE
  5
BB
  8
0
  6
CONTINUOUS
 62
     7
 10
18.9430347524129985
 20
1.8214396860429249
 30
0.0
 11
19.1381244800531398
 21
2.0165303450056511
 31
0.0
  0
ENDBLK
  5
B0
  8
0
  0
BLOCK
  8
0
  2
DC_GROUP_R30NECT1_2
 70
     0
 10
0.0
 20
0.0
 30
0.0
  3
DC_GROUP_R30NECT1_2
  1
DC_GROUP_R30NECT1_2
  0
LINE
  5
BC
  8
0
  6
PHANTOM
 62
     8
 10
-46.1607165618236266
 20
-37.4834677476456974
 30
0.0
 11
-46.4709829522664677
 21
-36.9970379669240401
 31
0.0
  0
LINE
  5
BD
  8
0
  6
PHANTOM
 62
     8
 10
-46.4709829522664677
 20
-36.9970379669240401
 30
0.0
 11
-46.4808624221380029
 21
-36.9834704596570418
 31
0.0
  0
ENDBLK
  5
B3
  8
0
  0
ENDSEC
  0
SECTION
  2
ENTITIES
  0
LINE
  5
BE
  8
0
  6
CONTINUOUS
 62
     7
 10
-52.9625834880764685
 20
50.3665292363592627
 30
0.0
 11
-52.9625834880764685
 21
51.1665316026636532
 31
0.0
  0
LINE
  5
BF
  8
0
  6
CONTINUOUS
 62
     7
 10
-52.3625835759933196
 20
51.7665305834242275
 30
0.0
 11
-51.9625833241637025
 21
51.7665305834242275
 31
0.0
  0
ARC
  5
C0
  8
0
  6
CONTINUOUS
 62
     7
 10
-52.362583689241653
 20
50.3665304642154723
 30
0.0
 40
0.6000000000000228
 50
180.0
 51
270.0
  0
ARC
  5
C1
  8
0
  6
CONTINUOUS
 62
     7
 10
-51.9625836892416686
 20
51.1665304642154624
 30
0.0
 40
0.6000000000000228
 50
0.0
 51
90.0
  0
LINE
  5
C2
  8
0
  6
CONTINUOUS
 62
     7
 10
-51.9625833241637025
 20
49.7665302555986813
 30
0.0
 11
-52.3625835759933196
 21
49.7665302555986813
 31
0.0
  0
ARC
  5
C3
  8
0
  6
CONTINUOUS
 62
     7
 10
-52.362583689241653
 20
44.1665304642154624
 30
0.0
 40
0.6000000000000228
 50
90.0
 51
180.0
  0
LINE
  5
C4
  8
0
  6
CONTINUOUS
 62
     7
 10
-52.9625834880764685
 20
43.3665299516149929
 30
0.0
 11
-52.9625834880764685
 21
44.1665323179193905
 31
0.0
  0
LINE
  5
C5
  8
0
  6
CONTINUOUS
 62
     7
 10
-52.3625835759933196
 20
44.7665312986799719
 30
0.0
 11
-51.9625833241637025
 21
44.7665312986799719
 31
0.0
  0
ARC
  5
C6
  8
0
  6
CONTINUOUS
 62
     7
 10
-52.362583689241653
 20
43.3665304642154723
 30
0.0
 40
0.6000000000000228
 50
180.0
 51
270.0
  0
ARC
  5
C7
  8
0
  6
CONTINUOUS
 62
     7
 10
-51.9625836892416686
 20
44.1665304642154624
 30
0.0
 40
0.6000000000000228
 50
0.0
 51
90.0
  0
LINE
  5
C8
  8
0
  6
CONTINUOUS
 62
     7
 10
-51.9625833241637025
 20
42.7665309708544186
 30
0.0
 11
-52.3625835759933196
 21
42.7665309708544186
 31
0.0
  0
LINE
  5
C9
  8
0
  6
CONTINUOUS
 62
     7
 10
-51.3625834120805465
 20
44.1665323179193905
 30
0.0
 11
-51.3625834120805465
 21
43.3665299516149929
 31
0.0
  0
ARC
  5
CA
  8
0
  6
CONTINUOUS
 62
     7
 10
-51.9625836892416686
 20
43.3665304642154723
 30
0.0
 40
0.6000000000000228
 50
270.0
 51
0.0
  0
ARC
  5
CB
  8
0
  6
CONTINUOUS
 62
     7
 10
-52.362583689241653
 20
47.6665304642154624
 30
0.0
 40
0.6000000000000228
 50
90.0
 51
180.0
  0
LINE
  5
CC
  8
0
  6
CONTINUOUS
 62
     7
 10
-52.9625834880764685
 20
46.8665295939871172
 30
0.0
 11
-52.9625834880764685
 21
47.6665319602915218
 31
0.0
  0
LINE
  5
CD
  8
0
  6
CONTINUOUS
 62
     7
 10
-52.3625835759933196
 20
48.2665309410521104
 30
0.0
 11
-51.9625833241637025
 21
48.2665309410521104
 31
0.0
  0
ARC
  5
CE
  8
0
  6
CONTINUOUS
 62
     7
 10
-52.362583689241653
 20
46.8665304642154723
 30
0.0
 40
0.6000000000000228
 50
180.0
 51
270.0
  0
ARC
  5
CF
  8
0
  6
CONTINUOUS
 62
     7
 10
-51.9625836892416686
 20
47.6665304642154624
 30
0.0
 40
0.6000000000000228
 50
0.0
 51
90.0
  0
LINE
  5
D0
  8
0
  6
CONTINUOUS
 62
     7
 10
-51.9625833241637025
 20
46.2665306132265499
 30
0.0
 11
-52.3625835759933196
 21
46.2665306132265499
 31
0.0
  0
LINE
  5
D1
  8
0
  6
CONTINUOUS
 62
     7
 10
-51.3625834120805465
 20
47.6665319602915218
 30
0.0
 11
-51.3625834120805465
 21
46.8665295939871172
 31
0.0
  0
ARC
  5
D2
  8
0
  6
CONTINUOUS
 62
     7
 10
-51.9625836892416686
 20
46.8665304642154723
 30
0.0
 40
0.6000000000000228
 50
270.0
 51
0.0
  0
ARC
  5
D3
  8
0
  6
CONTINUOUS
 62
     7
 10
-52.362583689241653
 20
51.1665304642154624
 30
0.0
 40
0.6000000000000228
 50
90.0
 51
180.0
  0
ARC
  5
D4
  8
0
  6
CONTINUOUS
 62
     7
 10
-51.9625836892416686
 20
58.1665304642154766
 30
0.0
 40
0.6000000000000228
 50
0.0
 51
90.0
  0
LINE
  5
D5
  8
0
  6
CONTINUOUS
 62
     7
 10
-51.3625834120805465
 20
58.1665308874079301
 30
0.0
 11
-51.3625834120805465
 21
57.366532246393831
 31
0.0
  0
ARC
  5
D6
  8
0
  6
CONTINUOUS
 62
     7
 10
-51.9625836892416686
 20
57.3665304642154723
 30
0.0
 40
0.6000000000000228
 50
270.0
 51
0.0
  0
ARC
  5
D7
  8
0
  6
CONTINUOUS
 62
     7
 10
-52.362583689241653
 20
54.6665304642154624
 30
0.0
 40
0.5999999999999944
 50
90.0
 51
180.0
  0
LINE
  5
D8
  8
0
  6
CONTINUOUS
 62
     7
 10
-51.3625834120805465
 20
51.1665316026636532
 30
0.0
 11
-51.3625834120805465
 21
50.3665292363592627
 31
0.0
  0
ARC
  5
D9
  8
0
  6
CONTINUOUS
 62
     7
 10
-51.9625836892416686
 20
50.3665304642154723
 30
0.0
 40
0.6000000000000228
 50
270.0
 51
0.0
  0
ARC
  5
DA
  8
0
  6
CONTINUOUS
 62
     7
 10
-52.362583689241653
 20
58.1665304642154766
 30
0.0
 40
0.6000000000000228
 50
90.0
 51
180.0
  0
LINE
  5
DB
  8
0
  6
CONTINUOUS
 62
     7
 10
-52.9625834880764685
 20
57.366532246393831
 30
0.0
 11
-52.9625834880764685
 21
58.1665308874079301
 31
0.0
  0
LINE
  5
DC
  8
0
  6
CONTINUOUS
 62
     7
 10
-52.3625835759933196
 20
58.7665298681684902
 30
0.0
 11
-51.9625833241637025
 21
58.7665298681684902
 31
0.0
  0
ARC
  5
DD
  8
0
  6
CONTINUOUS
 62
     7
 10
-52.362583689241653
 20
57.3665304642154723
 30
0.0
 40
0.6000000000000228
 50
180.0
 51
270.0
  0
ARC
  5
DE
  8
0
  6
CONTINUOUS
 62
     7
 10
-51.9625836892416402
 20
53.8665304642154723
 30
0.0
 40
0.6000000000000228
 50
269.9999999999972147
 51
0.0
  0
LINE
  5
DF
  8
0
  6
CONTINUOUS
 62
     7
 10
-51.9625833241637025
 20
56.7665295403429369
 30
0.0
 11
-52.3625835759933196
 21
56.7665295403429369
 31
0.0
  0
ARC
  5
E0
  8
0
  6
CONTINUOUS
 62
     7
 10
-52.362583689241653
 20
53.8665304642154723
 30
0.0
 40
0.6000000000000228
 50
180.0
 51
270.0
  0
ARC
  5
E1
  8
0
  6
CONTINUOUS
 62
     7
 10
-51.9625836892416402
 20
54.6665304642154624
 30
0.0
 40
0.5999999999999944
 50
0.0
 51
90.0000000000027143
  0
LINE
  5
E2
  8
0
  6
CONTINUOUS
 62
     7
 10
-51.9625833241637025
 20
53.2665298979708126
 30
0.0
 11
-52.3625835759933196
 21
53.2665298979708126
 31
0.0
  0
LINE
  5
E3
  8
0
  6
CONTINUOUS
 62
     7
 10
-52.9625834880764685
 20
53.8665288787314012
 30
0.0
 11
-52.9625834880764685
 21
54.6665312450357774
 31
0.0
  0
LINE
  5
E4
  8
0
  6
CONTINUOUS
 62
     7
 10
-52.3625835759933196
 20
55.2665302257963589
 30
0.0
 11
-51.9625833241637025
 21
55.2665302257963589
 31
0.0
  0
LINE
  5
E5
  8
0
  6
CONTINUOUS
 62
     7
 10
-51.3625834120805465
 20
54.6665312450357774
 30
0.0
 11
-51.3625834120805465
 21
53.8665288787314012
 31
0.0
  0
LINE
  5
E6
  8
0
  6
CONTINUOUS
 62
     7
 10
-52.6523748396332465
 20
58.7665298681684902
 30
0.0
 11
-52.3625835759933196
 21
58.7665298681684902
 31
0.0
  0
LINE
  5
E7
  8
0
  6
CONTINUOUS
 62
     7
 10
-52.9625834880764685
 20
58.4563212197252824
 30
0.0
 11
-52.9625834880764685
 21
58.1665308874079301
 31
0.0
  0
LINE
  5
E8
  8
0
  6
CONTINUOUS
 62
     7
 10
-51.9625833241637025
 20
55.2665302257963589
 30
0.0
 11
-51.9625833241637025
 21
55.3165310721823218
 31
0.0
  0
LINE
  5
E9
  8
0
  6
CONTINUOUS
 62
     7
 10
-51.9625833241637025
 20
56.7165286939570024
 30
0.0
 11
-51.9625833241637025
 21
56.7665295403429369
 31
0.0
  0
LINE
  5
EA
  8
0
  6
CONTINUOUS
 62
     7
 10
-52.9625834880764685
 20
57.366532246393831
 30
0.0
 11
-52.9625834880764685
 21
57.0767381887861802
 31
0.0
  0
LINE
  5
EB
  8
0
  6
CONTINUOUS
 62
     7
 10
-52.9625834880764685
 20
54.956321577353151
 30
0.0
 11
-52.9625834880764685
 21
54.6665312450357774
 31
0.0
  0
LINE
  5
EC
  8
0
  6
CONTINUOUS
 62
     7
 10
-51.9625833241637025
 20
56.7665295403429369
 30
0.0
 11
-51.6727920605237685
 21
56.7665295403429369
 31
0.0
  0
LINE
  5
ED
  8
0
  6
CONTINUOUS
 62
     7
 10
-51.3625834120805465
 20
57.366532246393831
 30
0.0
 11
-51.3625834120805465
 21
57.0767381887861802
 31
0.0
  0
LINE
  5
EE
  8
0
  6
CONTINUOUS
 62
     7
 10
-51.9625833241637025
 20
58.7665298681684902
 30
0.0
 11
-51.6727920605237685
 21
58.7665298681684902
 31
0.0
  0
LINE
  5
EF
  8
0
  6
CONTINUOUS
 62
     7
 10
-51.3625834120805465
 20
58.4563212197252824
 30
0.0
 11
-51.3625834120805465
 21
58.1665308874079301
 31
0.0
  0
LINE
  5
F0
  8
0
  6
CONTINUOUS
 62
     7
 10
-52.6523748396332465
 20
42.7665309708544186
 30
0.0
 11
-52.3625835759933196
 21
42.7665309708544186
 31
0.0
  0
LINE
  5
F1
  8
0
  6
CONTINUOUS
 62
     7
 10
-52.9625834880764685
 20
43.3665299516149929
 30
0.0
 11
-52.9625834880764685
 21
43.0767396192976406
 31
0.0
  0
LINE
  5
F2
  8
0
  6
CONTINUOUS
 62
     7
 10
-51.9625833241637025
 20
49.7665302555986813
 30
0.0
 11
-51.6727920605237685
 21
49.7665302555986813
 31
0.0
  0
LINE
  5
F3
  8
0
  6
CONTINUOUS
 62
     7
 10
-51.3625834120805465
 20
50.3665292363592627
 30
0.0
 11
-51.3625834120805465
 21
50.0767389040419033
 31
0.0
  0
LINE
  5
F4
  8
0
  6
CONTINUOUS
 62
     7
 10
-51.9625833241637025
 20
51.7665305834242275
 30
0.0
 11
-51.9625833241637025
 21
51.8165314298101833
 31
0.0
  0
LINE
  5
F5
  8
0
  6
CONTINUOUS
 62
     7
 10
-51.9625833241637025
 20
53.216529051584871
 30
0.0
 11
-51.9625833241637025
 21
53.2665298979708126
 31
0.0
  0
LINE
  5
F6
  8
0
  6
CONTINUOUS
 62
     7
 10
-52.9625834880764685
 20
53.8665288787314012
 30
0.0
 11
-52.9625834880764685
 21
53.5767385464140276
 31
0.0
  0
LINE
  5
F7
  8
0
  6
CONTINUOUS
 62
     7
 10
-52.9625834880764685
 20
51.4563219349810126
 30
0.0
 11
-52.9625834880764685
 21
51.1665316026636532
 31
0.0
  0
LINE
  5
F8
  8
0
  6
CONTINUOUS
 62
     7
 10
-51.9625833241637025
 20
53.2665298979708126
 30
0.0
 11
-51.6727920605237685
 21
53.2665298979708126
 31
0.0
  0
LINE
  5
F9
  8
0
  6
CONTINUOUS
 62
     7
 10
-51.3625834120805465
 20
53.8665288787314012
 30
0.0
 11
-51.3625834120805465
 21
53.5767385464140276
 31
0.0
  0
LINE
  5
FA
  8
0
  6
CONTINUOUS
 62
     7
 10
-51.9625833241637025
 20
42.7665309708544186
 30
0.0
 11
-51.6727920605237685
 21
42.7665309708544186
 31
0.0
  0
LINE
  5
FB
  8
0
  6
CONTINUOUS
 62
     7
 10
-51.3625834120805465
 20
43.3665299516149929
 30
0.0
 11
-51.3625834120805465
 21
43.0767396192976406
 31
0.0
  0
LINE
  5
FC
  8
0
  6
CONTINUOUS
 62
     7
 10
-51.9625833241637025
 20
44.7665312986799719
 30
0.0
 11
-51.9625833241637025
 21
44.8165321450659206
 31
0.0
  0
LINE
  5
FD
  8
0
  6
CONTINUOUS
 62
     7
 10
-51.9625833241637025
 20
46.216529766840587
 30
0.0
 11
-51.9625833241637025
 21
46.2665306132265499
 31
0.0
  0
LINE
  5
FE
  8
0
  6
CONTINUOUS
 62
     7
 10
-52.9625834880764685
 20
46.8665295939871172
 30
0.0
 11
-52.9625834880764685
 21
46.576739261669772
 31
0.0
  0
LINE
  5
FF
  8
0
  6
CONTINUOUS
 62
     7
 10
-52.9625834880764685
 20
44.4563226502367428
 30
0.0
 11
-52.9625834880764685
 21
44.1665323179193905
 31
0.0
  0
LINE
  5
100
  8
0
  6
CONTINUOUS
 62
     7
 10
-51.9625833241637025
 20
48.2665309410521104
 30
0.0
 11
-51.9625833241637025
 21
48.316531787438052
 31
0.0
  0
LINE
  5
101
  8
0
  6
CONTINUOUS
 62
     7
 10
-51.9625833241637025
 20
49.7165294092127326
 30
0.0
 11
-51.9625833241637025
 21
49.7665302555986813
 31
0.0
  0
LINE
  5
102
  8
0
  6
CONTINUOUS
 62
     7
 10
-52.9625834880764685
 20
50.3665292363592627
 30
0.0
 11
-52.9625834880764685
 21
50.0767389040419033
 31
0.0
  0
LINE
  5
103
  8
0
  6
CONTINUOUS
 62
     7
 10
-52.9625834880764685
 20
47.956322292608867
 30
0.0
 11
-52.9625834880764685
 21
47.6665319602915218
 31
0.0
  0
LINE
  5
104
  8
0
  6
CONTINUOUS
 62
     7
 10
-51.9625833241637025
 20
46.2665306132265499
 30
0.0
 11
-51.6727920605237685
 21
46.2665306132265499
 31
0.0
  0
LINE
  5
105
  8
0
  6
CONTINUOUS
 62
     7
 10
-51.3625834120805465
 20
46.8665295939871172
 30
0.0
 11
-51.3625834120805465
 21
46.576739261669772
 31
0.0
  0
LINE
  5
106
  8
0
  6
CONTINUOUS
 62
     7
 10
-51.9625833241637025
 20
48.2665309410521104
 30
0.0
 11
-51.6727920605237685
 21
48.2665309410521104
 31
0.0
  0
LINE
  5
107
  8
0
  6
CONTINUOUS
 62
     7
 10
-51.3625834120805465
 20
47.956322292608867
 30
0.0
 11
-51.3625834120805465
 21
47.6665319602915218
 31
0.0
  0
LINE
  5
108
  8
0
  6
CONTINUOUS
 62
     7
 10
-51.9625833241637025
 20
51.7665305834242275
 30
0.0
 11
-51.6727920605237685
 21
51.7665305834242275
 31
0.0
  0
LINE
  5
109
  8
0
  6
CONTINUOUS
 62
     7
 10
-51.3625834120805465
 20
51.4563219349810126
 30
0.0
 11
-51.3625834120805465
 21
51.1665316026636532
 31
0.0
  0
LINE
  5
10A
  8
0
  6
CONTINUOUS
 62
     7
 10
-51.9625833241637025
 20
55.2665302257963589
 30
0.0
 11
-51.6727920605237685
 21
55.2665302257963589
 31
0.0
  0
LINE
  5
10B
  8
0
  6
CONTINUOUS
 62
     7
 10
-51.3625834120805465
 20
54.956321577353151
 30
0.0
 11
-51.3625834120805465
 21
54.6665312450357774
 31
0.0
  0
LINE
  5
10C
  8
0
  6
CONTINUOUS
 62
     7
 10
-51.9625833241637025
 20
44.7665312986799719
 30
0.0
 11
-51.6727920605237685
 21
44.7665312986799719
 31
0.0
  0
LINE
  5
10D
  8
0
  6
CONTINUOUS
 62
     7
 10
-51.3625834120805465
 20
44.4563226502367428
 30
0.0
 11
-51.3625834120805465
 21
44.1665323179193905
 31
0.0
  0
ARC
  5
10E
  8
0
  6
CONTINUOUS
 62
     7
 10
-61.9625836892425284
 20
65.2665304642143127
 30
0.0
 40
1.0
 50
90.0000000000008242
 51
180.0
  0
ARC
  5
10F
  8
0
  6
CONTINUOUS
 62
     7
 10
-38.9625836892425284
 20
65.2665304642144548
 30
0.0
 40
1.0
 50
0.0
 51
90.0000000000016058
  0
LINE
  5
110
  8
0
  6
CONTINUOUS
 62
     7
 10
-61.9625836417447005
 20
66.2665296595522335
 30
0.0
 11
-38.9625844939048633
 21
66.2665296595522335
 31
0.0
  0
LINE
  5
111
  8
0
  6
CONTINUOUS
 62
     7
 10
-37.9625843299920831
 20
65.2665313582845954
 30
0.0
 11
-37.9625843299920831
 21
2.0165303450056511
 31
0.0
  0
LINE
  5
112
  8
0
  6
CONTINUOUS
 62
     7
 10
-51.3125834970171724
 20
57.316531400007861
 30
0.0
 11
-51.3125834970171724
 21
58.2165317337938717
 31
0.0
  0
ARC
  5
113
  8
0
  6
CONTINUOUS
 62
     7
 10
-51.9125836892424672
 20
58.2165304642143582
 30
0.0
 40
0.6000000000000228
 50
0.0
 51
90.0
  0
LINE
  5
114
  8
0
  6
CONTINUOUS
 62
     7
 10
-51.9125834091003213
 20
58.8165307145544602
 30
0.0
 11
-52.4125834910567008
 21
58.8165307145544602
 31
0.0
  0
ARC
  5
115
  8
0
  6
CONTINUOUS
 62
     7
 10
-52.4125836892424672
 20
58.2165304642143582
 30
0.0
 40
0.6000000000000228
 50
90.0
 51
180.0
  0
LINE
  5
116
  8
0
  6
CONTINUOUS
 62
     7
 10
-53.0125834031398497
 20
58.2165317337938717
 30
0.0
 11
-53.0125834031398497
 21
57.316531400007861
 31
0.0
  0
ARC
  5
117
  8
0
  6
CONTINUOUS
 62
     7
 10
-52.412583689242453
 20
57.3165304642143809
 30
0.0
 40
0.6000000000000228
 50
180.0000000000027001
 51
270.0
  0
LINE
  5
118
  8
0
  6
CONTINUOUS
 62
     7
 10
-52.4125834910567008
 20
56.7165286939570024
 30
0.0
 11
-51.9125834091003213
 21
56.7165286939570024
 31
0.0
  0
ARC
  5
119
  8
0
  6
CONTINUOUS
 62
     7
 10
-51.912583689242453
 20
57.3165304642143809
 30
0.0
 40
0.6000000000000228
 50
270.0
 51
0.0
  0
LINE
  5
11A
  8
0
  6
CONTINUOUS
 62
     7
 10
-51.3125834970171724
 20
53.8165317576357296
 30
0.0
 11
-51.3125834970171724
 21
54.7165320914217403
 31
0.0
  0
ARC
  5
11B
  8
0
  6
CONTINUOUS
 62
     7
 10
-51.9125836892424104
 20
54.7165304642143724
 30
0.0
 40
0.6000000000000228
 50
0.0
 51
90.0
  0
LINE
  5
11C
  8
0
  6
CONTINUOUS
 62
     7
 10
-51.9125834091003213
 20
55.3165310721823218
 30
0.0
 11
-52.4125834910567008
 21
55.3165310721823218
 31
0.0
  0
ARC
  5
11D
  8
0
  6
CONTINUOUS
 62
     7
 10
-52.4125836892424033
 20
54.7165304642143724
 30
0.0
 40
0.6000000000000228
 50
90.0000000000027143
 51
180.0
  0
LINE
  5
11E
  8
0
  6
CONTINUOUS
 62
     7
 10
-53.0125834031398497
 20
54.7165320914217403
 30
0.0
 11
-53.0125834031398497
 21
53.8165317576357296
 31
0.0
  0
ARC
  5
11F
  8
0
  6
CONTINUOUS
 62
     7
 10
-52.4125836892424033
 20
53.8165304642143809
 30
0.0
 40
0.6000000000000228
 50
180.0000000000027001
 51
270.0
  0
LINE
  5
120
  8
0
  6
CONTINUOUS
 62
     7
 10
-52.4125834910567008
 20
53.216529051584871
 30
0.0
 11
-51.9125834091003213
 21
53.216529051584871
 31
0.0
  0
ARC
  5
121
  8
0
  6
CONTINUOUS
 62
     7
 10
-51.9125836892424033
 20
53.8165304642143809
 30
0.0
 40
0.6000000000000228
 50
270.0
 51
0.0
  0
LINE
  5
122
  8
0
  6
CONTINUOUS
 62
     7
 10
-51.3125834970171724
 20
50.3165321152636125
 30
0.0
 11
-51.3125834970171724
 21
51.2165287237593105
 31
0.0
  0
ARC
  5
123
  8
0
  6
CONTINUOUS
 62
     7
 10
-51.9125836892424104
 20
51.2165304642143582
 30
0.0
 40
0.5999999999999944
 50
0.0
 51
90.0
  0
LINE
  5
124
  8
0
  6
CONTINUOUS
 62
     7
 10
-51.9125834091003213
 20
51.8165314298101833
 30
0.0
 11
-52.4125834910567008
 21
51.8165314298101833
 31
0.0
  0
ARC
  5
125
  8
0
  6
CONTINUOUS
 62
     7
 10
-52.4125836892424175
 20
51.2165304642143582
 30
0.0
 40
0.5999999999999944
 50
90.0
 51
180.0
  0
LINE
  5
126
  8
0
  6
CONTINUOUS
 62
     7
 10
-53.0125834031398497
 20
51.2165287237593105
 30
0.0
 11
-53.0125834031398497
 21
50.3165321152636125
 31
0.0
  0
ARC
  5
127
  8
0
  6
CONTINUOUS
 62
     7
 10
-52.4125836892424175
 20
50.3165304642143525
 30
0.0
 40
0.5999999999999944
 50
180.0000000000027001
 51
270.0
  0
LINE
  5
128
  8
0
  6
CONTINUOUS
 62
     7
 10
-52.4125834910567008
 20
49.7165294092127326
 30
0.0
 11
-51.9125834091003213
 21
49.7165294092127326
 31
0.0
  0
ARC
  5
129
  8
0
  6
CONTINUOUS
 62
     7
 10
-51.9125836892424104
 20
50.3165304642143525
 30
0.0
 40
0.6000000000000228
 50
270.0
 51
0.0
  0
LINE
  5
12A
  8
0
  6
CONTINUOUS
 62
     7
 10
-51.3125834970171724
 20
46.8165287476011684
 30
0.0
 11
-51.3125834970171724
 21
47.7165290813871792
 31
0.0
  0
ARC
  5
12B
  8
0
  6
CONTINUOUS
 62
     7
 10
-51.9125836892424033
 20
47.7165304642143724
 30
0.0
 40
0.5999999999999944
 50
0.0
 51
90.0
  0
LINE
  5
12C
  8
0
  6
CONTINUOUS
 62
     7
 10
-51.9125834091003213
 20
48.316531787438052
 30
0.0
 11
-52.4125834910567008
 21
48.316531787438052
 31
0.0
  0
ARC
  5
12D
  8
0
  6
CONTINUOUS
 62
     7
 10
-52.4125836892424033
 20
47.7165304642143724
 30
0.0
 40
0.5999999999999944
 50
90.0
 51
180.0
  0
LINE
  5
12E
  8
0
  6
CONTINUOUS
 62
     7
 10
-53.0125834031398497
 20
47.7165290813871792
 30
0.0
 11
-53.0125834031398497
 21
46.8165287476011684
 31
0.0
  0
ARC
  5
12F
  8
0
  6
CONTINUOUS
 62
     7
 10
-52.4125836892424033
 20
46.8165304642143525
 30
0.0
 40
0.6000000000000228
 50
180.0000000000027001
 51
270.0
  0
LINE
  5
130
  8
0
  6
CONTINUOUS
 62
     7
 10
-52.4125834910567008
 20
46.216529766840587
 30
0.0
 11
-51.9125834091003213
 21
46.216529766840587
 31
0.0
  0
ARC
  5
131
  8
0
  6
CONTINUOUS
 62
     7
 10
-51.9125836892424033
 20
46.8165304642143525
 30
0.0
 40
0.6000000000000228
 50
270.0
 51
0.0
  0
LINE
  5
132
  8
0
  6
CONTINUOUS
 62
     7
 10
-51.3125834970171724
 20
43.3165291052290371
 30
0.0
 11
-51.3125834970171724
 21
44.2165294390150478
 31
0.0
  0
ARC
  5
133
  8
0
  6
CONTINUOUS
 62
     7
 10
-51.9125836892423607
 20
44.2165304642143226
 30
0.0
 40
0.6000000000000228
 50
0.0
 51
90.0
  0
LINE
  5
134
  8
0
  6
CONTINUOUS
 62
     7
 10
-51.9125834091003213
 20
44.8165321450659206
 30
0.0
 11
-52.4125834910567008
 21
44.8165321450659206
 31
0.0
  0
ARC
  5
135
  8
0
  6
CONTINUOUS
 62
     7
 10
-52.4125836892423607
 20
44.2165304642143226
 30
0.0
 40
0.6000000000000228
 50
90.0
 51
180.0
  0
LINE
  5
136
  8
0
  6
CONTINUOUS
 62
     7
 10
-53.0125834031398497
 20
44.2165294390150478
 30
0.0
 11
-53.0125834031398497
 21
43.3165291052290371
 31
0.0
  0
ARC
  5
137
  8
0
  6
CONTINUOUS
 62
     7
 10
-52.4125836892423607
 20
43.3165304642143525
 30
0.0
 40
0.6000000000000228
 50
180.0000000000027001
 51
270.0
  0
LINE
  5
138
  8
0
  6
CONTINUOUS
 62
     7
 10
-52.4125834910567008
 20
42.7165301244684628
 30
0.0
 11
-51.9125834091003213
 21
42.7165301244684628
 31
0.0
  0
ARC
  5
139
  8
0
  6
CONTINUOUS
 62
     7
 10
-51.9125836892423607
 20
43.3165304642143525
 30
0.0
 40
0.6000000000000228
 50
270.0
 51
0.0
  0
LINE
  5
13C
  8
0
  6
CONTINUOUS
 62
     7
 10
-51.2625835819537912
 20
16.116530607266089
 30
0.0
 11
-56.4625835961098872
 21
16.116530607266089
 31
0.0
  0
ARC
  5
13D
  8
0
  6
CONTINUOUS
 62
     7
 10
-56.4625836892421731
 20
15.6165304642143408
 30
0.0
 40
0.5
 50
90.0
 51
180.0
  0
LINE
  5
13E
  8
0
  6
CONTINUOUS
 62
     7
 10
-56.9625836780662809
 20
15.6165305253097006
 30
0.0
 11
-56.9625836780662809
 21
6.4165303211637941
 31
0.0
  0
ARC
  5
13F
  8
0
  6
CONTINUOUS
 62
     7
 10
-56.462583689242102
 20
6.4165304642143219
 30
0.0
 40
0.5
 50
180.0
 51
270.0
  0
LINE
  5
140
  8
0
  6
CONTINUOUS
 62
     7
 10
-56.4625835961098872
 20
5.9165302392074066
 30
0.0
 11
-51.2625835819537912
 21
5.9165302392074066
 31
0.0
  0
ARC
  5
141
  8
0
  6
CONTINUOUS
 62
     7
 10
-51.2625836892421134
 20
6.4165304642143779
 30
0.0
 40
0.5
 50
270.0
 51
0.0
  0
LINE
  5
142
  8
0
  6
CONTINUOUS
 62
     7
 10
-50.7625834999973975
 20
6.4165303211637941
 30
0.0
 11
-50.7625834999973975
 21
15.6165305253097006
 31
0.0
  0
ARC
  5
143
  8
0
  6
CONTINUOUS
 62
     7
 10
-51.2625836892421489
 20
15.6165304642143692
 30
0.0
 40
0.5
 50
0.0
 51
90.0000000000032543
  0
LINE
  5
144
  8
0
  6
CONTINUOUS
 62
     7
 10
-62.9625836892420665
 20
2.0165303450056511
 30
0.0
 11
-62.9625836892425212
 21
65.2665313582845954
 31
0.0
  0
ARC
  5
145
  8
0
  6
CONTINUOUS
 62
     7
 10
-61.9625836892420665
 20
2.0165304642143149
 30
0.0
 40
1.0000000000000271
 50
180.0
 51
270.0000000000015916
  0
ARC
  5
146
  8
0
  6
CONTINUOUS
 62
     7
 10
-38.9625836892420807
 20
2.016530464214457
 30
0.0
 40
1.0
 50
270.0
 51
0.0
  0
LINE
  5
147
  8
0
  6
CONTINUOUS
 62
     7
 10
-38.9625844939048633
 20
1.0165301810928791
 30
0.0
 11
-61.9625836417447005
 21
1.0165301810928791
 31
0.0
  0
LINE
  5
148
  8
0
  6
CONTINUOUS
 62
     7
 10
-62.9625836892417468
 20
-42.7334704298547194
 30
0.0
 11
-62.9625836892420665
 21
2.0165303450056511
 31
0.0
  0
LINE
  5
149
  8
0
  6
CONTINUOUS
 62
     7
 10
-37.9625843299920831
 20
2.0165303450056511
 30
0.0
 11
-37.9625843299920831
 21
-42.7334704298547194
 31
0.0
  0
LINE
  5
14A
  8
0
  6
CONTINUOUS
 62
     7
 10
-43.7625832839305602
 20
-18.383470391111711
 30
0.0
 11
-43.7625832839305602
 21
-3.3834697950652619
 31
0.0
  0
ARC
  5
14B
  8
0
  6
CONTINUOUS
 62
     7
 10
-44.2625836892420423
 20
-3.3834695357853479
 30
0.0
 40
0.5
 50
0.0
 51
90.0
  0
LINE
  5
14C
  8
0
  6
CONTINUOUS
 62
     7
 10
-44.2625842972095214
 20
-2.8834697131088771
 30
0.0
 11
-55.762583853899983
 21
-2.8834697131088771
 31
0.0
  0
ARC
  5
14D
  8
0
  6
CONTINUOUS
 62
     7
 10
-55.762583689242021
 20
-3.3834695357854332
 30
0.0
 40
0.5
 50
90.0
 51
180.0
  0
LINE
  5
14E
  8
0
  6
CONTINUOUS
 62
     7
 10
-56.2625834701950822
 20
-3.3834697950652619
 30
0.0
 11
-56.2625834701950822
 21
-18.383470391111711
 31
0.0
  0
ARC
  5
14F
  8
0
  6
CONTINUOUS
 62
     7
 10
-55.7625836892419287
 20
-18.3834695357854692
 30
0.0
 40
0.5
 50
180.0
 51
270.0000000000031832
  0
LINE
  5
150
  8
0
  6
CONTINUOUS
 62
     7
 10
-55.762583853899983
 20
-18.8834695417455301
 30
0.0
 11
-44.2625842972095214
 21
-18.8834695417455301
 31
0.0
  0
ARC
  5
151
  8
0
  6
CONTINUOUS
 62
     7
 10
-44.2625836892419429
 20
-18.3834695357853803
 30
0.0
 40
0.5
 50
270.0
 51
0.0
  0
ARC
  5
15A
  8
0
  6
CONTINUOUS
 62
     7
 10
-61.9625836892417468
 20
-42.7334695357854528
 30
0.0
 40
1.0
 50
180.0000000000015916
 51
270.0000000000007958
  0
LINE
  5
15B
  8
0
  6
CONTINUOUS
 62
     7
 10
-38.9625844939048633
 20
-43.7334687311223433
 30
0.0
 11
-61.9625836417447005
 21
-43.7334687311223433
 31
0.0
  0
ARC
  5
15C
  8
0
  6
CONTINUOUS
 62
     7
 10
-38.9625836892417468
 20
-42.7334695357853178
 30
0.0
 40
1.0000000000000131
 50
270.0
 51
0.0000000000008142
  0
LINE
  5
15D
  8
0
  6
CONTINUOUS
 62
     7
 10
-45.2625844611222874
 20
-8.3834687519839797
 30
0.0
 11
-45.2625844611222874
 21
-7.3834704507163549
 31
0.0
  0
LINE
  5
15E
  8
0
  6
CONTINUOUS
 62
     7
 10
-45.2625844611222874
 20
-7.3834704507163549
 30
0.0
 11
-47.2625838576252733
 21
-7.3834704507163549
 31
0.0
  0
LINE
  5
15F
  8
0
  6
CONTINUOUS
 62
     7
 10
-47.2625838576252733
 20
-7.3834704507163549
 30
0.0
 11
-47.2625838576252733
 21
-6.3834702868035809
 31
0.0
  0
LINE
  5
160
  8
0
  6
CONTINUOUS
 62
     7
 10
-47.2625838576252733
 20
-6.3834702868035809
 30
0.0
 11
-47.7625839395816527
 21
-6.3834702868035809
 31
0.0
  0
LINE
  5
161
  8
0
  6
CONTINUOUS
 62
     7
 10
-47.7625839395816527
 20
-6.3834702868035809
 30
0.0
 11
-47.7625839395816527
 21
-4.3834699589780364
 31
0.0
  0
LINE
  5
162
  8
0
  6
CONTINUOUS
 62
     7
 10
-47.7625839395816527
 20
-4.3834699589780364
 30
0.0
 11
-54.2625840736921106
 21
-4.3834699589780364
 31
0.0
  0
LINE
  5
163
  8
0
  6
CONTINUOUS
 62
     7
 10
-54.2625840736921106
 20
-4.3834699589780364
 30
0.0
 11
-54.2625840736921106
 21
-17.3834702271989414
 31
0.0
  0
LINE
  5
164
  8
0
  6
CONTINUOUS
 62
     7
 10
-54.2625840736921106
 20
-17.3834702271989414
 30
0.0
 11
-47.7625839395816527
 21
-17.3834702271989414
 31
0.0
  0
LINE
  5
165
  8
0
  6
CONTINUOUS
 62
     7
 10
-47.7625839395816527
 20
-17.3834702271989414
 30
0.0
 11
-47.7625839395816527
 21
-15.3834698993733898
 31
0.0
  0
LINE
  5
166
  8
0
  6
CONTINUOUS
 62
     7
 10
-47.7625839395816527
 20
-15.3834698993733898
 30
0.0
 11
-47.2625838576252733
 21
-15.3834698993733898
 31
0.0
  0
LINE
  5
167
  8
0
  6
CONTINUOUS
 62
     7
 10
-47.2625838576252733
 20
-15.3834698993733898
 30
0.0
 11
-47.2625838576252733
 21
-14.3834697354606202
 31
0.0
  0
LINE
  5
168
  8
0
  6
CONTINUOUS
 62
     7
 10
-47.2625838576252733
 20
-14.3834697354606202
 30
0.0
 11
-45.2625844611222874
 21
-14.3834697354606202
 31
0.0
  0
LINE
  5
169
  8
0
  6
CONTINUOUS
 62
     7
 10
-45.2625844611222874
 20
-14.3834697354606202
 30
0.0
 11
-45.2625844611222874
 21
-13.3834695715478507
 31
0.0
  0
LINE
  5
16A
  8
0
  6
CONTINUOUS
 62
     7
 10
-45.2625844611222874
 20
-13.3834695715478507
 30
0.0
 11
-44.2625842972095214
 21
-13.3834695715478507
 31
0.0
  0
LINE
  5
16B
  8
0
  6
CONTINUOUS
 62
     7
 10
-44.2625842972095214
 20
-15.8334700662664005
 30
0.0
 11
-44.2625842972095214
 21
-13.3834695715478507
 31
0.0
  0
LINE
  5
16C
  8
0
  6
CONTINUOUS
 62
     7
 10
-44.2625842972095214
 20
-17.3334693808129785
 30
0.0
 11
-44.2625842972095214
 21
-15.8334700662664005
 31
0.0
  0
LINE
  5
16D
  8
0
  6
CONTINUOUS
 62
     7
 10
-44.2625842972095214
 20
-18.383470391111711
 30
0.0
 11
-44.2625842972095214
 21
-17.3334693808129785
 31
0.0
  0
LINE
  5
16E
  8
0
  6
CONTINUOUS
 62
     7
 10
-47.0125842823083602
 20
-18.383470391111711
 30
0.0
 11
-44.2625842972095214
 21
-18.383470391111711
 31
0.0
  0
LINE
  5
16F
  8
0
  6
CONTINUOUS
 62
     7
 10
-47.0125842823083602
 20
-18.383470391111711
 30
0.0
 11
-48.5125835968549524
 21
-18.383470391111711
 31
0.0
  0
LINE
  5
170
  8
0
  6
CONTINUOUS
 62
     7
 10
-52.0125832392270766
 20
-18.383470391111711
 30
0.0
 11
-48.5125835968549524
 21
-18.383470391111711
 31
0.0
  0
LINE
  5
171
  8
0
  6
CONTINUOUS
 62
     7
 10
-52.0125832392270766
 20
-18.383470391111711
 30
0.0
 11
-53.5125834850962434
 21
-18.383470391111711
 31
0.0
  0
LINE
  5
172
  8
0
  6
CONTINUOUS
 62
     7
 10
-55.762583853899983
 20
-18.383470391111711
 30
0.0
 11
-53.5125834850962434
 21
-18.383470391111711
 31
0.0
  0
LINE
  5
173
  8
0
  6
CONTINUOUS
 62
     7
 10
-55.762583853899983
 20
-17.3334693808129785
 30
0.0
 11
-55.762583853899983
 21
-18.383470391111711
 31
0.0
  0
LINE
  5
174
  8
0
  6
CONTINUOUS
 62
     7
 10
-55.762583853899983
 20
-17.3334693808129785
 30
0.0
 11
-55.762583853899983
 21
-15.8334700662664005
 31
0.0
  0
LINE
  5
175
  8
0
  6
CONTINUOUS
 62
     7
 10
-55.762583853899983
 20
-5.9334701199105773
 30
0.0
 11
-55.762583853899983
 21
-15.8334700662664005
 31
0.0
  0
LINE
  5
176
  8
0
  6
CONTINUOUS
 62
     7
 10
-55.762583853899983
 20
-4.4334689427188421
 30
0.0
 11
-55.762583853899983
 21
-5.9334701199105773
 31
0.0
  0
LINE
  5
177
  8
0
  6
CONTINUOUS
 62
     7
 10
-55.762583853899983
 20
-3.3834697950652619
 30
0.0
 11
-55.762583853899983
 21
-4.4334689427188421
 31
0.0
  0
LINE
  5
178
  8
0
  6
CONTINUOUS
 62
     7
 10
-53.5125834850962434
 20
-3.3834697950652619
 30
0.0
 11
-55.762583853899983
 21
-3.3834697950652619
 31
0.0
  0
LINE
  5
179
  8
0
  6
CONTINUOUS
 62
     7
 10
-52.0125832392270766
 20
-3.3834697950652619
 30
0.0
 11
-53.5125834850962434
 21
-3.3834697950652619
 31
0.0
  0
LINE
  5
17A
  8
0
  6
CONTINUOUS
 62
     7
 10
-48.5125835968549524
 20
-3.3834697950652619
 30
0.0
 11
-52.0125832392270766
 21
-3.3834697950652619
 31
0.0
  0
LINE
  5
17B
  8
0
  6
CONTINUOUS
 62
     7
 10
-47.0125842823083602
 20
-3.3834697950652619
 30
0.0
 11
-48.5125835968549524
 21
-3.3834697950652619
 31
0.0
  0
LINE
  5
17C
  8
0
  6
CONTINUOUS
 62
     7
 10
-44.2625842972095214
 20
-3.3834697950652619
 30
0.0
 11
-47.0125842823083602
 21
-3.3834697950652619
 31
0.0
  0
LINE
  5
17D
  8
0
  6
CONTINUOUS
 62
     7
 10
-44.2625842972095214
 20
-4.4334689427188421
 30
0.0
 11
-44.2625842972095214
 21
-3.3834697950652619
 31
0.0
  0
LINE
  5
17E
  8
0
  6
CONTINUOUS
 62
     7
 10
-44.2625842972095214
 20
-4.4334689427188421
 30
0.0
 11
-44.2625842972095214
 21
-5.9334701199105773
 31
0.0
  0
LINE
  5
17F
  8
0
  6
CONTINUOUS
 62
     7
 10
-44.2625842972095214
 20
-8.3834687519839797
 30
0.0
 11
-44.2625842972095214
 21
-5.9334701199105773
 31
0.0
  0
LINE
  5
180
  8
0
  6
CONTINUOUS
 62
     7
 10
-44.2625842972095214
 20
-8.3834687519839797
 30
0.0
 11
-45.2625844611222874
 21
-8.3834687519839797
 31
0.0
  0
LINE
  5
181
  8
0
  6
CONTINUOUS
 62
     7
 10
-52.0125832392270766
 20
-2.8834697131088771
 30
0.0
 11
-52.0125832392270766
 21
-3.3834697950652619
 31
0.0
  0
LINE
  5
182
  8
0
  6
CONTINUOUS
 62
     7
 10
-53.5125834850962434
 20
-2.8834697131088771
 30
0.0
 11
-53.5125834850962434
 21
-3.3834697950652619
 31
0.0
  0
LINE
  5
183
  8
0
  6
CONTINUOUS
 62
     7
 10
-43.7625832839305602
 20
-17.3334693808129785
 30
0.0
 11
-44.2625842972095214
 21
-17.3334693808129785
 31
0.0
  0
LINE
  5
184
  8
0
  6
CONTINUOUS
 62
     7
 10
-43.7625832839305602
 20
-15.8334700662664005
 30
0.0
 11
-44.2625842972095214
 21
-15.8334700662664005
 31
0.0
  0
LINE
  5
185
  8
0
  6
CONTINUOUS
 62
     7
 10
-55.762583853899983
 20
-17.3334693808129785
 30
0.0
 11
-56.2625834701950822
 21
-17.3334693808129785
 31
0.0
  0
LINE
  5
186
  8
0
  6
CONTINUOUS
 62
     7
 10
-55.762583853899983
 20
-15.8334700662664005
 30
0.0
 11
-56.2625834701950822
 21
-15.8334700662664005
 31
0.0
  0
LINE
  5
187
  8
0
  6
CONTINUOUS
 62
     7
 10
-53.5125834850962434
 20
-18.383470391111711
 30
0.0
 11
-53.5125834850962434
 21
-18.8834695417455301
 31
0.0
  0
LINE
  5
188
  8
0
  6
CONTINUOUS
 62
     7
 10
-52.0125832392270766
 20
-18.383470391111711
 30
0.0
 11
-52.0125832392270766
 21
-18.8834695417455301
 31
0.0
  0
LINE
  5
189
  8
0
  6
CONTINUOUS
 62
     7
 10
-47.0125842823083602
 20
-2.8834697131088771
 30
0.0
 11
-47.0125842823083602
 21
-3.3834697950652619
 31
0.0
  0
LINE
  5
18A
  8
0
  6
CONTINUOUS
 62
     7
 10
-48.5125835968549524
 20
-2.8834697131088771
 30
0.0
 11
-48.5125835968549524
 21
-3.3834697950652619
 31
0.0
  0
LINE
  5
18B
  8
0
  6
CONTINUOUS
 62
     7
 10
-43.7625832839305602
 20
-4.4334689427188421
 30
0.0
 11
-44.2625842972095214
 21
-4.4334689427188421
 31
0.0
  0
LINE
  5
18C
  8
0
  6
CONTINUOUS
 62
     7
 10
-43.7625832839305602
 20
-5.9334701199105773
 30
0.0
 11
-44.2625842972095214
 21
-5.9334701199105773
 31
0.0
  0
LINE
  5
18D
  8
0
  6
CONTINUOUS
 62
     7
 10
-55.762583853899983
 20
-4.4334689427188421
 30
0.0
 11
-56.2625834701950822
 21
-4.4334689427188421
 31
0.0
  0
LINE
  5
18E
  8
0
  6
CONTINUOUS
 62
     7
 10
-55.762583853899983
 20
-5.9334701199105773
 30
0.0
 11
-56.2625834701950822
 21
-5.9334701199105773
 31
0.0
  0
LINE
  5
18F
  8
0
  6
CONTINUOUS
 62
     7
 10
-47.0125842823083602
 20
-18.383470391111711
 30
0.0
 11
-47.0125842823083602
 21
-18.8834695417455301
 31
0.0
  0
LINE
  5
190
  8
0
  6
CONTINUOUS
 62
     7
 10
-48.5125835968549524
 20
-18.383470391111711
 30
0.0
 11
-48.5125835968549524
 21
-18.8834695417455301
 31
0.0
  0
LINE
  5
191
  8
0
  6
CONTINUOUS
 62
     7
 10
-44.7625834478433404
 20
-8.3834687519839797
 30
0.0
 11
-44.7625834478433404
 21
-13.3834695715478507
 31
0.0
  0
LINE
  5
192
  8
0
  6
CONTINUOUS
 62
     7
 10
-44.2625842972095214
 20
-13.3834695715478507
 30
0.0
 11
-44.2625842972095214
 21
-8.3834687519839797
 31
0.0
  0
ARC
  5
1CB
  8
0
  6
CONTINUOUS
 62
     7
 10
-52.162583689242048
 20
14.5665304642155498
 30
0.0
 40
0.3000000000000114
 50
0.0
 51
90.0
  0
LINE
  5
1CC
  8
0
  6
CONTINUOUS
 62
     7
 10
-51.8625834940369401
 20
14.5665304463335499
 30
0.0
 11
-51.8625834940369401
 21
7.4665304001399457
 31
0.0
  0
ARC
  5
1CD
  8
0
  6
CONTINUOUS
 62
     7
 10
-52.1625836892419699
 20
7.4665304642155554
 30
0.0
 40
0.3000000000000114
 50
270.0
 51
0.0
  0
LINE
  5
1CE
  8
0
  6
CONTINUOUS
 62
     7
 10
-52.1625839157398019
 20
7.166530444098373
 30
0.0
 11
-55.4625838978584014
 21
7.166530444098373
 31
0.0
  0
ARC
  5
1CF
  8
0
  6
CONTINUOUS
 62
     7
 10
-55.4625836892420381
 20
14.5665304642155196
 30
0.0
 40
0.3000000000000114
 50
90.0
 51
180.0
  0
ARC
  5
1D0
  8
0
  6
CONTINUOUS
 62
     7
 10
-55.462583689241967
 20
7.4665304642154986
 30
0.0
 40
0.2999999999999972
 50
180.0
 51
270.0
  0
LINE
  5
1D1
  8
0
  6
CONTINUOUS
 62
     7
 10
-55.762583853899983
 20
7.4665304001399457
 30
0.0
 11
-55.762583853899983
 21
14.5665304463335499
 31
0.0
  0
LINE
  5
1D2
  8
0
  6
CONTINUOUS
 62
     7
 10
-55.4625838978584014
 20
14.8665304023751208
 30
0.0
 11
-52.1625839157398019
 21
14.8665304023751208
 31
0.0
  0
LINE
  5
1D3
  8
0
  6
CONTINUOUS
 62
     7
 10
-55.2625837719435893
 20
6.0665304500588384
 30
0.0
 11
-55.2625837719435893
 21
7.166530444098373
 31
0.0
  0
LINE
  5
1D4
  8
0
  6
CONTINUOUS
 62
     7
 10
-55.2625837719435893
 20
6.0665304500588384
 30
0.0
 11
-55.762583853899983
 21
6.0665304500588384
 31
0.0
  0
LINE
  5
1D5
  8
0
  6
CONTINUOUS
 62
     7
 10
-55.2625837719435893
 20
15.9665303964146599
 30
0.0
 11
-55.762583853899983
 21
15.9665303964146599
 31
0.0
  0
LINE
  5
1D6
  8
0
  6
CONTINUOUS
 62
     7
 10
-55.2625837719435893
 20
14.8665304023751208
 30
0.0
 11
-55.2625837719435893
 21
15.9665303964146599
 31
0.0
  0
LINE
  5
1D7
  8
0
  6
CONTINUOUS
 62
     7
 10
-55.762583853899983
 20
-3.1534694407156492
 30
0.0
 11
-53.5125834850962434
 21
-3.1534694407156492
 31
0.0
  0
LINE
  5
1D8
  8
0
  6
CONTINUOUS
 62
     7
 10
-52.0125832392270766
 20
-3.1534694407156492
 30
0.0
 11
-50.7425833477075301
 21
-3.1534694407156492
 31
0.0
  0
LINE
  5
1D9
  8
0
  6
CONTINUOUS
 62
     7
 10
-55.762583853899983
 20
-18.3934690702727899
 30
0.0
 11
-53.5125834850962434
 21
-18.3934690702727899
 31
0.0
  0
LINE
  5
1DA
  8
0
  6
CONTINUOUS
 62
     7
 10
-52.0125832392270766
 20
-18.3934690702727899
 30
0.0
 11
-50.7425833477075301
 21
-18.3934690702727899
 31
0.0
  0
LINE
  5
1DB
  8
0
  6
CONTINUOUS
 62
     7
 10
-49.9425837753708635
 20
-2.8834697131088771
 30
0.0
 11
-49.9425837753708635
 21
-3.1534694407156492
 31
0.0
  0
LINE
  5
1DC
  8
0
  6
CONTINUOUS
 62
     7
 10
-50.7425833477075301
 20
-3.1534694407156492
 30
0.0
 11
-49.9425837753708635
 21
-3.1534694407156492
 31
0.0
  0
LINE
  5
1DD
  8
0
  6
CONTINUOUS
 62
     7
 10
-49.9425837753708635
 20
-18.383470391111711
 30
0.0
 11
-49.9425837753708635
 21
-18.3934690702727899
 31
0.0
  0
LINE
  5
1DE
  8
0
  6
CONTINUOUS
 62
     7
 10
-50.7425833477075301
 20
-18.3934690702727899
 30
0.0
 11
-49.9425837753708635
 21
-18.3934690702727899
 31
0.0
  0
LINE
  5
1DF
  8
0
  6
CONTINUOUS
 62
     7
 10
-55.762583853899983
 20
16.116530607266089
 30
0.0
 11
-55.762583853899983
 21
14.5665304463335499
 31
0.0
  0
LINE
  5
1E0
  8
0
  6
CONTINUOUS
 62
     7
 10
-55.762583853899983
 20
7.4665304001399457
 30
0.0
 11
-55.762583853899983
 21
5.9165302392074066
 31
0.0
  0
LINE
  5
1E3
  8
0
  6
CONTINUOUS
 62
     7
 10
-55.762583853899983
 20
-18.8834695417455301
 30
0.0
 11
-55.762583853899983
 21
-18.383470391111711
 31
0.0
  0
LINE
  5
1E4
  8
0
  6
CONTINUOUS
 62
     7
 10
-55.762583853899983
 20
-3.3834697950652619
 30
0.0
 11
-55.762583853899983
 21
-2.8834697131088771
 31
0.0
  0
LINE
  5
1E8
  8
0
  6
CONTINUOUS
 62
     7
 10
-51.3292392699415885
 20
51.3569200139471604
 30
0.0
 11
-51.3625834120805465
 21
51.3569200139471604
 31
0.0
  0
LINE
  5
1E9
  8
0
  6
CONTINUOUS
 62
     7
 10
-40.5125841481979165
 20
-43.7334687311223433
 30
0.0
 11
-40.5125841481979165
 21
-44.7334707576802728
 31
0.0
  0
LINE
  5
1EA
  8
0
  6
CONTINUOUS
 62
     7
 10
-43.0125836266572676
 20
-43.7334687311223433
 30
0.0
 11
-43.0125836266572676
 21
-44.7334707576802728
 31
0.0
  0
LINE
  5
1EB
  8
0
  6
CONTINUOUS
 62
     7
 10
-43.0125836266572676
 20
-45.2334680456689284
 30
0.0
 11
-43.0125836266572676
 21
-44.7334707576802728
 31
0.0
  0
LINE
  5
1EC
  8
0
  6
CONTINUOUS
 62
     7
 10
-40.5125841481979165
 20
-45.2334680456689284
 30
0.0
 11
-40.5125841481979165
 21
-44.7334707576802728
 31
0.0
  0
LINE
  5
1ED
  8
0
  6
CONTINUOUS
 62
     7
 10
-40.5125841481979165
 20
-45.2334680456689284
 30
0.0
 11
-43.0125836266572676
 21
-45.2334680456689284
 31
0.0
  0
LINE
  5
1EE
  8
0
  6
CONTINUOUS
 62
     7
 10
-50.7625834999973975
 20
11.7665304879636707
 30
0.0
 11
-51.8625834940369401
 21
11.7665304879636707
 31
0.0
  0
LINE
  5
1EF
  8
0
  6
CONTINUOUS
 62
     7
 10
-51.8625834940369401
 20
10.7665304404662194
 30
0.0
 11
-50.7625834999973975
 21
10.7665304404662194
 31
0.0
  0
LINE
  5
1F1
  8
0
  6
CONTINUOUS
 62
     7
 10
-46.6625839455421101
 20
-18.8834695417455301
 30
0.0
 11
-46.6625839455421101
 21
-18.383470391111711
 31
0.0
  0
LINE
  5
1F2
  8
0
  6
CONTINUOUS
 62
     7
 10
-46.6625839455421101
 20
-3.3834697950652619
 30
0.0
 11
-46.6625839455421101
 21
-2.8834697131088771
 31
0.0
  0
LINE
  5
1F3
  8
0
  6
CONTINUOUS
 62
     7
 10
-51.3625834120805465
 20
43.4165307980009487
 30
0.0
 11
-51.3125834970171724
 21
43.4165307980009487
 31
0.0
  0
LINE
  5
1F4
  8
0
  6
CONTINUOUS
 62
     7
 10
94.4381250880204988
 20
-41.183470775561652
 30
0.0
 11
94.9381261012994599
 21
-40.683469762282698
 31
0.0
  0
LINE
  5
1F5
  8
0
  6
CONTINUOUS
 62
     7
 10
94.9381261012994599
 20
-38.6834694344571517
 30
0.0
 11
94.4381250880204988
 21
-38.1834684211781905
 31
0.0
  0
LINE
  5
1F6
  8
0
  6
CONTINUOUS
 62
     7
 10
92.1381234071695161
 20
-41.183470775561652
 30
0.0
 11
94.4381250880204988
 21
-41.183470775561652
 31
0.0
  0
LINE
  5
1F7
  8
0
  6
CONTINUOUS
 62
     7
 10
94.4381250880204988
 20
-38.1834684211781905
 30
0.0
 11
93.1381254337274385
 21
-38.1834684211781905
 31
0.0
  0
LINE
  5
1F8
  8
0
  6
CONTINUOUS
 62
     7
 10
-4.9618791200673913
 20
56.7665295403429369
 30
0.0
 11
-4.8618774272954806
 21
56.7665295403429369
 31
0.0
  0
LINE
  5
1F9
  8
0
  6
CONTINUOUS
 62
     7
 10
-4.9618791200673913
 20
58.7665298681684902
 30
0.0
 11
-4.8618774272954806
 21
58.7665298681684902
 31
0.0
  0
LINE
  5
1FA
  8
0
  6
CONTINUOUS
 62
     7
 10
-4.9618791200673913
 20
42.7665309708544186
 30
0.0
 11
-4.8618774272954806
 21
42.7665309708544186
 31
0.0
  0
LINE
  5
1FB
  8
0
  6
CONTINUOUS
 62
     7
 10
-5.2618767478025301
 20
43.0665323238798621
 30
0.0
 11
-5.2618767478025301
 21
43.3665299516149929
 31
0.0
  0
ARC
  5
1FC
  8
0
  6
CONTINUOUS
 62
     7
 10
-4.9618754007375516
 20
43.0665304642154609
 30
0.0
 40
0.3000000000000398
 50
180.0
 51
270.0
  0
LINE
  5
1FD
  8
0
  6
CONTINUOUS
 62
     7
 10
-4.9618791200673913
 20
44.7665312986799719
 30
0.0
 11
-4.8618774272954806
 21
44.7665312986799719
 31
0.0
  0
LINE
  5
1FE
  8
0
  6
CONTINUOUS
 62
     7
 10
-5.2618767478025301
 20
43.3665299516149929
 30
0.0
 11
-5.2618767478025301
 21
44.1665323179193905
 31
0.0
  0
LINE
  5
1FF
  8
0
  6
CONTINUOUS
 62
     7
 10
-5.2618767478025301
 20
44.1665323179193905
 30
0.0
 11
-5.2618767478025301
 21
44.4665299456545284
 31
0.0
  0
ARC
  5
200
  8
0
  6
CONTINUOUS
 62
     7
 10
-4.9618754007375516
 20
44.4665304642154666
 30
0.0
 40
0.3000000000000398
 50
90.0
 51
180.0
  0
LINE
  5
201
  8
0
  6
CONTINUOUS
 62
     7
 10
-4.9618791200673913
 20
46.2665306132265499
 30
0.0
 11
-4.8618774272954806
 21
46.2665306132265499
 31
0.0
  0
LINE
  5
202
  8
0
  6
CONTINUOUS
 62
     7
 10
-5.2618767478025301
 20
46.5665319662519934
 30
0.0
 11
-5.2618767478025301
 21
46.8665295939871172
 31
0.0
  0
ARC
  5
203
  8
0
  6
CONTINUOUS
 62
     7
 10
-4.9618754007375516
 20
46.5665304642154609
 30
0.0
 40
0.3000000000000398
 50
180.0
 51
270.0
  0
LINE
  5
204
  8
0
  6
CONTINUOUS
 62
     7
 10
-4.9618791200673913
 20
48.2665309410521104
 30
0.0
 11
-4.8618774272954806
 21
48.2665309410521104
 31
0.0
  0
LINE
  5
205
  8
0
  6
CONTINUOUS
 62
     7
 10
-5.2618767478025301
 20
46.8665295939871172
 30
0.0
 11
-5.2618767478025301
 21
47.6665319602915218
 31
0.0
  0
LINE
  5
206
  8
0
  6
CONTINUOUS
 62
     7
 10
-5.2618767478025301
 20
47.6665319602915218
 30
0.0
 11
-5.2618767478025301
 21
47.9665295880266598
 31
0.0
  0
ARC
  5
207
  8
0
  6
CONTINUOUS
 62
     7
 10
-4.9618754007375516
 20
47.9665304642154595
 30
0.0
 40
0.3000000000000398
 50
90.0
 51
180.0
  0
LINE
  5
208
  8
0
  6
CONTINUOUS
 62
     7
 10
-4.9618791200673913
 20
49.7665302555986813
 30
0.0
 11
-4.8618774272954806
 21
49.7665302555986813
 31
0.0
  0
LINE
  5
209
  8
0
  6
CONTINUOUS
 62
     7
 10
-5.2618767478025301
 20
50.0665316086241177
 30
0.0
 11
-5.2618767478025301
 21
50.3665292363592627
 31
0.0
  0
ARC
  5
20A
  8
0
  6
CONTINUOUS
 62
     7
 10
-4.9618754007375516
 20
50.0665304642154609
 30
0.0
 40
0.3000000000000398
 50
180.0
 51
270.0
  0
LINE
  5
20B
  8
0
  6
CONTINUOUS
 62
     7
 10
-5.2618767478025301
 20
50.3665292363592627
 30
0.0
 11
-5.2618767478025301
 21
51.1665316026636532
 31
0.0
  0
LINE
  5
20C
  8
0
  6
CONTINUOUS
 62
     7
 10
-4.9618791200673913
 20
51.7665305834242275
 30
0.0
 11
-4.8618774272954806
 21
51.7665305834242275
 31
0.0
  0
LINE
  5
20D
  8
0
  6
CONTINUOUS
 62
     7
 10
-4.9618791200673913
 20
53.2665298979708126
 30
0.0
 11
-4.8618774272954806
 21
53.2665298979708126
 31
0.0
  0
LINE
  5
20E
  8
0
  6
CONTINUOUS
 62
     7
 10
-5.2618767478025301
 20
51.1665316026636532
 30
0.0
 11
-5.2618767478025301
 21
51.4665292303987911
 31
0.0
  0
ARC
  5
20F
  8
0
  6
CONTINUOUS
 62
     7
 10
-4.9618754007375516
 20
51.4665304642154666
 30
0.0
 40
0.3000000000000398
 50
90.0
 51
180.0
  0
LINE
  5
210
  8
0
  6
CONTINUOUS
 62
     7
 10
-5.2618767478025301
 20
53.566531250996249
 30
0.0
 11
-5.2618767478025301
 21
53.8665288787314012
 31
0.0
  0
ARC
  5
211
  8
0
  6
CONTINUOUS
 62
     7
 10
-4.9618754007375516
 20
53.5665304642154609
 30
0.0
 40
0.3000000000000398
 50
180.0
 51
270.0
  0
LINE
  5
212
  8
0
  6
CONTINUOUS
 62
     7
 10
-5.2618767478025301
 20
53.8665288787314012
 30
0.0
 11
-5.2618767478025301
 21
54.6665312450357774
 31
0.0
  0
LINE
  5
213
  8
0
  6
CONTINUOUS
 62
     7
 10
-4.9618791200673913
 20
55.2665302257963589
 30
0.0
 11
-4.8618774272954806
 21
55.2665302257963589
 31
0.0
  0
LINE
  5
214
  8
0
  6
CONTINUOUS
 62
     7
 10
-5.2618767478025301
 20
54.6665312450357774
 30
0.0
 11
-5.2618767478025301
 21
54.9665288727709225
 31
0.0
  0
ARC
  5
215
  8
0
  6
CONTINUOUS
 62
     7
 10
-4.9618754007375516
 20
54.9665304642154595
 30
0.0
 40
0.3000000000000398
 50
90.0
 51
180.0
  0
LINE
  5
216
  8
0
  6
CONTINUOUS
 62
     7
 10
-5.2618767478025301
 20
57.0665308933683875
 30
0.0
 11
-5.2618767478025301
 21
57.366532246393831
 31
0.0
  0
ARC
  5
217
  8
0
  6
CONTINUOUS
 62
     7
 10
-4.9618754007375516
 20
57.0665304642154609
 30
0.0
 40
0.3000000000000398
 50
180.0
 51
270.0
  0
LINE
  5
218
  8
0
  6
CONTINUOUS
 62
     7
 10
-5.2618767478025301
 20
57.366532246393831
 30
0.0
 11
-5.2618767478025301
 21
58.1665308874079301
 31
0.0
  0
LINE
  5
219
  8
0
  6
CONTINUOUS
 62
     7
 10
-5.2618767478025301
 20
58.1665308874079301
 30
0.0
 11
-5.2618767478025301
 21
58.4665322404333523
 31
0.0
  0
ARC
  5
21A
  8
0
  6
CONTINUOUS
 62
     7
 10
-4.9618754007375516
 20
58.4665304642154666
 30
0.0
 40
0.3000000000000398
 50
90.0
 51
180.0
  0
LINE
  5
21B
  8
0
  6
CONTINUOUS
 62
     7
 10
25.6381227515184484
 20
-43.7334687311223433
 30
0.0
 11
19.1381244800531398
 21
-43.7334687311223433
 31
0.0
  0
LINE
  5
21C
  8
0
  6
CONTINUOUS
 62
     7
 10
25.6381227515184484
 20
-42.7334704298547194
 30
0.0
 11
25.6381227515184484
 21
-43.7334687311223433
 31
0.0
  0
ARC
  5
21D
  8
0
  6
CONTINUOUS
 62
     7
 10
23.1381245992627207
 20
-28.7334695357852787
 30
0.0
 40
1.0
 50
180.0
 51
270.0000000000015916
  0
LINE
  5
21E
  8
0
  6
CONTINUOUS
 62
     7
 10
23.1381251357042288
 20
-29.7334706682732985
 30
0.0
 11
25.6381227515184484
 21
-29.7334706682732985
 31
0.0
  0
LINE
  5
21F
  8
0
  6
CONTINUOUS
 62
     7
 10
25.6381227515184484
 20
65.2665313582845954
 30
0.0
 11
25.6381227515184484
 21
52.2665315967031887
 31
0.0
  0
LINE
  5
220
  8
0
  6
CONTINUOUS
 62
     7
 10
25.6381227515184484
 20
52.2665315967031887
 30
0.0
 11
23.1381251357042288
 21
52.2665315967031887
 31
0.0
  0
ARC
  5
221
  8
0
  6
CONTINUOUS
 62
     7
 10
23.1381245992619
 20
51.266530464214739
 30
0.0
 40
1.0
 50
90.0
 51
180.0000000000015916
  0
LINE
  5
222
  8
0
  6
CONTINUOUS
 62
     7
 10
22.1381231091463206
 20
51.2665295701452806
 30
0.0
 11
22.1381231091463206
 21
48.7665319543310716
 31
0.0
  0
LINE
  5
223
  8
0
  6
CONTINUOUS
 62
     7
 10
20.9381251476251684
 20
48.7665319543310716
 30
0.0
 11
22.1381231091463206
 21
48.7665319543310716
 31
0.0
  0
LINE
  5
224
  8
0
  6
CONTINUOUS
 62
     7
 10
20.9381251476251684
 20
43.7665292721220425
 30
0.0
 11
20.9381251476251684
 21
48.7665319543310716
 31
0.0
  0
LINE
  5
225
  8
0
  6
CONTINUOUS
 62
     7
 10
20.9381251476251684
 20
43.7665292721220425
 30
0.0
 11
22.1381231091463206
 21
43.7665292721220425
 31
0.0
  0
LINE
  5
226
  8
0
  6
CONTINUOUS
 62
     7
 10
22.1381231091463206
 20
43.7665292721220425
 30
0.0
 11
22.1381231091463206
 21
41.2665297936626772
 31
0.0
  0
ARC
  5
227
  8
0
  6
CONTINUOUS
 62
     7
 10
23.1381245992620102
 20
41.266530464214739
 30
0.0
 40
1.0
 50
180.0000000000015916
 51
270.0
  0
LINE
  5
228
  8
0
  6
CONTINUOUS
 62
     7
 10
23.1381251357042288
 20
40.2665296297499111
 30
0.0
 11
25.6381227515184484
 21
40.2665296297499111
 31
0.0
  0
LINE
  5
229
  8
0
  6
CONTINUOUS
 62
     7
 10
25.6381227515184484
 20
40.2665296297499111
 30
0.0
 11
25.6381227515184484
 21
17.2665305163690093
 31
0.0
  0
LINE
  5
22A
  8
0
  6
CONTINUOUS
 62
     7
 10
25.6381227515184484
 20
17.2665305163690093
 30
0.0
 11
23.1381251357042288
 21
17.2665305163690093
 31
0.0
  0
ARC
  5
22B
  8
0
  6
CONTINUOUS
 62
     7
 10
23.1381245992623796
 20
16.266530464214739
 30
0.0
 40
1.0
 50
90.0
 51
180.0
  0
LINE
  5
22C
  8
0
  6
CONTINUOUS
 62
     7
 10
22.1381231091463206
 20
16.266530352456229
 30
0.0
 11
22.1381231091463206
 21
13.7665304083355906
 31
0.0
  0
LINE
  5
22D
  8
0
  6
CONTINUOUS
 62
     7
 10
20.9381251476251684
 20
13.7665304083355906
 30
0.0
 11
22.1381231091463206
 21
13.7665304083355906
 31
0.0
  0
LINE
  5
22E
  8
0
  6
CONTINUOUS
 62
     7
 10
20.9381251476251684
 20
8.766530520094296
 30
0.0
 11
20.9381251476251684
 21
13.7665304083355906
 31
0.0
  0
LINE
  5
22F
  8
0
  6
CONTINUOUS
 62
     7
 10
20.9381251476251684
 20
8.766530520094296
 30
0.0
 11
22.1381231091463206
 21
8.766530520094296
 31
0.0
  0
LINE
  5
230
  8
0
  6
CONTINUOUS
 62
     7
 10
22.1381231091463206
 20
8.766530520094296
 30
0.0
 11
22.1381231091463206
 21
6.2665305759736496
 31
0.0
  0
ARC
  5
231
  8
0
  6
CONTINUOUS
 62
     7
 10
23.1381245992625004
 20
6.2665304642147417
 30
0.0
 40
1.0
 50
180.0000000000015916
 51
270.0
  0
LINE
  5
232
  8
0
  6
CONTINUOUS
 62
     7
 10
23.1381251357042288
 20
5.2665304120608774
 30
0.0
 11
25.6381227515184484
 21
5.2665304120608774
 31
0.0
  0
LINE
  5
233
  8
0
  6
CONTINUOUS
 62
     7
 10
25.6381227515184484
 20
5.2665304120608774
 30
0.0
 11
25.6381227515184484
 21
-17.7334687013200316
 31
0.0
  0
LINE
  5
234
  8
0
  6
CONTINUOUS
 62
     7
 10
25.6381227515184484
 20
-17.7334687013200316
 30
0.0
 11
23.1381251357042288
 21
-17.7334687013200316
 31
0.0
  0
ARC
  5
235
  8
0
  6
CONTINUOUS
 62
     7
 10
23.1381245992626106
 20
-18.7334695357852894
 30
0.0
 40
1.0000000000000271
 50
90.0
 51
180.0
  0
LINE
  5
236
  8
0
  6
CONTINUOUS
 62
     7
 10
22.1381231091463206
 20
-18.7334688652328083
 30
0.0
 11
22.1381231091463206
 21
-21.2334683436921701
 31
0.0
  0
LINE
  5
237
  8
0
  6
CONTINUOUS
 62
     7
 10
20.9381251476251684
 20
-21.2334683436921701
 30
0.0
 11
22.1381231091463206
 21
-21.2334683436921701
 31
0.0
  0
LINE
  5
238
  8
0
  6
CONTINUOUS
 62
     7
 10
20.9381251476251684
 20
-26.2334710259011707
 30
0.0
 11
20.9381251476251684
 21
-21.2334683436921701
 31
0.0
  0
LINE
  5
239
  8
0
  6
CONTINUOUS
 62
     7
 10
20.9381251476251684
 20
-26.2334710259011707
 30
0.0
 11
22.1381231091463206
 21
-26.2334710259011707
 31
0.0
  0
LINE
  5
23A
  8
0
  6
CONTINUOUS
 62
     7
 10
22.1381231091463206
 20
-26.2334710259011707
 30
0.0
 11
22.1381231091463206
 21
-28.7334686417153797
 31
0.0
  0
LINE
  5
23B
  8
0
  6
CONTINUOUS
 62
     7
 10
25.6381227515184484
 20
-29.7334706682732985
 30
0.0
 11
25.6381227515184484
 21
-42.7334704298547194
 31
0.0
  0
ARC
  5
23C
  8
0
  6
CONTINUOUS
 62
     7
 10
19.1381245992630085
 20
-42.7334695357853178
 30
0.0
 40
1.0000000000000131
 50
180.0
 51
270.0
  0
LINE
  5
23D
  8
0
  6
CONTINUOUS
 62
     7
 10
18.1381261787855301
 20
-42.7334704298547194
 30
0.0
 11
18.1381261787855301
 21
1.0165301810928791
 31
0.0
  0
LINE
  5
23E
  8
0
  6
CONTINUOUS
 62
     7
 10
22.1381231091463206
 20
-26.2334710259011707
 30
0.0
 11
22.1381231091463206
 21
-21.2334683436921701
 31
0.0
  0
LINE
  5
23F
  8
0
  6
CONTINUOUS
 62
     7
 10
18.1381261787855301
 20
1.0165301810928791
 30
0.0
 11
-3.8618754007375582
 21
1.0165301810928791
 31
0.0
  0
ARC
  5
240
  8
0
  6
CONTINUOUS
 62
     7
 10
-3.8618754007374729
 20
2.016530464214457
 30
0.0
 40
1.0
 50
180.0000000000015916
 51
270.0
  0
LINE
  5
241
  8
0
  6
CONTINUOUS
 62
     7
 10
-4.8618774272954806
 20
2.0165303450056511
 30
0.0
 11
-4.8618774272954806
 21
65.2665313582845954
 31
0.0
  0
LINE
  5
242
  8
0
  6
CONTINUOUS
 62
     7
 10
22.1381231091463206
 20
8.766530520094296
 30
0.0
 11
22.1381231091463206
 21
13.7665304083355906
 31
0.0
  0
LINE
  5
243
  8
0
  6
CONTINUOUS
 62
     7
 10
22.1381231091463206
 20
43.7665292721220425
 30
0.0
 11
22.1381231091463206
 21
48.7665319543310716
 31
0.0
  0
LINE
  5
244
  8
0
  6
CONTINUOUS
 62
     7
 10
-3.8618754007375582
 20
66.2665296595522335
 30
0.0
 11
25.6381227515184484
 21
66.2665296595522335
 31
0.0
  0
LINE
  5
245
  8
0
  6
CONTINUOUS
 62
     7
 10
25.6381227515184484
 20
66.2665296595522335
 30
0.0
 11
25.6381227515184484
 21
65.2665313582845954
 31
0.0
  0
ARC
  5
246
  8
0
  6
CONTINUOUS
 62
     7
 10
-3.8618754007381262
 20
65.2665304642144548
 30
0.0
 40
1.0
 50
90.0
 51
180.0000000000015916
  0
LINE
  5
247
  8
0
  6
CONTINUOUS
 62
     7
 10
24.1381234369718705
 20
-20.2334700424245391
 30
0.0
 11
24.1381234369718705
 21
-27.2334693271687911
 31
0.0
  0
LINE
  5
248
  8
0
  6
CONTINUOUS
 62
     7
 10
24.1381234369718705
 20
-20.2334700424245391
 30
0.0
 11
24.638124450250821
 21
-20.2334700424245391
 31
0.0
  0
LINE
  5
249
  8
0
  6
CONTINUOUS
 62
     7
 10
24.638124450250821
 20
-20.2334700424245391
 30
0.0
 11
24.638124450250821
 21
-27.2334693271687911
 31
0.0
  0
LINE
  5
24A
  8
0
  6
CONTINUOUS
 62
     7
 10
24.1381234369718705
 20
-27.2334693271687911
 30
0.0
 11
24.638124450250821
 21
-27.2334693271687911
 31
0.0
  0
LINE
  5
24B
  8
0
  6
CONTINUOUS
 62
     7
 10
24.638124450250821
 20
-20.2334700424245391
 30
0.0
 11
25.1381254635297893
 21
-20.2334700424245391
 31
0.0
  0
LINE
  5
24C
  8
0
  6
CONTINUOUS
 62
     7
 10
25.1381254635297893
 20
-20.2334700424245391
 30
0.0
 11
25.1381254635297893
 21
-27.2334693271687911
 31
0.0
  0
LINE
  5
24D
  8
0
  6
CONTINUOUS
 62
     7
 10
24.638124450250821
 20
-27.2334693271687911
 30
0.0
 11
25.1381254635297893
 21
-27.2334693271687911
 31
0.0
  0
LINE
  5
24E
  8
0
  6
CONTINUOUS
 62
     7
 10
24.1381234369718705
 20
49.7665302555986813
 30
0.0
 11
24.1381234369718705
 21
42.7665309708544186
 31
0.0
  0
LINE
  5
24F
  8
0
  6
CONTINUOUS
 62
     7
 10
24.1381234369718705
 20
49.7665302555986813
 30
0.0
 11
24.638124450250821
 21
49.7665302555986813
 31
0.0
  0
LINE
  5
250
  8
0
  6
CONTINUOUS
 62
     7
 10
24.638124450250821
 20
49.7665302555986813
 30
0.0
 11
24.638124450250821
 21
42.7665309708544186
 31
0.0
  0
LINE
  5
251
  8
0
  6
CONTINUOUS
 62
     7
 10
24.1381234369718705
 20
42.7665309708544186
 30
0.0
 11
24.638124450250821
 21
42.7665309708544186
 31
0.0
  0
LINE
  5
252
  8
0
  6
CONTINUOUS
 62
     7
 10
24.638124450250821
 20
49.7665302555986813
 30
0.0
 11
25.1381254635297893
 21
49.7665302555986813
 31
0.0
  0
LINE
  5
253
  8
0
  6
CONTINUOUS
 62
     7
 10
25.1381254635297893
 20
49.7665302555986813
 30
0.0
 11
25.1381254635297893
 21
42.7665309708544186
 31
0.0
  0
LINE
  5
254
  8
0
  6
CONTINUOUS
 62
     7
 10
24.638124450250821
 20
42.7665309708544186
 30
0.0
 11
25.1381254635297893
 21
42.7665309708544186
 31
0.0
  0
LINE
  5
255
  8
0
  6
CONTINUOUS
 62
     7
 10
25.6381227515184484
 20
-43.2334677178433822
 30
0.0
 11
26.1381237647974096
 21
-43.2334677178433822
 31
0.0
  0
LINE
  5
256
  8
0
  6
CONTINUOUS
 62
     7
 10
26.1381237647974096
 20
-29.7334706682732985
 30
0.0
 11
26.1381237647974096
 21
-30.3334696490338693
 31
0.0
  0
LINE
  5
257
  8
0
  6
CONTINUOUS
 62
     7
 10
26.1381237647974096
 20
-29.7334706682732985
 30
0.0
 11
25.6381227515184484
 21
-29.7334706682732985
 31
0.0
  0
LINE
  5
258
  8
0
  6
CONTINUOUS
 62
     7
 10
26.1381237647974096
 20
-17.1334697205594608
 30
0.0
 11
26.1381237647974096
 21
-17.7334687013200316
 31
0.0
  0
LINE
  5
259
  8
0
  6
CONTINUOUS
 62
     7
 10
26.1381237647974096
 20
5.2665304120608774
 30
0.0
 11
25.6381227515184484
 21
5.2665304120608774
 31
0.0
  0
LINE
  5
25A
  8
0
  6
CONTINUOUS
 62
     7
 10
25.6381227515184484
 20
-17.7334687013200316
 30
0.0
 11
26.1381237647974096
 21
-17.7334687013200316
 31
0.0
  0
LINE
  5
25B
  8
0
  6
CONTINUOUS
 62
     7
 10
26.1381237647974096
 20
40.2665296297499111
 30
0.0
 11
26.1381237647974096
 21
39.666530648989351
 31
0.0
  0
LINE
  5
25C
  8
0
  6
CONTINUOUS
 62
     7
 10
26.1381237647974096
 20
40.2665296297499111
 30
0.0
 11
25.6381227515184484
 21
40.2665296297499111
 31
0.0
  0
LINE
  5
25D
  8
0
  6
CONTINUOUS
 62
     7
 10
25.6381227515184484
 20
17.2665305163690093
 30
0.0
 11
26.1381237647974096
 21
17.2665305163690093
 31
0.0
  0
LINE
  5
25E
  8
0
  6
CONTINUOUS
 62
     7
 10
26.1381237647974096
 20
52.8665305774637631
 30
0.0
 11
26.1381237647974096
 21
52.2665315967031887
 31
0.0
  0
LINE
  5
25F
  8
0
  6
CONTINUOUS
 62
     7
 10
25.6381227515184484
 20
52.2665315967031887
 30
0.0
 11
26.1381237647974096
 21
52.2665315967031887
 31
0.0
  0
LINE
  5
260
  8
0
  6
CONTINUOUS
 62
     7
 10
25.6381227515184484
 20
65.7665286462732723
 30
0.0
 11
26.1381237647974096
 21
65.7665286462732723
 31
0.0
  0
LINE
  5
261
  8
0
  6
CONTINUOUS
 62
     7
 10
26.1381237647974096
 20
-29.7334706682732985
 30
0.0
 11
26.1381237647974096
 21
-29.5334710080197702
 31
0.0
  0
LINE
  5
262
  8
0
  6
CONTINUOUS
 62
     7
 10
26.1381237647974096
 20
-17.9334702242187092
 30
0.0
 11
26.1381237647974096
 21
-17.7334687013200316
 31
0.0
  0
LINE
  5
263
  8
0
  6
CONTINUOUS
 62
     7
 10
26.1381237647974096
 20
40.2665296297499111
 30
0.0
 11
26.1381237647974096
 21
40.4665311526485922
 31
0.0
  0
LINE
  5
264
  8
0
  6
CONTINUOUS
 62
     7
 10
26.1381237647974096
 20
52.0665319364496497
 30
0.0
 11
26.1381237647974096
 21
52.2665315967031887
 31
0.0
  0
LINE
  5
265
  8
0
  6
CONTINUOUS
 62
     7
 10
17.6381251655065689
 20
-17.3334693808129785
 30
0.0
 11
17.6381251655065689
 21
-15.8334700662664005
 31
0.0
  0
LINE
  5
266
  8
0
  6
CONTINUOUS
 62
     7
 10
18.1381261787855301
 20
-15.8334700662664005
 30
0.0
 11
17.6381251655065689
 21
-15.8334700662664005
 31
0.0
  0
LINE
  5
267
  8
0
  6
CONTINUOUS
 62
     7
 10
18.1381261787855301
 20
-17.3334693808129785
 30
0.0
 11
17.6381251655065689
 21
-17.3334693808129785
 31
0.0
  0
LINE
  5
268
  8
0
  6
CONTINUOUS
 62
     7
 10
17.6381251655065689
 20
-4.4334689427188421
 30
0.0
 11
17.6381251655065689
 21
-5.9334701199105773
 31
0.0
  0
LINE
  5
269
  8
0
  6
CONTINUOUS
 62
     7
 10
18.1381261787855301
 20
-4.4334689427188421
 30
0.0
 11
17.6381251655065689
 21
-4.4334689427188421
 31
0.0
  0
LINE
  5
26A
  8
0
  6
CONTINUOUS
 62
     7
 10
18.1381261787855301
 20
-5.9334701199105773
 30
0.0
 11
17.6381251655065689
 21
-5.9334701199105773
 31
0.0
  0
LINE
  5
26B
  8
0
  6
CONTINUOUS
 62
     7
 10
17.6381251655065689
 20
-4.4334689427188421
 30
0.0
 11
17.6381251655065689
 21
-3.3834697950652619
 31
0.0
  0
LINE
  5
26C
  8
0
  6
CONTINUOUS
 62
     7
 10
18.1381261787855301
 20
-3.3834697950652619
 30
0.0
 11
17.6381251655065689
 21
-3.3834697950652619
 31
0.0
  0
LINE
  5
26D
  8
0
  6
CONTINUOUS
 62
     7
 10
18.1381261787855301
 20
-18.383470391111711
 30
0.0
 11
17.6381251655065689
 21
-18.383470391111711
 31
0.0
  0
LINE
  5
26E
  8
0
  6
CONTINUOUS
 62
     7
 10
17.6381251655065689
 20
-18.383470391111711
 30
0.0
 11
17.6381251655065689
 21
-17.3334693808129785
 31
0.0
  0
LINE
  5
26F
  8
0
  6
CONTINUOUS
 62
     7
 10
17.6381251655065689
 20
-15.8334700662664005
 30
0.0
 11
17.6381251655065689
 21
-13.3834695715478507
 31
0.0
  0
LINE
  5
270
  8
0
  6
CONTINUOUS
 62
     7
 10
18.1381261787855301
 20
-13.3834695715478507
 30
0.0
 11
17.6381251655065689
 21
-13.3834695715478507
 31
0.0
  0
LINE
  5
271
  8
0
  6
CONTINUOUS
 62
     7
 10
18.1381261787855301
 20
-8.3834687519839797
 30
0.0
 11
17.6381251655065689
 21
-8.3834687519839797
 31
0.0
  0
LINE
  5
272
  8
0
  6
CONTINUOUS
 62
     7
 10
17.6381251655065689
 20
-8.3834687519839797
 30
0.0
 11
17.6381251655065689
 21
-5.9334701199105773
 31
0.0
  0
LINE
  5
273
  8
0
  6
CONTINUOUS
 62
     7
 10
17.6381251655065689
 20
-18.383470391111711
 30
0.0
 11
18.1381261787855301
 21
-18.5834700513652287
 31
0.0
  0
LINE
  5
274
  8
0
  6
CONTINUOUS
 62
     7
 10
18.1381261787855301
 20
-3.183469203489163
 30
0.0
 11
17.6381251655065689
 21
-3.3834697950652619
 31
0.0
  0
LINE
  5
275
  8
0
  6
CONTINUOUS
 62
     7
 10
17.6381251655065689
 20
-8.3834687519839797
 30
0.0
 11
17.6381251655065689
 21
-13.3834695715478507
 31
0.0
  0
LINE
  5
287
  8
0
  6
CONTINUOUS
 62
     7
 10
94.9381261012994599
 20
-39.6834677357247827
 30
0.0
 11
94.9381261012994599
 21
-40.683469762282698
 31
0.0
  0
LINE
  5
288
  8
0
  6
CONTINUOUS
 62
     7
 10
94.9381261012994599
 20
-38.6834694344571517
 30
0.0
 11
94.9381261012994599
 21
-39.6834677357247827
 31
0.0
  0
LINE
  5
289
  8
0
  6
CONTINUOUS
 62
     7
 10
94.4381250880204988
 20
-39.6834677357247827
 30
0.0
 11
94.4381250880204988
 21
-38.1834684211781905
 31
0.0
  0
LINE
  5
28A
  8
0
  6
CONTINUOUS
 62
     7
 10
94.4381250880204988
 20
-41.183470775561652
 30
0.0
 11
94.4381250880204988
 21
-39.6834677357247827
 31
0.0
  0
LINE
  5
28B
  8
0
  6
CONTINUOUS
 62
     7
 10
24.0381254694902502
 20
42.466529617828968
 30
0.0
 11
24.0381254694902502
 21
50.0665316086241177
 31
0.0
  0
LINE
  5
28C
  8
0
  6
CONTINUOUS
 62
     7
 10
25.5381247840368388
 20
42.466529617828968
 30
0.0
 11
24.0381254694902502
 21
42.466529617828968
 31
0.0
  0
LINE
  5
28D
  8
0
  6
CONTINUOUS
 62
     7
 10
25.5381247840368388
 20
50.0665316086241177
 30
0.0
 11
25.5381247840368388
 21
42.466529617828968
 31
0.0
  0
LINE
  5
28E
  8
0
  6
CONTINUOUS
 62
     7
 10
24.0381254694902502
 20
50.0665316086241177
 30
0.0
 11
25.5381247840368388
 21
50.0665316086241177
 31
0.0
  0
LINE
  5
28F
  8
0
  6
CONTINUOUS
 62
     7
 10
24.0381254694902502
 20
-27.5334706801942311
 30
0.0
 11
24.0381254694902502
 21
-19.9334686893991098
 31
0.0
  0
LINE
  5
290
  8
0
  6
CONTINUOUS
 62
     7
 10
25.5381247840368388
 20
-27.5334706801942311
 30
0.0
 11
24.0381254694902502
 21
-27.5334706801942311
 31
0.0
  0
LINE
  5
291
  8
0
  6
CONTINUOUS
 62
     7
 10
25.5381247840368388
 20
-19.9334686893991098
 30
0.0
 11
25.5381247840368388
 21
-27.5334706801942311
 31
0.0
  0
LINE
  5
292
  8
0
  6
CONTINUOUS
 62
     7
 10
24.0381254694902502
 20
-19.9334686893991098
 30
0.0
 11
25.5381247840368388
 21
-19.9334686893991098
 31
0.0
  0
ARC
  5
293
  8
0
  6
CONTINUOUS
 62
     7
 10
23.1381245992624507
 20
-28.7334695357850514
 30
0.0
 40
0.8000000000000113
 50
180.0
 51
270.0
  0
LINE
  5
294
  8
0
  6
CONTINUOUS
 62
     7
 10
22.338122769399849
 20
-28.7334686417153797
 30
0.0
 11
22.338122769399849
 21
-18.7334688652328083
 31
0.0
  0
ARC
  5
295
  8
0
  6
CONTINUOUS
 62
     7
 10
23.1381245992624507
 20
-18.7334695357850585
 30
0.0
 40
0.8000000000000113
 50
90.0
 51
180.0
  0
LINE
  5
296
  8
0
  6
CONTINUOUS
 62
     7
 10
23.1381251357042288
 20
-17.9334702242187092
 30
0.0
 11
29.138124256535729
 21
-17.9334702242187092
 31
0.0
  0
LINE
  5
297
  8
0
  6
CONTINUOUS
 62
     7
 10
29.138124256535729
 20
-17.9334702242187092
 30
0.0
 11
29.138124256535729
 21
-17.1334697205594608
 31
0.0
  0
LINE
  5
298
  8
0
  6
CONTINUOUS
 62
     7
 10
29.138124256535729
 20
-17.1334697205594608
 30
0.0
 11
26.1381237647974096
 21
-17.1334697205594608
 31
0.0
  0
LINE
  5
299
  8
0
  6
CONTINUOUS
 62
     7
 10
26.1381237647974096
 20
-17.1334697205594608
 30
0.0
 11
26.1381237647974096
 21
5.4665305379756868
 31
0.0
  0
LINE
  5
29A
  8
0
  6
CONTINUOUS
 62
     7
 10
23.1381251357042288
 20
5.4665305379756868
 30
0.0
 11
26.1381237647974096
 21
5.4665305379756868
 31
0.0
  0
ARC
  5
29B
  8
0
  6
CONTINUOUS
 62
     7
 10
23.1381245992624507
 20
6.2665304642149424
 30
0.0
 40
0.7999999999999829
 50
180.0
 51
270.0
  0
LINE
  5
29C
  8
0
  6
CONTINUOUS
 62
     7
 10
22.338122769399849
 20
6.2665305759736496
 30
0.0
 11
22.338122769399849
 21
16.266530352456229
 31
0.0
  0
ARC
  5
29D
  8
0
  6
CONTINUOUS
 62
     7
 10
23.1381245992624507
 20
16.2665304642149415
 30
0.0
 40
0.8000000000000113
 50
90.0
 51
180.0
  0
LINE
  5
29E
  8
0
  6
CONTINUOUS
 62
     7
 10
23.1381251357042288
 20
17.0665303904541901
 30
0.0
 11
26.1381237647974096
 21
17.0665303904541901
 31
0.0
  0
LINE
  5
29F
  8
0
  6
CONTINUOUS
 62
     7
 10
26.1381237647974096
 20
17.0665303904541901
 30
0.0
 11
26.1381237647974096
 21
39.666530648989351
 31
0.0
  0
LINE
  5
2A0
  8
0
  6
CONTINUOUS
 62
     7
 10
26.1381237647974096
 20
39.666530648989351
 30
0.0
 11
29.138124256535729
 21
39.666530648989351
 31
0.0
  0
LINE
  5
2A1
  8
0
  6
CONTINUOUS
 62
     7
 10
29.138124256535729
 20
39.666530648989351
 30
0.0
 11
29.138124256535729
 21
40.4665311526485922
 31
0.0
  0
LINE
  5
2A2
  8
0
  6
CONTINUOUS
 62
     7
 10
23.1381251357042288
 20
40.4665311526485922
 30
0.0
 11
29.138124256535729
 21
40.4665311526485922
 31
0.0
  0
ARC
  5
2A3
  8
0
  6
CONTINUOUS
 62
     7
 10
23.1381245992624507
 20
41.266530464214938
 30
0.0
 40
0.7999999999999829
 50
180.0
 51
270.0
  0
LINE
  5
2A4
  8
0
  6
CONTINUOUS
 62
     7
 10
22.338122769399849
 20
41.2665297936626772
 30
0.0
 11
22.338122769399849
 21
51.2665295701452806
 31
0.0
  0
ARC
  5
2A5
  8
0
  6
CONTINUOUS
 62
     7
 10
23.1381245992624507
 20
51.2665304642149735
 30
0.0
 40
0.7999999999999829
 50
90.0
 51
180.0
  0
LINE
  5
2A6
  8
0
  6
CONTINUOUS
 62
     7
 10
23.1381251357042288
 20
52.0665319364496497
 30
0.0
 11
29.138124256535729
 21
52.0665319364496497
 31
0.0
  0
LINE
  5
2A7
  8
0
  6
CONTINUOUS
 62
     7
 10
29.138124256535729
 20
52.0665319364496497
 30
0.0
 11
29.138124256535729
 21
52.8665305774637631
 31
0.0
  0
LINE
  5
2A8
  8
0
  6
CONTINUOUS
 62
     7
 10
29.138124256535729
 20
52.8665305774637631
 30
0.0
 11
26.1381237647974096
 21
52.8665305774637631
 31
0.0
  0
LINE
  5
2A9
  8
0
  6
CONTINUOUS
 62
     7
 10
26.1381237647974096
 20
52.8665305774637631
 30
0.0
 11
26.1381237647974096
 21
65.2665313582845954
 31
0.0
  0
LINE
  5
2AA
  8
0
  6
CONTINUOUS
 62
     7
 10
80.6381243161403489
 20
65.2665313582845954
 30
0.0
 11
80.6381243161403489
 21
61.7665322225519589
 31
0.0
  0
ARC
  5
2AB
  8
0
  6
CONTINUOUS
 62
     7
 10
89.7381245992623775
 20
61.766530464214938
 30
0.0
 40
9.0999999999999943
 50
180.0
 51
270.0000000000006821
  0
LINE
  5
2AC
  8
0
  6
CONTINUOUS
 62
     7
 10
89.7381237588369203
 20
52.6665309172102525
 30
0.0
 11
93.1381254337274385
 21
52.6665309172102525
 31
0.0
  0
LINE
  5
2AD
  8
0
  6
CONTINUOUS
 62
     7
 10
93.1381254337274385
 20
52.6665309172102525
 30
0.0
 11
93.1381254337274385
 21
-38.0334696073106215
 31
0.0
  0
LINE
  5
2AE
  8
0
  6
CONTINUOUS
 62
     7
 10
87.7381252936565232
 20
-38.0334696073106215
 30
0.0
 11
93.1381254337274385
 21
-38.0334696073106215
 31
0.0
  0
LINE
  5
2AF
  8
0
  6
CONTINUOUS
 62
     7
 10
87.7381252936565232
 20
-38.0334696073106215
 30
0.0
 11
87.7381252936565232
 21
-42.7334704298547194
 31
0.0
  0
LINE
  5
2B0
  8
0
  6
CONTINUOUS
 62
     7
 10
26.1381237647974096
 20
-42.7334704298547194
 30
0.0
 11
26.1381237647974096
 21
-30.3334696490338693
 31
0.0
  0
LINE
  5
2B1
  8
0
  6
CONTINUOUS
 62
     7
 10
26.1381237647974096
 20
-30.3334696490338693
 30
0.0
 11
29.138124256535729
 21
-30.3334696490338693
 31
0.0
  0
LINE
  5
2B2
  8
0
  6
CONTINUOUS
 62
     7
 10
29.138124256535729
 20
-30.3334696490338693
 30
0.0
 11
29.138124256535729
 21
-29.5334710080197702
 31
0.0
  0
LINE
  5
2B3
  8
0
  6
CONTINUOUS
 62
     7
 10
23.1381251357042288
 20
-29.5334710080197702
 30
0.0
 11
29.138124256535729
 21
-29.5334710080197702
 31
0.0
  0
LINE
  5
2B4
  8
0
  6
CONTINUOUS
 62
     7
 10
87.7381252936565232
 20
-43.7334687311223433
 30
0.0
 11
26.1381237647974096
 21
-43.7334687311223433
 31
0.0
  0
LINE
  5
2B5
  8
0
  6
CONTINUOUS
 62
     7
 10
26.1381237647974096
 20
-43.7334687311223433
 30
0.0
 11
26.1381237647974096
 21
-42.7334704298547194
 31
0.0
  0
LINE
  5
2B6
  8
0
  6
CONTINUOUS
 62
     7
 10
87.7381252936565232
 20
-42.7334704298547194
 30
0.0
 11
87.7381252936565232
 21
-43.7334687311223433
 31
0.0
  0
LINE
  5
2B7
  8
0
  6
CONTINUOUS
 62
     7
 10
26.1381237647974096
 20
66.2665296595522335
 30
0.0
 11
80.6381243161403489
 21
66.2665296595522335
 31
0.0
  0
LINE
  5
2B8
  8
0
  6
CONTINUOUS
 62
     7
 10
26.1381237647974096
 20
65.2665313582845954
 30
0.0
 11
26.1381237647974096
 21
66.2665296595522335
 31
0.0
  0
LINE
  5
2B9
  8
0
  6
CONTINUOUS
 62
     7
 10
80.6381243161403489
 20
66.2665296595522335
 30
0.0
 11
80.6381243161403489
 21
65.2665313582845954
 31
0.0
  0
LINE
  5
2BA
  8
0
  6
CONTINUOUS
 62
     7
 10
93.1381254337274385
 20
-39.5334689218572066
 30
0.0
 11
87.7381252936565232
 21
-39.5334689218572066
 31
0.0
  0
LINE
  5
2BB
  8
0
  6
CONTINUOUS
 62
     7
 10
93.1381254337274385
 20
-38.0334696073106215
 30
0.0
 11
93.1381254337274385
 21
-39.5334689218572066
 31
0.0
  0
LINE
  5
2BC
  8
0
  6
CONTINUOUS
 62
     7
 10
87.7381252936565232
 20
53.6665292184778622
 30
0.0
 11
87.7381252936565232
 21
52.889031330866473
 31
0.0
  0
ARC
  5
2BD
  8
0
  6
CONTINUOUS
 62
     7
 10
89.2381245992623633
 20
53.6665304642149295
 30
0.0
 40
1.5
 50
90.0
 51
180.0
  0
LINE
  5
2BE
  8
0
  6
CONTINUOUS
 62
     7
 10
91.2381230733835054
 20
55.1665322583147528
 30
0.0
 11
89.2381246082031083
 21
55.1665322583147528
 31
0.0
  0
LINE
  5
2BF
  8
0
  6
CONTINUOUS
 62
     7
 10
91.2381230733835054
 20
60.0165286760756018
 30
0.0
 11
91.2381230733835054
 21
55.1665322583147528
 31
0.0
  0
ARC
  5
2C0
  8
0
  6
CONTINUOUS
 62
     7
 10
90.2381245992623775
 20
60.0165304642149735
 30
0.0
 40
1.0
 50
0.0
 51
180.0
  0
LINE
  5
2C1
  8
0
  6
CONTINUOUS
 62
     7
 10
89.2381246082031083
 20
58.7665298681684902
 30
0.0
 11
89.2381246082031083
 21
60.0165286760756018
 31
0.0
  0
ARC
  5
2C2
  8
0
  6
CONTINUOUS
 62
     7
 10
86.2381245992623775
 20
58.766530464214938
 30
0.0
 40
3.0
 50
270.00000000000108
 51
0.0
  0
LINE
  5
2C3
  8
0
  6
CONTINUOUS
 62
     7
 10
82.8963412783586193
 20
55.7665312390753201
 30
0.0
 11
86.2381241164648031
 21
55.7665312390753201
 31
0.0
  0
LINE
  5
2C4
  8
0
  6
CONTINUOUS
 62
     7
 10
81.8286358259164501
 20
57.2665305536219122
 30
0.0
 11
86.2381241164648031
 21
57.2665305536219122
 31
0.0
  0
ARC
  5
2C5
  8
0
  6
CONTINUOUS
 62
     7
 10
86.2381245992623775
 20
58.766530464214938
 30
0.0
 40
1.500000000000056
 50
270.0
 51
0.0
  0
LINE
  5
2C6
  8
0
  6
CONTINUOUS
 62
     7
 10
87.7381252936565232
 20
58.7665298681684902
 30
0.0
 11
87.7381252936565232
 21
59.716531048340471
 31
0.0
  0
ARC
  5
2C7
  8
0
  6
CONTINUOUS
 62
     7
 10
90.2381245992623775
 20
59.7165304642149266
 30
0.0
 40
2.5
 50
0.0
 51
180.0
  0
LINE
  5
2C8
  8
0
  6
CONTINUOUS
 62
     7
 10
92.7381261132204031
 20
59.716531048340471
 30
0.0
 11
92.7381261132204031
 21
55.1665322583147528
 31
0.0
  0
ARC
  5
2C9
  8
0
  6
CONTINUOUS
 62
     7
 10
91.2381245992623775
 20
55.1665304642149366
 30
0.0
 40
1.5
 50
270.0
 51
0.0
  0
LINE
  5
2CA
  8
0
  6
CONTINUOUS
 62
     7
 10
91.2381230733835054
 20
53.6665292184778622
 30
0.0
 11
89.2381246082031083
 21
53.6665292184778622
 31
0.0
  0
LINE
  5
2CB
  8
0
  6
CONTINUOUS
 62
     7
 10
89.2381246082031083
 20
53.6665292184778622
 30
0.0
 11
89.2381246082031083
 21
52.6802772384115627
 31
0.0
  0
ARC
  5
2CC
  8
0
  6
CONTINUOUS
 62
     7
 10
83.1381245992624542
 20
-44.7334695357850478
 30
0.0
 40
0.5
 50
270.0
 51
0.0
  0
LINE
  5
2CD
  8
0
  6
CONTINUOUS
 62
     7
 10
83.1381237945997071
 20
-45.2334680456689284
 30
0.0
 11
81.1381253294193243
 21
-45.2334680456689284
 31
0.0
  0
ARC
  5
2CE
  8
0
  6
CONTINUOUS
 62
     7
 10
81.1381245992624685
 20
-44.7334695357850478
 30
0.0
 40
0.5
 50
180.0
 51
270.0
  0
LINE
  5
2CF
  8
0
  6
CONTINUOUS
 62
     7
 10
80.6381243161403489
 20
-43.7334687311223433
 30
0.0
 11
80.6381243161403489
 21
-44.7334707576802728
 31
0.0
  0
LINE
  5
2D0
  8
0
  6
CONTINUOUS
 62
     7
 10
91.1381251059018638
 20
-42.7334704298547194
 30
0.0
 11
87.7381252936565232
 21
-42.7334704298547194
 31
0.0
  0
LINE
  5
2D1
  8
0
  6
CONTINUOUS
 62
     7
 10
91.1381251059018638
 20
-42.1334677238038466
 30
0.0
 11
91.1381251059018638
 21
-42.7334704298547194
 31
0.0
  0
LINE
  5
2D2
  8
0
  6
CONTINUOUS
 62
     7
 10
91.6381261191808534
 20
-42.1334677238038466
 30
0.0
 11
91.1381251059018638
 21
-42.1334677238038466
 31
0.0
  0
LINE
  5
2D3
  8
0
  6
CONTINUOUS
 62
     7
 10
92.6381244204484773
 20
-43.3334694106152867
 30
0.0
 11
91.6381261191808534
 21
-42.1334677238038466
 31
0.0
  0
LINE
  5
2D4
  8
0
  6
CONTINUOUS
 62
     7
 10
92.6381244204484773
 20
-44.0334700841477797
 30
0.0
 11
92.6381244204484773
 21
-43.3334694106152867
 31
0.0
  0
LINE
  5
2D5
  8
0
  6
CONTINUOUS
 62
     7
 10
83.6381248078786967
 20
-44.0334700841477797
 30
0.0
 11
92.6381244204484773
 21
-44.0334700841477797
 31
0.0
  0
LINE
  5
2D6
  8
0
  6
CONTINUOUS
 62
     7
 10
83.6381248078786967
 20
-44.0334700841477797
 30
0.0
 11
83.6381248078786967
 21
-44.7334707576802728
 31
0.0
  0
LINE
  5
2D7
  8
0
  6
CONTINUOUS
 62
     7
 10
92.1381234071695161
 20
-39.6834677357247827
 30
0.0
 11
92.1381234071695161
 21
-42.7334704298547194
 31
0.0
  0
LINE
  5
2D8
  8
0
  6
CONTINUOUS
 62
     7
 10
92.1381234071695161
 20
-39.5334689218572066
 30
0.0
 11
92.1381234071695161
 21
-39.6834677357247827
 31
0.0
  0
LINE
  5
2D9
  8
0
  6
CONTINUOUS
 62
     7
 10
81.0959308288537812
 20
58.9165286820360734
 30
0.0
 11
86.7438434503518891
 21
58.9165286820360734
 31
0.0
  0
ARC
  5
2DA
  8
0
  6
CONTINUOUS
 62
     7
 10
86.7438435573311466
 20
59.9165304642149721
 30
0.0
 40
1.0000000000000571
 50
270.0
 51
356.7241710402007016
  0
INSERT
  5
2DB
  8
0
  6
CONTINUOUS
  2
DC_GROUP_R30NECT1_1
 10
0.0
 20
0.0
 30
0.0
  0
LINE
  5
2DC
  8
0
  6
PHANTOM
 62
     8
 10
-52.6625839976961814
 20
51.1665316026636532
 30
0.0
 11
-52.6625839976961814
 21
50.3665292363592627
 31
0.0
  0
LINE
  5
2DD
  8
0
  6
PHANTOM
 62
     8
 10
-52.6625839976961814
 20
50.3665292363592627
 30
0.0
 11
-52.9625834880764685
 21
50.3665292363592627
 31
0.0
  0
LINE
  5
2DE
  8
0
  6
PHANTOM
 62
     8
 10
-52.6625839976961814
 20
51.1665316026636532
 30
0.0
 11
-52.9625834880764685
 21
51.1665316026636532
 31
0.0
  0
LINE
  5
2DF
  8
0
  6
PHANTOM
 62
     8
 10
-51.9625833241637025
 20
51.7665305834242275
 30
0.0
 11
-51.9625833241637025
 21
51.4665292303987911
 31
0.0
  0
LINE
  5
2E0
  8
0
  6
PHANTOM
 62
     8
 10
-51.9625833241637025
 20
51.4665292303987911
 30
0.0
 11
-52.3625835759933196
 21
51.4665292303987911
 31
0.0
  0
LINE
  5
2E1
  8
0
  6
PHANTOM
 62
     8
 10
-52.3625835759933196
 20
51.7665305834242275
 30
0.0
 11
-52.3625835759933196
 21
51.4665292303987911
 31
0.0
  0
ARC
  5
2E2
  8
0
  6
PHANTOM
 62
     8
 10
-52.362583689241653
 20
50.3665304642154723
 30
0.0
 40
0.3000000000000114
 50
180.0
 51
270.0
  0
LINE
  5
2E3
  8
0
  6
PHANTOM
 62
     8
 10
-52.3625835759933196
 20
50.0665316086241177
 30
0.0
 11
-52.3625835759933196
 21
49.7665302555986813
 31
0.0
  0
LINE
  5
2E4
  8
0
  6
PHANTOM
 62
     8
 10
-51.3625834120805465
 20
51.1665316026636532
 30
0.0
 11
-51.6625838337834296
 21
51.1665316026636532
 31
0.0
  0
ARC
  5
2E5
  8
0
  6
PHANTOM
 62
     8
 10
-51.9625836892416686
 20
51.1665304642154624
 30
0.0
 40
0.3000000000000114
 50
0.0
 51
90.0
  0
LINE
  5
2E6
  8
0
  6
PHANTOM
 62
     8
 10
-52.3625835759933196
 20
50.0665316086241177
 30
0.0
 11
-51.9625833241637025
 21
50.0665316086241177
 31
0.0
  0
LINE
  5
2E7
  8
0
  6
PHANTOM
 62
     8
 10
-51.9625833241637025
 20
50.0665316086241177
 30
0.0
 11
-51.9625833241637025
 21
49.7665302555986813
 31
0.0
  0
ARC
  5
2E8
  8
0
  6
PHANTOM
 62
     8
 10
-52.362583689241653
 20
43.3665304642154723
 30
0.0
 40
0.3000000000000114
 50
180.0
 51
270.0
  0
LINE
  5
2E9
  8
0
  6
PHANTOM
 62
     8
 10
-52.6625839976961814
 20
44.1665323179193905
 30
0.0
 11
-52.6625839976961814
 21
43.3665299516149929
 31
0.0
  0
ARC
  5
2EA
  8
0
  6
PHANTOM
 62
     8
 10
-52.362583689241653
 20
44.1665304642154624
 30
0.0
 40
0.3000000000000114
 50
90.0
 51
180.0
  0
LINE
  5
2EB
  8
0
  6
PHANTOM
 62
     8
 10
-51.9625833241637025
 20
44.4665299456545284
 30
0.0
 11
-52.3625835759933196
 21
44.4665299456545284
 31
0.0
  0
ARC
  5
2EC
  8
0
  6
PHANTOM
 62
     8
 10
-51.9625836892416686
 20
44.1665304642154624
 30
0.0
 40
0.3000000000000114
 50
0.0
 51
90.0
  0
LINE
  5
2ED
  8
0
  6
PHANTOM
 62
     8
 10
-51.6625838337834296
 20
43.3665299516149929
 30
0.0
 11
-51.6625838337834296
 21
44.1665323179193905
 31
0.0
  0
ARC
  5
2EE
  8
0
  6
PHANTOM
 62
     8
 10
-51.9625836892416686
 20
43.3665304642154723
 30
0.0
 40
0.3000000000000114
 50
270.0
 51
0.0
  0
LINE
  5
2EF
  8
0
  6
PHANTOM
 62
     8
 10
-52.3625835759933196
 20
43.0665323238798621
 30
0.0
 11
-51.9625833241637025
 21
43.0665323238798621
 31
0.0
  0
LINE
  5
2F0
  8
0
  6
PHANTOM
 62
     8
 10
-52.6625839976961814
 20
44.1665323179193905
 30
0.0
 11
-52.9625834880764685
 21
44.1665323179193905
 31
0.0
  0
LINE
  5
2F1
  8
0
  6
PHANTOM
 62
     8
 10
-52.3625835759933196
 20
44.7665312986799719
 30
0.0
 11
-52.3625835759933196
 21
44.4665299456545284
 31
0.0
  0
LINE
  5
2F2
  8
0
  6
PHANTOM
 62
     8
 10
-52.6625839976961814
 20
43.3665299516149929
 30
0.0
 11
-52.9625834880764685
 21
43.3665299516149929
 31
0.0
  0
LINE
  5
2F3
  8
0
  6
PHANTOM
 62
     8
 10
-51.9625833241637025
 20
44.7665312986799719
 30
0.0
 11
-51.9625833241637025
 21
44.4665299456545284
 31
0.0
  0
LINE
  5
2F4
  8
0
  6
PHANTOM
 62
     8
 10
-52.3625835759933196
 20
43.0665323238798621
 30
0.0
 11
-52.3625835759933196
 21
42.7665309708544186
 31
0.0
  0
LINE
  5
2F5
  8
0
  6
PHANTOM
 62
     8
 10
-51.3625834120805465
 20
44.1665323179193905
 30
0.0
 11
-51.6625838337834296
 21
44.1665323179193905
 31
0.0
  0
LINE
  5
2F6
  8
0
  6
PHANTOM
 62
     8
 10
-51.9625833241637025
 20
43.0665323238798621
 30
0.0
 11
-51.9625833241637025
 21
42.7665309708544186
 31
0.0
  0
LINE
  5
2F7
  8
0
  6
PHANTOM
 62
     8
 10
-51.3625834120805465
 20
43.3665299516149929
 30
0.0
 11
-51.6625838337834296
 21
43.3665299516149929
 31
0.0
  0
ARC
  5
2F8
  8
0
  6
PHANTOM
 62
     8
 10
-52.362583689241653
 20
47.6665304642154624
 30
0.0
 40
0.3000000000000114
 50
90.0
 51
180.0
  0
LINE
  5
2F9
  8
0
  6
PHANTOM
 62
     8
 10
-52.6625839976961814
 20
47.6665319602915218
 30
0.0
 11
-52.9625834880764685
 21
47.6665319602915218
 31
0.0
  0
LINE
  5
2FA
  8
0
  6
PHANTOM
 62
     8
 10
-52.3625835759933196
 20
48.2665309410521104
 30
0.0
 11
-52.3625835759933196
 21
47.9665295880266598
 31
0.0
  0
LINE
  5
2FB
  8
0
  6
PHANTOM
 62
     8
 10
-52.6625839976961814
 20
47.6665319602915218
 30
0.0
 11
-52.6625839976961814
 21
46.8665295939871172
 31
0.0
  0
LINE
  5
2FC
  8
0
  6
PHANTOM
 62
     8
 10
-52.6625839976961814
 20
46.8665295939871172
 30
0.0
 11
-52.9625834880764685
 21
46.8665295939871172
 31
0.0
  0
LINE
  5
2FD
  8
0
  6
PHANTOM
 62
     8
 10
-51.9625833241637025
 20
48.2665309410521104
 30
0.0
 11
-51.9625833241637025
 21
47.9665295880266598
 31
0.0
  0
LINE
  5
2FE
  8
0
  6
PHANTOM
 62
     8
 10
-51.9625833241637025
 20
47.9665295880266598
 30
0.0
 11
-52.3625835759933196
 21
47.9665295880266598
 31
0.0
  0
ARC
  5
2FF
  8
0
  6
PHANTOM
 62
     8
 10
-52.362583689241653
 20
46.8665304642154723
 30
0.0
 40
0.3000000000000114
 50
180.0
 51
270.0
  0
LINE
  5
300
  8
0
  6
PHANTOM
 62
     8
 10
-52.3625835759933196
 20
46.5665319662519934
 30
0.0
 11
-52.3625835759933196
 21
46.2665306132265499
 31
0.0
  0
LINE
  5
301
  8
0
  6
PHANTOM
 62
     8
 10
-51.3625834120805465
 20
47.6665319602915218
 30
0.0
 11
-51.6625838337834296
 21
47.6665319602915218
 31
0.0
  0
ARC
  5
302
  8
0
  6
PHANTOM
 62
     8
 10
-51.9625836892416686
 20
47.6665304642154624
 30
0.0
 40
0.3000000000000114
 50
0.0
 51
90.0
  0
LINE
  5
303
  8
0
  6
PHANTOM
 62
     8
 10
-52.3625835759933196
 20
46.5665319662519934
 30
0.0
 11
-51.9625833241637025
 21
46.5665319662519934
 31
0.0
  0
LINE
  5
304
  8
0
  6
PHANTOM
 62
     8
 10
-51.9625833241637025
 20
46.5665319662519934
 30
0.0
 11
-51.9625833241637025
 21
46.2665306132265499
 31
0.0
  0
LINE
  5
305
  8
0
  6
PHANTOM
 62
     8
 10
-51.3625834120805465
 20
46.8665295939871172
 30
0.0
 11
-51.6625838337834296
 21
46.8665295939871172
 31
0.0
  0
LINE
  5
306
  8
0
  6
PHANTOM
 62
     8
 10
-51.6625838337834296
 20
46.8665295939871172
 30
0.0
 11
-51.6625838337834296
 21
47.6665319602915218
 31
0.0
  0
ARC
  5
307
  8
0
  6
PHANTOM
 62
     8
 10
-51.9625836892416686
 20
46.8665304642154723
 30
0.0
 40
0.3000000000000114
 50
270.0
 51
0.0
  0
ARC
  5
308
  8
0
  6
PHANTOM
 62
     8
 10
-52.362583689241653
 20
51.1665304642154624
 30
0.0
 40
0.3000000000000114
 50
90.0
 51
180.0
  0
LINE
  5
309
  8
0
  6
PHANTOM
 62
     8
 10
-51.3625834120805465
 20
58.1665308874079301
 30
0.0
 11
-51.6625838337834296
 21
58.1665308874079301
 31
0.0
  0
ARC
  5
30A
  8
0
  6
PHANTOM
 62
     8
 10
-51.9625836892416686
 20
58.1665304642154766
 30
0.0
 40
0.3000000000000114
 50
0.0
 51
90.0
  0
LINE
  5
30B
  8
0
  6
PHANTOM
 62
     8
 10
-51.9625833241637025
 20
58.7665298681684902
 30
0.0
 11
-51.9625833241637025
 21
58.4665322404333523
 31
0.0
  0
ARC
  5
30C
  8
0
  6
PHANTOM
 62
     8
 10
-52.362583689241653
 20
57.3665304642154723
 30
0.0
 40
0.3000000000000114
 50
180.0
 51
270.0
  0
LINE
  5
30D
  8
0
  6
PHANTOM
 62
     8
 10
-52.6625839976961814
 20
58.1665308874079301
 30
0.0
 11
-52.6625839976961814
 21
57.366532246393831
 31
0.0
  0
ARC
  5
30E
  8
0
  6
PHANTOM
 62
     8
 10
-52.362583689241653
 20
58.1665304642154766
 30
0.0
 40
0.3000000000000114
 50
90.0
 51
180.0
  0
LINE
  5
30F
  8
0
  6
PHANTOM
 62
     8
 10
-51.9625833241637025
 20
58.4665322404333523
 30
0.0
 11
-52.3625835759933196
 21
58.4665322404333523
 31
0.0
  0
LINE
  5
310
  8
0
  6
PHANTOM
 62
     8
 10
-51.6625838337834296
 20
57.366532246393831
 30
0.0
 11
-51.6625838337834296
 21
58.1665308874079301
 31
0.0
  0
ARC
  5
311
  8
0
  6
PHANTOM
 62
     8
 10
-51.9625836892416686
 20
57.3665304642154723
 30
0.0
 40
0.3000000000000114
 50
270.0
 51
0.0
  0
LINE
  5
312
  8
0
  6
PHANTOM
 62
     8
 10
-52.3625835759933196
 20
57.0665308933683875
 30
0.0
 11
-51.9625833241637025
 21
57.0665308933683875
 31
0.0
  0
LINE
  5
313
  8
0
  6
PHANTOM
 62
     8
 10
-51.3625834120805465
 20
57.366532246393831
 30
0.0
 11
-51.6625838337834296
 21
57.366532246393831
 31
0.0
  0
LINE
  5
314
  8
0
  6
PHANTOM
 62
     8
 10
-51.9625833241637025
 20
57.0665308933683875
 30
0.0
 11
-51.9625833241637025
 21
56.7665295403429369
 31
0.0
  0
ARC
  5
315
  8
0
  6
PHANTOM
 62
     8
 10
-52.362583689241653
 20
54.6665304642154624
 30
0.0
 40
0.3000000000000114
 50
90.0
 51
180.0
  0
LINE
  5
316
  8
0
  6
PHANTOM
 62
     8
 10
-52.6625839976961814
 20
54.6665312450357774
 30
0.0
 11
-52.9625834880764685
 21
54.6665312450357774
 31
0.0
  0
LINE
  5
317
  8
0
  6
PHANTOM
 62
     8
 10
-52.3625835759933196
 20
55.2665302257963589
 30
0.0
 11
-52.3625835759933196
 21
54.9665288727709225
 31
0.0
  0
LINE
  5
318
  8
0
  6
PHANTOM
 62
     8
 10
-51.3625834120805465
 20
50.3665292363592627
 30
0.0
 11
-51.6625838337834296
 21
50.3665292363592627
 31
0.0
  0
LINE
  5
319
  8
0
  6
PHANTOM
 62
     8
 10
-51.6625838337834296
 20
50.3665292363592627
 30
0.0
 11
-51.6625838337834296
 21
51.1665316026636532
 31
0.0
  0
ARC
  5
31A
  8
0
  6
PHANTOM
 62
     8
 10
-51.9625836892416686
 20
50.3665304642154723
 30
0.0
 40
0.3000000000000114
 50
270.0
 51
0.0
  0
LINE
  5
31B
  8
0
  6
PHANTOM
 62
     8
 10
-52.6625839976961814
 20
58.1665308874079301
 30
0.0
 11
-52.9625834880764685
 21
58.1665308874079301
 31
0.0
  0
LINE
  5
31C
  8
0
  6
PHANTOM
 62
     8
 10
-52.3625835759933196
 20
58.7665298681684902
 30
0.0
 11
-52.3625835759933196
 21
58.4665322404333523
 31
0.0
  0
LINE
  5
31D
  8
0
  6
PHANTOM
 62
     8
 10
-52.6625839976961814
 20
57.366532246393831
 30
0.0
 11
-52.9625834880764685
 21
57.366532246393831
 31
0.0
  0
LINE
  5
31E
  8
0
  6
PHANTOM
 62
     8
 10
-52.3625835759933196
 20
57.0665308933683875
 30
0.0
 11
-52.3625835759933196
 21
56.7665295403429369
 31
0.0
  0
ARC
  5
31F
  8
0
  6
PHANTOM
 62
     8
 10
-51.9625836892416402
 20
53.8665304642154723
 30
0.0
 40
0.3000000000000114
 50
270.0
 51
0.0
  0
LINE
  5
320
  8
0
  6
PHANTOM
 62
     8
 10
-51.3625834120805465
 20
53.8665288787314012
 30
0.0
 11
-51.6625838337834296
 21
53.8665288787314012
 31
0.0
  0
LINE
  5
321
  8
0
  6
PHANTOM
 62
     8
 10
-51.9625833241637025
 20
53.566531250996249
 30
0.0
 11
-51.9625833241637025
 21
53.2665298979708126
 31
0.0
  0
ARC
  5
322
  8
0
  6
PHANTOM
 62
     8
 10
-52.362583689241653
 20
53.8665304642154723
 30
0.0
 40
0.3000000000000114
 50
180.0
 51
270.0
  0
LINE
  5
323
  8
0
  6
PHANTOM
 62
     8
 10
-52.3625835759933196
 20
53.566531250996249
 30
0.0
 11
-52.3625835759933196
 21
53.2665298979708126
 31
0.0
  0
LINE
  5
324
  8
0
  6
PHANTOM
 62
     8
 10
-52.6625839976961814
 20
53.8665288787314012
 30
0.0
 11
-52.9625834880764685
 21
53.8665288787314012
 31
0.0
  0
LINE
  5
325
  8
0
  6
PHANTOM
 62
     8
 10
-51.3625834120805465
 20
54.6665312450357774
 30
0.0
 11
-51.6625838337834296
 21
54.6665312450357774
 31
0.0
  0
ARC
  5
326
  8
0
  6
PHANTOM
 62
     8
 10
-51.9625836892416402
 20
54.6665304642154624
 30
0.0
 40
0.3000000000000114
 50
0.0
 51
90.000000000005457
  0
LINE
  5
327
  8
0
  6
PHANTOM
 62
     8
 10
-51.9625833241637025
 20
55.2665302257963589
 30
0.0
 11
-51.9625833241637025
 21
54.9665288727709225
 31
0.0
  0
LINE
  5
328
  8
0
  6
PHANTOM
 62
     8
 10
-52.3625835759933196
 20
53.566531250996249
 30
0.0
 11
-51.9625833241637025
 21
53.566531250996249
 31
0.0
  0
LINE
  5
329
  8
0
  6
PHANTOM
 62
     8
 10
-52.6625839976961814
 20
54.6665312450357774
 30
0.0
 11
-52.6625839976961814
 21
53.8665288787314012
 31
0.0
  0
LINE
  5
32A
  8
0
  6
PHANTOM
 62
     8
 10
-51.9625833241637025
 20
54.9665288727709225
 30
0.0
 11
-52.3625835759933196
 21
54.9665288727709225
 31
0.0
  0
LINE
  5
32B
  8
0
  6
PHANTOM
 62
     8
 10
-51.6625838337834296
 20
53.8665288787314012
 30
0.0
 11
-51.6625838337834296
 21
54.6665312450357774
 31
0.0
  0
LINE
  5
32C
  8
0
  6
PHANTOM
 62
     8
 10
-62.9625836892425212
 20
65.2665313582845954
 30
0.0
 11
-61.9625836417447005
 21
65.2665313582845954
 31
0.0
  0
LINE
  5
32D
  8
0
  6
PHANTOM
 62
     8
 10
-61.9625836417447005
 20
65.2665313582845954
 30
0.0
 11
-61.9625836417447005
 21
66.2665296595522335
 31
0.0
  0
LINE
  5
32E
  8
0
  6
PHANTOM
 62
     8
 10
-38.9625844939048633
 20
65.2665313582845954
 30
0.0
 11
-38.9625844939048633
 21
66.2665296595522335
 31
0.0
  0
LINE
  5
32F
  8
0
  6
PHANTOM
 62
     8
 10
-38.9625844939048633
 20
65.2665313582845954
 30
0.0
 11
-37.9625843299920831
 21
65.2665313582845954
 31
0.0
  0
LINE
  5
330
  8
0
  6
PHANTOM
 62
     8
 10
-38.9625844939048633
 20
65.2665313582845954
 30
0.0
 11
-61.9625836417447005
 21
65.2665313582845954
 31
0.0
  0
LINE
  5
331
  8
0
  6
PHANTOM
 62
     8
 10
-38.9625844939048633
 20
2.0165303450056511
 30
0.0
 11
-38.9625844939048633
 21
65.2665313582845954
 31
0.0
  0
LINE
  5
332
  8
0
  6
PHANTOM
 62
     8
 10
-38.9625844939048633
 20
2.0165303450056511
 30
0.0
 11
-37.9625843299920831
 21
2.0165303450056511
 31
0.0
  0
LINE
  5
333
  8
0
  6
PHANTOM
 62
     8
 10
-61.9625836417447005
 20
2.0165303450056511
 30
0.0
 11
-38.9625844939048633
 21
2.0165303450056511
 31
0.0
  0
LINE
  5
334
  8
0
  6
PHANTOM
 62
     8
 10
-61.9625836417447005
 20
65.2665313582845954
 30
0.0
 11
-61.9625836417447005
 21
2.0165303450056511
 31
0.0
  0
LINE
  5
335
  8
0
  6
PHANTOM
 62
     8
 10
-62.9625836892420665
 20
2.0165303450056511
 30
0.0
 11
-61.9625836417447005
 21
2.0165303450056511
 31
0.0
  0
LINE
  5
336
  8
0
  6
PHANTOM
 62
     8
 10
-61.9625836417447005
 20
1.0165301810928791
 30
0.0
 11
-61.9625836417447005
 21
2.0165303450056511
 31
0.0
  0
LINE
  5
337
  8
0
  6
PHANTOM
 62
     8
 10
-38.9625844939048633
 20
1.0165301810928791
 30
0.0
 11
-38.9625844939048633
 21
2.0165303450056511
 31
0.0
  0
LINE
  5
338
  8
0
  6
PHANTOM
 62
     8
 10
-61.9625836417447005
 20
1.0165301810928791
 30
0.0
 11
-61.9625836417447005
 21
-42.7334704298547194
 31
0.0
  0
LINE
  5
339
  8
0
  6
PHANTOM
 62
     8
 10
-62.9625836892417468
 20
-42.7334704298547194
 30
0.0
 11
-61.9625836417447005
 21
-42.7334704298547194
 31
0.0
  0
LINE
  5
33A
  8
0
  6
PHANTOM
 62
     8
 10
-38.9625844939048633
 20
-42.7334704298547194
 30
0.0
 11
-38.9625844939048633
 21
1.0165301810928791
 31
0.0
  0
LINE
  5
33B
  8
0
  6
PHANTOM
 62
     8
 10
-37.9625843299920831
 20
-42.7334704298547194
 30
0.0
 11
-38.9625844939048633
 21
-42.7334704298547194
 31
0.0
  0
LINE
  5
33C
  8
0
  6
PHANTOM
 62
     8
 10
-61.9625836417447005
 20
-42.7334704298547194
 30
0.0
 11
-38.9625844939048633
 21
-42.7334704298547194
 31
0.0
  0
LINE
  5
33D
  8
0
  6
PHANTOM
 62
     8
 10
-61.9625836417447005
 20
-43.7334687311223433
 30
0.0
 11
-61.9625836417447005
 21
-42.7334704298547194
 31
0.0
  0
LINE
  5
33E
  8
0
  6
PHANTOM
 62
     8
 10
-38.9625844939048633
 20
-43.7334687311223433
 30
0.0
 11
-38.9625844939048633
 21
-42.7334704298547194
 31
0.0
  0
LINE
  5
33F
  8
0
  6
PHANTOM
 62
     8
 10
-50.7425833477075301
 20
-2.8834697131088771
 30
0.0
 11
-50.7425833477075301
 21
-3.1534694407156492
 31
0.0
  0
LINE
  5
340
  8
0
  6
PHANTOM
 62
     8
 10
-50.7425833477075301
 20
-18.383470391111711
 30
0.0
 11
-50.7425833477075301
 21
-18.3934690702727899
 31
0.0
  0
LINE
  5
342
  8
0
  6
PHANTOM
 62
     8
 10
-40.5125841481979165
 20
-44.7334707576802728
 30
0.0
 11
-43.0125836266572676
 21
-44.7334707576802728
 31
0.0
  0
LINE
  5
343
  8
0
  6
PHANTOM
 62
     8
 10
-4.9618791200673913
 20
57.366532246393831
 30
0.0
 11
-4.8618774272954806
 21
57.366532246393831
 31
0.0
  0
LINE
  5
344
  8
0
  6
PHANTOM
 62
     8
 10
-4.9618791200673913
 20
58.1665308874079301
 30
0.0
 11
-4.9618791200673913
 21
57.366532246393831
 31
0.0
  0
LINE
  5
345
  8
0
  6
PHANTOM
 62
     8
 10
-4.9618791200673913
 20
58.1665308874079301
 30
0.0
 11
-4.8618774272954806
 21
58.1665308874079301
 31
0.0
  0
LINE
  5
346
  8
0
  6
PHANTOM
 62
     8
 10
-4.9618791200673913
 20
57.366532246393831
 30
0.0
 11
-4.9618791200673913
 21
56.7665295403429369
 31
0.0
  0
LINE
  5
347
  8
0
  6
PHANTOM
 62
     8
 10
-4.9618791200673913
 20
58.7665298681684902
 30
0.0
 11
-4.9618791200673913
 21
58.1665308874079301
 31
0.0
  0
LINE
  5
348
  8
0
  6
PHANTOM
 62
     8
 10
-4.9618791200673913
 20
43.3665299516149929
 30
0.0
 11
-4.8618774272954806
 21
43.3665299516149929
 31
0.0
  0
LINE
  5
349
  8
0
  6
PHANTOM
 62
     8
 10
-4.9618791200673913
 20
44.1665323179193905
 30
0.0
 11
-4.9618791200673913
 21
43.3665299516149929
 31
0.0
  0
LINE
  5
34A
  8
0
  6
PHANTOM
 62
     8
 10
-4.9618791200673913
 20
44.1665323179193905
 30
0.0
 11
-4.8618774272954806
 21
44.1665323179193905
 31
0.0
  0
LINE
  5
34B
  8
0
  6
PHANTOM
 62
     8
 10
-4.9618791200673913
 20
43.3665299516149929
 30
0.0
 11
-4.9618791200673913
 21
42.7665309708544186
 31
0.0
  0
LINE
  5
34C
  8
0
  6
PHANTOM
 62
     8
 10
-4.9618791200673913
 20
43.3665299516149929
 30
0.0
 11
-5.2618767478025301
 21
43.3665299516149929
 31
0.0
  0
LINE
  5
34D
  8
0
  6
PHANTOM
 62
     8
 10
-4.9618791200673913
 20
44.7665312986799719
 30
0.0
 11
-4.9618791200673913
 21
44.1665323179193905
 31
0.0
  0
LINE
  5
34E
  8
0
  6
PHANTOM
 62
     8
 10
-4.9618791200673913
 20
44.1665323179193905
 30
0.0
 11
-5.2618767478025301
 21
44.1665323179193905
 31
0.0
  0
LINE
  5
34F
  8
0
  6
PHANTOM
 62
     8
 10
-4.9618791200673913
 20
46.8665295939871172
 30
0.0
 11
-4.8618774272954806
 21
46.8665295939871172
 31
0.0
  0
LINE
  5
350
  8
0
  6
PHANTOM
 62
     8
 10
-4.9618791200673913
 20
47.6665319602915218
 30
0.0
 11
-4.9618791200673913
 21
46.8665295939871172
 31
0.0
  0
LINE
  5
351
  8
0
  6
PHANTOM
 62
     8
 10
-4.9618791200673913
 20
47.6665319602915218
 30
0.0
 11
-4.8618774272954806
 21
47.6665319602915218
 31
0.0
  0
LINE
  5
352
  8
0
  6
PHANTOM
 62
     8
 10
-4.9618791200673913
 20
46.8665295939871172
 30
0.0
 11
-4.9618791200673913
 21
46.2665306132265499
 31
0.0
  0
LINE
  5
353
  8
0
  6
PHANTOM
 62
     8
 10
-4.9618791200673913
 20
46.8665295939871172
 30
0.0
 11
-5.2618767478025301
 21
46.8665295939871172
 31
0.0
  0
LINE
  5
354
  8
0
  6
PHANTOM
 62
     8
 10
-4.9618791200673913
 20
48.2665309410521104
 30
0.0
 11
-4.9618791200673913
 21
47.6665319602915218
 31
0.0
  0
LINE
  5
355
  8
0
  6
PHANTOM
 62
     8
 10
-4.9618791200673913
 20
50.3665292363592627
 30
0.0
 11
-4.8618774272954806
 21
50.3665292363592627
 31
0.0
  0
LINE
  5
356
  8
0
  6
PHANTOM
 62
     8
 10
-4.9618791200673913
 20
51.1665316026636532
 30
0.0
 11
-4.9618791200673913
 21
50.3665292363592627
 31
0.0
  0
LINE
  5
357
  8
0
  6
PHANTOM
 62
     8
 10
-4.9618791200673913
 20
51.1665316026636532
 30
0.0
 11
-4.8618774272954806
 21
51.1665316026636532
 31
0.0
  0
LINE
  5
358
  8
0
  6
PHANTOM
 62
     8
 10
-4.9618791200673913
 20
47.6665319602915218
 30
0.0
 11
-5.2618767478025301
 21
47.6665319602915218
 31
0.0
  0
LINE
  5
359
  8
0
  6
PHANTOM
 62
     8
 10
-4.9618791200673913
 20
53.8665288787314012
 30
0.0
 11
-4.8618774272954806
 21
53.8665288787314012
 31
0.0
  0
LINE
  5
35A
  8
0
  6
PHANTOM
 62
     8
 10
-4.9618791200673913
 20
54.6665312450357774
 30
0.0
 11
-4.9618791200673913
 21
53.8665288787314012
 31
0.0
  0
LINE
  5
35B
  8
0
  6
PHANTOM
 62
     8
 10
-4.9618791200673913
 20
54.6665312450357774
 30
0.0
 11
-4.8618774272954806
 21
54.6665312450357774
 31
0.0
  0
LINE
  5
35C
  8
0
  6
PHANTOM
 62
     8
 10
-4.9618791200673913
 20
50.3665292363592627
 30
0.0
 11
-4.9618791200673913
 21
49.7665302555986813
 31
0.0
  0
LINE
  5
35D
  8
0
  6
PHANTOM
 62
     8
 10
-4.9618791200673913
 20
50.3665292363592627
 30
0.0
 11
-5.2618767478025301
 21
50.3665292363592627
 31
0.0
  0
LINE
  5
35E
  8
0
  6
PHANTOM
 62
     8
 10
-4.9618791200673913
 20
51.1665316026636532
 30
0.0
 11
-5.2618767478025301
 21
51.1665316026636532
 31
0.0
  0
LINE
  5
35F
  8
0
  6
PHANTOM
 62
     8
 10
-4.9618791200673913
 20
51.7665305834242275
 30
0.0
 11
-4.9618791200673913
 21
51.1665316026636532
 31
0.0
  0
LINE
  5
360
  8
0
  6
PHANTOM
 62
     8
 10
-4.9618791200673913
 20
53.8665288787314012
 30
0.0
 11
-4.9618791200673913
 21
53.2665298979708126
 31
0.0
  0
LINE
  5
361
  8
0
  6
PHANTOM
 62
     8
 10
-4.9618791200673913
 20
53.8665288787314012
 30
0.0
 11
-5.2618767478025301
 21
53.8665288787314012
 31
0.0
  0
LINE
  5
362
  8
0
  6
PHANTOM
 62
     8
 10
-4.9618791200673913
 20
54.6665312450357774
 30
0.0
 11
-5.2618767478025301
 21
54.6665312450357774
 31
0.0
  0
LINE
  5
363
  8
0
  6
PHANTOM
 62
     8
 10
-4.9618791200673913
 20
55.2665302257963589
 30
0.0
 11
-4.9618791200673913
 21
54.6665312450357774
 31
0.0
  0
LINE
  5
364
  8
0
  6
PHANTOM
 62
     8
 10
-4.9618791200673913
 20
57.366532246393831
 30
0.0
 11
-5.2618767478025301
 21
57.366532246393831
 31
0.0
  0
LINE
  5
365
  8
0
  6
PHANTOM
 62
     8
 10
-4.9618791200673913
 20
58.1665308874079301
 30
0.0
 11
-5.2618767478025301
 21
58.1665308874079301
 31
0.0
  0
LINE
  5
366
  8
0
  6
PHANTOM
 62
     8
 10
19.1381244800531398
 20
-42.7334704298547194
 30
0.0
 11
19.1381244800531398
 21
-43.7334687311223433
 31
0.0
  0
LINE
  5
367
  8
0
  6
PHANTOM
 62
     8
 10
19.1381244800531398
 20
-42.7334704298547194
 30
0.0
 11
25.6381227515184484
 21
-42.7334704298547194
 31
0.0
  0
LINE
  5
368
  8
0
  6
PHANTOM
 62
     8
 10
19.1381244800531398
 20
2.0165303450056511
 30
0.0
 11
19.1381244800531398
 21
-42.7334704298547194
 31
0.0
  0
LINE
  5
369
  8
0
  6
PHANTOM
 62
     8
 10
-3.8618754007375582
 20
2.0165303450056511
 30
0.0
 11
19.1381244800531398
 21
2.0165303450056511
 31
0.0
  0
LINE
  5
36A
  8
0
  6
PHANTOM
 62
     8
 10
-3.8618754007375582
 20
65.2665313582845954
 30
0.0
 11
-3.8618754007375582
 21
2.0165303450056511
 31
0.0
  0
LINE
  5
36B
  8
0
  6
PHANTOM
 62
     8
 10
25.6381227515184484
 20
65.2665313582845954
 30
0.0
 11
-3.8618754007375582
 21
65.2665313582845954
 31
0.0
  0
LINE
  5
36C
  8
0
  6
PHANTOM
 62
     8
 10
19.1381244800531398
 20
-42.7334704298547194
 30
0.0
 11
18.1381261787855301
 21
-42.7334704298547194
 31
0.0
  0
LINE
  5
36D
  8
0
  6
PHANTOM
 62
     8
 10
-3.8618754007375582
 20
2.0165303450056511
 30
0.0
 11
-3.8618754007375582
 21
1.0165301810928791
 31
0.0
  0
LINE
  5
36E
  8
0
  6
PHANTOM
 62
     8
 10
-4.8618774272954806
 20
2.0165303450056511
 30
0.0
 11
-3.8618754007375582
 21
2.0165303450056511
 31
0.0
  0
LINE
  5
36F
  8
0
  6
PHANTOM
 62
     8
 10
-4.8618774272954806
 20
65.2665313582845954
 30
0.0
 11
-3.8618754007375582
 21
65.2665313582845954
 31
0.0
  0
LINE
  5
370
  8
0
  6
PHANTOM
 62
     8
 10
-3.8618754007375582
 20
66.2665296595522335
 30
0.0
 11
-3.8618754007375582
 21
65.2665313582845954
 31
0.0
  0
LINE
  5
371
  8
0
  6
PHANTOM
 62
     8
 10
25.6381227515184484
 20
-42.7334704298547194
 30
0.0
 11
26.1381237647974096
 21
-42.7334704298547194
 31
0.0
  0
LINE
  5
372
  8
0
  6
PHANTOM
 62
     8
 10
25.6381227515184484
 20
65.2665313582845954
 30
0.0
 11
26.1381237647974096
 21
65.2665313582845954
 31
0.0
  0
LINE
  5
373
  8
0
  6
PHANTOM
 62
     8
 10
80.6381243161403489
 20
65.2665313582845954
 30
0.0
 11
26.1381237647974096
 21
65.2665313582845954
 31
0.0
  0
LINE
  5
374
  8
0
  6
PHANTOM
 62
     8
 10
26.1381237647974096
 20
-42.7334704298547194
 30
0.0
 11
87.7381252936565232
 21
-42.7334704298547194
 31
0.0
  0
LINE
  5
375
  8
0
  6
PHANTOM
 62
     8
 10
92.1381234071695161
 20
-39.6834677357247827
 30
0.0
 11
87.7381252936565232
 21
-39.6834677357247827
 31
0.0
  0
TEXT
  5
378
  8
0
 62
     7
 10
96.0736362840384146
 20
-74.6362840381753188
 30
0.0
 40
5.0
  1
000
 41
0.76953125
  7
DCSTYLE0
 72
     5
 11
103.5736362840384004
 21
-74.6362840381753188
 31
0.0
  0
VIEWPORT
  5
AD
 67
     1
  8
0
 10
17.7105262973979301
 20
-4.1848767869804391
 30
0.0
 40
484.0386599198427007
 41
422.7084435071693065
 68
     1
 69
     1
1001
ACAD
1000
MVIEW
1002
{
1070
    16
1010
0.0
1020
0.0
1030
0.0
1010
0.0
1020
0.0
1030
1.0
1040
0.0
1040
422.7084435071693065
1040
17.7105262973979301
1040
-4.1848767869804391
1040
50.0
1040
0.0
1040
0.0
1070
     0
1070
   100
1070
     1
1070
     3
1070
     0
1070
     0
1070
     0
1070
     0
1040
0.0
1040
0.0
1040
0.0
1040
0.5
1040
0.5
1040
0.0
1040
0.0
1070
     0
1002
{
1002
}
1002
}
  0
ENDSEC
  0
EOF
