  0
SECTION
  2
HEADER
  9
$ACADVER
  1
AC1014
  9
$ACADMAINTVER
 70
       0
  9
$DWGCODEPAGE
  3
ANSI_932
  9
$INSBASE
 10
0.0
 20
0.0
 30
0.0
  9
$EXTMIN
 10
-201.41856257
 20
-393.07076411
 30
0.0
  9
$EXTMAX
 10
201.41856257
 20
390.57076411
 30
0.0
  9
$LIMMIN
 10
-214.00722273
 20
-417.55956187
  9
$LIMMAX
 10
214.00722273
 20
415.05956187
  9
$ORTHOMODE
 70
       0
  9
$REGENMODE
 70
       1
  9
$FILLMODE
 70
       1
  9
$QTEXTMODE
 70
       0
  9
$MIRRTEXT
 70
       1
  9
$DRAGMODE
 70
       2
  9
$LTSCALE
 40
1.0
  9
$OSMODE
 70
       0
  9
$ATTMODE
 70
       1
  9
$TEXTSIZE
 40
0.2
  9
$TRACEWID
 40
0.05
  9
$TEXTSTYLE
  7
STANDARD
  9
$CLAYER
  8
0
  9
$CELTYPE
  6
CONTINUOUS
  9
$CECOLOR
 62
     256
  9
$CELTSCALE
 40
1.0
  9
$DELOBJ
 70
       1
  9
$DISPSILH
 70
       0
  9
$DIMSCALE
 40
1.0
  9
$DIMASZ
 40
0.18
  9
$DIMEXO
 40
0.0625
  9
$DIMDLI
 40
0.38
  9
$DIMRND
 40
0.0
  9
$DIMDLE
 40
0.0
  9
$DIMEXE
 40
0.18
  9
$DIMTP
 40
0.0
  9
$DIMTM
 40
0.0
  9
$DIMTXT
 40
0.18
  9
$DIMCEN
 40
0.09
  9
$DIMTSZ
 40
0.0
  9
$DIMTOL
 70
       0
  9
$DIMLIM
 70
       0
  9
$DIMTIH
 70
       1
  9
$DIMTOH
 70
       1
  9
$DIMSE1
 70
       0
  9
$DIMSE2
 70
       0
  9
$DIMTAD
 70
       0
  9
$DIMZIN
 70
       0
  9
$DIMBLK
  1

  9
$DIMASO
 70
       1
  9
$DIMSHO
 70
       1
  9
$DIMPOST
  1

  9
$DIMAPOST
  1

  9
$DIMALT
 70
       0
  9
$DIMALTD
 70
       2
  9
$DIMALTF
 40
25.4
  9
$DIMLFAC
 40
1.0
  9
$DIMTOFL
 70
       0
  9
$DIMTVP
 40
0.0
  9
$DIMTIX
 70
       0
  9
$DIMSOXD
 70
       0
  9
$DIMSAH
 70
       0
  9
$DIMBLK1
  1

  9
$DIMBLK2
  1

  9
$DIMSTYLE
  2
STANDARD
  9
$DIMCLRD
 70
       0
  9
$DIMCLRE
 70
       0
  9
$DIMCLRT
 70
       0
  9
$DIMTFAC
 40
1.0
  9
$DIMGAP
 40
0.09
  9
$DIMJUST
 70
       0
  9
$DIMSD1
 70
       0
  9
$DIMSD2
 70
       0
  9
$DIMTOLJ
 70
       1
  9
$DIMTZIN
 70
       0
  9
$DIMALTZ
 70
       0
  9
$DIMALTTZ
 70
       0
  9
$DIMFIT
 70
       3
  9
$DIMUPT
 70
       0
  9
$DIMUNIT
 70
       2
  9
$DIMDEC
 70
       4
  9
$DIMTDEC
 70
       4
  9
$DIMALTU
 70
       2
  9
$DIMALTTD
 70
       2
  9
$DIMTXSTY
  7
STANDARD
  9
$DIMAUNIT
 70
       0
  9
$LUNITS
 70
       2
  9
$LUPREC
 70
       4
  9
$SKETCHINC
 40
0.1
  9
$FILLETRAD
 40
0.0
  9
$AUNITS
 70
       0
  9
$AUPREC
 70
       0
  9
$MENU
  1
acad
  9
$ELEVATION
 40
0.0
  9
$PELEVATION
 40
0.0
  9
$THICKNESS
 40
0.0
  9
$LIMCHECK
 70
       0
  9
$BLIPMODE
 70
       1
  9
$CHAMFERA
 40
0.0
  9
$CHAMFERB
 40
0.0
  9
$CHAMFERC
 40
0.0
  9
$CHAMFERD
 40
0.0
  9
$SKPOLY
 70
       0
  9
$TDCREATE
 40
0.000000000
  9
$TDUPDATE
 40
0.000000000
  9
$TDINDWG
 40
0.0000000000
  9
$TDUSRTIMER
 40
0.0000000000
  9
$USRTIMER
 70
       1
  9
$ANGBASE
 50
0.0
  9
$ANGDIR
 70
       0
  9
$PDMODE
 70
       0
  9
$PDSIZE
 40
1.0
  9
$PLINEWID
 40
0.0
  9
$COORDS
 70
       1
  9
$SPLFRAME
 70
       0
  9
$SPLINETYPE
 70
       6
  9
$SPLINESEGS
 70
       8
  9
$ATTDIA
 70
       0
  9
$ATTREQ
 70
       1
  9
$HANDLING
 70
       1
  9
$HANDSEED
  5
452
  9
$SURFTAB1
 70
       6
  9
$SURFTAB2
 70
       6
  9
$SURFTYPE
 70
       6
  9
$SURFU
 70
       6
  9
$SURFV
 70
       6
  9
$UCSNAME
  2

  9
$UCSORG
 10
0.0
 20
0.0
 30
0.0
  9
$UCSXDIR
 10
1.0
 20
0.0
 30
0.0
  9
$UCSYDIR
 10
0.0
 20
1.0
 30
0.0
  9
$PUCSNAME
  2

  9
$PUCSORG
 10
0.0
 20
0.0
 30
0.0
  9
$PUCSXDIR
 10
1.0
 20
0.0
 30
0.0
  9
$PUCSYDIR
 10
0.0
 20
1.0
 30
0.0
  9
$USERI1
 70
       0
  9
$USERI2
 70
       0
  9
$USERI3
 70
       0
  9
$USERI4
 70
       0
  9
$USERI5
 70
       0
  9
$USERR1
 40
0.0
  9
$USERR2
 40
0.0
  9
$USERR3
 40
0.0
  9
$USERR4
 40
0.0
  9
$USERR5
 40
0.0
  9
$WORLDVIEW
 70
       1
  9
$SHADEDGE
 70
       3
  9
$SHADEDIF
 70
      70
  9
$TILEMODE
 70
       1
  9
$MAXACTVP
 70
      16
  9
$PINSBASE
 10
0.0
 20
0.0
 30
0.0
  9
$PLIMCHECK
 70
       0
  9
$PEXTMIN
 10
1.00000000E+20
 20
1.00000000E+20
 30
1.00000000E+20
  9
$PEXTMAX
 10
-1.00000000E+20
 20
-1.00000000E+20
 30
-1.00000000E+20
  9
$PLIMMIN
 10
0.0
 20
0.0
  9
$PLIMMAX
 10
12.0
 20
9.0
  9
$UNITMODE
 70
       0
  9
$VISRETAIN
 70
       0
  9
$PLINEGEN
 70
       1
  9
$PSLTSCALE
 70
       0
  9
$TREEDEPTH
 70
    3020
  9
$PICKSTYLE
 70
       1
  9
$CMLSTYLE
  2
STANDARD
  9
$CMLJUST
 70
       0
  9
$CMLSCALE
 40
1.0
  9
$PROXYGRAPHICS
 70
       0
  9
$MEASUREMENT
 70
       0
  0
ENDSEC
  0
SECTION
  2
CLASSES
  0
CLASS
  1
LWPOLYLINE
  2
AcDbPolyline
  3
"AutoCAD"
 90
        0
280
       0
281
       1
  0
CLASS
  1
IMAGE
  2
AcDbRasterImage
  3
ISM
 90
      127
280
       0
281
       1
  0
CLASS
  1
OLE2FRAME
  2
AcDbOle2Frame
  3
""
 90
        0
280
       0
281
       1
  0
CLASS
  1
HATCH
  2
AcDbHatch
  3
"ACAD_SEDONA"
 90
        0
280
       0
281
       1
  0
CLASS
  1
DICTIONARYVAR
  2
AcDbDictionaryVar
  3
"AutoCAD"
 90
        0
280
       0
281
       0
  0
CLASS
  1
RASTERVARIABLES
  2
AcDbRasterVariables
  3
ISM
 90
        0
280
       0
281
       0
  0
CLASS
  1
IMAGEDEF
  2
AcDbRasterImageDef
  3
ISM
 90
        0
280
       0
281
       0
  0
CLASS
  1
IMAGEDEF_REACTOR
  2
AcDbRasterImageDefReactor
  3
ISM
 90
        1
280
       0
281
       0
  0
CLASS
  1
IDBUFFER
  2
AcDbIdBuffer
  3
"Acad"
 90
        0
280
       0
281
       0
  0
CLASS
  1
SPATIAL_FILTER
  2
AcDbSpatialFilter
  3
"Acad"
 90
        0
280
       0
281
       0
  0
CLASS
  1
XRECORD
  2
AcDbXrecord
  3
"<Built In>"
 90
        0
280
       0
281
       0
  0
CLASS
  1
SORTENTSTABLE
  2
AcDbSortentsTable
  3
"AutoCAD"
 90
        0
280
       0
281
       0
  0
CLASS
  1
LAYER_INDEX
  2
AcDbLayerIndex
  3
"Acad"
 90
        0
280
       0
281
       0
  0
CLASS
  1
SPATIAL_INDEX
  2
AcDbSpatialIndex
  3
"Acad"
 90
        0
280
       0
281
       0
  0
CLASS
  1
OBJECT_PTR
  2
CAseDLPNTableRecord
  3
"ASE-LPNTableRecord"
 90
        1
280
       0
281
       0
  0
CLASS
  1
LAYOUT
  2
AcDbLayout
  3
"AutoCAD 2000"
 90
        1
280
       0
281
       0
  0
CLASS
  1
PLOTSETTINGS
  2
AcDbPlotSettings
  3
"AutoCAD 2000"
 90
        1
280
       0
281
       0
  0
CLASS
  1
ACDBDICTIONARYWDFLT
  2
AcDbDictionaryWithDefault
  3
"AutoCAD 2000"
 90
        1
280
       0
281
       0
  0
CLASS
  1
ACDBPLACEHOLDER
  2
AcDbPlaceHolder
  3
"AutoCAD 2000"
 90
        1
280
       0
281
       0
  0
CLASS
  1
VBA_PROJECT
  2
AcDbVbaProject
  3
"acadvba"
 90
        1
280
       0
281
       0
  0
CLASS
  1
WIPEOUT
  2
AcDbWipeout
  3
WipeOut|AutoCAD Express Tool|expresstools@autodesk.com
 90
      127
280
       0
281
       1
  0
CLASS
  1
WIPEOUTVARIABLES
  2
AcDbWipeoutVariables
  3
WipeOut|AutoCAD Express Tool|expresstools@autodesk.com
 90
        0
280
       0
281
       0
  0
CLASS
  1
RTEXT
  2
RText
  3
RText|AutoCAD Express Tool|expresstools@autodesk.com
 90
        0
280
       0
281
       1
  0
CLASS
  1
ARCALIGNEDTEXT
  2
AcDbArcAlignedText
  3
ATEXT|AutoCAD Express Tool|expresstools@autodesk.com
 90
        0
280
       0
281
       1
  0
ENDSEC
  0
SECTION
  2
TABLES
  0
TABLE
  2
VPORT
  5
7
100
AcDbSymbolTable
 70
       1
  0
VPORT
  5
15
100
AcDbSymbolTableRecord
100
AcDbViewportTableRecord
  2
*ACTIVE
 70
       0
 10
0.0
 20
0.0
 11
1.0
 21
1.0
 12
0.0
 22
-1.25
 13
0.0
 23
0.0
 14
1.0
 24
1.0
 15
0.0
 25
0.0
 16
0.0
 26
0.0
 36
1.0
 17
0.0
 27
0.0
 37
0.0
 40
832.61912373
 41
0.51405791
 42
50.0
 43
0.0
 44
0.0
 50
0.0
 51
0.0
 71
       0
 72
     100
 73
       1
 74
       1
 75
       0
 76
       0
 77
       0
 78
       0
  0
ENDTAB
  0
TABLE
  2
LTYPE
  5
4
100
AcDbSymbolTable
 70
      30
  0
LTYPE
  5
11
100
AcDbSymbolTableRecord
100
AcDbLinetypeTableRecord
  2
BYBLOCK
 70
      64
  3

 72
      65
 73
       0
 40
0.0
  0
LTYPE
  5
12
100
AcDbSymbolTableRecord
100
AcDbLinetypeTableRecord
  2
BYLAYER
 70
      64
  3

 72
      65
 73
       0
 40
0.0
  0
LTYPE
  5
13
100
AcDbSymbolTableRecord
100
AcDbLinetypeTableRecord
  2
CONTINUOUS
 70
      64
  3
Solid line
 72
      65
 73
       0
 40
0.0
  0
LTYPE
  5
1D
100
AcDbSymbolTableRecord
100
AcDbLinetypeTableRecord
  2
HIDDENX2
 70
      64
  3
CADPAC LINETYPE
 72
      65
 73
       2
 40
44.16924504
 49
33.12693378
 74
       0
 49
-11.04231126
 74
       0
  0
LTYPE
  5
1E
100
AcDbSymbolTableRecord
100
AcDbLinetypeTableRecord
  2
HIDDEN
 70
      64
  3
CADPAC LINETYPE
 72
      65
 73
       2
 40
33.12693378
 49
22.08462252
 74
       0
 49
-11.04231126
 74
       0
  0
LTYPE
  5
1F
100
AcDbSymbolTableRecord
100
AcDbLinetypeTableRecord
  2
HIDDEN2
 70
      64
  3
CADPAC LINETYPE
 72
      65
 73
       2
 40
27.60577815
 49
16.56346689
 74
       0
 49
-11.04231126
 74
       0
  0
LTYPE
  5
20
100
AcDbSymbolTableRecord
100
AcDbLinetypeTableRecord
  2
DASHED
 70
      64
  3
CADPAC LINETYPE
 72
      65
 73
       2
 40
33.12693378
 49
22.08462252
 74
       0
 49
-11.04231126
 74
       0
  0
LTYPE
  5
21
100
AcDbSymbolTableRecord
100
AcDbLinetypeTableRecord
  2
DASHED2
 70
      64
  3
CADPAC LINETYPE
 72
      65
 73
       2
 40
24.84520034
 49
16.56346689
 74
       0
 49
-8.28173345
 74
       0
  0
LTYPE
  5
22
100
AcDbSymbolTableRecord
100
AcDbLinetypeTableRecord
  2
DASHEDX2
 70
      64
  3
CADPAC LINETYPE
 72
      65
 73
       2
 40
49.69040067
 49
33.12693378
 74
       0
 49
-16.56346689
 74
       0
  0
LTYPE
  5
23
100
AcDbSymbolTableRecord
100
AcDbLinetypeTableRecord
  2
DOTX2
 70
      64
  3
CADPAC LINETYPE
 72
      65
 73
       2
 40
13.80288908
 49
0.0
 74
       0
 49
-13.80288908
 74
       0
  0
LTYPE
  5
24
100
AcDbSymbolTableRecord
100
AcDbLinetypeTableRecord
  2
DOT
 70
      64
  3
CADPAC LINETYPE
 72
      65
 73
       2
 40
11.04231126
 49
0.0
 74
       0
 49
-11.04231126
 74
       0
  0
LTYPE
  5
25
100
AcDbSymbolTableRecord
100
AcDbLinetypeTableRecord
  2
DOT2
 70
      64
  3
CADPAC LINETYPE
 72
      65
 73
       2
 40
8.28173345
 49
0.0
 74
       0
 49
-8.28173345
 74
       0
  0
LTYPE
  5
26
100
AcDbSymbolTableRecord
100
AcDbLinetypeTableRecord
  2
CENTERX2
 70
      64
  3
CADPAC LINETYPE
 72
      65
 73
       4
 40
66.25386757
 49
27.60577815
 74
       0
 49
-13.80288908
 74
       0
 49
11.04231126
 74
       0
 49
-13.80288908
 74
       0
  0
LTYPE
  5
27
100
AcDbSymbolTableRecord
100
AcDbLinetypeTableRecord
  2
CENTER
 70
      64
  3
CADPAC LINETYPE
 72
      65
 73
       4
 40
50.7946318
 49
22.08462252
 74
       0
 49
-11.04231126
 74
       0
 49
6.62538676
 74
       0
 49
-11.04231126
 74
       0
  0
LTYPE
  5
28
100
AcDbSymbolTableRecord
100
AcDbLinetypeTableRecord
  2
CENTER2
 70
      64
  3
CADPAC LINETYPE
 72
      65
 73
       4
 40
35.33539604
 49
16.56346689
 74
       0
 49
-8.28173345
 74
       0
 49
2.20846225
 74
       0
 49
-8.28173345
 74
       0
  0
LTYPE
  5
29
100
AcDbSymbolTableRecord
100
AcDbLinetypeTableRecord
  2
DASHDOTX2
 70
      64
  3
CADPAC LINETYPE
 72
      65
 73
       4
 40
55.21155631
 49
27.60577815
 74
       0
 49
-13.80288908
 74
       0
 49
0.0
 74
       0
 49
-13.80288908
 74
       0
  0
LTYPE
  5
2A
100
AcDbSymbolTableRecord
100
AcDbLinetypeTableRecord
  2
DASHDOT
 70
      64
  3
CADPAC LINETYPE
 72
      65
 73
       4
 40
44.16924504
 49
22.08462252
 74
       0
 49
-11.04231126
 74
       0
 49
0.0
 74
       0
 49
-11.04231126
 74
       0
  0
LTYPE
  5
2B
100
AcDbSymbolTableRecord
100
AcDbLinetypeTableRecord
  2
DASHDOT2
 70
      64
  3
CADPAC LINETYPE
 72
      65
 73
       4
 40
33.12693378
 49
16.56346689
 74
       0
 49
-8.28173345
 74
       0
 49
0.0
 74
       0
 49
-8.28173345
 74
       0
  0
LTYPE
  5
2C
100
AcDbSymbolTableRecord
100
AcDbLinetypeTableRecord
  2
DIVIDEX2
 70
      64
  3
CADPAC LINETYPE
 72
      65
 73
       6
 40
69.01444538
 49
27.60577815
 74
       0
 49
-13.80288908
 74
       0
 49
0.0
 74
       0
 49
-13.80288908
 74
       0
 49
0.0
 74
       0
 49
-13.80288908
 74
       0
  0
LTYPE
  5
2D
100
AcDbSymbolTableRecord
100
AcDbLinetypeTableRecord
  2
DIVIDE
 70
      64
  3
CADPAC LINETYPE
 72
      65
 73
       6
 40
55.21155631
 49
22.08462252
 74
       0
 49
-11.04231126
 74
       0
 49
0.0
 74
       0
 49
-11.04231126
 74
       0
 49
0.0
 74
       0
 49
-11.04231126
 74
       0
  0
LTYPE
  5
2E
100
AcDbSymbolTableRecord
100
AcDbLinetypeTableRecord
  2
DIVIDE2
 70
      64
  3
CADPAC LINETYPE
 72
      65
 73
       6
 40
41.40866723
 49
16.56346689
 74
       0
 49
-8.28173345
 74
       0
 49
0.0
 74
       0
 49
-8.28173345
 74
       0
 49
0.0
 74
       0
 49
-8.28173345
 74
       0
  0
LTYPE
  5
2F
100
AcDbSymbolTableRecord
100
AcDbLinetypeTableRecord
  2
BORDERX2
 70
      64
  3
CADPAC LINETYPE
 72
      65
 73
       6
 40
96.62022353
 49
27.60577815
 74
       0
 49
-13.80288908
 74
       0
 49
27.60577815
 74
       0
 49
-13.80288908
 74
       0
 49
0.0
 74
       0
 49
-13.80288908
 74
       0
  0
LTYPE
  5
30
100
AcDbSymbolTableRecord
100
AcDbLinetypeTableRecord
  2
BORDER
 70
      64
  3
CADPAC LINETYPE
 72
      65
 73
       6
 40
77.29617883
 49
22.08462252
 74
       0
 49
-11.04231126
 74
       0
 49
22.08462252
 74
       0
 49
-11.04231126
 74
       0
 49
0.0
 74
       0
 49
-11.04231126
 74
       0
  0
LTYPE
  5
31
100
AcDbSymbolTableRecord
100
AcDbLinetypeTableRecord
  2
BORDER2
 70
      64
  3
CADPAC LINETYPE
 72
      65
 73
       6
 40
57.97213412
 49
16.56346689
 74
       0
 49
-8.28173345
 74
       0
 49
16.56346689
 74
       0
 49
-8.28173345
 74
       0
 49
0.0
 74
       0
 49
-8.28173345
 74
       0
  0
LTYPE
  5
32
100
AcDbSymbolTableRecord
100
AcDbLinetypeTableRecord
  2
PHANTOMX2
 70
      64
  3
CADPAC LINETYPE
 72
      65
 73
       6
 40
82.81733446
 49
27.60577815
 74
       0
 49
-11.04231126
 74
       0
 49
11.04231126
 74
       0
 49
-11.04231126
 74
       0
 49
11.04231126
 74
       0
 49
-11.04231126
 74
       0
  0
LTYPE
  5
33
100
AcDbSymbolTableRecord
100
AcDbLinetypeTableRecord
  2
PHANTOM
 70
      64
  3
CADPAC LINETYPE
 72
      65
 73
       6
 40
68.46232982
 49
22.08462252
 74
       0
 49
-11.04231126
 74
       0
 49
6.62538676
 74
       0
 49
-11.04231126
 74
       0
 49
6.62538676
 74
       0
 49
-11.04231126
 74
       0
  0
LTYPE
  5
34
100
AcDbSymbolTableRecord
100
AcDbLinetypeTableRecord
  2
PHANTOM2
 70
      64
  3
CADPAC LINETYPE
 72
      65
 73
       6
 40
58.52424968
 49
16.56346689
 74
       0
 49
-11.04231126
 74
       0
 49
4.4169245
 74
       0
 49
-11.04231126
 74
       0
 49
4.4169245
 74
       0
 49
-11.04231126
 74
       0
  0
LTYPE
  5
35
100
AcDbSymbolTableRecord
100
AcDbLinetypeTableRecord
  2
ACAD_ISO06W100
 70
      64
  3
CADPAC LINETYPE
 72
      65
 73
       8
 40
74.53560101
 49
27.60577815
 74
       0
 49
-13.80288908
 74
       0
 49
0.0
 74
       0
 49
-11.04231126
 74
       0
 49
0.0
 74
       0
 49
-11.04231126
 74
       0
 49
0.0
 74
       0
 49
-11.04231126
 74
       0
  0
LTYPE
  5
36
100
AcDbSymbolTableRecord
100
AcDbLinetypeTableRecord
  2
ACAD_ISO13W100
 70
      64
  3
CADPAC LINETYPE
 72
      65
 73
       8
 40
88.33849009
 49
22.08462252
 74
       0
 49
-11.04231126
 74
       0
 49
22.08462252
 74
       0
 49
-11.04231126
 74
       0
 49
0.0
 74
       0
 49
-11.04231126
 74
       0
 49
0.0
 74
       0
 49
-11.04231126
 74
       0
  0
LTYPE
  5
37
100
AcDbSymbolTableRecord
100
AcDbLinetypeTableRecord
  2
ACAD_ISO14W100
 70
      64
  3
CADPAC LINETYPE
 72
      65
 73
       8
 40
66.25386757
 49
22.08462252
 74
       0
 49
-11.04231126
 74
       0
 49
0.0
 74
       0
 49
-11.04231126
 74
       0
 49
0.0
 74
       0
 49
-11.04231126
 74
       0
 49
0.0
 74
       0
 49
-11.04231126
 74
       0
  0
ENDTAB
  0
TABLE
  2
LAYER
  5
2
100
AcDbSymbolTable
 70
       8
  0
LAYER
  5
14
100
AcDbSymbolTableRecord
100
AcDbLayerTableRecord
  2
0
 70
       0
 62
       7
  6
CONTINUOUS
  0
LAYER
  5
38
100
AcDbSymbolTableRecord
100
AcDbLayerTableRecord
  2
SLD-0_4
 70
       0
 62
       7
  6
CONTINUOUS
  0
LAYER
  5
39
100
AcDbSymbolTableRecord
100
AcDbLayerTableRecord
  2
SLD-0_3
 70
       0
 62
       7
  6
CONTINUOUS
  0
LAYER
  5
3A
100
AcDbSymbolTableRecord
100
AcDbLayerTableRecord
  2
SLD-0_2
 70
       0
 62
       7
  6
CONTINUOUS
  0
LAYER
  5
3B
100
AcDbSymbolTableRecord
100
AcDbLayerTableRecord
  2
SLD-0_1
 70
       0
 62
       7
  6
CONTINUOUS
  0
LAYER
  5
3C
100
AcDbSymbolTableRecord
100
AcDbLayerTableRecord
  2
SLD-0
 70
       0
 62
       7
  6
CONTINUOUS
  0
LAYER
  5
3D
100
AcDbSymbolTableRecord
100
AcDbLayerTableRecord
  2
SLD-0_0
 70
       0
 62
       7
  6
CONTINUOUS
  0
LAYER
  5
3E
100
AcDbSymbolTableRecord
100
AcDbLayerTableRecord
  2
レイヤー_1
 70
       0
 62
       7
  6
CONTINUOUS
  0
ENDTAB
  0
TABLE
  2
STYLE
  5
3
100
AcDbSymbolTable
 70
       1
  0
STYLE
  5
17
100
AcDbSymbolTableRecord
100
AcDbTextStyleTableRecord
  2
STANDARD
 70
       0
 40
0.0
 41
1.0
 50
0.0
 71
       0
 42
5.0
  3
txt.shx
  4
bigfont.shx
  0
ENDTAB
  0
TABLE
  2
VIEW
  5
5
100
AcDbSymbolTable
 70
       1
  0
VIEW
  5
3F
100
AcDbSymbolTableRecord
100
AcDbViewTableRecord
  2
QQQQ
 70
       0
 40
832.61912373
 10
0.0
 20
-1.25
 41
428.01444546
 11
0.0
 21
0.0
 31
1.0
 12
100.0
 22
100.0
 32
0.0
 42
50.0
 43
0.0
 44
0.0
 50
0.0
 71
       0
  0
ENDTAB
  0
TABLE
  2
UCS
  5
6
100
AcDbSymbolTable
 70
       0
  0
ENDTAB
  0
TABLE
  2
APPID
  5
8
100
AcDbSymbolTable
 70
       1
  0
APPID
  5
16
100
AcDbSymbolTableRecord
100
AcDbRegAppTableRecord
  2
ACAD
 70
       0
  0
ENDTAB
  0
TABLE
  2
DIMSTYLE
  5
9
100
AcDbSymbolTable
 70
       1
  0
DIMSTYLE
105
18
100
AcDbSymbolTableRecord
100
AcDbDimStyleTableRecord
  2
STANDARD
 70
       0
  3

  4

  5

  6

  7

 40
1.0
 41
0.18
 42
0.0625
 43
0.38
 44
0.18
 45
0.0
 46
0.0
 47
0.0
 48
0.0
 71
       0
 72
       0
 73
       1
 74
       1
 75
       0
 76
       0
 77
       0
 78
       0
140
0.18
141
0.09
142
0.0
143
25.4
144
1.0
145
0.0
146
1.0
147
0.09
170
       0
171
       2
172
       0
173
       0
174
       0
175
       0
176
       0
177
       0
178
       0
270
       2
271
       4
272
       4
273
       2
274
       2
275
       0
280
       0
281
       0
282
       0
283
       1
284
       0
285
       0
286
       0
287
       0
288
       0
340
17
  0
ENDTAB
  0
TABLE
  2
BLOCK_RECORD
  5
1
100
AcDbSymbolTable
 70
       0
  0
BLOCK_RECORD
  5
A
100
AcDbSymbolTableRecord
100
AcDbBlockTableRecord
  2
*MODEL_SPACE
  0
BLOCK_RECORD
  5
B
100
AcDbSymbolTableRecord
100
AcDbBlockTableRecord
  2
*PAPER_SPACE
  0
ENDTAB
  0
ENDSEC
  0
SECTION
  2
BLOCKS
  0
BLOCK
  5
D
100
AcDbEntity
  8
0
100
AcDbBlockBegin
  2
*MODEL_SPACE
 70
       0
 10
0.0
 20
0.0
 30
0.0
  3
*MODEL_SPACE
  1

  0
ENDBLK
  5
E
100
AcDbEntity
  8
0
100
AcDbBlockEnd
  0
BLOCK
  5
F
100
AcDbEntity
 67
       1
  8
0
100
AcDbBlockBegin
  2
*PAPER_SPACE
 70
       0
 10
0.0
 20
0.0
 30
0.0
  3
*PAPER_SPACE
  1

  0
ENDBLK
  5
10
100
AcDbEntity
 67
       1
  8
0
100
AcDbBlockEnd
  0
ENDSEC
  0
SECTION
  2
ENTITIES
  0
LINE
  5
40
100
AcDbEntity
  8
SLD-0_4
  6
CONTINUOUS
 62
       7
100
AcDbLine
 10
78.66517374
 20
-179.11395325
 30
0.0
 11
78.66517374
 21
-184.08227671
 31
0.0
  0
LINE
  5
41
100
AcDbEntity
  8
SLD-0_4
  6
CONTINUOUS
 62
       7
100
AcDbLine
 10
84.70835257
 20
-205.84088362
 30
0.0
 11
84.70142241
 21
-205.81633697
 31
0.0
  0
LINE
  5
42
100
AcDbEntity
  8
SLD-0_4
  6
CONTINUOUS
 62
       7
100
AcDbLine
 10
16.65182296
 20
-168.081904
 30
0.0
 11
16.65182296
 21
-178.83224941
 31
0.0
  0
LINE
  5
43
100
AcDbEntity
  8
SLD-0_4
  6
CONTINUOUS
 62
       7
100
AcDbLine
 10
33.87223675
 20
-178.83224941
 30
0.0
 11
33.87223675
 21
-168.081904
 31
0.0
  0
LINE
  5
44
100
AcDbEntity
  8
SLD-0_4
  6
CONTINUOUS
 62
       7
100
AcDbLine
 10
85.70254339
 20
-200.33474299
 30
0.0
 11
85.71874342
 21
-200.52722585
 31
0.0
  0
LINE
  5
45
100
AcDbEntity
  8
SLD-0_4
  6
CONTINUOUS
 62
       7
100
AcDbLine
 10
59.6967775
 20
-178.83224941
 30
0.0
 11
59.6967775
 21
-168.081904
 31
0.0
  0
LINE
  5
46
100
AcDbEntity
  8
SLD-0_4
  6
CONTINUOUS
 62
       7
100
AcDbLine
 10
183.67169478
 20
-170.58156989
 30
0.0
 11
191.17169478
 21
-170.58156989
 31
0.0
  0
LINE
  5
47
100
AcDbEntity
  8
SLD-0_4
  6
CONTINUOUS
 62
       7
100
AcDbLine
 10
87.45169886
 20
-199.93369091
 30
0.0
 11
84.41375603
 21
-199.93369091
 31
0.0
  0
LINE
  5
48
100
AcDbEntity
  8
SLD-0_4
  6
CONTINUOUS
 62
       7
100
AcDbLine
 10
183.67169478
 20
-163.58156989
 30
0.0
 11
191.17169478
 21
-163.58156989
 31
0.0
  0
LINE
  5
49
100
AcDbEntity
  8
SLD-0_4
  6
CONTINUOUS
 62
       7
100
AcDbLine
 10
183.67169478
 20
-113.58156989
 30
0.0
 11
191.17169478
 21
-113.58156989
 31
0.0
  0
LINE
  5
4A
100
AcDbEntity
  8
SLD-0_4
  6
CONTINUOUS
 62
       7
100
AcDbLine
 10
85.8278487
 20
-203.50153851
 30
0.0
 11
85.81292341
 21
-203.91561504
 31
0.0
  0
LINE
  5
4B
100
AcDbEntity
  8
SLD-0_4
  6
CONTINUOUS
 62
       7
100
AcDbLine
 10
85.61463227
 20
-205.27006123
 30
0.0
 11
85.5217448
 21
-205.48753487
 31
0.0
  0
LINE
  5
4C
100
AcDbEntity
  8
SLD-0_4
  6
CONTINUOUS
 62
       7
100
AcDbLine
 10
85.74496272
 20
-204.67147929
 30
0.0
 11
85.68846043
 21
-204.99499784
 31
0.0
  0
LINE
  5
4D
100
AcDbEntity
  8
SLD-0_4
  6
CONTINUOUS
 62
       7
100
AcDbLine
 10
191.17169478
 20
-163.58156989
 30
0.0
 11
193.67169478
 21
-161.08156989
 31
0.0
  0
LINE
  5
4E
100
AcDbEntity
  8
SLD-0_4
  6
CONTINUOUS
 62
       7
100
AcDbLine
 10
85.82825634
 20
-202.64676957
 30
0.0
 11
85.83238186
 21
-203.07554516
 31
0.0
  0
LINE
  5
4F
100
AcDbEntity
  8
SLD-0_4
  6
CONTINUOUS
 62
       7
100
AcDbLine
 10
68.91497829
 20
-179.11395325
 30
0.0
 11
75.16414222
 21
-179.11395325
 31
0.0
  0
LINE
  5
50
100
AcDbEntity
  8
SLD-0_4
  6
CONTINUOUS
 62
       7
100
AcDbLine
 10
119.96214582
 20
-178.83224941
 30
0.0
 11
119.96214582
 21
-168.081904
 31
0.0
  0
LINE
  5
51
100
AcDbEntity
  8
SLD-0_4
  6
CONTINUOUS
 62
       7
100
AcDbLine
 10
107.04632882
 20
-189.5815815
 30
0.0
 11
107.04632882
 21
-178.83224941
 31
0.0
  0
LINE
  5
52
100
AcDbEntity
  8
SLD-0_4
  6
CONTINUOUS
 62
       7
100
AcDbLine
 10
193.67169478
 20
-161.08156989
 30
0.0
 11
193.67169478
 21
-123.08156989
 31
0.0
  0
LINE
  5
53
100
AcDbEntity
  8
SLD-0_4
  6
CONTINUOUS
 62
       7
100
AcDbLine
 10
193.67169478
 20
-111.08156989
 30
0.0
 11
193.67169478
 21
-97.08156989
 31
0.0
  0
LINE
  5
54
100
AcDbEntity
  8
SLD-0_4
  6
CONTINUOUS
 62
       7
100
AcDbLine
 10
106.96004011
 20
-115.99990801
 30
0.0
 11
106.96004011
 21
-105.24671555
 31
0.0
  0
LINE
  5
55
100
AcDbEntity
  8
SLD-0_4
  6
CONTINUOUS
 62
       7
100
AcDbLine
 10
50.99865033
 20
-105.24671555
 30
0.0
 11
50.99865033
 21
-94.49926528
 31
0.0
  0
LINE
  5
56
100
AcDbEntity
  8
SLD-0_4
  6
CONTINUOUS
 62
       7
100
AcDbLine
 10
150.00726302
 20
-115.99990801
 30
0.0
 11
150.00726302
 21
-105.24671555
 31
0.0
  0
LINE
  5
57
100
AcDbEntity
  8
SLD-0_4
  6
CONTINUOUS
 62
       7
100
AcDbLine
 10
89.74115095
 20
-115.99990801
 30
0.0
 11
89.74115095
 21
-105.24671555
 31
0.0
  0
LINE
  5
58
100
AcDbEntity
  8
SLD-0_4
  6
CONTINUOUS
 62
       7
100
AcDbLine
 10
94.04395918
 20
-105.24671555
 30
0.0
 11
94.04395918
 21
-94.49926528
 31
0.0
  0
LINE
  5
59
100
AcDbEntity
  8
SLD-0_4
  6
CONTINUOUS
 62
       7
100
AcDbLine
 10
124.17892928
 20
-115.99990801
 30
0.0
 11
124.17892928
 21
-105.24671555
 31
0.0
  0
LINE
  5
5A
100
AcDbEntity
  8
SLD-0_4
  6
CONTINUOUS
 62
       7
100
AcDbLine
 10
63.91281721
 20
-115.99990801
 30
0.0
 11
63.91281721
 21
-105.24671555
 31
0.0
  0
LINE
  5
5B
100
AcDbEntity
  8
SLD-0_4
  6
CONTINUOUS
 62
       7
100
AcDbLine
 10
158.61862166
 20
-105.24671555
 30
0.0
 11
20.8655943
 21
-105.24671555
 31
0.0
  0
LINE
  5
5C
100
AcDbEntity
  8
SLD-0_4
  6
CONTINUOUS
 62
       7
100
AcDbLine
 10
132.78837386
 20
-115.99990801
 30
0.0
 11
132.78837386
 21
-105.24671555
 31
0.0
  0
LINE
  5
5D
100
AcDbEntity
  8
SLD-0_4
  6
CONTINUOUS
 62
       7
100
AcDbLine
 10
16.56087201
 20
-115.99990801
 30
0.0
 11
16.56087201
 21
-105.24671555
 31
0.0
  0
LINE
  5
5E
100
AcDbEntity
  8
SLD-0_4
  6
CONTINUOUS
 62
       7
100
AcDbLine
 10
55.30241559
 20
-115.99990801
 30
0.0
 11
55.30241559
 21
-105.24671555
 31
0.0
  0
LINE
  5
5F
100
AcDbEntity
  8
SLD-0_4
  6
CONTINUOUS
 62
       7
100
AcDbLine
 10
158.61862166
 20
-115.99990801
 30
0.0
 11
158.61862166
 21
-105.24671555
 31
0.0
  0
LINE
  5
60
100
AcDbEntity
  8
SLD-0_4
  6
CONTINUOUS
 62
       7
100
AcDbLine
 10
193.67169478
 20
-97.08156989
 30
0.0
 11
191.17169478
 21
-94.58156989
 31
0.0
  0
LINE
  5
61
100
AcDbEntity
  8
SLD-0_4
  6
CONTINUOUS
 62
       7
100
AcDbLine
 10
84.41375603
 20
-206.56386435
 30
0.0
 11
69.41555993
 21
-206.56386435
 31
0.0
  0
LINE
  5
62
100
AcDbEntity
  8
SLD-0_4
  6
CONTINUOUS
 62
       7
100
AcDbLine
 10
84.80738905
 20
-205.99739508
 30
0.0
 11
84.77734448
 21
-205.96981378
 31
0.0
  0
LINE
  5
63
100
AcDbEntity
  8
SLD-0_4
  6
CONTINUOUS
 62
       7
100
AcDbLine
 10
98.43814857
 20
-189.5815815
 30
0.0
 11
98.43814857
 21
-178.83224941
 31
0.0
  0
LINE
  5
64
100
AcDbEntity
  8
SLD-0_4
  6
CONTINUOUS
 62
       7
100
AcDbLine
 10
84.73360277
 20
-205.90413484
 30
0.0
 11
84.71891411
 21
-205.87097205
 31
0.0
  0
LINE
  5
65
100
AcDbEntity
  8
SLD-0_4
  6
CONTINUOUS
 62
       7
100
AcDbLine
 10
191.17169478
 20
-189.58156989
 30
0.0
 11
193.67169478
 21
-187.08156989
 31
0.0
  0
LINE
  5
66
100
AcDbEntity
  8
SLD-0_4
  6
CONTINUOUS
 62
       7
100
AcDbLine
 10
25.26202985
 20
-178.83224941
 30
0.0
 11
25.26202985
 21
-168.081904
 31
0.0
  0
LINE
  5
67
100
AcDbEntity
  8
SLD-0_4
  6
CONTINUOUS
 62
       7
100
AcDbLine
 10
84.70142241
 20
-205.81633697
 30
0.0
 11
84.69762787
 21
-205.79979954
 31
0.0
  0
LINE
  5
68
100
AcDbEntity
  8
SLD-0_4
  6
CONTINUOUS
 62
       7
100
AcDbLine
 10
85.52435821
 20
-178.83224941
 30
0.0
 11
85.52435821
 21
-168.081904
 31
0.0
  0
LINE
  5
69
100
AcDbEntity
  8
SLD-0_4
  6
CONTINUOUS
 62
       7
100
AcDbLine
 10
94.13456511
 20
-178.83224941
 30
0.0
 11
94.13456511
 21
-168.081904
 31
0.0
  0
LINE
  5
6A
100
AcDbEntity
  8
SLD-0_4
  6
CONTINUOUS
 62
       7
100
AcDbLine
 10
20.95743307
 20
-178.83224941
 30
0.0
 11
20.95743307
 21
-189.5815815
 31
0.0
  0
LINE
  5
6B
100
AcDbEntity
  8
SLD-0_4
  6
CONTINUOUS
 62
       7
100
AcDbLine
 10
85.80096301
 20
-201.81741002
 30
0.0
 11
85.81720558
 21
-202.22434633
 31
0.0
  0
LINE
  5
6C
100
AcDbEntity
  8
SLD-0_4
  6
CONTINUOUS
 62
       7
100
AcDbLine
 10
85.81292341
 20
-203.91561504
 30
0.0
 11
85.78587256
 21
-204.30864016
 31
0.0
  0
LINE
  5
6D
100
AcDbEntity
  8
SLD-0_4
  6
CONTINUOUS
 62
       7
100
AcDbLine
 10
132.87390954
 20
-189.5815815
 30
0.0
 11
132.87390954
 21
-178.83224941
 31
0.0
  0
LINE
  5
6E
100
AcDbEntity
  8
SLD-0_4
  6
CONTINUOUS
 62
       7
100
AcDbLine
 10
137.17850632
 20
-178.83224941
 30
0.0
 11
137.17850632
 21
-168.081904
 31
0.0
  0
LINE
  5
6F
100
AcDbEntity
  8
SLD-0_4
  6
CONTINUOUS
 62
       7
100
AcDbLine
 10
85.3093541
 20
-205.76614894
 30
0.0
 11
85.21654727
 21
-205.86201841
 31
0.0
  0
LINE
  5
70
100
AcDbEntity
  8
SLD-0_4
  6
CONTINUOUS
 62
       7
100
AcDbLine
 10
141.48310311
 20
-189.5815815
 30
0.0
 11
141.48310311
 21
-178.83224941
 31
0.0
  0
LINE
  5
71
100
AcDbEntity
  8
SLD-0_4
  6
CONTINUOUS
 62
       7
100
AcDbLine
 10
154.39689347
 20
-168.081904
 30
0.0
 11
16.65182296
 21
-168.081904
 31
0.0
  0
LINE
  5
72
100
AcDbEntity
  8
SLD-0_4
  6
CONTINUOUS
 62
       7
100
AcDbLine
 10
85.7598362
 20
-201.08653655
 30
0.0
 11
85.78126207
 21
-201.43509524
 31
0.0
  0
LINE
  5
73
100
AcDbEntity
  8
SLD-0_4
  6
CONTINUOUS
 62
       7
100
AcDbLine
 10
16.65182296
 20
-178.83224941
 30
0.0
 11
154.39689347
 21
-178.83224941
 31
0.0
  0
LINE
  5
74
100
AcDbEntity
  8
SLD-0_4
  6
CONTINUOUS
 62
       7
100
AcDbLine
 10
84.41375603
 20
-184.08227671
 30
0.0
 11
84.41375603
 21
-206.56386435
 31
0.0
  0
LINE
  5
75
100
AcDbEntity
  8
SLD-0_4
  6
CONTINUOUS
 62
       7
100
AcDbLine
 10
84.41375603
 20
-189.47619589
 30
0.0
 11
87.45169886
 21
-189.47619589
 31
0.0
  0
LINE
  5
76
100
AcDbEntity
  8
SLD-0_4
  6
CONTINUOUS
 62
       7
100
AcDbLine
 10
85.71874342
 20
-200.52722585
 30
0.0
 11
85.73841884
 21
-200.78086856
 31
0.0
  0
LINE
  5
77
100
AcDbEntity
  8
SLD-0_4
  6
CONTINUOUS
 62
       7
100
AcDbLine
 10
25.16935956
 20
-105.24671555
 30
0.0
 11
25.16935956
 21
-94.49926528
 31
0.0
  0
LINE
  5
78
100
AcDbEntity
  8
SLD-0_4
  6
CONTINUOUS
 62
       7
100
AcDbLine
 10
141.3997325
 20
-115.99990801
 30
0.0
 11
141.3997325
 21
-105.24671555
 31
0.0
  0
LINE
  5
79
100
AcDbEntity
  8
SLD-0_4
  6
CONTINUOUS
 62
       7
100
AcDbLine
 10
76.82507002
 20
-105.24671555
 30
0.0
 11
76.82507002
 21
-94.49926528
 31
0.0
  0
LINE
  5
7A
100
AcDbEntity
  8
SLD-0_4
  6
CONTINUOUS
 62
       7
100
AcDbLine
 10
115.56757064
 20
-115.99990801
 30
0.0
 11
115.56757064
 21
-105.24671555
 31
0.0
  0
LINE
  5
7B
100
AcDbEntity
  8
SLD-0_4
  6
CONTINUOUS
 62
       7
100
AcDbLine
 10
59.60618085
 20
-105.24671555
 30
0.0
 11
59.60618085
 21
-94.49926528
 31
0.0
  0
LINE
  5
7C
100
AcDbEntity
  8
SLD-0_4
  6
CONTINUOUS
 62
       7
100
AcDbLine
 10
102.65340376
 20
-105.24671555
 30
0.0
 11
102.65340376
 21
-94.49926528
 31
0.0
  0
LINE
  5
7D
100
AcDbEntity
  8
SLD-0_4
  6
CONTINUOUS
 62
       7
100
AcDbLine
 10
42.38824872
 20
-105.24671555
 30
0.0
 11
42.38824872
 21
-94.49926528
 31
0.0
  0
LINE
  5
7E
100
AcDbEntity
  8
SLD-0_4
  6
CONTINUOUS
 62
       7
100
AcDbLine
 10
20.8655943
 20
-105.24671555
 30
0.0
 11
20.8655943
 21
-115.99990801
 31
0.0
  0
LINE
  5
7F
100
AcDbEntity
  8
SLD-0_4
  6
CONTINUOUS
 62
       7
100
AcDbLine
 10
98.34772444
 20
-115.99990801
 30
0.0
 11
98.34772444
 21
-105.24671555
 31
0.0
  0
LINE
  5
80
100
AcDbEntity
  8
SLD-0_4
  6
CONTINUOUS
 62
       7
100
AcDbLine
 10
29.47503888
 20
-115.99990801
 30
0.0
 11
29.47503888
 21
-105.24671555
 31
0.0
  0
LINE
  5
81
100
AcDbEntity
  8
SLD-0_4
  6
CONTINUOUS
 62
       7
100
AcDbLine
 10
158.70149025
 20
-189.5815815
 30
0.0
 11
158.70149025
 21
-178.83224941
 31
0.0
  0
LINE
  5
82
100
AcDbEntity
  8
SLD-0_4
  6
CONTINUOUS
 62
       7
100
AcDbLine
 10
69.41555993
 20
-206.56386435
 30
0.0
 11
69.41555993
 21
-184.08227671
 31
0.0
  0
LINE
  5
83
100
AcDbEntity
  8
SLD-0_4
  6
CONTINUOUS
 62
       7
100
AcDbLine
 10
68.30698439
 20
-178.83224941
 30
0.0
 11
68.30698439
 21
-168.081904
 31
0.0
  0
LINE
  5
84
100
AcDbEntity
  8
SLD-0_4
  6
CONTINUOUS
 62
       7
100
AcDbLine
 10
84.71891411
 20
-205.87097205
 30
0.0
 11
84.70835257
 21
-205.84088362
 31
0.0
  0
LINE
  5
85
100
AcDbEntity
  8
SLD-0_4
  6
CONTINUOUS
 62
       7
100
AcDbLine
 10
-86.32830522
 20
-187.08156989
 30
0.0
 11
-86.32830522
 21
-173.08156989
 31
0.0
  0
LINE
  5
86
100
AcDbEntity
  8
SLD-0_4
  6
CONTINUOUS
 62
       7
100
AcDbLine
 10
-83.82830522
 20
-113.58156989
 30
0.0
 11
-86.32830522
 21
-111.08156989
 31
0.0
  0
LINE
  5
87
100
AcDbEntity
  8
SLD-0_4
  6
CONTINUOUS
 62
       7
100
AcDbLine
 10
-76.32830522
 20
-120.58156989
 30
0.0
 11
-83.82830522
 21
-120.58156989
 31
0.0
  0
LINE
  5
88
100
AcDbEntity
  8
SLD-0_4
  6
CONTINUOUS
 62
       7
100
AcDbLine
 10
-83.82830522
 20
-170.58156989
 30
0.0
 11
-86.32830522
 21
-173.08156989
 31
0.0
  0
LINE
  5
89
100
AcDbEntity
  8
SLD-0_4
  6
CONTINUOUS
 62
       7
100
AcDbLine
 10
-86.32830522
 20
-161.08156989
 30
0.0
 11
-86.32830522
 21
-123.08156989
 31
0.0
  0
LINE
  5
8A
100
AcDbEntity
  8
SLD-0_4
  6
CONTINUOUS
 62
       7
100
AcDbLine
 10
-76.32830522
 20
-113.58156989
 30
0.0
 11
-83.82830522
 21
-113.58156989
 31
0.0
  0
LINE
  5
8B
100
AcDbEntity
  8
SLD-0_4
  6
CONTINUOUS
 62
       7
100
AcDbLine
 10
-76.32830522
 20
-170.58156989
 30
0.0
 11
-83.82830522
 21
-170.58156989
 31
0.0
  0
LINE
  5
8C
100
AcDbEntity
  8
SLD-0_4
  6
CONTINUOUS
 62
       7
100
AcDbLine
 10
150.09432333
 20
-189.5815815
 30
0.0
 11
150.09432333
 21
-178.83224941
 31
0.0
  0
LINE
  5
8D
100
AcDbEntity
  8
SLD-0_4
  6
CONTINUOUS
 62
       7
100
AcDbLine
 10
158.70149025
 20
-168.081904
 30
0.0
 11
158.70149025
 21
-178.83224941
 31
0.0
  0
LINE
  5
8E
100
AcDbEntity
  8
SLD-0_4
  6
CONTINUOUS
 62
       7
100
AcDbLine
 10
69.41555993
 20
-184.08227671
 30
0.0
 11
84.41375603
 21
-184.08227671
 31
0.0
  0
LINE
  5
8F
100
AcDbEntity
  8
SLD-0_4
  6
CONTINUOUS
 62
       7
100
AcDbLine
 10
46.78501378
 20
-189.5815815
 30
0.0
 11
46.78501378
 21
-178.83224941
 31
0.0
  0
LINE
  5
90
100
AcDbEntity
  8
SLD-0_4
  6
CONTINUOUS
 62
       7
100
AcDbLine
 10
85.21654727
 20
-205.86201841
 30
0.0
 11
85.13332086
 21
-205.93382054
 31
0.0
  0
LINE
  5
91
100
AcDbEntity
  8
SLD-0_4
  6
CONTINUOUS
 62
       7
100
AcDbLine
 10
85.69155218
 20
-200.21255458
 30
0.0
 11
85.70254339
 21
-200.33474299
 31
0.0
  0
LINE
  5
92
100
AcDbEntity
  8
SLD-0_4
  6
CONTINUOUS
 62
       7
100
AcDbLine
 10
51.08859725
 20
-178.83224941
 30
0.0
 11
51.08859725
 21
-168.081904
 31
0.0
  0
LINE
  5
93
100
AcDbEntity
  8
SLD-0_4
  6
CONTINUOUS
 62
       7
100
AcDbLine
 10
29.56561332
 20
-189.5815815
 30
0.0
 11
29.56561332
 21
-178.83224941
 31
0.0
  0
LINE
  5
94
100
AcDbEntity
  8
SLD-0_4
  6
CONTINUOUS
 62
       7
100
AcDbLine
 10
76.91415132
 20
-178.83224941
 30
0.0
 11
76.91415132
 21
-168.081904
 31
0.0
  0
LINE
  5
95
100
AcDbEntity
  8
SLD-0_4
  6
CONTINUOUS
 62
       7
100
AcDbLine
 10
85.73841884
 20
-200.78086856
 30
0.0
 11
85.7598362
 21
-201.08653655
 31
0.0
  0
LINE
  5
96
100
AcDbEntity
  8
SLD-0_4
  6
CONTINUOUS
 62
       7
100
AcDbLine
 10
102.74071871
 20
-178.83224941
 30
0.0
 11
102.74071871
 21
-168.081904
 31
0.0
  0
LINE
  5
97
100
AcDbEntity
  8
SLD-0_4
  6
CONTINUOUS
 62
       7
100
AcDbLine
 10
84.99362629
 20
-206.01509248
 30
0.0
 11
84.93616662
 21
-206.02949715
 31
0.0
  0
LINE
  5
98
100
AcDbEntity
  8
SLD-0_4
  6
CONTINUOUS
 62
       7
100
AcDbLine
 10
158.70149025
 20
-178.83224941
 30
0.0
 11
20.95743307
 21
-178.83224941
 31
0.0
  0
LINE
  5
99
100
AcDbEntity
  8
SLD-0_4
  6
CONTINUOUS
 62
       7
100
AcDbLine
 10
16.65182296
 20
-189.5815815
 30
0.0
 11
16.65182296
 21
-178.83224941
 31
0.0
  0
LINE
  5
9A
100
AcDbEntity
  8
SLD-0_4
  6
CONTINUOUS
 62
       7
100
AcDbLine
 10
85.41223712
 20
-205.6437447
 30
0.0
 11
85.3093541
 21
-205.76614894
 31
0.0
  0
LINE
  5
9B
100
AcDbEntity
  8
SLD-0_4
  6
CONTINUOUS
 62
       7
100
AcDbLine
 10
85.68750324
 20
-200.1697952
 30
0.0
 11
85.69155218
 21
-200.21255458
 31
0.0
  0
LINE
  5
9C
100
AcDbEntity
  8
SLD-0_4
  6
CONTINUOUS
 62
       7
100
AcDbLine
 10
84.84354376
 20
-206.01818102
 30
0.0
 11
84.80738905
 21
-205.99739508
 31
0.0
  0
LINE
  5
9D
100
AcDbEntity
  8
SLD-0_4
  6
CONTINUOUS
 62
       7
100
AcDbLine
 10
89.82996832
 20
-189.5815815
 30
0.0
 11
89.82996832
 21
-178.83224941
 31
0.0
  0
LINE
  5
9E
100
AcDbEntity
  8
SLD-0_4
  6
CONTINUOUS
 62
       7
100
AcDbLine
 10
85.78587256
 20
-204.30864016
 30
0.0
 11
85.74496272
 21
-204.67147929
 31
0.0
  0
LINE
  5
9F
100
AcDbEntity
  8
SLD-0_4
  6
CONTINUOUS
 62
       7
100
AcDbLine
 10
55.39319403
 20
-189.5815815
 30
0.0
 11
55.39319403
 21
-178.83224941
 31
0.0
  0
LINE
  5
A0
100
AcDbEntity
  8
SLD-0_4
  6
CONTINUOUS
 62
       7
100
AcDbLine
 10
115.65754904
 20
-189.5815815
 30
0.0
 11
115.65754904
 21
-178.83224941
 31
0.0
  0
LINE
  5
A1
100
AcDbEntity
  8
SLD-0_4
  6
CONTINUOUS
 62
       7
100
AcDbLine
 10
191.17169478
 20
-170.58156989
 30
0.0
 11
193.67169478
 21
-173.08156989
 31
0.0
  0
LINE
  5
A2
100
AcDbEntity
  8
SLD-0_4
  6
CONTINUOUS
 62
       7
100
AcDbLine
 10
137.09118209
 20
-105.24671555
 30
0.0
 11
137.09118209
 21
-94.49926528
 31
0.0
  0
LINE
  5
A3
100
AcDbEntity
  8
SLD-0_4
  6
CONTINUOUS
 62
       7
100
AcDbLine
 10
191.17169478
 20
-120.58156989
 30
0.0
 11
193.67169478
 21
-123.08156989
 31
0.0
  0
LINE
  5
A4
100
AcDbEntity
  8
SLD-0_4
  6
CONTINUOUS
 62
       7
100
AcDbLine
 10
20.8655943
 20
-115.99990801
 30
0.0
 11
16.56087201
 21
-115.99990801
 31
0.0
  0
LINE
  5
A5
100
AcDbEntity
  8
SLD-0_4
  6
CONTINUOUS
 62
       7
100
AcDbLine
 10
119.87229293
 20
-105.24671555
 30
0.0
 11
119.87229293
 21
-94.49926528
 31
0.0
  0
LINE
  5
A6
100
AcDbEntity
  8
SLD-0_4
  6
CONTINUOUS
 62
       7
100
AcDbLine
 10
16.56087201
 20
-94.49926528
 30
0.0
 11
16.56087201
 21
-105.24671555
 31
0.0
  0
LINE
  5
A7
100
AcDbEntity
  8
SLD-0_4
  6
CONTINUOUS
 62
       7
100
AcDbLine
 10
16.56087201
 20
-105.24671555
 30
0.0
 11
154.31198531
 21
-105.24671555
 31
0.0
  0
LINE
  5
A8
100
AcDbEntity
  8
SLD-0_4
  6
CONTINUOUS
 62
       7
100
AcDbLine
 10
38.08352643
 20
-115.99990801
 30
0.0
 11
38.08352643
 21
-105.24671555
 31
0.0
  0
LINE
  5
A9
100
AcDbEntity
  8
SLD-0_4
  6
CONTINUOUS
 62
       7
100
AcDbLine
 10
158.61862166
 20
-94.49926528
 30
0.0
 11
158.61862166
 21
-105.24671555
 31
0.0
  0
LINE
  5
AA
100
AcDbEntity
  8
SLD-0_4
  6
CONTINUOUS
 62
       7
100
AcDbLine
 10
154.31198531
 20
-105.24671555
 30
0.0
 11
154.31198531
 21
-94.49926528
 31
0.0
  0
LINE
  5
AB
100
AcDbEntity
  8
SLD-0_4
  6
CONTINUOUS
 62
       7
100
AcDbLine
 10
183.67169478
 20
-120.58156989
 30
0.0
 11
191.17169478
 21
-120.58156989
 31
0.0
  0
LINE
  5
AC
100
AcDbEntity
  8
SLD-0_4
  6
CONTINUOUS
 62
       7
100
AcDbLine
 10
85.43355757
 20
-105.24671555
 30
0.0
 11
85.43355757
 21
-94.49926528
 31
0.0
  0
LINE
  5
AD
100
AcDbEntity
  8
SLD-0_4
  6
CONTINUOUS
 62
       7
100
AcDbLine
 10
33.77976117
 20
-105.24671555
 30
0.0
 11
33.77976117
 21
-94.49926528
 31
0.0
  0
LINE
  5
AE
100
AcDbEntity
  8
SLD-0_4
  6
CONTINUOUS
 62
       7
100
AcDbLine
 10
84.77734448
 20
-205.96981378
 30
0.0
 11
84.75291431
 21
-205.93790456
 31
0.0
  0
LINE
  5
AF
100
AcDbEntity
  8
SLD-0_4
  6
CONTINUOUS
 62
       7
100
AcDbLine
 10
87.45169886
 20
-189.47619589
 30
0.0
 11
87.45169886
 21
-199.93369091
 31
0.0
  0
LINE
  5
B0
100
AcDbEntity
  8
SLD-0_4
  6
CONTINUOUS
 62
       7
100
AcDbLine
 10
191.17169478
 20
-113.58156989
 30
0.0
 11
193.67169478
 21
-111.08156989
 31
0.0
  0
LINE
  5
B1
100
AcDbEntity
  8
SLD-0_4
  6
CONTINUOUS
 62
       7
100
AcDbLine
 10
85.83238186
 20
-203.07554516
 30
0.0
 11
85.8278487
 21
-203.50153851
 31
0.0
  0
LINE
  5
B2
100
AcDbEntity
  8
SLD-0_4
  6
CONTINUOUS
 62
       7
100
AcDbLine
 10
193.67169478
 20
-187.08156989
 30
0.0
 11
193.67169478
 21
-173.08156989
 31
0.0
  0
LINE
  5
B3
100
AcDbEntity
  8
SLD-0_4
  6
CONTINUOUS
 62
       7
100
AcDbLine
 10
78.66517374
 20
290.88604675
 30
0.0
 11
78.66517374
 21
285.91772329
 31
0.0
  0
LINE
  5
B4
100
AcDbEntity
  8
SLD-0_4
  6
CONTINUOUS
 62
       7
100
AcDbLine
 10
154.39689347
 20
-168.081904
 30
0.0
 11
158.70149025
 21
-168.081904
 31
0.0
  0
LINE
  5
B5
100
AcDbEntity
  8
SLD-0_4
  6
CONTINUOUS
 62
       7
100
AcDbLine
 10
38.17683353
 20
-189.5815815
 30
0.0
 11
38.17683353
 21
-178.83224941
 31
0.0
  0
LINE
  5
B6
100
AcDbEntity
  8
SLD-0_4
  6
CONTINUOUS
 62
       7
100
AcDbLine
 10
85.13332086
 20
-205.93382054
 30
0.0
 11
85.05917912
 21
-205.98402275
 31
0.0
  0
LINE
  5
B7
100
AcDbEntity
  8
SLD-0_4
  6
CONTINUOUS
 62
       7
100
AcDbLine
 10
111.3509256
 20
-178.83224941
 30
0.0
 11
111.3509256
 21
-168.081904
 31
0.0
  0
LINE
  5
B8
100
AcDbEntity
  8
SLD-0_4
  6
CONTINUOUS
 62
       7
100
AcDbLine
 10
85.05917912
 20
-205.98402275
 30
0.0
 11
84.99362629
 21
-206.01509248
 31
0.0
  0
LINE
  5
B9
100
AcDbEntity
  8
SLD-0_4
  6
CONTINUOUS
 62
       7
100
AcDbLine
 10
85.78126207
 20
-201.43509524
 30
0.0
 11
85.80096301
 21
-201.81741002
 31
0.0
  0
LINE
  5
BA
100
AcDbEntity
  8
SLD-0_4
  6
CONTINUOUS
 62
       7
100
AcDbLine
 10
82.91505107
 20
-184.08227671
 30
0.0
 11
84.91636432
 21
-179.11395325
 31
0.0
  0
LINE
  5
BB
100
AcDbEntity
  8
SLD-0_4
  6
CONTINUOUS
 62
       7
100
AcDbLine
 10
84.91636432
 20
-179.11395325
 30
0.0
 11
78.66517374
 21
-179.11395325
 31
0.0
  0
LINE
  5
BC
100
AcDbEntity
  8
SLD-0_4
  6
CONTINUOUS
 62
       7
100
AcDbLine
 10
64.00340093
 20
-189.5815815
 30
0.0
 11
64.00340093
 21
-178.83224941
 31
0.0
  0
LINE
  5
BD
100
AcDbEntity
  8
SLD-0_4
  6
CONTINUOUS
 62
       7
100
AcDbLine
 10
85.68846043
 20
-204.99499784
 30
0.0
 11
85.61463227
 21
-205.27006123
 31
0.0
  0
LINE
  5
BE
100
AcDbEntity
  8
SLD-0_4
  6
CONTINUOUS
 62
       7
100
AcDbLine
 10
42.47839035
 20
-178.83224941
 30
0.0
 11
42.47839035
 21
-168.081904
 31
0.0
  0
LINE
  5
BF
100
AcDbEntity
  8
SLD-0_4
  6
CONTINUOUS
 62
       7
100
AcDbLine
 10
84.69762787
 20
-205.79979954
 30
0.0
 11
84.69647319
 21
-205.79373875
 31
0.0
  0
LINE
  5
C0
100
AcDbEntity
  8
SLD-0_4
  6
CONTINUOUS
 62
       7
100
AcDbLine
 10
84.88630436
 20
-206.02970419
 30
0.0
 11
84.84354376
 21
-206.01818102
 31
0.0
  0
LINE
  5
C1
100
AcDbEntity
  8
SLD-0_4
  6
CONTINUOUS
 62
       7
100
AcDbLine
 10
124.26471596
 20
-189.5815815
 30
0.0
 11
124.26471596
 21
-178.83224941
 31
0.0
  0
LINE
  5
C2
100
AcDbEntity
  8
SLD-0_4
  6
CONTINUOUS
 62
       7
100
AcDbLine
 10
70.91629153
 20
-184.08227671
 30
0.0
 11
68.91497829
 21
-179.11395325
 31
0.0
  0
LINE
  5
C3
100
AcDbEntity
  8
SLD-0_4
  6
CONTINUOUS
 62
       7
100
AcDbLine
 10
85.5217448
 20
-205.48753487
 30
0.0
 11
85.41223712
 21
-205.6437447
 31
0.0
  0
LINE
  5
C4
100
AcDbEntity
  8
SLD-0_4
  6
CONTINUOUS
 62
       7
100
AcDbLine
 10
75.16414222
 20
-179.11395325
 30
0.0
 11
75.16414222
 21
-184.08227671
 31
0.0
  0
LINE
  5
C5
100
AcDbEntity
  8
SLD-0_4
  6
CONTINUOUS
 62
       7
100
AcDbLine
 10
128.56931275
 20
-178.83224941
 30
0.0
 11
128.56931275
 21
-168.081904
 31
0.0
  0
LINE
  5
C6
100
AcDbEntity
  8
SLD-0_4
  6
CONTINUOUS
 62
       7
100
AcDbLine
 10
46.69392804
 20
-115.99990801
 30
0.0
 11
46.69392804
 21
-105.24671555
 31
0.0
  0
LINE
  5
C7
100
AcDbEntity
  8
SLD-0_4
  6
CONTINUOUS
 62
       7
100
AcDbLine
 10
150.09432333
 20
280.4184185
 30
0.0
 11
150.09432333
 21
291.16775059
 31
0.0
  0
LINE
  5
C8
100
AcDbEntity
  8
SLD-0_4
  6
CONTINUOUS
 62
       7
100
AcDbLine
 10
158.70149025
 20
301.918096
 30
0.0
 11
158.70149025
 21
291.16775059
 31
0.0
  0
LINE
  5
C9
100
AcDbEntity
  8
SLD-0_4
  6
CONTINUOUS
 62
       7
100
AcDbLine
 10
69.41555993
 20
285.91772329
 30
0.0
 11
84.41375603
 21
285.91772329
 31
0.0
  0
LINE
  5
CA
100
AcDbEntity
  8
SLD-0_4
  6
CONTINUOUS
 62
       7
100
AcDbLine
 10
46.78501378
 20
280.4184185
 30
0.0
 11
46.78501378
 21
291.16775059
 31
0.0
  0
LINE
  5
CB
100
AcDbEntity
  8
SLD-0_4
  6
CONTINUOUS
 62
       7
100
AcDbLine
 10
85.21654727
 20
264.13798159
 30
0.0
 11
85.13332086
 21
264.06617946
 31
0.0
  0
LINE
  5
CC
100
AcDbEntity
  8
SLD-0_4
  6
CONTINUOUS
 62
       7
100
AcDbLine
 10
84.70835257
 20
264.15911638
 30
0.0
 11
84.70142241
 21
264.18366303
 31
0.0
  0
LINE
  5
CD
100
AcDbEntity
  8
SLD-0_4
  6
CONTINUOUS
 62
       7
100
AcDbLine
 10
16.65182296
 20
301.918096
 30
0.0
 11
16.65182296
 21
291.16775059
 31
0.0
  0
LINE
  5
CE
100
AcDbEntity
  8
SLD-0_4
  6
CONTINUOUS
 62
       7
100
AcDbLine
 10
33.87223675
 20
291.16775059
 30
0.0
 11
33.87223675
 21
301.918096
 31
0.0
  0
LINE
  5
CF
100
AcDbEntity
  8
SLD-0_4
  6
CONTINUOUS
 62
       7
100
AcDbLine
 10
85.70254339
 20
269.66525701
 30
0.0
 11
85.71874342
 21
269.47277415
 31
0.0
  0
LINE
  5
D0
100
AcDbEntity
  8
SLD-0_4
  6
CONTINUOUS
 62
       7
100
AcDbLine
 10
59.6967775
 20
291.16775059
 30
0.0
 11
59.6967775
 21
301.918096
 31
0.0
  0
LINE
  5
D1
100
AcDbEntity
  8
SLD-0_4
  6
CONTINUOUS
 62
       7
100
AcDbLine
 10
85.69155218
 20
269.78744542
 30
0.0
 11
85.70254339
 21
269.66525701
 31
0.0
  0
LINE
  5
D2
100
AcDbEntity
  8
SLD-0_4
  6
CONTINUOUS
 62
       7
100
AcDbLine
 10
145.70062667
 20
-105.24671555
 30
0.0
 11
145.70062667
 21
-94.49926528
 31
0.0
  0
LINE
  5
D3
100
AcDbEntity
  8
SLD-0_4
  6
CONTINUOUS
 62
       7
100
AcDbLine
 10
111.2647624
 20
-105.24671555
 30
0.0
 11
111.2647624
 21
-94.49926528
 31
0.0
  0
LINE
  5
D4
100
AcDbEntity
  8
SLD-0_4
  6
CONTINUOUS
 62
       7
100
AcDbLine
 10
128.48365157
 20
-105.24671555
 30
0.0
 11
128.48365157
 21
-94.49926528
 31
0.0
  0
LINE
  5
D5
100
AcDbEntity
  8
SLD-0_4
  6
CONTINUOUS
 62
       7
100
AcDbLine
 10
51.08859725
 20
291.16775059
 30
0.0
 11
51.08859725
 21
301.918096
 31
0.0
  0
LINE
  5
D6
100
AcDbEntity
  8
SLD-0_4
  6
CONTINUOUS
 62
       7
100
AcDbLine
 10
87.45169886
 20
270.06630909
 30
0.0
 11
84.41375603
 21
270.06630909
 31
0.0
  0
LINE
  5
D7
100
AcDbEntity
  8
SLD-0_4
  6
CONTINUOUS
 62
       7
100
AcDbLine
 10
29.56561332
 20
280.4184185
 30
0.0
 11
29.56561332
 21
291.16775059
 31
0.0
  0
LINE
  5
D8
100
AcDbEntity
  8
SLD-0_4
  6
CONTINUOUS
 62
       7
100
AcDbLine
 10
76.91415132
 20
291.16775059
 30
0.0
 11
76.91415132
 21
301.918096
 31
0.0
  0
LINE
  5
D9
100
AcDbEntity
  8
SLD-0_4
  6
CONTINUOUS
 62
       7
100
AcDbLine
 10
85.73841884
 20
269.21913144
 30
0.0
 11
85.7598362
 21
268.91346345
 31
0.0
  0
LINE
  5
DA
100
AcDbEntity
  8
SLD-0_4
  6
CONTINUOUS
 62
       7
100
AcDbLine
 10
-86.32830522
 20
282.91843011
 30
0.0
 11
-86.32830522
 21
296.91843011
 31
0.0
  0
LINE
  5
DB
100
AcDbEntity
  8
SLD-0_4
  6
CONTINUOUS
 62
       7
100
AcDbLine
 10
102.74071871
 20
291.16775059
 30
0.0
 11
102.74071871
 21
301.918096
 31
0.0
  0
LINE
  5
DC
100
AcDbEntity
  8
SLD-0_4
  6
CONTINUOUS
 62
       7
100
AcDbLine
 10
85.8278487
 20
266.49846149
 30
0.0
 11
85.81292341
 21
266.08438496
 31
0.0
  0
LINE
  5
DD
100
AcDbEntity
  8
SLD-0_4
  6
CONTINUOUS
 62
       7
100
AcDbLine
 10
84.99362629
 20
263.98490752
 30
0.0
 11
84.93616662
 21
263.97050285
 31
0.0
  0
LINE
  5
DE
100
AcDbEntity
  8
SLD-0_4
  6
CONTINUOUS
 62
       7
100
AcDbLine
 10
158.70149025
 20
291.16775059
 30
0.0
 11
20.95743307
 21
291.16775059
 31
0.0
  0
LINE
  5
DF
100
AcDbEntity
  8
SLD-0_4
  6
CONTINUOUS
 62
       7
100
AcDbLine
 10
85.61463227
 20
264.72993877
 30
0.0
 11
85.5217448
 21
264.51246513
 31
0.0
  0
LINE
  5
E0
100
AcDbEntity
  8
SLD-0_4
  6
CONTINUOUS
 62
       7
100
AcDbLine
 10
16.65182296
 20
280.4184185
 30
0.0
 11
16.65182296
 21
291.16775059
 31
0.0
  0
LINE
  5
E1
100
AcDbEntity
  8
SLD-0_4
  6
CONTINUOUS
 62
       7
100
AcDbLine
 10
85.74496272
 20
265.32852071
 30
0.0
 11
85.68846043
 21
265.00500216
 31
0.0
  0
LINE
  5
E2
100
AcDbEntity
  8
SLD-0_4
  6
CONTINUOUS
 62
       7
100
AcDbLine
 10
85.41223712
 20
264.3562553
 30
0.0
 11
85.3093541
 21
264.23385106
 31
0.0
  0
LINE
  5
E3
100
AcDbEntity
  8
SLD-0_4
  6
CONTINUOUS
 62
       7
100
AcDbLine
 10
-83.82830522
 20
280.41843011
 30
0.0
 11
-86.32830522
 21
282.91843011
 31
0.0
  0
LINE
  5
E4
100
AcDbEntity
  8
SLD-0_4
  6
CONTINUOUS
 62
       7
100
AcDbLine
 10
85.68750324
 20
269.8302048
 30
0.0
 11
85.69155218
 21
269.78744542
 31
0.0
  0
LINE
  5
E5
100
AcDbEntity
  8
SLD-0_4
  6
CONTINUOUS
 62
       7
100
AcDbLine
 10
85.82825634
 20
267.35323043
 30
0.0
 11
85.83238186
 21
266.92445484
 31
0.0
  0
LINE
  5
E6
100
AcDbEntity
  8
SLD-0_4
  6
CONTINUOUS
 62
       7
100
AcDbLine
 10
84.84354376
 20
263.98181898
 30
0.0
 11
84.80738905
 21
264.00260492
 31
0.0
  0
LINE
  5
E7
100
AcDbEntity
  8
SLD-0_4
  6
CONTINUOUS
 62
       7
100
AcDbLine
 10
68.91497829
 20
290.88604675
 30
0.0
 11
75.16414222
 21
290.88604675
 31
0.0
  0
LINE
  5
E8
100
AcDbEntity
  8
SLD-0_4
  6
CONTINUOUS
 62
       7
100
AcDbLine
 10
89.82996832
 20
280.4184185
 30
0.0
 11
89.82996832
 21
291.16775059
 31
0.0
  0
LINE
  5
E9
100
AcDbEntity
  8
SLD-0_4
  6
CONTINUOUS
 62
       7
100
AcDbLine
 10
119.96214582
 20
291.16775059
 30
0.0
 11
119.96214582
 21
301.918096
 31
0.0
  0
LINE
  5
EA
100
AcDbEntity
  8
SLD-0_4
  6
CONTINUOUS
 62
       7
100
AcDbLine
 10
81.13074934
 20
-115.99990801
 30
0.0
 11
81.13074934
 21
-105.24671555
 31
0.0
  0
LINE
  5
EB
100
AcDbEntity
  8
SLD-0_4
  6
CONTINUOUS
 62
       7
100
AcDbLine
 10
20.8655943
 20
-115.99990801
 30
0.0
 11
158.61862166
 21
-115.99990801
 31
0.0
  0
LINE
  5
EC
100
AcDbEntity
  8
SLD-0_4
  6
CONTINUOUS
 62
       7
100
AcDbLine
 10
72.52130476
 20
-115.99990801
 30
0.0
 11
72.52130476
 21
-105.24671555
 31
0.0
  0
LINE
  5
ED
100
AcDbEntity
  8
SLD-0_4
  6
CONTINUOUS
 62
       7
100
AcDbLine
 10
68.21466841
 20
-105.24671555
 30
0.0
 11
68.21466841
 21
-94.49926528
 31
0.0
  0
LINE
  5
EE
100
AcDbEntity
  8
SLD-0_4
  6
CONTINUOUS
 62
       7
100
AcDbLine
 10
85.78587256
 20
265.69135984
 30
0.0
 11
85.74496272
 21
265.32852071
 31
0.0
  0
LINE
  5
EF
100
AcDbEntity
  8
SLD-0_4
  6
CONTINUOUS
 62
       7
100
AcDbLine
 10
107.04632882
 20
280.4184185
 30
0.0
 11
107.04632882
 21
291.16775059
 31
0.0
  0
LINE
  5
F0
100
AcDbEntity
  8
SLD-0_4
  6
CONTINUOUS
 62
       7
100
AcDbLine
 10
55.39319403
 20
280.4184185
 30
0.0
 11
55.39319403
 21
291.16775059
 31
0.0
  0
LINE
  5
F1
100
AcDbEntity
  8
SLD-0_4
  6
CONTINUOUS
 62
       7
100
AcDbLine
 10
115.65754904
 20
280.4184185
 30
0.0
 11
115.65754904
 21
291.16775059
 31
0.0
  0
LINE
  5
F2
100
AcDbEntity
  8
SLD-0_4
  6
CONTINUOUS
 62
       7
100
AcDbLine
 10
-83.82830522
 20
356.41843011
 30
0.0
 11
-86.32830522
 21
358.91843011
 31
0.0
  0
LINE
  5
F3
100
AcDbEntity
  8
SLD-0_4
  6
CONTINUOUS
 62
       7
100
AcDbLine
 10
-86.32830522
 20
372.91843011
 30
0.0
 11
-83.82830522
 21
375.41843011
 31
0.0
  0
LINE
  5
F4
100
AcDbEntity
  8
SLD-0_4
  6
CONTINUOUS
 62
       7
100
AcDbLine
 10
-76.32830522
 20
349.41843011
 30
0.0
 11
-83.82830522
 21
349.41843011
 31
0.0
  0
LINE
  5
F5
100
AcDbEntity
  8
SLD-0_4
  6
CONTINUOUS
 62
       7
100
AcDbLine
 10
-83.82830522
 20
349.41843011
 30
0.0
 11
-86.32830522
 21
346.91843011
 31
0.0
  0
LINE
  5
F6
100
AcDbEntity
  8
SLD-0_4
  6
CONTINUOUS
 62
       7
100
AcDbLine
 10
-83.82830522
 20
299.41843011
 30
0.0
 11
-86.32830522
 21
296.91843011
 31
0.0
  0
LINE
  5
F7
100
AcDbEntity
  8
SLD-0_4
  6
CONTINUOUS
 62
       7
100
AcDbLine
 10
-86.32830522
 20
358.91843011
 30
0.0
 11
-86.32830522
 21
372.91843011
 31
0.0
  0
LINE
  5
F8
100
AcDbEntity
  8
SLD-0_4
  6
CONTINUOUS
 62
       7
100
AcDbLine
 10
84.93616662
 20
-206.02949715
 30
0.0
 11
84.88630436
 21
-206.02970419
 31
0.0
  0
LINE
  5
F9
100
AcDbEntity
  8
SLD-0_4
  6
CONTINUOUS
 62
       7
100
AcDbLine
 10
84.75291431
 20
-205.93790456
 30
0.0
 11
84.73360277
 21
-205.90413484
 31
0.0
  0
LINE
  5
FA
100
AcDbEntity
  8
SLD-0_4
  6
CONTINUOUS
 62
       7
100
AcDbLine
 10
145.78769989
 20
-178.83224941
 30
0.0
 11
145.78769989
 21
-168.081904
 31
0.0
  0
LINE
  5
FB
100
AcDbEntity
  8
SLD-0_4
  6
CONTINUOUS
 62
       7
100
AcDbLine
 10
85.81720558
 20
-202.22434633
 30
0.0
 11
85.82825634
 21
-202.64676957
 31
0.0
  0
LINE
  5
FC
100
AcDbEntity
  8
SLD-0_4
  6
CONTINUOUS
 62
       7
100
AcDbLine
 10
154.39689347
 20
-178.83224941
 30
0.0
 11
154.39689347
 21
-168.081904
 31
0.0
  0
LINE
  5
FD
100
AcDbEntity
  8
SLD-0_4
  6
CONTINUOUS
 62
       7
100
AcDbLine
 10
106.96004011
 20
354.00009199
 30
0.0
 11
106.96004011
 21
364.75328445
 31
0.0
  0
LINE
  5
FE
100
AcDbEntity
  8
SLD-0_4
  6
CONTINUOUS
 62
       7
100
AcDbLine
 10
137.09118209
 20
364.75328445
 30
0.0
 11
137.09118209
 21
375.50073472
 31
0.0
  0
LINE
  5
FF
100
AcDbEntity
  8
SLD-0_4
  6
CONTINUOUS
 62
       7
100
AcDbLine
 10
50.99865033
 20
364.75328445
 30
0.0
 11
50.99865033
 21
375.50073472
 31
0.0
  0
LINE
  5
100
100
AcDbEntity
  8
SLD-0_4
  6
CONTINUOUS
 62
       7
100
AcDbLine
 10
150.00726302
 20
354.00009199
 30
0.0
 11
150.00726302
 21
364.75328445
 31
0.0
  0
LINE
  5
101
100
AcDbEntity
  8
SLD-0_4
  6
CONTINUOUS
 62
       7
100
AcDbLine
 10
20.8655943
 20
354.00009199
 30
0.0
 11
16.56087201
 21
354.00009199
 31
0.0
  0
LINE
  5
102
100
AcDbEntity
  8
SLD-0_4
  6
CONTINUOUS
 62
       7
100
AcDbLine
 10
89.74115095
 20
354.00009199
 30
0.0
 11
89.74115095
 21
364.75328445
 31
0.0
  0
LINE
  5
103
100
AcDbEntity
  8
SLD-0_4
  6
CONTINUOUS
 62
       7
100
AcDbLine
 10
119.87229293
 20
364.75328445
 30
0.0
 11
119.87229293
 21
375.50073472
 31
0.0
  0
LINE
  5
104
100
AcDbEntity
  8
SLD-0_4
  6
CONTINUOUS
 62
       7
100
AcDbLine
 10
94.04395918
 20
364.75328445
 30
0.0
 11
94.04395918
 21
375.50073472
 31
0.0
  0
LINE
  5
105
100
AcDbEntity
  8
SLD-0_4
  6
CONTINUOUS
 62
       7
100
AcDbLine
 10
16.56087201
 20
375.50073472
 30
0.0
 11
16.56087201
 21
364.75328445
 31
0.0
  0
LINE
  5
106
100
AcDbEntity
  8
SLD-0_4
  6
CONTINUOUS
 62
       7
100
AcDbLine
 10
124.17892928
 20
354.00009199
 30
0.0
 11
124.17892928
 21
364.75328445
 31
0.0
  0
LINE
  5
107
100
AcDbEntity
  8
SLD-0_4
  6
CONTINUOUS
 62
       7
100
AcDbLine
 10
16.56087201
 20
364.75328445
 30
0.0
 11
154.31198531
 21
364.75328445
 31
0.0
  0
LINE
  5
108
100
AcDbEntity
  8
SLD-0_4
  6
CONTINUOUS
 62
       7
100
AcDbLine
 10
63.91281721
 20
354.00009199
 30
0.0
 11
63.91281721
 21
364.75328445
 31
0.0
  0
LINE
  5
109
100
AcDbEntity
  8
SLD-0_4
  6
CONTINUOUS
 62
       7
100
AcDbLine
 10
158.61862166
 20
364.75328445
 30
0.0
 11
20.8655943
 21
364.75328445
 31
0.0
  0
LINE
  5
10A
100
AcDbEntity
  8
SLD-0_4
  6
CONTINUOUS
 62
       7
100
AcDbLine
 10
38.08352643
 20
354.00009199
 30
0.0
 11
38.08352643
 21
364.75328445
 31
0.0
  0
LINE
  5
10B
100
AcDbEntity
  8
SLD-0_4
  6
CONTINUOUS
 62
       7
100
AcDbLine
 10
132.78837386
 20
354.00009199
 30
0.0
 11
132.78837386
 21
364.75328445
 31
0.0
  0
LINE
  5
10C
100
AcDbEntity
  8
SLD-0_4
  6
CONTINUOUS
 62
       7
100
AcDbLine
 10
158.61862166
 20
375.50073472
 30
0.0
 11
158.61862166
 21
364.75328445
 31
0.0
  0
LINE
  5
10D
100
AcDbEntity
  8
SLD-0_4
  6
CONTINUOUS
 62
       7
100
AcDbLine
 10
16.56087201
 20
354.00009199
 30
0.0
 11
16.56087201
 21
364.75328445
 31
0.0
  0
LINE
  5
10E
100
AcDbEntity
  8
SLD-0_4
  6
CONTINUOUS
 62
       7
100
AcDbLine
 10
154.31198531
 20
364.75328445
 30
0.0
 11
154.31198531
 21
375.50073472
 31
0.0
  0
LINE
  5
10F
100
AcDbEntity
  8
SLD-0_4
  6
CONTINUOUS
 62
       7
100
AcDbLine
 10
55.30241559
 20
354.00009199
 30
0.0
 11
55.30241559
 21
364.75328445
 31
0.0
  0
LINE
  5
110
100
AcDbEntity
  8
SLD-0_4
  6
CONTINUOUS
 62
       7
100
AcDbLine
 10
158.61862166
 20
354.00009199
 30
0.0
 11
158.61862166
 21
364.75328445
 31
0.0
  0
LINE
  5
111
100
AcDbEntity
  8
SLD-0_4
  6
CONTINUOUS
 62
       7
100
AcDbLine
 10
85.43355757
 20
364.75328445
 30
0.0
 11
85.43355757
 21
375.50073472
 31
0.0
  0
LINE
  5
112
100
AcDbEntity
  8
SLD-0_4
  6
CONTINUOUS
 62
       7
100
AcDbLine
 10
33.77976117
 20
364.75328445
 30
0.0
 11
33.77976117
 21
375.50073472
 31
0.0
  0
LINE
  5
113
100
AcDbEntity
  8
SLD-0_4
  6
CONTINUOUS
 62
       7
100
AcDbLine
 10
84.41375603
 20
263.43613565
 30
0.0
 11
69.41555993
 21
263.43613565
 31
0.0
  0
LINE
  5
114
100
AcDbEntity
  8
SLD-0_4
  6
CONTINUOUS
 62
       7
100
AcDbLine
 10
84.77734448
 20
264.03018622
 30
0.0
 11
84.75291431
 21
264.06209544
 31
0.0
  0
LINE
  5
115
100
AcDbEntity
  8
SLD-0_4
  6
CONTINUOUS
 62
       7
100
AcDbLine
 10
84.80738905
 20
264.00260492
 30
0.0
 11
84.77734448
 21
264.03018622
 31
0.0
  0
LINE
  5
116
100
AcDbEntity
  8
SLD-0_4
  6
CONTINUOUS
 62
       7
100
AcDbLine
 10
87.45169886
 20
280.52380411
 30
0.0
 11
87.45169886
 21
270.06630909
 31
0.0
  0
LINE
  5
117
100
AcDbEntity
  8
SLD-0_4
  6
CONTINUOUS
 62
       7
100
AcDbLine
 10
98.43814857
 20
280.4184185
 30
0.0
 11
98.43814857
 21
291.16775059
 31
0.0
  0
LINE
  5
118
100
AcDbEntity
  8
SLD-0_4
  6
CONTINUOUS
 62
       7
100
AcDbLine
 10
84.73360277
 20
264.09586516
 30
0.0
 11
84.71891411
 21
264.12902795
 31
0.0
  0
LINE
  5
119
100
AcDbEntity
  8
SLD-0_4
  6
CONTINUOUS
 62
       7
100
AcDbLine
 10
85.83238186
 20
266.92445484
 30
0.0
 11
85.8278487
 21
266.49846149
 31
0.0
  0
LINE
  5
11A
100
AcDbEntity
  8
SLD-0_4
  6
CONTINUOUS
 62
       7
100
AcDbLine
 10
154.39689347
 20
301.918096
 30
0.0
 11
158.70149025
 21
301.918096
 31
0.0
  0
LINE
  5
11B
100
AcDbEntity
  8
SLD-0_4
  6
CONTINUOUS
 62
       7
100
AcDbLine
 10
25.26202985
 20
291.16775059
 30
0.0
 11
25.26202985
 21
301.918096
 31
0.0
  0
LINE
  5
11C
100
AcDbEntity
  8
SLD-0_4
  6
CONTINUOUS
 62
       7
100
AcDbLine
 10
38.17683353
 20
280.4184185
 30
0.0
 11
38.17683353
 21
291.16775059
 31
0.0
  0
LINE
  5
11D
100
AcDbEntity
  8
SLD-0_4
  6
CONTINUOUS
 62
       7
100
AcDbLine
 10
84.70142241
 20
264.18366303
 30
0.0
 11
84.69762787
 21
264.20020046
 31
0.0
  0
LINE
  5
11E
100
AcDbEntity
  8
SLD-0_4
  6
CONTINUOUS
 62
       7
100
AcDbLine
 10
85.13332086
 20
264.06617946
 30
0.0
 11
85.05917912
 21
264.01597725
 31
0.0
  0
LINE
  5
11F
100
AcDbEntity
  8
SLD-0_4
  6
CONTINUOUS
 62
       7
100
AcDbLine
 10
85.52435821
 20
291.16775059
 30
0.0
 11
85.52435821
 21
301.918096
 31
0.0
  0
LINE
  5
120
100
AcDbEntity
  8
SLD-0_4
  6
CONTINUOUS
 62
       7
100
AcDbLine
 10
111.3509256
 20
291.16775059
 30
0.0
 11
111.3509256
 21
301.918096
 31
0.0
  0
LINE
  5
121
100
AcDbEntity
  8
SLD-0_4
  6
CONTINUOUS
 62
       7
100
AcDbLine
 10
94.13456511
 20
291.16775059
 30
0.0
 11
94.13456511
 21
301.918096
 31
0.0
  0
LINE
  5
122
100
AcDbEntity
  8
SLD-0_4
  6
CONTINUOUS
 62
       7
100
AcDbLine
 10
85.05917912
 20
264.01597725
 30
0.0
 11
84.99362629
 21
263.98490752
 31
0.0
  0
LINE
  5
123
100
AcDbEntity
  8
SLD-0_4
  6
CONTINUOUS
 62
       7
100
AcDbLine
 10
20.95743307
 20
291.16775059
 30
0.0
 11
20.95743307
 21
280.4184185
 31
0.0
  0
LINE
  5
124
100
AcDbEntity
  8
SLD-0_4
  6
CONTINUOUS
 62
       7
100
AcDbLine
 10
85.78126207
 20
268.56490476
 30
0.0
 11
85.80096301
 21
268.18258998
 31
0.0
  0
LINE
  5
125
100
AcDbEntity
  8
SLD-0_4
  6
CONTINUOUS
 62
       7
100
AcDbLine
 10
85.80096301
 20
268.18258998
 30
0.0
 11
85.81720558
 21
267.77565367
 31
0.0
  0
LINE
  5
126
100
AcDbEntity
  8
SLD-0_4
  6
CONTINUOUS
 62
       7
100
AcDbLine
 10
82.91505107
 20
285.91772329
 30
0.0
 11
84.91636432
 21
290.88604675
 31
0.0
  0
LINE
  5
127
100
AcDbEntity
  8
SLD-0_4
  6
CONTINUOUS
 62
       7
100
AcDbLine
 10
85.81292341
 20
266.08438496
 30
0.0
 11
85.78587256
 21
265.69135984
 31
0.0
  0
LINE
  5
128
100
AcDbEntity
  8
SLD-0_4
  6
CONTINUOUS
 62
       7
100
AcDbLine
 10
84.91636432
 20
290.88604675
 30
0.0
 11
78.66517374
 21
290.88604675
 31
0.0
  0
LINE
  5
129
100
AcDbEntity
  8
SLD-0_4
  6
CONTINUOUS
 62
       7
100
AcDbLine
 10
69.41555993
 20
280.41843011
 30
0.0
 11
-83.82830522
 21
280.41843011
 31
0.0
  0
LINE
  5
12A
100
AcDbEntity
  8
SLD-0_4
  6
CONTINUOUS
 62
       7
100
AcDbLine
 10
132.87390954
 20
280.4184185
 30
0.0
 11
132.87390954
 21
291.16775059
 31
0.0
  0
LINE
  5
12B
100
AcDbEntity
  8
SLD-0_4
  6
CONTINUOUS
 62
       7
100
AcDbLine
 10
64.00340093
 20
280.4184185
 30
0.0
 11
64.00340093
 21
291.16775059
 31
0.0
  0
LINE
  5
12C
100
AcDbEntity
  8
SLD-0_4
  6
CONTINUOUS
 62
       7
100
AcDbLine
 10
137.17850632
 20
291.16775059
 30
0.0
 11
137.17850632
 21
301.918096
 31
0.0
  0
LINE
  5
12D
100
AcDbEntity
  8
SLD-0_4
  6
CONTINUOUS
 62
       7
100
AcDbLine
 10
85.68846043
 20
265.00500216
 30
0.0
 11
85.61463227
 21
264.72993877
 31
0.0
  0
LINE
  5
12E
100
AcDbEntity
  8
SLD-0_4
  6
CONTINUOUS
 62
       7
100
AcDbLine
 10
85.3093541
 20
264.23385106
 30
0.0
 11
85.21654727
 21
264.13798159
 31
0.0
  0
LINE
  5
12F
100
AcDbEntity
  8
SLD-0_4
  6
CONTINUOUS
 62
       7
100
AcDbLine
 10
42.47839035
 20
291.16775059
 30
0.0
 11
42.47839035
 21
301.918096
 31
0.0
  0
LINE
  5
130
100
AcDbEntity
  8
SLD-0_4
  6
CONTINUOUS
 62
       7
100
AcDbLine
 10
141.48310311
 20
280.4184185
 30
0.0
 11
141.48310311
 21
291.16775059
 31
0.0
  0
LINE
  5
131
100
AcDbEntity
  8
SLD-0_4
  6
CONTINUOUS
 62
       7
100
AcDbLine
 10
84.69762787
 20
264.20020046
 30
0.0
 11
84.69647319
 21
264.20626125
 31
0.0
  0
LINE
  5
132
100
AcDbEntity
  8
SLD-0_4
  6
CONTINUOUS
 62
       7
100
AcDbLine
 10
154.39689347
 20
301.918096
 30
0.0
 11
16.65182296
 21
301.918096
 31
0.0
  0
LINE
  5
133
100
AcDbEntity
  8
SLD-0_4
  6
CONTINUOUS
 62
       7
100
AcDbLine
 10
84.88630436
 20
263.97029581
 30
0.0
 11
84.84354376
 21
263.98181898
 31
0.0
  0
LINE
  5
134
100
AcDbEntity
  8
SLD-0_4
  6
CONTINUOUS
 62
       7
100
AcDbLine
 10
85.7598362
 20
268.91346345
 30
0.0
 11
85.78126207
 21
268.56490476
 31
0.0
  0
LINE
  5
135
100
AcDbEntity
  8
SLD-0_4
  6
CONTINUOUS
 62
       7
100
AcDbLine
 10
124.26471596
 20
280.4184185
 30
0.0
 11
124.26471596
 21
291.16775059
 31
0.0
  0
LINE
  5
136
100
AcDbEntity
  8
SLD-0_4
  6
CONTINUOUS
 62
       7
100
AcDbLine
 10
16.65182296
 20
291.16775059
 30
0.0
 11
154.39689347
 21
291.16775059
 31
0.0
  0
LINE
  5
137
100
AcDbEntity
  8
SLD-0_4
  6
CONTINUOUS
 62
       7
100
AcDbLine
 10
70.91629153
 20
285.91772329
 30
0.0
 11
68.91497829
 21
290.88604675
 31
0.0
  0
LINE
  5
138
100
AcDbEntity
  8
SLD-0_4
  6
CONTINUOUS
 62
       7
100
AcDbLine
 10
84.41375603
 20
285.91772329
 30
0.0
 11
84.41375603
 21
263.43613565
 31
0.0
  0
LINE
  5
139
100
AcDbEntity
  8
SLD-0_4
  6
CONTINUOUS
 62
       7
100
AcDbLine
 10
85.5217448
 20
264.51246513
 30
0.0
 11
85.41223712
 21
264.3562553
 31
0.0
  0
LINE
  5
13A
100
AcDbEntity
  8
SLD-0_4
  6
CONTINUOUS
 62
       7
100
AcDbLine
 10
84.41375603
 20
280.52380411
 30
0.0
 11
87.45169886
 21
280.52380411
 31
0.0
  0
LINE
  5
13B
100
AcDbEntity
  8
SLD-0_4
  6
CONTINUOUS
 62
       7
100
AcDbLine
 10
75.16414222
 20
290.88604675
 30
0.0
 11
75.16414222
 21
285.91772329
 31
0.0
  0
LINE
  5
13C
100
AcDbEntity
  8
SLD-0_4
  6
CONTINUOUS
 62
       7
100
AcDbLine
 10
85.71874342
 20
269.47277415
 30
0.0
 11
85.73841884
 21
269.21913144
 31
0.0
  0
LINE
  5
13D
100
AcDbEntity
  8
SLD-0_4
  6
CONTINUOUS
 62
       7
100
AcDbLine
 10
128.56931275
 20
291.16775059
 30
0.0
 11
128.56931275
 21
301.918096
 31
0.0
  0
LINE
  5
13E
100
AcDbEntity
  8
SLD-0_4
  6
CONTINUOUS
 62
       7
100
AcDbLine
 10
-86.32830522
 20
308.91843011
 30
0.0
 11
-86.32830522
 21
346.91843011
 31
0.0
  0
LINE
  5
13F
100
AcDbEntity
  8
SLD-0_4
  6
CONTINUOUS
 62
       7
100
AcDbLine
 10
-83.82830522
 20
306.41843011
 30
0.0
 11
-86.32830522
 21
308.91843011
 31
0.0
  0
LINE
  5
140
100
AcDbEntity
  8
SLD-0_4
  6
CONTINUOUS
 62
       7
100
AcDbLine
 10
-76.32830522
 20
356.41843011
 30
0.0
 11
-83.82830522
 21
356.41843011
 31
0.0
  0
LINE
  5
141
100
AcDbEntity
  8
SLD-0_4
  6
CONTINUOUS
 62
       7
100
AcDbLine
 10
-76.32830522
 20
306.41843011
 30
0.0
 11
-83.82830522
 21
306.41843011
 31
0.0
  0
LINE
  5
142
100
AcDbEntity
  8
SLD-0_4
  6
CONTINUOUS
 62
       7
100
AcDbLine
 10
-76.32830522
 20
299.41843011
 30
0.0
 11
-83.82830522
 21
299.41843011
 31
0.0
  0
LINE
  5
143
100
AcDbEntity
  8
SLD-0_4
  6
CONTINUOUS
 62
       7
100
AcDbLine
 10
25.16935956
 20
364.75328445
 30
0.0
 11
25.16935956
 21
375.50073472
 31
0.0
  0
LINE
  5
144
100
AcDbEntity
  8
SLD-0_4
  6
CONTINUOUS
 62
       7
100
AcDbLine
 10
46.69392804
 20
354.00009199
 30
0.0
 11
46.69392804
 21
364.75328445
 31
0.0
  0
LINE
  5
145
100
AcDbEntity
  8
SLD-0_4
  6
CONTINUOUS
 62
       7
100
AcDbLine
 10
141.3997325
 20
354.00009199
 30
0.0
 11
141.3997325
 21
364.75328445
 31
0.0
  0
LINE
  5
146
100
AcDbEntity
  8
SLD-0_4
  6
CONTINUOUS
 62
       7
100
AcDbLine
 10
145.70062667
 20
364.75328445
 30
0.0
 11
145.70062667
 21
375.50073472
 31
0.0
  0
LINE
  5
147
100
AcDbEntity
  8
SLD-0_4
  6
CONTINUOUS
 62
       7
100
AcDbLine
 10
76.82507002
 20
364.75328445
 30
0.0
 11
76.82507002
 21
375.50073472
 31
0.0
  0
LINE
  5
148
100
AcDbEntity
  8
SLD-0_4
  6
CONTINUOUS
 62
       7
100
AcDbLine
 10
111.2647624
 20
364.75328445
 30
0.0
 11
111.2647624
 21
375.50073472
 31
0.0
  0
LINE
  5
149
100
AcDbEntity
  8
SLD-0_4
  6
CONTINUOUS
 62
       7
100
AcDbLine
 10
115.56757064
 20
354.00009199
 30
0.0
 11
115.56757064
 21
364.75328445
 31
0.0
  0
LINE
  5
14A
100
AcDbEntity
  8
SLD-0_4
  6
CONTINUOUS
 62
       7
100
AcDbLine
 10
59.60618085
 20
364.75328445
 30
0.0
 11
59.60618085
 21
375.50073472
 31
0.0
  0
LINE
  5
14B
100
AcDbEntity
  8
SLD-0_4
  6
CONTINUOUS
 62
       7
100
AcDbLine
 10
128.48365157
 20
364.75328445
 30
0.0
 11
128.48365157
 21
375.50073472
 31
0.0
  0
LINE
  5
14C
100
AcDbEntity
  8
SLD-0_4
  6
CONTINUOUS
 62
       7
100
AcDbLine
 10
102.65340376
 20
364.75328445
 30
0.0
 11
102.65340376
 21
375.50073472
 31
0.0
  0
LINE
  5
14D
100
AcDbEntity
  8
SLD-0_4
  6
CONTINUOUS
 62
       7
100
AcDbLine
 10
81.13074934
 20
354.00009199
 30
0.0
 11
81.13074934
 21
364.75328445
 31
0.0
  0
LINE
  5
14E
100
AcDbEntity
  8
SLD-0_4
  6
CONTINUOUS
 62
       7
100
AcDbLine
 10
42.38824872
 20
364.75328445
 30
0.0
 11
42.38824872
 21
375.50073472
 31
0.0
  0
LINE
  5
14F
100
AcDbEntity
  8
SLD-0_4
  6
CONTINUOUS
 62
       7
100
AcDbLine
 10
20.8655943
 20
354.00009199
 30
0.0
 11
158.61862166
 21
354.00009199
 31
0.0
  0
LINE
  5
150
100
AcDbEntity
  8
SLD-0_4
  6
CONTINUOUS
 62
       7
100
AcDbLine
 10
20.8655943
 20
364.75328445
 30
0.0
 11
20.8655943
 21
354.00009199
 31
0.0
  0
LINE
  5
151
100
AcDbEntity
  8
SLD-0_4
  6
CONTINUOUS
 62
       7
100
AcDbLine
 10
72.52130476
 20
354.00009199
 30
0.0
 11
72.52130476
 21
364.75328445
 31
0.0
  0
LINE
  5
152
100
AcDbEntity
  8
SLD-0_4
  6
CONTINUOUS
 62
       7
100
AcDbLine
 10
98.34772444
 20
354.00009199
 30
0.0
 11
98.34772444
 21
364.75328445
 31
0.0
  0
LINE
  5
153
100
AcDbEntity
  8
SLD-0_4
  6
CONTINUOUS
 62
       7
100
AcDbLine
 10
68.21466841
 20
364.75328445
 30
0.0
 11
68.21466841
 21
375.50073472
 31
0.0
  0
LINE
  5
154
100
AcDbEntity
  8
SLD-0_4
  6
CONTINUOUS
 62
       7
100
AcDbLine
 10
29.47503888
 20
354.00009199
 30
0.0
 11
29.47503888
 21
364.75328445
 31
0.0
  0
LINE
  5
155
100
AcDbEntity
  8
SLD-0_4
  6
CONTINUOUS
 62
       7
100
AcDbLine
 10
84.93616662
 20
263.97050285
 30
0.0
 11
84.88630436
 21
263.97029581
 31
0.0
  0
LINE
  5
156
100
AcDbEntity
  8
SLD-0_4
  6
CONTINUOUS
 62
       7
100
AcDbLine
 10
158.70149025
 20
280.4184185
 30
0.0
 11
158.70149025
 21
291.16775059
 31
0.0
  0
LINE
  5
157
100
AcDbEntity
  8
SLD-0_4
  6
CONTINUOUS
 62
       7
100
AcDbLine
 10
84.75291431
 20
264.06209544
 30
0.0
 11
84.73360277
 21
264.09586516
 31
0.0
  0
LINE
  5
158
100
AcDbEntity
  8
SLD-0_4
  6
CONTINUOUS
 62
       7
100
AcDbLine
 10
69.41555993
 20
263.43613565
 30
0.0
 11
69.41555993
 21
285.91772329
 31
0.0
  0
LINE
  5
159
100
AcDbEntity
  8
SLD-0_4
  6
CONTINUOUS
 62
       7
100
AcDbLine
 10
145.78769989
 20
291.16775059
 30
0.0
 11
145.78769989
 21
301.918096
 31
0.0
  0
LINE
  5
15A
100
AcDbEntity
  8
SLD-0_4
  6
CONTINUOUS
 62
       7
100
AcDbLine
 10
68.30698439
 20
291.16775059
 30
0.0
 11
68.30698439
 21
301.918096
 31
0.0
  0
LINE
  5
15B
100
AcDbEntity
  8
SLD-0_4
  6
CONTINUOUS
 62
       7
100
AcDbLine
 10
85.81720558
 20
267.77565367
 30
0.0
 11
85.82825634
 21
267.35323043
 31
0.0
  0
LINE
  5
15C
100
AcDbEntity
  8
SLD-0_4
  6
CONTINUOUS
 62
       7
100
AcDbLine
 10
84.71891411
 20
264.12902795
 30
0.0
 11
84.70835257
 21
264.15911638
 31
0.0
  0
LINE
  5
15D
100
AcDbEntity
  8
SLD-0_4
  6
CONTINUOUS
 62
       7
100
AcDbLine
 10
154.39689347
 20
291.16775059
 30
0.0
 11
154.39689347
 21
301.918096
 31
0.0
  0
LINE
  5
15E
100
AcDbEntity
  8
SLD-0_4
  6
CONTINUOUS
 62
       7
100
AcDbLine
 10
-83.82830522
 20
-189.58156989
 30
0.0
 11
-86.32830522
 21
-187.08156989
 31
0.0
  0
LINE
  5
15F
100
AcDbEntity
  8
SLD-0_4
  6
CONTINUOUS
 62
       7
100
AcDbLine
 10
-86.32830522
 20
-97.08156989
 30
0.0
 11
-83.82830522
 21
-94.58156989
 31
0.0
  0
LINE
  5
160
100
AcDbEntity
  8
SLD-0_4
  6
CONTINUOUS
 62
       7
100
AcDbLine
 10
-83.82830522
 20
-120.58156989
 30
0.0
 11
-86.32830522
 21
-123.08156989
 31
0.0
  0
LINE
  5
161
100
AcDbEntity
  8
SLD-0_4
  6
CONTINUOUS
 62
       7
100
AcDbLine
 10
-86.32830522
 20
-111.08156989
 30
0.0
 11
-86.32830522
 21
-97.08156989
 31
0.0
  0
LINE
  5
162
100
AcDbEntity
  8
SLD-0_4
  6
CONTINUOUS
 62
       7
100
AcDbLine
 10
-83.82830522
 20
-163.58156989
 30
0.0
 11
-86.32830522
 21
-161.08156989
 31
0.0
  0
LINE
  5
163
100
AcDbEntity
  8
SLD-0_4
  6
CONTINUOUS
 62
       7
100
AcDbLine
 10
-76.32830522
 20
-163.58156989
 30
0.0
 11
-83.82830522
 21
-163.58156989
 31
0.0
  0
LINE
  5
164
100
AcDbEntity
  8
SLD-0_4
  6
CONTINUOUS
 62
       7
100
AcDbLine
 10
69.41555993
 20
-189.58156989
 30
0.0
 11
-83.82830522
 21
-189.58156989
 31
0.0
  0
LINE
  5
165
100
AcDbEntity
  8
SLD-0_4
  6
CONTINUOUS
 62
       7
100
AcDbLine
 10
173.67169478
 20
-189.58156989
 30
0.0
 11
173.67169478
 21
-94.58156989
 31
0.0
  0
LINE
  5
166
100
AcDbEntity
  8
SLD-0_4
  6
CONTINUOUS
 62
       7
100
AcDbLine
 10
191.17169478
 20
-189.58156989
 30
0.0
 11
84.41375603
 21
-189.58156989
 31
0.0
  0
LINE
  5
167
100
AcDbEntity
  8
SLD-0_4
  6
CONTINUOUS
 62
       7
100
AcDbLine
 10
-83.82830522
 20
-94.58156989
 30
0.0
 11
191.17169478
 21
-94.58156989
 31
0.0
  0
LINE
  5
168
100
AcDbEntity
  8
SLD-0_4
  6
CONTINUOUS
 62
       7
100
AcDbLine
 10
5.68361307
 20
-189.5815815
 30
0.0
 11
5.68361307
 21
-94.58156989
 31
0.0
  0
ARC
  5
169
100
AcDbEntity
  8
SLD-0_4
  6
CONTINUOUS
 62
       7
100
AcDbCircle
 10
183.67169478
 20
-167.08156989
 30
0.0
 40
3.5
100
AcDbArc
 50
90.0
 51
270.0
  0
ARC
  5
16A
100
AcDbEntity
  8
SLD-0_4
  6
CONTINUOUS
 62
       7
100
AcDbCircle
 10
-76.32830522
 20
-167.08156989
 30
0.0
 40
3.5
100
AcDbArc
 50
270.0
 51
450.0
  0
ARC
  5
16B
100
AcDbEntity
  8
SLD-0_4
  6
CONTINUOUS
 62
       7
100
AcDbCircle
 10
183.67169478
 20
-117.08156989
 30
0.0
 40
3.5
100
AcDbArc
 50
90.0
 51
270.0
  0
ARC
  5
16C
100
AcDbEntity
  8
SLD-0_4
  6
CONTINUOUS
 62
       7
100
AcDbCircle
 10
-76.32830522
 20
-117.08156989
 30
0.0
 40
3.5
100
AcDbArc
 50
270.0
 51
450.0
  0
ARC
  5
16D
100
AcDbEntity
  8
SLD-0_4
  6
CONTINUOUS
 62
       7
100
AcDbCircle
 10
-76.32830522
 20
302.91843011
 30
0.0
 40
3.5
100
AcDbArc
 50
270.0
 51
450.0
  0
ARC
  5
16E
100
AcDbEntity
  8
SLD-0_4
  6
CONTINUOUS
 62
       7
100
AcDbCircle
 10
-76.32830522
 20
352.91843011
 30
0.0
 40
3.5
100
AcDbArc
 50
270.0
 51
450.0
  0
LINE
  5
16F
100
AcDbEntity
  8
SLD-0_4
  6
PHANTOM
 62
       7
100
AcDbLine
 10
86.67169478
 20
-165.58156989
 30
0.0
 11
86.67169478
 21
-117.58156989
 31
0.0
  0
LINE
  5
170
100
AcDbEntity
  8
SLD-0_4
  6
PHANTOM
 62
       7
100
AcDbLine
 10
144.67169478
 20
-165.58156989
 30
0.0
 11
144.67169478
 21
-117.58156989
 31
0.0
  0
LINE
  5
171
100
AcDbEntity
  8
SLD-0_4
  6
PHANTOM
 62
       7
100
AcDbLine
 10
29.67169478
 20
-117.58156989
 30
0.0
 11
11.67169478
 21
-117.58156989
 31
0.0
  0
LINE
  5
172
100
AcDbEntity
  8
SLD-0_4
  6
PHANTOM
 62
       7
100
AcDbLine
 10
29.67169478
 20
-165.58156989
 30
0.0
 11
29.67169478
 21
-117.58156989
 31
0.0
  0
LINE
  5
173
100
AcDbEntity
  8
SLD-0_4
  6
PHANTOM
 62
       7
100
AcDbLine
 10
48.67169478
 20
-165.58156989
 30
0.0
 11
30.67169478
 21
-165.58156989
 31
0.0
  0
LINE
  5
174
100
AcDbEntity
  8
SLD-0_4
  6
PHANTOM
 62
       7
100
AcDbLine
 10
29.67169478
 20
-165.58156989
 30
0.0
 11
11.67169478
 21
-165.58156989
 31
0.0
  0
LINE
  5
175
100
AcDbEntity
  8
SLD-0_4
  6
PHANTOM
 62
       7
100
AcDbLine
 10
11.67169478
 20
-165.58156989
 30
0.0
 11
11.67169478
 21
-117.58156989
 31
0.0
  0
LINE
  5
176
100
AcDbEntity
  8
SLD-0_4
  6
PHANTOM
 62
       7
100
AcDbLine
 10
30.67169478
 20
-165.58156989
 30
0.0
 11
30.67169478
 21
-117.58156989
 31
0.0
  0
LINE
  5
177
100
AcDbEntity
  8
SLD-0_4
  6
PHANTOM
 62
       7
100
AcDbLine
 10
86.67169478
 20
-165.58156989
 30
0.0
 11
68.67169478
 21
-165.58156989
 31
0.0
  0
LINE
  5
178
100
AcDbEntity
  8
SLD-0_4
  6
PHANTOM
 62
       7
100
AcDbLine
 10
125.67169478
 20
-165.58156989
 30
0.0
 11
125.67169478
 21
-117.58156989
 31
0.0
  0
LINE
  5
179
100
AcDbEntity
  8
SLD-0_4
  6
PHANTOM
 62
       7
100
AcDbLine
 10
143.67169478
 20
-117.58156989
 30
0.0
 11
125.67169478
 21
-117.58156989
 31
0.0
  0
LINE
  5
17A
100
AcDbEntity
  8
SLD-0_4
  6
PHANTOM
 62
       7
100
AcDbLine
 10
106.67169478
 20
-165.58156989
 30
0.0
 11
106.67169478
 21
-117.58156989
 31
0.0
  0
LINE
  5
17B
100
AcDbEntity
  8
SLD-0_4
  6
PHANTOM
 62
       7
100
AcDbLine
 10
67.67169478
 20
-165.58156989
 30
0.0
 11
49.67169478
 21
-165.58156989
 31
0.0
  0
LINE
  5
17C
100
AcDbEntity
  8
SLD-0_4
  6
PHANTOM
 62
       7
100
AcDbLine
 10
124.67169478
 20
-165.58156989
 30
0.0
 11
106.67169478
 21
-165.58156989
 31
0.0
  0
LINE
  5
17D
100
AcDbEntity
  8
SLD-0_4
  6
PHANTOM
 62
       7
100
AcDbLine
 10
105.67169478
 20
-165.58156989
 30
0.0
 11
105.67169478
 21
-117.58156989
 31
0.0
  0
LINE
  5
17E
100
AcDbEntity
  8
SLD-0_4
  6
PHANTOM
 62
       7
100
AcDbLine
 10
49.67169478
 20
-165.58156989
 30
0.0
 11
49.67169478
 21
-117.58156989
 31
0.0
  0
LINE
  5
17F
100
AcDbEntity
  8
SLD-0_4
  6
PHANTOM
 62
       7
100
AcDbLine
 10
143.67169478
 20
-165.58156989
 30
0.0
 11
143.67169478
 21
-117.58156989
 31
0.0
  0
LINE
  5
180
100
AcDbEntity
  8
SLD-0_4
  6
PHANTOM
 62
       7
100
AcDbLine
 10
105.67169478
 20
-117.58156989
 30
0.0
 11
87.67169478
 21
-117.58156989
 31
0.0
  0
LINE
  5
181
100
AcDbEntity
  8
SLD-0_4
  6
PHANTOM
 62
       7
100
AcDbLine
 10
143.67169478
 20
-165.58156989
 30
0.0
 11
125.67169478
 21
-165.58156989
 31
0.0
  0
LINE
  5
182
100
AcDbEntity
  8
SLD-0_4
  6
PHANTOM
 62
       7
100
AcDbLine
 10
124.67169478
 20
-165.58156989
 30
0.0
 11
124.67169478
 21
-117.58156989
 31
0.0
  0
LINE
  5
183
100
AcDbEntity
  8
SLD-0_4
  6
PHANTOM
 62
       7
100
AcDbLine
 10
48.67169478
 20
-117.58156989
 30
0.0
 11
30.67169478
 21
-117.58156989
 31
0.0
  0
LINE
  5
184
100
AcDbEntity
  8
SLD-0_4
  6
PHANTOM
 62
       7
100
AcDbLine
 10
86.67169478
 20
-117.58156989
 30
0.0
 11
68.67169478
 21
-117.58156989
 31
0.0
  0
LINE
  5
185
100
AcDbEntity
  8
SLD-0_4
  6
PHANTOM
 62
       7
100
AcDbLine
 10
67.67169478
 20
-165.58156989
 30
0.0
 11
67.67169478
 21
-117.58156989
 31
0.0
  0
LINE
  5
186
100
AcDbEntity
  8
SLD-0_4
  6
PHANTOM
 62
       7
100
AcDbLine
 10
67.67169478
 20
-117.58156989
 30
0.0
 11
49.67169478
 21
-117.58156989
 31
0.0
  0
LINE
  5
187
100
AcDbEntity
  8
SLD-0_4
  6
PHANTOM
 62
       7
100
AcDbLine
 10
86.67169478
 20
304.41843011
 30
0.0
 11
86.67169478
 21
352.41843011
 31
0.0
  0
LINE
  5
188
100
AcDbEntity
  8
SLD-0_4
  6
PHANTOM
 62
       7
100
AcDbLine
 10
105.67169478
 20
352.41843011
 30
0.0
 11
87.67169478
 21
352.41843011
 31
0.0
  0
LINE
  5
189
100
AcDbEntity
  8
SLD-0_4
  6
PHANTOM
 62
       7
100
AcDbLine
 10
144.67169478
 20
304.41843011
 30
0.0
 11
144.67169478
 21
352.41843011
 31
0.0
  0
LINE
  5
18A
100
AcDbEntity
  8
SLD-0_4
  6
PHANTOM
 62
       7
100
AcDbLine
 10
143.67169478
 20
304.41843011
 30
0.0
 11
125.67169478
 21
304.41843011
 31
0.0
  0
LINE
  5
18B
100
AcDbEntity
  8
SLD-0_4
  6
PHANTOM
 62
       7
100
AcDbLine
 10
29.67169478
 20
352.41843011
 30
0.0
 11
11.67169478
 21
352.41843011
 31
0.0
  0
LINE
  5
18C
100
AcDbEntity
  8
SLD-0_4
  6
PHANTOM
 62
       7
100
AcDbLine
 10
124.67169478
 20
304.41843011
 30
0.0
 11
124.67169478
 21
352.41843011
 31
0.0
  0
LINE
  5
18D
100
AcDbEntity
  8
SLD-0_4
  6
PHANTOM
 62
       7
100
AcDbLine
 10
29.67169478
 20
304.41843011
 30
0.0
 11
29.67169478
 21
352.41843011
 31
0.0
  0
LINE
  5
18E
100
AcDbEntity
  8
SLD-0_4
  6
PHANTOM
 62
       7
100
AcDbLine
 10
48.67169478
 20
352.41843011
 30
0.0
 11
30.67169478
 21
352.41843011
 31
0.0
  0
LINE
  5
18F
100
AcDbEntity
  8
SLD-0_4
  6
PHANTOM
 62
       7
100
AcDbLine
 10
48.67169478
 20
304.41843011
 30
0.0
 11
30.67169478
 21
304.41843011
 31
0.0
  0
LINE
  5
190
100
AcDbEntity
  8
SLD-0_4
  6
PHANTOM
 62
       7
100
AcDbLine
 10
86.67169478
 20
352.41843011
 30
0.0
 11
68.67169478
 21
352.41843011
 31
0.0
  0
LINE
  5
191
100
AcDbEntity
  8
SLD-0_4
  6
PHANTOM
 62
       7
100
AcDbLine
 10
29.67169478
 20
304.41843011
 30
0.0
 11
11.67169478
 21
304.41843011
 31
0.0
  0
LINE
  5
192
100
AcDbEntity
  8
SLD-0_4
  6
PHANTOM
 62
       7
100
AcDbLine
 10
67.67169478
 20
304.41843011
 30
0.0
 11
67.67169478
 21
352.41843011
 31
0.0
  0
LINE
  5
193
100
AcDbEntity
  8
SLD-0_4
  6
PHANTOM
 62
       7
100
AcDbLine
 10
11.67169478
 20
304.41843011
 30
0.0
 11
11.67169478
 21
352.41843011
 31
0.0
  0
LINE
  5
194
100
AcDbEntity
  8
SLD-0_4
  6
PHANTOM
 62
       7
100
AcDbLine
 10
67.67169478
 20
352.41843011
 30
0.0
 11
49.67169478
 21
352.41843011
 31
0.0
  0
LINE
  5
195
100
AcDbEntity
  8
SLD-0_4
  6
PHANTOM
 62
       7
100
AcDbLine
 10
30.67169478
 20
304.41843011
 30
0.0
 11
30.67169478
 21
352.41843011
 31
0.0
  0
LINE
  5
196
100
AcDbEntity
  8
SLD-0_4
  6
PHANTOM
 62
       7
100
AcDbLine
 10
-66.32830522
 20
280.41843011
 30
0.0
 11
-66.32830522
 21
375.41843011
 31
0.0
  0
LINE
  5
197
100
AcDbEntity
  8
SLD-0_4
  6
PHANTOM
 62
       7
100
AcDbLine
 10
5.68361307
 20
280.4184185
 30
0.0
 11
5.68361307
 21
375.41843011
 31
0.0
  0
LINE
  5
198
100
AcDbEntity
  8
SLD-0_4
  6
PHANTOM
 62
       7
100
AcDbLine
 10
86.67169478
 20
304.41843011
 30
0.0
 11
68.67169478
 21
304.41843011
 31
0.0
  0
LINE
  5
199
100
AcDbEntity
  8
SLD-0_4
  6
PHANTOM
 62
       7
100
AcDbLine
 10
124.67169478
 20
352.41843011
 30
0.0
 11
106.67169478
 21
352.41843011
 31
0.0
  0
LINE
  5
19A
100
AcDbEntity
  8
SLD-0_4
  6
PHANTOM
 62
       7
100
AcDbLine
 10
125.67169478
 20
304.41843011
 30
0.0
 11
125.67169478
 21
352.41843011
 31
0.0
  0
LINE
  5
19B
100
AcDbEntity
  8
SLD-0_4
  6
PHANTOM
 62
       7
100
AcDbLine
 10
105.67169478
 20
304.41843011
 30
0.0
 11
87.67169478
 21
304.41843011
 31
0.0
  0
LINE
  5
19C
100
AcDbEntity
  8
SLD-0_4
  6
PHANTOM
 62
       7
100
AcDbLine
 10
143.67169478
 20
352.41843011
 30
0.0
 11
125.67169478
 21
352.41843011
 31
0.0
  0
LINE
  5
19D
100
AcDbEntity
  8
SLD-0_4
  6
PHANTOM
 62
       7
100
AcDbLine
 10
87.67169478
 20
304.41843011
 30
0.0
 11
87.67169478
 21
352.41843011
 31
0.0
  0
LINE
  5
19E
100
AcDbEntity
  8
SLD-0_4
  6
PHANTOM
 62
       7
100
AcDbLine
 10
106.67169478
 20
304.41843011
 30
0.0
 11
106.67169478
 21
352.41843011
 31
0.0
  0
LINE
  5
19F
100
AcDbEntity
  8
SLD-0_4
  6
PHANTOM
 62
       7
100
AcDbLine
 10
48.67169478
 20
304.41843011
 30
0.0
 11
48.67169478
 21
352.41843011
 31
0.0
  0
LINE
  5
1A0
100
AcDbEntity
  8
SLD-0_4
  6
PHANTOM
 62
       7
100
AcDbLine
 10
67.67169478
 20
304.41843011
 30
0.0
 11
49.67169478
 21
304.41843011
 31
0.0
  0
LINE
  5
1A1
100
AcDbEntity
  8
SLD-0_4
  6
PHANTOM
 62
       7
100
AcDbLine
 10
162.67169478
 20
304.41843011
 30
0.0
 11
162.67169478
 21
352.41843011
 31
0.0
  0
LINE
  5
1A2
100
AcDbEntity
  8
SLD-0_4
  6
PHANTOM
 62
       7
100
AcDbLine
 10
124.67169478
 20
304.41843011
 30
0.0
 11
106.67169478
 21
304.41843011
 31
0.0
  0
LINE
  5
1A3
100
AcDbEntity
  8
SLD-0_4
  6
PHANTOM
 62
       7
100
AcDbLine
 10
162.67169478
 20
304.41843011
 30
0.0
 11
144.67169478
 21
304.41843011
 31
0.0
  0
LINE
  5
1A4
100
AcDbEntity
  8
SLD-0_4
  6
PHANTOM
 62
       7
100
AcDbLine
 10
124.67169478
 20
-117.58156989
 30
0.0
 11
106.67169478
 21
-117.58156989
 31
0.0
  0
LINE
  5
1A5
100
AcDbEntity
  8
SLD-0_4
  6
PHANTOM
 62
       7
100
AcDbLine
 10
105.67169478
 20
-165.58156989
 30
0.0
 11
87.67169478
 21
-165.58156989
 31
0.0
  0
LINE
  5
1A6
100
AcDbEntity
  8
SLD-0_4
  6
PHANTOM
 62
       7
100
AcDbLine
 10
87.67169478
 20
-165.58156989
 30
0.0
 11
87.67169478
 21
-117.58156989
 31
0.0
  0
LINE
  5
1A7
100
AcDbEntity
  8
SLD-0_4
  6
PHANTOM
 62
       7
100
AcDbLine
 10
48.67169478
 20
-165.58156989
 30
0.0
 11
48.67169478
 21
-117.58156989
 31
0.0
  0
LINE
  5
1A8
100
AcDbEntity
  8
SLD-0_4
  6
PHANTOM
 62
       7
100
AcDbLine
 10
162.67169478
 20
-165.58156989
 30
0.0
 11
162.67169478
 21
-117.58156989
 31
0.0
  0
LINE
  5
1A9
100
AcDbEntity
  8
SLD-0_4
  6
PHANTOM
 62
       7
100
AcDbLine
 10
162.67169478
 20
-165.58156989
 30
0.0
 11
144.67169478
 21
-165.58156989
 31
0.0
  0
LINE
  5
1AA
100
AcDbEntity
  8
SLD-0_4
  6
PHANTOM
 62
       7
100
AcDbLine
 10
68.67169478
 20
-165.58156989
 30
0.0
 11
68.67169478
 21
-117.58156989
 31
0.0
  0
LINE
  5
1AB
100
AcDbEntity
  8
SLD-0_4
  6
PHANTOM
 62
       7
100
AcDbLine
 10
162.67169478
 20
-117.58156989
 30
0.0
 11
144.67169478
 21
-117.58156989
 31
0.0
  0
LINE
  5
1AC
100
AcDbEntity
  8
SLD-0_4
  6
PHANTOM
 62
       7
100
AcDbLine
 10
105.67169478
 20
304.41843011
 30
0.0
 11
105.67169478
 21
352.41843011
 31
0.0
  0
LINE
  5
1AD
100
AcDbEntity
  8
SLD-0_4
  6
PHANTOM
 62
       7
100
AcDbLine
 10
68.67169478
 20
304.41843011
 30
0.0
 11
68.67169478
 21
352.41843011
 31
0.0
  0
LINE
  5
1AE
100
AcDbEntity
  8
SLD-0_4
  6
PHANTOM
 62
       7
100
AcDbLine
 10
49.67169478
 20
304.41843011
 30
0.0
 11
49.67169478
 21
352.41843011
 31
0.0
  0
LINE
  5
1AF
100
AcDbEntity
  8
SLD-0_4
  6
PHANTOM
 62
       7
100
AcDbLine
 10
162.67169478
 20
352.41843011
 30
0.0
 11
144.67169478
 21
352.41843011
 31
0.0
  0
LINE
  5
1B0
100
AcDbEntity
  8
SLD-0_4
  6
PHANTOM
 62
       7
100
AcDbLine
 10
143.67169478
 20
304.41843011
 30
0.0
 11
143.67169478
 21
352.41843011
 31
0.0
  0
LINE
  5
1B1
100
AcDbEntity
  8
SLD-0_4
  6
PHANTOM
 62
       7
100
AcDbLine
 10
-37.34522708
 20
370.39962882
 30
0.0
 11
-37.50294784
 21
370.66400737
 31
0.0
  0
LINE
  5
1B2
100
AcDbEntity
  8
SLD-0_4
  6
PHANTOM
 62
       7
100
AcDbLine
 10
-39.18169812
 20
371.95082701
 30
0.0
 11
-39.48496178
 21
372.03548481
 31
0.0
  0
LINE
  5
1B3
100
AcDbEntity
  8
SLD-0_4
  6
PHANTOM
 62
       7
100
AcDbLine
 10
-43.13509029
 20
367.49161699
 30
0.0
 11
-42.98978685
 21
367.21930432
 31
0.0
  0
LINE
  5
1B4
100
AcDbEntity
  8
SLD-0_4
  6
PHANTOM
 62
       7
100
AcDbLine
 10
-36.98179089
 20
368.55031973
 30
0.0
 11
-36.96556794
 21
368.87657723
 31
0.0
  0
LINE
  5
1B5
100
AcDbEntity
  8
SLD-0_4
  6
PHANTOM
 62
       7
100
AcDbLine
 10
-49.68493046
 20
365.66246184
 30
0.0
 11
-49.37047089
 21
365.71766964
 31
0.0
  0
LINE
  5
1B6
100
AcDbEntity
  8
SLD-0_4
  6
PHANTOM
 62
       7
100
AcDbLine
 10
-6.49752931
 20
363.39122018
 30
0.0
 11
-6.49752931
 21
374.21551772
 31
0.0
  0
LINE
  5
1B7
100
AcDbEntity
  8
SLD-0_4
  6
PHANTOM
 62
       7
100
AcDbLine
 10
-24.49336656
 20
374.21551772
 30
0.0
 11
-24.49336656
 21
363.39122018
 31
0.0
  0
LINE
  5
1B8
100
AcDbEntity
  8
SLD-0_4
  6
PHANTOM
 62
       7
100
AcDbLine
 10
-13.59705268
 20
367.77863375
 30
0.0
 11
-13.47776517
 21
367.49161699
 31
0.0
  0
LINE
  5
1B9
100
AcDbEntity
  8
SLD-0_4
  6
PHANTOM
 62
       7
100
AcDbLine
 10
-22.15759177
 20
371.6205251
 30
0.0
 11
-22.40959211
 21
371.44501589
 31
0.0
  0
LINE
  5
1BA
100
AcDbEntity
  8
SLD-0_4
  6
PHANTOM
 62
       7
100
AcDbLine
 10
-33.24956085
 20
370.26153746
 30
0.0
 11
-33.36891382
 21
369.9745207
 31
0.0
  0
LINE
  5
1BB
100
AcDbEntity
  8
SLD-0_4
  6
PHANTOM
 62
       7
100
AcDbLine
 10
-32.74191798
 20
366.72500006
 30
0.0
 11
-32.52802528
 21
366.50611286
 31
0.0
  0
LINE
  5
1BC
100
AcDbEntity
  8
SLD-0_4
  6
PHANTOM
 62
       7
100
AcDbLine
 10
-30.56491284
 20
365.64638675
 30
0.0
 11
-30.23709937
 21
365.63825623
 31
0.0
  0
LINE
  5
1BD
100
AcDbEntity
  8
SLD-0_4
  6
PHANTOM
 62
       7
100
AcDbLine
 10
-37.68430353
 20
370.91135353
 30
0.0
 11
-37.88773927
 21
371.14011509
 31
0.0
  0
LINE
  5
1BE
100
AcDbEntity
  8
SLD-0_4
  6
PHANTOM
 62
       7
100
AcDbLine
 10
-43.40900837
 20
368.39057074
 30
0.0
 11
-43.34625726
 21
368.0788024
 31
0.0
  0
LINE
  5
1BF
100
AcDbEntity
  8
SLD-0_4
  6
PHANTOM
 62
       7
100
AcDbLine
 10
-51.26197969
 20
371.89793943
 30
0.0
 11
-51.54543768
 21
371.77201701
 31
0.0
  0
LINE
  5
1C0
100
AcDbEntity
  8
SLD-0_4
  6
PHANTOM
 62
       7
100
AcDbLine
 10
-34.37887567
 20
374.21551772
 30
0.0
 11
-34.37887567
 21
363.39122018
 31
0.0
  0
LINE
  5
1C1
100
AcDbEntity
  8
SLD-0_4
  6
PHANTOM
 62
       7
100
AcDbLine
 10
-8.23074449
 20
366.61303936
 30
0.0
 11
-8.02739645
 21
366.84180092
 31
0.0
  0
LINE
  5
1C2
100
AcDbEntity
  8
SLD-0_4
  6
PHANTOM
 62
       7
100
AcDbLine
 10
-18.34130519
 20
366.40441459
 30
0.0
 11
-18.11731338
 21
366.61303936
 31
0.0
  0
LINE
  5
1C3
100
AcDbEntity
  8
SLD-0_4
  6
PHANTOM
 62
       7
100
AcDbLine
 10
-30.8843873
 20
372.06686698
 30
0.0
 11
-31.19344327
 21
371.99674015
 31
0.0
  0
LINE
  5
1C4
100
AcDbEntity
  8
SLD-0_4
  6
PHANTOM
 62
       7
100
AcDbLine
 10
-32.29438485
 20
366.30813856
 30
0.0
 11
-32.04255156
 21
366.13262935
 31
0.0
  0
LINE
  5
1C5
100
AcDbEntity
  8
SLD-0_4
  6
PHANTOM
 62
       7
100
AcDbLine
 10
-37.21269613
 20
370.11977008
 30
0.0
 11
-37.34522708
 21
370.39962882
 31
0.0
  0
LINE
  5
1C6
100
AcDbEntity
  8
SLD-0_4
  6
PHANTOM
 62
       7
100
AcDbLine
 10
-38.35463142
 20
366.21747881
 30
0.0
 11
-38.1117002
 21
366.40441459
 31
0.0
  0
LINE
  5
1C7
100
AcDbEntity
  8
SLD-0_4
  6
PHANTOM
 62
       7
100
AcDbLine
 10
-52.70558752
 20
366.96324794
 30
0.0
 11
-52.51303029
 21
366.72500006
 31
0.0
  0
LINE
  5
1C8
100
AcDbEntity
  8
SLD-0_4
  6
PHANTOM
 62
       7
100
AcDbLine
 10
-14.60785745
 20
363.39122018
 30
0.0
 11
-13.71404666
 21
363.39122018
 31
0.0
  0
LINE
  5
1C9
100
AcDbEntity
  8
SLD-0_4
  6
PHANTOM
 62
       7
100
AcDbLine
 10
-43.37057399
 20
375.49498778
 30
0.0
 11
-43.37057399
 21
374.21551772
 31
0.0
  0
LINE
  5
1CA
100
AcDbEntity
  8
SLD-0_4
  6
PHANTOM
 62
       7
100
AcDbLine
 10
-7.3728559
 20
369.51982083
 30
0.0
 11
-7.45029672
 21
369.82598335
 31
0.0
  0
LINE
  5
1CB
100
AcDbEntity
  8
SLD-0_4
  6
PHANTOM
 62
       7
100
AcDbLine
 10
-13.33252011
 20
370.53385013
 30
0.0
 11
-13.47776517
 21
370.26153746
 31
0.0
  0
LINE
  5
1CC
100
AcDbEntity
  8
SLD-0_4
  6
PHANTOM
 62
       7
100
AcDbLine
 10
-23.05023917
 20
370.78990651
 30
0.0
 11
-23.22013612
 21
370.53385013
 31
0.0
  0
LINE
  5
1CD
100
AcDbEntity
  8
SLD-0_4
  6
PHANTOM
 62
       7
100
AcDbLine
 10
-27.09628156
 20
369.20283472
 30
0.0
 11
-27.14391226
 21
369.51982083
 31
0.0
  0
LINE
  5
1CE
100
AcDbEntity
  8
SLD-0_4
  6
PHANTOM
 62
       7
100
AcDbLine
 10
-32.04255156
 20
371.6205251
 30
0.0
 11
-32.29438485
 21
371.44501589
 31
0.0
  0
LINE
  5
1CF
100
AcDbEntity
  8
SLD-0_4
  6
PHANTOM
 62
       7
100
AcDbLine
 10
-28.2260285
 20
366.40441459
 30
0.0
 11
-28.00211598
 21
366.61303936
 31
0.0
  0
LINE
  5
1D0
100
AcDbEntity
  8
SLD-0_4
  6
PHANTOM
 62
       7
100
AcDbLine
 10
-42.18008517
 20
366.30813856
 30
0.0
 11
-41.92831884
 21
366.13262935
 31
0.0
  0
LINE
  5
1D1
100
AcDbEntity
  8
SLD-0_4
  6
PHANTOM
 62
       7
100
AcDbLine
 10
-52.29918047
 20
366.50611286
 30
0.0
 11
-52.06559428
 21
366.30813856
 31
0.0
  0
LINE
  5
1D2
100
AcDbEntity
  8
SLD-0_4
  6
PHANTOM
 62
       7
100
AcDbLine
 10
-53.2560831
 20
375.49498778
 30
0.0
 11
-53.2560831
 21
374.21551772
 31
0.0
  0
LINE
  5
1D3
100
AcDbEntity
  8
SLD-0_4
  6
PHANTOM
 62
       7
100
AcDbLine
 10
-7.84612545
 20
370.66400737
 30
0.0
 11
-8.02739645
 21
370.91135353
 31
0.0
  0
LINE
  5
1D4
100
AcDbEntity
  8
SLD-0_4
  6
PHANTOM
 62
       7
100
AcDbLine
 10
-7.55602338
 20
367.63338437
 30
0.0
 11
-7.45029672
 21
367.9271711
 31
0.0
  0
LINE
  5
1D5
100
AcDbEntity
  8
SLD-0_4
  6
PHANTOM
 62
       7
100
AcDbLine
 10
-20.67941559
 20
365.64638675
 30
0.0
 11
-20.3516759
 21
365.63825623
 31
0.0
  0
LINE
  5
1D6
100
AcDbEntity
  8
SLD-0_4
  6
PHANTOM
 62
       7
100
AcDbLine
 10
-17.57455732
 20
367.35352563
 30
0.0
 11
-17.4419259
 21
367.63338437
 31
0.0
  0
LINE
  5
1D7
100
AcDbEntity
  8
SLD-0_4
  6
PHANTOM
 62
       7
100
AcDbLine
 10
-27.45969009
 20
370.39962882
 30
0.0
 11
-27.61739055
 21
370.66400737
 31
0.0
  0
LINE
  5
1D8
100
AcDbEntity
  8
SLD-0_4
  6
PHANTOM
 62
       7
100
AcDbLine
 10
-32.93450805
 20
370.78990651
 30
0.0
 11
-33.10424064
 21
370.53385013
 31
0.0
  0
LINE
  5
1D9
100
AcDbEntity
  8
SLD-0_4
  6
PHANTOM
 62
       7
100
AcDbLine
 10
-38.89118526
 20
371.83827142
 30
0.0
 11
-39.18169812
 21
371.95082701
 31
0.0
  0
LINE
  5
1DA
100
AcDbEntity
  8
SLD-0_4
  6
PHANTOM
 62
       7
100
AcDbLine
 10
-48.50048718
 20
371.69937023
 30
0.0
 11
-48.77669437
 21
371.83827142
 31
0.0
  0
LINE
  5
1DB
100
AcDbEntity
  8
SLD-0_4
  6
PHANTOM
 62
       7
100
AcDbLine
 10
-46.91493227
 20
368.23333362
 30
0.0
 11
-46.8673
 21
368.55031973
 31
0.0
  0
LINE
  5
1DC
100
AcDbEntity
  8
SLD-0_4
  6
PHANTOM
 62
       7
100
AcDbLine
 10
-3.82853754
 20
363.39122018
 30
0.0
 11
-3.82853754
 21
362.49740939
 31
0.0
  0
LINE
  5
1DD
100
AcDbEntity
  8
SLD-0_4
  6
PHANTOM
 62
       7
100
AcDbLine
 10
-27.17192803
 20
362.49740939
 30
0.0
 11
-27.17192803
 21
363.39122018
 31
0.0
  0
LINE
  5
1DE
100
AcDbEntity
  8
SLD-0_4
  6
PHANTOM
 62
       7
100
AcDbLine
 10
-46.03956575
 20
363.39122018
 30
0.0
 11
-46.03956575
 21
374.21551772
 31
0.0
  0
LINE
  5
1DF
100
AcDbEntity
  8
SLD-0_4
  6
PHANTOM
 62
       7
100
AcDbLine
 10
-13.75154627
 20
369.36258371
 30
0.0
 11
-13.78364794
 21
369.04076788
 31
0.0
  0
LINE
  5
1E0
100
AcDbEntity
  8
SLD-0_4
  6
PHANTOM
 62
       7
100
AcDbLine
 10
-20.99893999
 20
372.06686698
 30
0.0
 11
-21.30808005
 21
371.99674015
 31
0.0
  0
LINE
  5
1E1
100
AcDbEntity
  8
SLD-0_4
  6
PHANTOM
 62
       7
100
AcDbLine
 10
-23.67201998
 20
368.71238657
 30
0.0
 11
-23.63985743
 21
368.39057074
 31
0.0
  0
LINE
  5
1E2
100
AcDbEntity
  8
SLD-0_4
  6
PHANTOM
 62
       7
100
AcDbLine
 10
-21.60527551
 20
365.85521502
 30
0.0
 11
-21.30808005
 21
365.7564143
 31
0.0
  0
LINE
  5
1E3
100
AcDbEntity
  8
SLD-0_4
  6
PHANTOM
 62
       7
100
AcDbLine
 10
-19.12060058
 20
365.91488303
 30
0.0
 11
-18.84451303
 21
366.05378422
 31
0.0
  0
LINE
  5
1E4
100
AcDbEntity
  8
SLD-0_4
  6
PHANTOM
 62
       7
100
AcDbLine
 10
-31.49052589
 20
365.85521502
 30
0.0
 11
-31.19344327
 21
365.7564143
 31
0.0
  0
LINE
  5
1E5
100
AcDbEntity
  8
SLD-0_4
  6
PHANTOM
 62
       7
100
AcDbLine
 10
-43.25443249
 20
369.9745207
 30
0.0
 11
-43.34625726
 21
369.67435205
 31
0.0
  0
LINE
  5
1E6
100
AcDbEntity
  8
SLD-0_4
  6
PHANTOM
 62
       7
100
AcDbLine
 10
-53.0205994
 20
370.26153746
 30
0.0
 11
-53.13994161
 21
369.9745207
 31
0.0
  0
LINE
  5
1E7
100
AcDbEntity
  8
SLD-0_4
  6
PHANTOM
 62
       7
100
AcDbLine
 10
-50.00903108
 20
365.63825623
 30
0.0
 11
-49.68493046
 21
365.66246184
 31
0.0
  0
LINE
  5
1E8
100
AcDbEntity
  8
SLD-0_4
  6
PHANTOM
 62
       7
100
AcDbLine
 10
-37.0555232
 20
362.49740939
 30
0.0
 11
-37.0555232
 21
363.39122018
 31
0.0
  0
LINE
  5
1E9
100
AcDbEntity
  8
SLD-0_4
  6
PHANTOM
 62
       7
100
AcDbLine
 10
-10.46603833
 20
372.11489822
 30
0.0
 11
-10.79388869
 21
372.1067677
 31
0.0
  0
LINE
  5
1EA
100
AcDbEntity
  8
SLD-0_4
  6
PHANTOM
 62
       7
100
AcDbLine
 10
-17.33604519
 20
369.82598335
 30
0.0
 11
-17.4419259
 21
370.11977008
 31
0.0
  0
LINE
  5
1EB
100
AcDbEntity
  8
SLD-0_4
  6
PHANTOM
 62
       7
100
AcDbLine
 10
-20.02802678
 20
372.09069261
 30
0.0
 11
-20.3516759
 21
372.11489822
 31
0.0
  0
LINE
  5
1EC
100
AcDbEntity
  8
SLD-0_4
  6
PHANTOM
 62
       7
100
AcDbLine
 10
-22.40959211
 20
371.44501589
 30
0.0
 11
-22.64340694
 21
371.24704159
 31
0.0
  0
LINE
  5
1ED
100
AcDbEntity
  8
SLD-0_4
  6
PHANTOM
 62
       7
100
AcDbLine
 10
-20.99893999
 20
365.68628748
 30
0.0
 11
-20.67941559
 21
365.64638675
 31
0.0
  0
LINE
  5
1EE
100
AcDbEntity
  8
SLD-0_4
  6
PHANTOM
 62
       7
100
AcDbLine
 10
-29.91315956
 20
372.09069261
 30
0.0
 11
-30.23709937
 21
372.11489822
 31
0.0
  0
LINE
  5
1EF
100
AcDbEntity
  8
SLD-0_4
  6
PHANTOM
 62
       7
100
AcDbLine
 10
-27.09628156
 20
368.55031973
 30
0.0
 11
-27.08005883
 21
368.87657723
 31
0.0
  0
LINE
  5
1F0
100
AcDbEntity
  8
SLD-0_4
  6
PHANTOM
 62
       7
100
AcDbLine
 10
-37.02942316
 20
368.23333362
 30
0.0
 11
-36.98179089
 21
368.55031973
 31
0.0
  0
LINE
  5
1F1
100
AcDbEntity
  8
SLD-0_4
  6
PHANTOM
 62
       7
100
AcDbLine
 10
-50.9650102
 20
371.99674015
 30
0.0
 11
-51.26197969
 21
371.89793943
 31
0.0
  0
LINE
  5
1F2
100
AcDbEntity
  8
SLD-0_4
  6
PHANTOM
 62
       7
100
AcDbLine
 10
-53.13994161
 20
367.77863375
 30
0.0
 11
-53.0205994
 21
367.49161699
 31
0.0
  0
LINE
  5
1F3
100
AcDbEntity
  8
SLD-0_4
  6
PHANTOM
 62
       7
100
AcDbLine
 10
-48.77669437
 20
365.91488303
 30
0.0
 11
-48.50048718
 21
366.05378422
 31
0.0
  0
LINE
  5
1F4
100
AcDbEntity
  8
SLD-0_4
  6
PHANTOM
 62
       7
100
AcDbLine
 10
-56.8274984
 20
362.49740939
 30
0.0
 11
-56.8274984
 21
363.39122018
 31
0.0
  0
LINE
  5
1F5
100
AcDbEntity
  8
SLD-0_4
  6
PHANTOM
 62
       7
100
AcDbLine
 10
-11.11333817
 20
372.06686698
 30
0.0
 11
-11.4223521
 21
371.99674015
 31
0.0
  0
LINE
  5
1F6
100
AcDbEntity
  8
SLD-0_4
  6
PHANTOM
 62
       7
100
AcDbLine
 10
-13.16286971
 20
366.96324794
 30
0.0
 11
-12.97036617
 21
366.72500006
 31
0.0
  0
LINE
  5
1F7
100
AcDbEntity
  8
SLD-0_4
  6
PHANTOM
 62
       7
100
AcDbLine
 10
-8.45461738
 20
366.40441459
 30
0.0
 11
-8.23074449
 21
366.61303936
 31
0.0
  0
LINE
  5
1F8
100
AcDbEntity
  8
SLD-0_4
  6
PHANTOM
 62
       7
100
AcDbLine
 10
-18.11731338
 20
371.14011509
 30
0.0
 11
-18.34130519
 21
371.34873986
 31
0.0
  0
LINE
  5
1F9
100
AcDbEntity
  8
SLD-0_4
  6
PHANTOM
 62
       7
100
AcDbLine
 10
-23.22013612
 20
370.53385013
 30
0.0
 11
-23.36560665
 21
370.26153746
 31
0.0
  0
LINE
  5
1FA
100
AcDbEntity
  8
SLD-0_4
  6
PHANTOM
 62
       7
100
AcDbLine
 10
-17.4419259
 20
367.63338437
 30
0.0
 11
-17.33604519
 21
367.9271711
 31
0.0
  0
LINE
  5
1FB
100
AcDbEntity
  8
SLD-0_4
  6
PHANTOM
 62
       7
100
AcDbLine
 10
-33.52349851
 20
368.39057074
 30
0.0
 11
-33.46074466
 21
368.0788024
 31
0.0
  0
LINE
  5
1FC
100
AcDbEntity
  8
SLD-0_4
  6
PHANTOM
 62
       7
100
AcDbLine
 10
-43.44112962
 20
368.71238657
 30
0.0
 11
-43.40900837
 21
368.39057074
 31
0.0
  0
LINE
  5
1FD
100
AcDbEntity
  8
SLD-0_4
  6
PHANTOM
 62
       7
100
AcDbLine
 10
-38.61497806
 20
366.05378422
 30
0.0
 11
-38.35463142
 21
366.21747881
 31
0.0
  0
LINE
  5
1FE
100
AcDbEntity
  8
SLD-0_4
  6
PHANTOM
 62
       7
100
AcDbLine
 10
-47.38845695
 20
370.66400737
 30
0.0
 11
-47.56981264
 21
370.91135353
 31
0.0
  0
LINE
  5
1FF
100
AcDbEntity
  8
SLD-0_4
  6
PHANTOM
 62
       7
100
AcDbLine
 10
-52.06559428
 20
371.44501589
 30
0.0
 11
-52.29918047
 21
371.24704159
 31
0.0
  0
LINE
  5
200
100
AcDbEntity
  8
SLD-0_4
  6
PHANTOM
 62
       7
100
AcDbLine
 10
-52.06559428
 20
366.30813856
 30
0.0
 11
-51.81382795
 21
366.13262935
 31
0.0
  0
LINE
  5
201
100
AcDbEntity
  8
SLD-0_4
  6
PHANTOM
 62
       7
100
AcDbLine
 10
-33.48506488
 20
363.39122018
 30
0.0
 11
-33.48506488
 21
362.49740939
 31
0.0
  0
LINE
  5
202
100
AcDbEntity
  8
SLD-0_4
  6
PHANTOM
 62
       7
100
AcDbLine
 10
-8.23074449
 20
371.14011509
 30
0.0
 11
-8.45461738
 21
371.34873986
 31
0.0
  0
LINE
  5
203
100
AcDbEntity
  8
SLD-0_4
  6
PHANTOM
 62
       7
100
AcDbLine
 10
-11.7193783
 20
371.89793943
 30
0.0
 11
-12.00286455
 21
371.77201701
 31
0.0
  0
LINE
  5
204
100
AcDbEntity
  8
SLD-0_4
  6
PHANTOM
 62
       7
100
AcDbLine
 10
-13.47776517
 20
370.26153746
 30
0.0
 11
-13.59705268
 21
369.9745207
 31
0.0
  0
LINE
  5
205
100
AcDbEntity
  8
SLD-0_4
  6
PHANTOM
 62
       7
100
AcDbLine
 10
-9.52431334
 20
365.80232744
 30
0.0
 11
-9.23386309
 21
365.91488303
 31
0.0
  0
LINE
  5
206
100
AcDbEntity
  8
SLD-0_4
  6
PHANTOM
 62
       7
100
AcDbLine
 10
-19.7139217
 20
372.03548481
 30
0.0
 11
-20.02802678
 21
372.09069261
 31
0.0
  0
LINE
  5
207
100
AcDbEntity
  8
SLD-0_4
  6
PHANTOM
 62
       7
100
AcDbLine
 10
-33.36891382
 20
367.77863375
 30
0.0
 11
-33.24956085
 21
367.49161699
 31
0.0
  0
LINE
  5
208
100
AcDbEntity
  8
SLD-0_4
  6
PHANTOM
 62
       7
100
AcDbLine
 10
-42.18008517
 20
371.44501589
 30
0.0
 11
-42.41367136
 21
371.24704159
 31
0.0
  0
LINE
  5
209
100
AcDbEntity
  8
SLD-0_4
  6
PHANTOM
 62
       7
100
AcDbLine
 10
-43.34625726
 20
368.0788024
 30
0.0
 11
-43.25443249
 21
367.77863375
 31
0.0
  0
LINE
  5
20A
100
AcDbEntity
  8
SLD-0_4
  6
PHANTOM
 62
       7
100
AcDbLine
 10
-41.92831884
 20
366.13262935
 30
0.0
 11
-41.65992857
 21
365.98113744
 31
0.0
  0
LINE
  5
20B
100
AcDbEntity
  8
SLD-0_4
  6
PHANTOM
 62
       7
100
AcDbLine
 10
-46.91493227
 20
369.51982083
 30
0.0
 11
-46.99241897
 21
369.82598335
 31
0.0
  0
LINE
  5
20C
100
AcDbEntity
  8
SLD-0_4
  6
PHANTOM
 62
       7
100
AcDbLine
 10
-53.13994161
 20
369.9745207
 30
0.0
 11
-53.23176637
 21
369.67435205
 31
0.0
  0
LINE
  5
20D
100
AcDbEntity
  8
SLD-0_4
  6
PHANTOM
 62
       7
100
AcDbLine
 10
-13.71404666
 20
375.49498778
 30
0.0
 11
-13.71404666
 21
374.21551772
 31
0.0
  0
LINE
  5
20E
100
AcDbEntity
  8
SLD-0_4
  6
PHANTOM
 62
       7
100
AcDbLine
 10
-7.68848369
 20
370.39962882
 30
0.0
 11
-7.84612545
 21
370.66400737
 31
0.0
  0
LINE
  5
20F
100
AcDbEntity
  8
SLD-0_4
  6
PHANTOM
 62
       7
100
AcDbLine
 10
-12.27125867
 20
371.6205251
 30
0.0
 11
-12.52300844
 21
371.44501589
 31
0.0
  0
LINE
  5
210
100
AcDbEntity
  8
SLD-0_4
  6
PHANTOM
 62
       7
100
AcDbLine
 10
-10.46603833
 20
365.63825623
 30
0.0
 11
-10.14195316
 21
365.66246184
 31
0.0
  0
LINE
  5
211
100
AcDbEntity
  8
SLD-0_4
  6
PHANTOM
 62
       7
100
AcDbLine
 10
-23.57702753
 20
368.0788024
 30
0.0
 11
-23.48509053
 21
367.77863375
 31
0.0
  0
LINE
  5
212
100
AcDbEntity
  8
SLD-0_4
  6
PHANTOM
 62
       7
100
AcDbLine
 10
-33.10424064
 20
367.21930432
 30
0.0
 11
-32.93450805
 21
366.96324794
 31
0.0
  0
LINE
  5
213
100
AcDbEntity
  8
SLD-0_4
  6
PHANTOM
 62
       7
100
AcDbLine
 10
-53.29451749
 20
369.36258371
 30
0.0
 11
-53.32663873
 21
369.04076788
 31
0.0
  0
LINE
  5
214
100
AcDbEntity
  8
SLD-0_4
  6
PHANTOM
 62
       7
100
AcDbLine
 10
-27.17192803
 20
363.39122018
 30
0.0
 11
-26.26854753
 21
363.39122018
 31
0.0
  0
LINE
  5
215
100
AcDbEntity
  8
SLD-0_4
  6
PHANTOM
 62
       7
100
AcDbLine
 10
-10.14195316
 20
372.09069261
 30
0.0
 11
-10.46603833
 21
372.11489822
 31
0.0
  0
LINE
  5
216
100
AcDbEntity
  8
SLD-0_4
  6
PHANTOM
 62
       7
100
AcDbLine
 10
-13.75154627
 20
368.39057074
 30
0.0
 11
-13.68883045
 21
368.0788024
 31
0.0
  0
LINE
  5
217
100
AcDbEntity
  8
SLD-0_4
  6
PHANTOM
 62
       7
100
AcDbLine
 10
-21.60527551
 20
371.89793943
 30
0.0
 11
-21.88896616
 21
371.77201701
 31
0.0
  0
LINE
  5
218
100
AcDbEntity
  8
SLD-0_4
  6
PHANTOM
 62
       7
100
AcDbLine
 10
-27.61739055
 20
370.66400737
 30
0.0
 11
-27.79871792
 21
370.91135353
 31
0.0
  0
LINE
  5
219
100
AcDbEntity
  8
SLD-0_4
  6
PHANTOM
 62
       7
100
AcDbLine
 10
-32.04255156
 20
366.13262935
 30
0.0
 11
-31.77408028
 21
365.98113744
 31
0.0
  0
LINE
  5
21A
100
AcDbEntity
  8
SLD-0_4
  6
PHANTOM
 62
       7
100
AcDbLine
 10
-28.46889929
 20
366.21747881
 30
0.0
 11
-28.2260285
 21
366.40441459
 31
0.0
  0
LINE
  5
21B
100
AcDbEntity
  8
SLD-0_4
  6
PHANTOM
 62
       7
100
AcDbLine
 10
-39.79942135
 20
372.09069261
 30
0.0
 11
-40.12352196
 21
372.11489822
 31
0.0
  0
LINE
  5
21C
100
AcDbEntity
  8
SLD-0_4
  6
PHANTOM
 62
       7
100
AcDbLine
 10
-43.34625726
 20
369.67435205
 30
0.0
 11
-43.40900837
 21
369.36258371
 31
0.0
  0
LINE
  5
21D
100
AcDbEntity
  8
SLD-0_4
  6
PHANTOM
 62
       7
100
AcDbLine
 10
-40.12352196
 20
365.63825623
 30
0.0
 11
-39.79942135
 21
365.66246184
 31
0.0
  0
LINE
  5
21E
100
AcDbEntity
  8
SLD-0_4
  6
PHANTOM
 62
       7
100
AcDbLine
 10
-53.23176637
 20
368.0788024
 30
0.0
 11
-53.13994161
 21
367.77863375
 31
0.0
  0
LINE
  5
21F
100
AcDbEntity
  8
SLD-0_4
  6
PHANTOM
 62
       7
100
AcDbLine
 10
-4.72139137
 20
363.39122018
 30
0.0
 11
-3.82853754
 21
363.39122018
 31
0.0
  0
LINE
  5
220
100
AcDbEntity
  8
SLD-0_4
  6
PHANTOM
 62
       7
100
AcDbLine
 10
-12.00286455
 20
371.77201701
 30
0.0
 11
-12.27125867
 21
371.6205251
 31
0.0
  0
LINE
  5
221
100
AcDbEntity
  8
SLD-0_4
  6
PHANTOM
 62
       7
100
AcDbLine
 10
-17.91381531
 20
370.91135353
 30
0.0
 11
-18.11731338
 21
371.14011509
 31
0.0
  0
LINE
  5
222
100
AcDbEntity
  8
SLD-0_4
  6
PHANTOM
 62
       7
100
AcDbLine
 10
-28.00211598
 20
371.14011509
 30
0.0
 11
-28.2260285
 21
371.34873986
 31
0.0
  0
LINE
  5
223
100
AcDbEntity
  8
SLD-0_4
  6
PHANTOM
 62
       7
100
AcDbLine
 10
-29.59884071
 20
372.03548481
 30
0.0
 11
-29.91315956
 21
372.09069261
 31
0.0
  0
LINE
  5
224
100
AcDbEntity
  8
SLD-0_4
  6
PHANTOM
 62
       7
100
AcDbLine
 10
-33.52349851
 20
369.36258371
 30
0.0
 11
-33.55562048
 21
369.04076788
 31
0.0
  0
LINE
  5
225
100
AcDbEntity
  8
SLD-0_4
  6
PHANTOM
 62
       7
100
AcDbLine
 10
-28.00211598
 20
366.61303936
 30
0.0
 11
-27.79871792
 21
366.84180092
 31
0.0
  0
LINE
  5
226
100
AcDbEntity
  8
SLD-0_4
  6
PHANTOM
 62
       7
100
AcDbLine
 10
-37.02942316
 20
369.51982083
 30
0.0
 11
-37.10690986
 21
369.82598335
 31
0.0
  0
LINE
  5
227
100
AcDbEntity
  8
SLD-0_4
  6
PHANTOM
 62
       7
100
AcDbLine
 10
-43.25443249
 20
367.77863375
 30
0.0
 11
-43.13509029
 21
367.49161699
 31
0.0
  0
LINE
  5
228
100
AcDbEntity
  8
SLD-0_4
  6
PHANTOM
 62
       7
100
AcDbLine
 10
-51.81382795
 20
371.6205251
 30
0.0
 11
-52.06559428
 21
371.44501589
 31
0.0
  0
LINE
  5
229
100
AcDbEntity
  8
SLD-0_4
  6
PHANTOM
 62
       7
100
AcDbLine
 10
-55.92316093
 20
363.39122018
 30
0.0
 11
-55.92316093
 21
374.21551772
 31
0.0
  0
LINE
  5
22A
100
AcDbEntity
  8
SLD-0_4
  6
PHANTOM
 62
       7
100
AcDbLine
 10
-54.14797996
 20
363.39122018
 30
0.0
 11
-53.2560831
 21
363.39122018
 31
0.0
  0
LINE
  5
22B
100
AcDbEntity
  8
SLD-0_4
  6
PHANTOM
 62
       7
100
AcDbLine
 10
-7.55602338
 20
370.11977008
 30
0.0
 11
-7.68848369
 21
370.39962882
 31
0.0
  0
LINE
  5
22C
100
AcDbEntity
  8
SLD-0_4
  6
PHANTOM
 62
       7
100
AcDbLine
 10
-12.52300844
 20
366.30813856
 30
0.0
 11
-12.27125867
 21
366.13262935
 31
0.0
  0
LINE
  5
22D
100
AcDbEntity
  8
SLD-0_4
  6
PHANTOM
 62
       7
100
AcDbLine
 10
-22.64340694
 20
366.50611286
 30
0.0
 11
-22.40959211
 21
366.30813856
 31
0.0
  0
LINE
  5
22E
100
AcDbEntity
  8
SLD-0_4
  6
PHANTOM
 62
       7
100
AcDbLine
 10
-17.21079285
 20
368.55031973
 30
0.0
 11
-17.19454972
 21
368.87657723
 31
0.0
  0
LINE
  5
22F
100
AcDbEntity
  8
SLD-0_4
  6
PHANTOM
 62
       7
100
AcDbLine
 10
-31.49052589
 20
371.89793943
 30
0.0
 11
-31.77408028
 21
371.77201701
 31
0.0
  0
LINE
  5
230
100
AcDbEntity
  8
SLD-0_4
  6
PHANTOM
 62
       7
100
AcDbLine
 10
-33.46074466
 20
368.0788024
 30
0.0
 11
-33.36891382
 21
367.77863375
 31
0.0
  0
LINE
  5
231
100
AcDbEntity
  8
SLD-0_4
  6
PHANTOM
 62
       7
100
AcDbLine
 10
-28.72917212
 20
366.05378422
 30
0.0
 11
-28.46889929
 21
366.21747881
 31
0.0
  0
LINE
  5
232
100
AcDbEntity
  8
SLD-0_4
  6
PHANTOM
 62
       7
100
AcDbLine
 10
-42.62752117
 20
366.72500006
 30
0.0
 11
-42.41367136
 21
366.50611286
 31
0.0
  0
LINE
  5
233
100
AcDbEntity
  8
SLD-0_4
  6
PHANTOM
 62
       7
100
AcDbLine
 10
-52.29918047
 20
371.24704159
 30
0.0
 11
-52.51303029
 21
371.0281544
 31
0.0
  0
LINE
  5
234
100
AcDbEntity
  8
SLD-0_4
  6
PHANTOM
 62
       7
100
AcDbLine
 10
-56.8274984
 20
375.49498778
 30
0.0
 11
-3.82853754
 21
375.49498778
 31
0.0
  0
LINE
  5
235
100
AcDbEntity
  8
SLD-0_4
  6
PHANTOM
 62
       7
100
AcDbLine
 10
-17.28641892
 20
363.39122018
 30
0.0
 11
-16.38303842
 21
363.39122018
 31
0.0
  0
LINE
  5
236
100
AcDbEntity
  8
SLD-0_4
  6
PHANTOM
 62
       7
100
AcDbLine
 10
-46.94103232
 20
374.21551772
 30
0.0
 11
-46.94103232
 21
375.49498778
 31
0.0
  0
LINE
  5
237
100
AcDbEntity
  8
SLD-0_4
  6
PHANTOM
 62
       7
100
AcDbLine
 10
-9.23386309
 20
371.83827142
 30
0.0
 11
-9.52431334
 21
371.95082701
 31
0.0
  0
LINE
  5
238
100
AcDbEntity
  8
SLD-0_4
  6
PHANTOM
 62
       7
100
AcDbLine
 10
-18.84451303
 20
371.69937023
 30
0.0
 11
-19.12060058
 21
371.83827142
 31
0.0
  0
LINE
  5
239
100
AcDbEntity
  8
SLD-0_4
  6
PHANTOM
 62
       7
100
AcDbLine
 10
-27.22139473
 20
369.82598335
 30
0.0
 11
-27.32717274
 21
370.11977008
 31
0.0
  0
LINE
  5
23A
100
AcDbEntity
  8
SLD-0_4
  6
PHANTOM
 62
       7
100
AcDbLine
 10
-32.52802528
 20
366.50611286
 30
0.0
 11
-32.29438485
 21
366.30813856
 31
0.0
  0
LINE
  5
23B
100
AcDbEntity
  8
SLD-0_4
  6
PHANTOM
 62
       7
100
AcDbLine
 10
-42.98978685
 20
370.53385013
 30
0.0
 11
-43.13509029
 21
370.26153746
 31
0.0
  0
LINE
  5
23C
100
AcDbEntity
  8
SLD-0_4
  6
PHANTOM
 62
       7
100
AcDbLine
 10
-52.70558752
 20
370.78990651
 30
0.0
 11
-52.87529597
 21
370.53385013
 31
0.0
  0
LINE
  5
23D
100
AcDbEntity
  8
SLD-0_4
  6
PHANTOM
 62
       7
100
AcDbLine
 10
-56.8274984
 20
363.39122018
 30
0.0
 11
-55.92316093
 21
363.39122018
 31
0.0
  0
LINE
  5
23E
100
AcDbEntity
  8
SLD-0_4
  6
PHANTOM
 62
       7
100
AcDbLine
 10
-26.26854753
 20
374.21551772
 30
0.0
 11
-27.17192803
 21
374.21551772
 31
0.0
  0
LINE
  5
23F
100
AcDbEntity
  8
SLD-0_4
  6
PHANTOM
 62
       7
100
AcDbLine
 10
-46.94103232
 20
362.49740939
 30
0.0
 11
-46.94103232
 21
363.39122018
 31
0.0
  0
LINE
  5
240
100
AcDbEntity
  8
SLD-0_4
  6
PHANTOM
 62
       7
100
AcDbLine
 10
-24.49336656
 20
363.39122018
 30
0.0
 11
-23.59955577
 21
363.39122018
 31
0.0
  0
LINE
  5
241
100
AcDbEntity
  8
SLD-0_4
  6
PHANTOM
 62
       7
100
AcDbLine
 10
-9.82752743
 20
372.03548481
 30
0.0
 11
-10.14195316
 21
372.09069261
 31
0.0
  0
LINE
  5
242
100
AcDbEntity
  8
SLD-0_4
  6
PHANTOM
 62
       7
100
AcDbLine
 10
-19.41092488
 20
371.95082701
 30
0.0
 11
-19.7139217
 21
372.03548481
 31
0.0
  0
LINE
  5
243
100
AcDbEntity
  8
SLD-0_4
  6
PHANTOM
 62
       7
100
AcDbLine
 10
-23.57702753
 20
369.67435205
 30
0.0
 11
-23.63985743
 21
369.36258371
 31
0.0
  0
LINE
  5
244
100
AcDbEntity
  8
SLD-0_4
  6
PHANTOM
 62
       7
100
AcDbLine
 10
-18.58422649
 20
366.21747881
 30
0.0
 11
-18.34130519
 21
366.40441459
 31
0.0
  0
LINE
  5
245
100
AcDbEntity
  8
SLD-0_4
  6
PHANTOM
 62
       7
100
AcDbLine
 10
-33.46074466
 20
369.67435205
 30
0.0
 11
-33.52349851
 21
369.36258371
 31
0.0
  0
LINE
  5
246
100
AcDbEntity
  8
SLD-0_4
  6
PHANTOM
 62
       7
100
AcDbLine
 10
-39.48496178
 20
372.03548481
 30
0.0
 11
-39.79942135
 21
372.09069261
 31
0.0
  0
LINE
  5
247
100
AcDbEntity
  8
SLD-0_4
  6
PHANTOM
 62
       7
100
AcDbLine
 10
-49.06720723
 20
371.95082701
 30
0.0
 11
-49.37047089
 21
372.03548481
 31
0.0
  0
LINE
  5
248
100
AcDbEntity
  8
SLD-0_4
  6
PHANTOM
 62
       7
100
AcDbLine
 10
-53.29451749
 20
368.39057074
 30
0.0
 11
-53.23176637
 21
368.0788024
 31
0.0
  0
LINE
  5
249
100
AcDbEntity
  8
SLD-0_4
  6
PHANTOM
 62
       7
100
AcDbLine
 10
-49.37047089
 20
365.71766964
 30
0.0
 11
-49.06720723
 21
365.80232744
 31
0.0
  0
LINE
  5
24A
100
AcDbEntity
  8
SLD-0_4
  6
PHANTOM
 62
       7
100
AcDbLine
 10
-13.78364794
 20
368.71238657
 30
0.0
 11
-13.75154627
 21
368.39057074
 31
0.0
  0
LINE
  5
24B
100
AcDbEntity
  8
SLD-0_4
  6
PHANTOM
 62
       7
100
AcDbLine
 10
-8.95772888
 20
366.05378422
 30
0.0
 11
-8.69746291
 21
366.21747881
 31
0.0
  0
LINE
  5
24C
100
AcDbEntity
  8
SLD-0_4
  6
PHANTOM
 62
       7
100
AcDbLine
 10
-17.7323752
 20
370.66400737
 30
0.0
 11
-17.91381531
 21
370.91135353
 31
0.0
  0
LINE
  5
24D
100
AcDbEntity
  8
SLD-0_4
  6
PHANTOM
 62
       7
100
AcDbLine
 10
-23.67201998
 20
369.04076788
 30
0.0
 11
-23.67201998
 21
368.71238657
 31
0.0
  0
LINE
  5
24E
100
AcDbEntity
  8
SLD-0_4
  6
PHANTOM
 62
       7
100
AcDbLine
 10
-22.40959211
 20
366.30813856
 30
0.0
 11
-22.15759177
 21
366.13262935
 31
0.0
  0
LINE
  5
24F
100
AcDbEntity
  8
SLD-0_4
  6
PHANTOM
 62
       7
100
AcDbLine
 10
-30.56491284
 20
372.1067677
 30
0.0
 11
-30.8843873
 21
372.06686698
 31
0.0
  0
LINE
  5
250
100
AcDbEntity
  8
SLD-0_4
  6
PHANTOM
 62
       7
100
AcDbLine
 10
-40.12352196
 20
372.11489822
 30
0.0
 11
-40.45125244
 21
372.1067677
 31
0.0
  0
LINE
  5
251
100
AcDbEntity
  8
SLD-0_4
  6
PHANTOM
 62
       7
100
AcDbLine
 10
-46.99241897
 20
369.82598335
 30
0.0
 11
-47.09820524
 21
370.11977008
 31
0.0
  0
LINE
  5
252
100
AcDbEntity
  8
SLD-0_4
  6
PHANTOM
 62
       7
100
AcDbLine
 10
-49.68493046
 20
372.09069261
 30
0.0
 11
-50.00903108
 21
372.11489822
 31
0.0
  0
LINE
  5
253
100
AcDbEntity
  8
SLD-0_4
  6
PHANTOM
 62
       7
100
AcDbLine
 10
-52.51303029
 20
366.72500006
 30
0.0
 11
-52.29918047
 21
366.50611286
 31
0.0
  0
LINE
  5
254
100
AcDbEntity
  8
SLD-0_4
  6
PHANTOM
 62
       7
100
AcDbLine
 10
-48.24014053
 20
366.21747881
 30
0.0
 11
-47.99720931
 21
366.40441459
 31
0.0
  0
LINE
  5
255
100
AcDbEntity
  8
SLD-0_4
  6
PHANTOM
 62
       7
100
AcDbLine
 10
-6.49752931
 20
374.21551772
 30
0.0
 11
-7.40090981
 21
374.21551772
 31
0.0
  0
LINE
  5
256
100
AcDbEntity
  8
SLD-0_4
  6
PHANTOM
 62
       7
100
AcDbLine
 10
-26.26854753
 20
363.39122018
 30
0.0
 11
-26.26854753
 21
374.21551772
 31
0.0
  0
LINE
  5
257
100
AcDbEntity
  8
SLD-0_4
  6
PHANTOM
 62
       7
100
AcDbLine
 10
-23.59955577
 20
374.21551772
 30
0.0
 11
-24.49336656
 21
374.21551772
 31
0.0
  0
LINE
  5
258
100
AcDbEntity
  8
SLD-0_4
  6
PHANTOM
 62
       7
100
AcDbLine
 10
-53.2560831
 20
374.21551772
 30
0.0
 11
-54.14797996
 21
374.21551772
 31
0.0
  0
LINE
  5
259
100
AcDbEntity
  8
SLD-0_4
  6
PHANTOM
 62
       7
100
AcDbLine
 10
-12.75656168
 20
371.24704159
 30
0.0
 11
-12.97036617
 21
371.0281544
 31
0.0
  0
LINE
  5
25A
100
AcDbEntity
  8
SLD-0_4
  6
PHANTOM
 62
       7
100
AcDbLine
 10
-12.75656168
 20
366.50611286
 30
0.0
 11
-12.52300844
 21
366.30813856
 31
0.0
  0
LINE
  5
25B
100
AcDbEntity
  8
SLD-0_4
  6
PHANTOM
 62
       7
100
AcDbLine
 10
-17.25847942
 20
369.51982083
 30
0.0
 11
-17.33604519
 21
369.82598335
 31
0.0
  0
LINE
  5
25C
100
AcDbEntity
  8
SLD-0_4
  6
PHANTOM
 62
       7
100
AcDbLine
 10
-19.12060058
 20
371.83827142
 30
0.0
 11
-19.41092488
 21
371.95082701
 31
0.0
  0
LINE
  5
25D
100
AcDbEntity
  8
SLD-0_4
  6
PHANTOM
 62
       7
100
AcDbLine
 10
-21.30808005
 20
365.7564143
 30
0.0
 11
-20.99893999
 21
365.68628748
 31
0.0
  0
LINE
  5
25E
100
AcDbEntity
  8
SLD-0_4
  6
PHANTOM
 62
       7
100
AcDbLine
 10
-31.19344327
 20
371.99674015
 30
0.0
 11
-31.49052589
 21
371.89793943
 31
0.0
  0
LINE
  5
25F
100
AcDbEntity
  8
SLD-0_4
  6
PHANTOM
 62
       7
100
AcDbLine
 10
-40.7705763
 20
372.06686698
 30
0.0
 11
-41.07950109
 21
371.99674015
 31
0.0
  0
LINE
  5
260
100
AcDbEntity
  8
SLD-0_4
  6
PHANTOM
 62
       7
100
AcDbLine
 10
-42.82007841
 20
366.96324794
 30
0.0
 11
-42.62752117
 21
366.72500006
 31
0.0
  0
LINE
  5
261
100
AcDbEntity
  8
SLD-0_4
  6
PHANTOM
 62
       7
100
AcDbLine
 10
-38.1117002
 20
366.40441459
 30
0.0
 11
-37.88773927
 21
366.61303936
 31
0.0
  0
LINE
  5
262
100
AcDbEntity
  8
SLD-0_4
  6
PHANTOM
 62
       7
100
AcDbLine
 10
-50.33676156
 20
372.1067677
 30
0.0
 11
-50.65608542
 21
372.06686698
 31
0.0
  0
LINE
  5
263
100
AcDbEntity
  8
SLD-0_4
  6
PHANTOM
 62
       7
100
AcDbLine
 10
-52.87529597
 20
370.53385013
 30
0.0
 11
-53.0205994
 21
370.26153746
 31
0.0
  0
LINE
  5
264
100
AcDbEntity
  8
SLD-0_4
  6
PHANTOM
 62
       7
100
AcDbLine
 10
-47.09820524
 20
367.63338437
 30
0.0
 11
-46.99241897
 21
367.9271711
 31
0.0
  0
LINE
  5
265
100
AcDbEntity
  8
SLD-0_4
  6
PHANTOM
 62
       7
100
AcDbLine
 10
-7.40090981
 20
363.39122018
 30
0.0
 11
-6.49752931
 21
363.39122018
 31
0.0
  0
LINE
  5
266
100
AcDbEntity
  8
SLD-0_4
  6
PHANTOM
 62
       7
100
AcDbLine
 10
-37.0555232
 20
363.39122018
 30
0.0
 11
-36.15405664
 21
363.39122018
 31
0.0
  0
LINE
  5
267
100
AcDbEntity
  8
SLD-0_4
  6
PHANTOM
 62
       7
100
AcDbLine
 10
-13.71404666
 20
374.21551772
 30
0.0
 11
-14.60785745
 21
374.21551772
 31
0.0
  0
LINE
  5
268
100
AcDbEntity
  8
SLD-0_4
  6
PHANTOM
 62
       7
100
AcDbLine
 10
-23.59955577
 20
375.49498778
 30
0.0
 11
-23.59955577
 21
374.21551772
 31
0.0
  0
LINE
  5
269
100
AcDbEntity
  8
SLD-0_4
  6
PHANTOM
 62
       7
100
AcDbLine
 10
-8.95772888
 20
371.69937023
 30
0.0
 11
-9.23386309
 21
371.83827142
 31
0.0
  0
LINE
  5
26A
100
AcDbEntity
  8
SLD-0_4
  6
PHANTOM
 62
       7
100
AcDbLine
 10
-13.47776517
 20
367.49161699
 30
0.0
 11
-13.33252011
 21
367.21930432
 31
0.0
  0
LINE
  5
26B
100
AcDbEntity
  8
SLD-0_4
  6
PHANTOM
 62
       7
100
AcDbLine
 10
-11.11333817
 20
365.68628748
 30
0.0
 11
-10.79388869
 21
365.64638675
 31
0.0
  0
LINE
  5
26C
100
AcDbEntity
  8
SLD-0_4
  6
PHANTOM
 62
       7
100
AcDbLine
 10
-20.3516759
 20
372.11489822
 30
0.0
 11
-20.67941559
 21
372.1067677
 31
0.0
  0
LINE
  5
26D
100
AcDbEntity
  8
SLD-0_4
  6
PHANTOM
 62
       7
100
AcDbLine
 10
-27.32717274
 20
370.11977008
 30
0.0
 11
-27.45969009
 21
370.39962882
 31
0.0
  0
LINE
  5
26E
100
AcDbEntity
  8
SLD-0_4
  6
PHANTOM
 62
       7
100
AcDbLine
 10
-29.00529077
 20
365.91488303
 30
0.0
 11
-28.72917212
 21
366.05378422
 31
0.0
  0
LINE
  5
26F
100
AcDbEntity
  8
SLD-0_4
  6
PHANTOM
 62
       7
100
AcDbLine
 10
-38.1117002
 20
371.34873986
 30
0.0
 11
-38.35463142
 21
371.53567564
 31
0.0
  0
LINE
  5
270
100
AcDbEntity
  8
SLD-0_4
  6
PHANTOM
 62
       7
100
AcDbLine
 10
-42.82007841
 20
370.78990651
 30
0.0
 11
-42.98978685
 21
370.53385013
 31
0.0
  0
LINE
  5
271
100
AcDbEntity
  8
SLD-0_4
  6
PHANTOM
 62
       7
100
AcDbLine
 10
-39.18169812
 20
365.80232744
 30
0.0
 11
-38.89118526
 21
365.91488303
 31
0.0
  0
LINE
  5
272
100
AcDbEntity
  8
SLD-0_4
  6
PHANTOM
 62
       7
100
AcDbLine
 10
-37.10690986
 20
367.9271711
 30
0.0
 11
-37.02942316
 21
368.23333362
 31
0.0
  0
LINE
  5
273
100
AcDbEntity
  8
SLD-0_4
  6
PHANTOM
 62
       7
100
AcDbLine
 10
-27.61739055
 20
367.08914708
 30
0.0
 11
-27.45969009
 21
367.35352563
 31
0.0
  0
LINE
  5
274
100
AcDbEntity
  8
SLD-0_4
  6
PHANTOM
 62
       7
100
AcDbLine
 10
-38.61497806
 20
371.69937023
 30
0.0
 11
-38.89118526
 21
371.83827142
 31
0.0
  0
LINE
  5
275
100
AcDbEntity
  8
SLD-0_4
  6
PHANTOM
 62
       7
100
AcDbLine
 10
-43.13509029
 20
370.26153746
 30
0.0
 11
-43.25443249
 21
369.9745207
 31
0.0
  0
LINE
  5
276
100
AcDbEntity
  8
SLD-0_4
  6
PHANTOM
 62
       7
100
AcDbLine
 10
-40.7705763
 20
365.68628748
 30
0.0
 11
-40.45125244
 21
365.64638675
 31
0.0
  0
LINE
  5
277
100
AcDbEntity
  8
SLD-0_4
  6
PHANTOM
 62
       7
100
AcDbLine
 10
-50.00903108
 20
372.11489822
 30
0.0
 11
-50.33676156
 21
372.1067677
 31
0.0
  0
LINE
  5
278
100
AcDbEntity
  8
SLD-0_4
  6
PHANTOM
 62
       7
100
AcDbLine
 10
-56.8274984
 20
374.21551772
 30
0.0
 11
-56.8274984
 21
375.49498778
 31
0.0
  0
LINE
  5
279
100
AcDbEntity
  8
SLD-0_4
  6
PHANTOM
 62
       7
100
AcDbLine
 10
-16.38303842
 20
363.39122018
 30
0.0
 11
-16.38303842
 21
374.21551772
 31
0.0
  0
LINE
  5
27A
100
AcDbEntity
  8
SLD-0_4
  6
PHANTOM
 62
       7
100
AcDbLine
 10
-11.4223521
 20
371.99674015
 30
0.0
 11
-11.7193783
 21
371.89793943
 31
0.0
  0
LINE
  5
27B
100
AcDbEntity
  8
SLD-0_4
  6
PHANTOM
 62
       7
100
AcDbLine
 10
-17.57455732
 20
370.39962882
 30
0.0
 11
-17.7323752
 21
370.66400737
 31
0.0
  0
LINE
  5
27C
100
AcDbEntity
  8
SLD-0_4
  6
PHANTOM
 62
       7
100
AcDbLine
 10
-18.84451303
 20
366.05378422
 30
0.0
 11
-18.58422649
 21
366.21747881
 31
0.0
  0
LINE
  5
27D
100
AcDbEntity
  8
SLD-0_4
  6
PHANTOM
 62
       7
100
AcDbLine
 10
-33.36891382
 20
369.9745207
 30
0.0
 11
-33.46074466
 21
369.67435205
 31
0.0
  0
LINE
  5
27E
100
AcDbEntity
  8
SLD-0_4
  6
PHANTOM
 62
       7
100
AcDbLine
 10
-31.19344327
 20
365.7564143
 30
0.0
 11
-30.8843873
 21
365.68628748
 31
0.0
  0
LINE
  5
27F
100
AcDbEntity
  8
SLD-0_4
  6
PHANTOM
 62
       7
100
AcDbLine
 10
-27.14391226
 20
368.23333362
 30
0.0
 11
-27.09628156
 21
368.55031973
 31
0.0
  0
LINE
  5
280
100
AcDbEntity
  8
SLD-0_4
  6
PHANTOM
 62
       7
100
AcDbLine
 10
-40.45125244
 20
372.1067677
 30
0.0
 11
-40.7705763
 21
372.06686698
 31
0.0
  0
LINE
  5
281
100
AcDbEntity
  8
SLD-0_4
  6
PHANTOM
 62
       7
100
AcDbLine
 10
-39.48496178
 20
365.71766964
 30
0.0
 11
-39.18169812
 21
365.80232744
 31
0.0
  0
LINE
  5
282
100
AcDbEntity
  8
SLD-0_4
  6
PHANTOM
 62
       7
100
AcDbLine
 10
-53.0205994
 20
367.49161699
 30
0.0
 11
-52.87529597
 21
367.21930432
 31
0.0
  0
LINE
  5
283
100
AcDbEntity
  8
SLD-0_4
  6
PHANTOM
 62
       7
100
AcDbLine
 10
-12.97036617
 20
366.72500006
 30
0.0
 11
-12.75656168
 21
366.50611286
 31
0.0
  0
LINE
  5
284
100
AcDbEntity
  8
SLD-0_4
  6
PHANTOM
 62
       7
100
AcDbLine
 10
-22.64340694
 20
371.24704159
 30
0.0
 11
-22.85747604
 21
371.0281544
 31
0.0
  0
LINE
  5
285
100
AcDbEntity
  8
SLD-0_4
  6
PHANTOM
 62
       7
100
AcDbLine
 10
-30.23709937
 20
372.11489822
 30
0.0
 11
-30.56491284
 21
372.1067677
 31
0.0
  0
LINE
  5
286
100
AcDbEntity
  8
SLD-0_4
  6
PHANTOM
 62
       7
100
AcDbLine
 10
-33.55562048
 20
368.71238657
 30
0.0
 11
-33.52349851
 21
368.39057074
 31
0.0
  0
LINE
  5
287
100
AcDbEntity
  8
SLD-0_4
  6
PHANTOM
 62
       7
100
AcDbLine
 10
-29.29569904
 20
365.80232744
 30
0.0
 11
-29.00529077
 21
365.91488303
 31
0.0
  0
LINE
  5
288
100
AcDbEntity
  8
SLD-0_4
  6
PHANTOM
 62
       7
100
AcDbLine
 10
-41.65992857
 20
371.77201701
 30
0.0
 11
-41.92831884
 21
371.6205251
 31
0.0
  0
LINE
  5
289
100
AcDbEntity
  8
SLD-0_4
  6
PHANTOM
 62
       7
100
AcDbLine
 10
-47.56981264
 20
370.91135353
 30
0.0
 11
-47.77324839
 21
371.14011509
 31
0.0
  0
LINE
  5
28A
100
AcDbEntity
  8
SLD-0_4
  6
PHANTOM
 62
       7
100
AcDbLine
 10
-7.40090981
 20
362.49740939
 30
0.0
 11
-7.40090981
 21
363.39122018
 31
0.0
  0
LINE
  5
28B
100
AcDbEntity
  8
SLD-0_4
  6
PHANTOM
 62
       7
100
AcDbLine
 10
-33.48506488
 20
374.21551772
 30
0.0
 11
-34.37887567
 21
374.21551772
 31
0.0
  0
LINE
  5
28C
100
AcDbEntity
  8
SLD-0_4
  6
PHANTOM
 62
       7
100
AcDbLine
 10
-44.26247084
 20
374.21551772
 30
0.0
 11
-44.26247084
 21
363.39122018
 31
0.0
  0
LINE
  5
28D
100
AcDbEntity
  8
SLD-0_4
  6
PHANTOM
 62
       7
100
AcDbLine
 10
-8.69746291
 20
371.53567564
 30
0.0
 11
-8.95772888
 21
371.69937023
 31
0.0
  0
LINE
  5
28E
100
AcDbEntity
  8
SLD-0_4
  6
PHANTOM
 62
       7
100
AcDbLine
 10
-7.84612545
 20
367.08914708
 30
0.0
 11
-7.68848369
 21
367.35352563
 31
0.0
  0
LINE
  5
28F
100
AcDbEntity
  8
SLD-0_4
  6
PHANTOM
 62
       7
100
AcDbLine
 10
-17.91381531
 20
366.84180092
 30
0.0
 11
-17.7323752
 21
367.08914708
 31
0.0
  0
LINE
  5
290
100
AcDbEntity
  8
SLD-0_4
  6
PHANTOM
 62
       7
100
AcDbLine
 10
-29.00529077
 20
371.83827142
 30
0.0
 11
-29.29569904
 21
371.95082701
 31
0.0
  0
LINE
  5
291
100
AcDbEntity
  8
SLD-0_4
  6
PHANTOM
 62
       7
100
AcDbLine
 10
-32.93450805
 20
366.96324794
 30
0.0
 11
-32.74191798
 21
366.72500006
 31
0.0
  0
LINE
  5
292
100
AcDbEntity
  8
SLD-0_4
  6
PHANTOM
 62
       7
100
AcDbLine
 10
-42.62752117
 20
371.0281544
 30
0.0
 11
-42.82007841
 21
370.78990651
 31
0.0
  0
LINE
  5
293
100
AcDbEntity
  8
SLD-0_4
  6
PHANTOM
 62
       7
100
AcDbLine
 10
-47.99720931
 20
371.34873986
 30
0.0
 11
-48.24014053
 21
371.53567564
 31
0.0
  0
LINE
  5
294
100
AcDbEntity
  8
SLD-0_4
  6
PHANTOM
 62
       7
100
AcDbLine
 10
-23.59955577
 20
363.39122018
 30
0.0
 11
-23.59955577
 21
362.49740939
 31
0.0
  0
LINE
  5
295
100
AcDbEntity
  8
SLD-0_4
  6
PHANTOM
 62
       7
100
AcDbLine
 10
-1.3103154
 20
375.41843011
 30
0.0
 11
-25.37899371
 21
375.41843011
 31
0.0
  0
LINE
  5
296
100
AcDbEntity
  8
SLD-0_4
  6
PHANTOM
 62
       7
100
AcDbLine
 10
-13.59705268
 20
369.9745207
 30
0.0
 11
-13.68883045
 21
369.67435205
 31
0.0
  0
LINE
  5
297
100
AcDbEntity
  8
SLD-0_4
  6
PHANTOM
 62
       7
100
AcDbLine
 10
-23.36560665
 20
370.26153746
 30
0.0
 11
-23.48509053
 21
369.9745207
 31
0.0
  0
LINE
  5
298
100
AcDbEntity
  8
SLD-0_4
  6
PHANTOM
 62
       7
100
AcDbLine
 10
-20.3516759
 20
365.63825623
 30
0.0
 11
-20.02802678
 21
365.66246184
 31
0.0
  0
LINE
  5
299
100
AcDbEntity
  8
SLD-0_4
  6
PHANTOM
 62
       7
100
AcDbLine
 10
-17.33604519
 20
367.9271711
 30
0.0
 11
-17.25847942
 21
368.23333362
 31
0.0
  0
LINE
  5
29A
100
AcDbEntity
  8
SLD-0_4
  6
PHANTOM
 62
       7
100
AcDbLine
 10
-27.79871792
 20
370.91135353
 30
0.0
 11
-28.00211598
 21
371.14011509
 31
0.0
  0
LINE
  5
29B
100
AcDbEntity
  8
SLD-0_4
  6
PHANTOM
 62
       7
100
AcDbLine
 10
-27.45969009
 20
367.35352563
 30
0.0
 11
-27.32717274
 21
367.63338437
 31
0.0
  0
LINE
  5
29C
100
AcDbEntity
  8
SLD-0_4
  6
PHANTOM
 62
       7
100
AcDbLine
 10
-41.65992857
 20
365.98113744
 30
0.0
 11
-41.37647058
 21
365.85521502
 31
0.0
  0
LINE
  5
29D
100
AcDbEntity
  8
SLD-0_4
  6
PHANTOM
 62
       7
100
AcDbLine
 10
-51.81382795
 20
366.13262935
 30
0.0
 11
-51.54543768
 21
365.98113744
 31
0.0
  0
LINE
  5
29E
100
AcDbEntity
  8
SLD-0_4
  6
PHANTOM
 62
       7
100
AcDbLine
 10
-46.8673
 20
368.55031973
 30
0.0
 11
-46.85107705
 21
368.87657723
 31
0.0
  0
LINE
  5
29F
100
AcDbEntity
  8
SLD-0_4
  6
PHANTOM
 62
       7
100
AcDbLine
 10
-17.28641892
 20
374.21551772
 30
0.0
 11
-17.28641892
 21
375.49498778
 31
0.0
  0
LINE
  5
2A0
100
AcDbEntity
  8
SLD-0_4
  6
PHANTOM
 62
       7
100
AcDbLine
 10
-36.15405664
 20
363.39122018
 30
0.0
 11
-36.15405664
 21
374.21551772
 31
0.0
  0
LINE
  5
2A1
100
AcDbEntity
  8
SLD-0_4
  6
PHANTOM
 62
       7
100
AcDbLine
 10
-54.14797996
 20
374.21551772
 30
0.0
 11
-54.14797996
 21
363.39122018
 31
0.0
  0
LINE
  5
2A2
100
AcDbEntity
  8
SLD-0_4
  6
PHANTOM
 62
       7
100
AcDbLine
 10
-7.3728559
 20
368.23333362
 30
0.0
 11
-7.32525313
 21
368.55031973
 31
0.0
  0
LINE
  5
2A3
100
AcDbEntity
  8
SLD-0_4
  6
PHANTOM
 62
       7
100
AcDbLine
 10
-23.63985743
 20
368.39057074
 30
0.0
 11
-23.57702753
 21
368.0788024
 31
0.0
  0
LINE
  5
2A4
100
AcDbEntity
  8
SLD-0_4
  6
PHANTOM
 62
       7
100
AcDbLine
 10
-19.7139217
 20
365.71766964
 30
0.0
 11
-19.41092488
 21
365.80232744
 31
0.0
  0
LINE
  5
2A5
100
AcDbEntity
  8
SLD-0_4
  6
PHANTOM
 62
       7
100
AcDbLine
 10
-28.2260285
 20
371.34873986
 30
0.0
 11
-28.46889929
 21
371.53567564
 31
0.0
  0
LINE
  5
2A6
100
AcDbEntity
  8
SLD-0_4
  6
PHANTOM
 62
       7
100
AcDbLine
 10
-27.22139473
 20
367.9271711
 30
0.0
 11
-27.14391226
 21
368.23333362
 31
0.0
  0
LINE
  5
2A7
100
AcDbEntity
  8
SLD-0_4
  6
PHANTOM
 62
       7
100
AcDbLine
 10
-37.21269613
 20
367.63338437
 30
0.0
 11
-37.10690986
 21
367.9271711
 31
0.0
  0
LINE
  5
2A8
100
AcDbEntity
  8
SLD-0_4
  6
PHANTOM
 62
       7
100
AcDbLine
 10
-50.33676156
 20
365.64638675
 30
0.0
 11
-50.00903108
 21
365.63825623
 31
0.0
  0
LINE
  5
2A9
100
AcDbEntity
  8
SLD-0_4
  6
PHANTOM
 62
       7
100
AcDbLine
 10
-47.23073619
 20
367.35352563
 30
0.0
 11
-47.09820524
 21
367.63338437
 31
0.0
  0
LINE
  5
2AA
100
AcDbEntity
  8
SLD-0_4
  6
PHANTOM
 62
       7
100
AcDbLine
 10
-43.37057399
 20
374.21551772
 30
0.0
 11
-44.26247084
 21
374.21551772
 31
0.0
  0
LINE
  5
2AB
100
AcDbEntity
  8
SLD-0_4
  6
PHANTOM
 62
       7
100
AcDbLine
 10
-10.79388869
 20
365.64638675
 30
0.0
 11
-10.46603833
 21
365.63825623
 31
0.0
  0
LINE
  5
2AC
100
AcDbEntity
  8
SLD-0_4
  6
PHANTOM
 62
       7
100
AcDbLine
 10
-17.4419259
 20
370.11977008
 30
0.0
 11
-17.57455732
 21
370.39962882
 31
0.0
  0
LINE
  5
2AD
100
AcDbEntity
  8
SLD-0_4
  6
PHANTOM
 62
       7
100
AcDbLine
 10
-21.88896616
 20
371.77201701
 30
0.0
 11
-22.15759177
 21
371.6205251
 31
0.0
  0
LINE
  5
2AE
100
AcDbEntity
  8
SLD-0_4
  6
PHANTOM
 62
       7
100
AcDbLine
 10
-23.22013612
 20
367.21930432
 30
0.0
 11
-23.05023917
 21
366.96324794
 31
0.0
  0
LINE
  5
2AF
100
AcDbEntity
  8
SLD-0_4
  6
PHANTOM
 62
       7
100
AcDbLine
 10
-18.11731338
 20
366.61303936
 30
0.0
 11
-17.91381531
 21
366.84180092
 31
0.0
  0
LINE
  5
2B0
100
AcDbEntity
  8
SLD-0_4
  6
PHANTOM
 62
       7
100
AcDbLine
 10
-33.55562048
 20
369.04076788
 30
0.0
 11
-33.55562048
 21
368.71238657
 31
0.0
  0
LINE
  5
2B1
100
AcDbEntity
  8
SLD-0_4
  6
PHANTOM
 62
       7
100
AcDbLine
 10
-43.40900837
 20
369.36258371
 30
0.0
 11
-43.44112962
 21
369.04076788
 31
0.0
  0
LINE
  5
2B2
100
AcDbEntity
  8
SLD-0_4
  6
PHANTOM
 62
       7
100
AcDbLine
 10
-50.65608542
 20
372.06686698
 30
0.0
 11
-50.9650102
 21
371.99674015
 31
0.0
  0
LINE
  5
2B3
100
AcDbEntity
  8
SLD-0_4
  6
PHANTOM
 62
       7
100
AcDbLine
 10
-53.23176637
 20
369.67435205
 30
0.0
 11
-53.29451749
 21
369.36258371
 31
0.0
  0
LINE
  5
2B4
100
AcDbEntity
  8
SLD-0_4
  6
PHANTOM
 62
       7
100
AcDbLine
 10
-52.87529597
 20
367.21930432
 30
0.0
 11
-52.70558752
 21
366.96324794
 31
0.0
  0
LINE
  5
2B5
100
AcDbEntity
  8
SLD-0_4
  6
PHANTOM
 62
       7
100
AcDbLine
 10
-46.99241897
 20
367.9271711
 30
0.0
 11
-46.91493227
 21
368.23333362
 31
0.0
  0
LINE
  5
2B6
100
AcDbEntity
  8
SLD-0_4
  6
PHANTOM
 62
       7
100
AcDbLine
 10
-55.92316093
 20
374.21551772
 30
0.0
 11
-56.8274984
 21
374.21551772
 31
0.0
  0
LINE
  5
2B7
100
AcDbEntity
  8
SLD-0_4
  6
PHANTOM
 62
       7
100
AcDbLine
 10
-4.72139137
 20
374.21551772
 30
0.0
 11
-4.72139137
 21
363.39122018
 31
0.0
  0
LINE
  5
2B8
100
AcDbEntity
  8
SLD-0_4
  6
PHANTOM
 62
       7
100
AcDbLine
 10
-13.33252011
 20
367.21930432
 30
0.0
 11
-13.16286971
 21
366.96324794
 31
0.0
  0
LINE
  5
2B9
100
AcDbEntity
  8
SLD-0_4
  6
PHANTOM
 62
       7
100
AcDbLine
 10
-10.14195316
 20
365.66246184
 30
0.0
 11
-9.82752743
 21
365.71766964
 31
0.0
  0
LINE
  5
2BA
100
AcDbEntity
  8
SLD-0_4
  6
PHANTOM
 62
       7
100
AcDbLine
 10
-8.02739645
 20
366.84180092
 30
0.0
 11
-7.84612545
 21
367.08914708
 31
0.0
  0
LINE
  5
2BB
100
AcDbEntity
  8
SLD-0_4
  6
PHANTOM
 62
       7
100
AcDbLine
 10
-20.67941559
 20
372.1067677
 30
0.0
 11
-20.99893999
 21
372.06686698
 31
0.0
  0
LINE
  5
2BC
100
AcDbEntity
  8
SLD-0_4
  6
PHANTOM
 62
       7
100
AcDbLine
 10
-21.88896616
 20
365.98113744
 30
0.0
 11
-21.60527551
 21
365.85521502
 31
0.0
  0
LINE
  5
2BD
100
AcDbEntity
  8
SLD-0_4
  6
PHANTOM
 62
       7
100
AcDbLine
 10
-27.08005883
 20
368.87657723
 30
0.0
 11
-27.09628156
 21
369.20283472
 31
0.0
  0
LINE
  5
2BE
100
AcDbEntity
  8
SLD-0_4
  6
PHANTOM
 62
       7
100
AcDbLine
 10
-36.98179089
 20
369.20283472
 30
0.0
 11
-37.02942316
 21
369.51982083
 31
0.0
  0
LINE
  5
2BF
100
AcDbEntity
  8
SLD-0_4
  6
PHANTOM
 62
       7
100
AcDbLine
 10
-38.89118526
 20
365.91488303
 30
0.0
 11
-38.61497806
 21
366.05378422
 31
0.0
  0
LINE
  5
2C0
100
AcDbEntity
  8
SLD-0_4
  6
PHANTOM
 62
       7
100
AcDbLine
 10
-46.85107705
 20
368.87657723
 30
0.0
 11
-46.8673
 21
369.20283472
 31
0.0
  0
LINE
  5
2C1
100
AcDbEntity
  8
SLD-0_4
  6
PHANTOM
 62
       7
100
AcDbLine
 10
-47.77324839
 20
371.14011509
 30
0.0
 11
-47.99720931
 21
371.34873986
 31
0.0
  0
LINE
  5
2C2
100
AcDbEntity
  8
SLD-0_4
  6
PHANTOM
 62
       7
100
AcDbLine
 10
-53.32663873
 20
369.04076788
 30
0.0
 11
-53.32663873
 21
368.71238657
 31
0.0
  0
LINE
  5
2C3
100
AcDbEntity
  8
SLD-0_4
  6
PHANTOM
 62
       7
100
AcDbLine
 10
-47.38845695
 20
367.08914708
 30
0.0
 11
-47.23073619
 21
367.35352563
 31
0.0
  0
LINE
  5
2C4
100
AcDbEntity
  8
SLD-0_4
  6
PHANTOM
 62
       7
100
AcDbLine
 10
-7.32525313
 20
369.20283472
 30
0.0
 11
-7.3728559
 21
369.51982083
 31
0.0
  0
LINE
  5
2C5
100
AcDbEntity
  8
SLD-0_4
  6
PHANTOM
 62
       7
100
AcDbLine
 10
-8.45461738
 20
371.34873986
 30
0.0
 11
-8.69746291
 21
371.53567564
 31
0.0
  0
LINE
  5
2C6
100
AcDbEntity
  8
SLD-0_4
  6
PHANTOM
 62
       7
100
AcDbLine
 10
-13.16286971
 20
370.78990651
 30
0.0
 11
-13.33252011
 21
370.53385013
 31
0.0
  0
LINE
  5
2C7
100
AcDbEntity
  8
SLD-0_4
  6
PHANTOM
 62
       7
100
AcDbLine
 10
-12.27125867
 20
366.13262935
 30
0.0
 11
-12.00286455
 21
365.98113744
 31
0.0
  0
LINE
  5
2C8
100
AcDbEntity
  8
SLD-0_4
  6
PHANTOM
 62
       7
100
AcDbLine
 10
-7.45029672
 20
367.9271711
 30
0.0
 11
-7.3728559
 21
368.23333362
 31
0.0
  0
LINE
  5
2C9
100
AcDbEntity
  8
SLD-0_4
  6
PHANTOM
 62
       7
100
AcDbLine
 10
-23.63985743
 20
369.36258371
 30
0.0
 11
-23.67201998
 21
369.04076788
 31
0.0
  0
LINE
  5
2CA
100
AcDbEntity
  8
SLD-0_4
  6
PHANTOM
 62
       7
100
AcDbLine
 10
-37.10690986
 20
369.82598335
 30
0.0
 11
-37.21269613
 21
370.11977008
 31
0.0
  0
LINE
  5
2CB
100
AcDbEntity
  8
SLD-0_4
  6
PHANTOM
 62
       7
100
AcDbLine
 10
-42.41367136
 20
371.24704159
 30
0.0
 11
-42.62752117
 21
371.0281544
 31
0.0
  0
LINE
  5
2CC
100
AcDbEntity
  8
SLD-0_4
  6
PHANTOM
 62
       7
100
AcDbLine
 10
-42.41367136
 20
366.50611286
 30
0.0
 11
-42.18008517
 21
366.30813856
 31
0.0
  0
LINE
  5
2CD
100
AcDbEntity
  8
SLD-0_4
  6
PHANTOM
 62
       7
100
AcDbLine
 10
-37.68430353
 20
366.84180092
 30
0.0
 11
-37.50294784
 21
367.08914708
 31
0.0
  0
LINE
  5
2CE
100
AcDbEntity
  8
SLD-0_4
  6
PHANTOM
 62
       7
100
AcDbLine
 10
-48.77669437
 20
371.83827142
 30
0.0
 11
-49.06720723
 21
371.95082701
 31
0.0
  0
LINE
  5
2CF
100
AcDbEntity
  8
SLD-0_4
  6
PHANTOM
 62
       7
100
AcDbLine
 10
-50.9650102
 20
365.7564143
 30
0.0
 11
-50.65608542
 21
365.68628748
 31
0.0
  0
LINE
  5
2D0
100
AcDbEntity
  8
SLD-0_4
  6
PHANTOM
 62
       7
100
AcDbLine
 10
-7.30904061
 20
368.87657723
 30
0.0
 11
-7.32525313
 21
369.20283472
 31
0.0
  0
LINE
  5
2D1
100
AcDbEntity
  8
SLD-0_4
  6
PHANTOM
 62
       7
100
AcDbLine
 10
-9.52431334
 20
371.95082701
 30
0.0
 11
-9.82752743
 21
372.03548481
 31
0.0
  0
LINE
  5
2D2
100
AcDbEntity
  8
SLD-0_4
  6
PHANTOM
 62
       7
100
AcDbLine
 10
-13.78364794
 20
369.04076788
 30
0.0
 11
-13.78364794
 21
368.71238657
 31
0.0
  0
LINE
  5
2D3
100
AcDbEntity
  8
SLD-0_4
  6
PHANTOM
 62
       7
100
AcDbLine
 10
-17.21079285
 20
369.20283472
 30
0.0
 11
-17.25847942
 21
369.51982083
 31
0.0
  0
LINE
  5
2D4
100
AcDbEntity
  8
SLD-0_4
  6
PHANTOM
 62
       7
100
AcDbLine
 10
-19.41092488
 20
365.80232744
 30
0.0
 11
-19.12060058
 21
365.91488303
 31
0.0
  0
LINE
  5
2D5
100
AcDbEntity
  8
SLD-0_4
  6
PHANTOM
 62
       7
100
AcDbLine
 10
-27.79871792
 20
366.84180092
 30
0.0
 11
-27.61739055
 21
367.08914708
 31
0.0
  0
LINE
  5
2D6
100
AcDbEntity
  8
SLD-0_4
  6
PHANTOM
 62
       7
100
AcDbLine
 10
-21.30808005
 20
371.99674015
 30
0.0
 11
-21.60527551
 21
371.89793943
 31
0.0
  0
LINE
  5
2D7
100
AcDbEntity
  8
SLD-0_4
  6
PHANTOM
 62
       7
100
AcDbLine
 10
-23.48509053
 20
367.77863375
 30
0.0
 11
-23.36560665
 21
367.49161699
 31
0.0
  0
LINE
  5
2D8
100
AcDbEntity
  8
SLD-0_4
  6
PHANTOM
 62
       7
100
AcDbLine
 10
-28.72917212
 20
371.69937023
 30
0.0
 11
-29.00529077
 21
371.83827142
 31
0.0
  0
LINE
  5
2D9
100
AcDbEntity
  8
SLD-0_4
  6
PHANTOM
 62
       7
100
AcDbLine
 10
-30.8843873
 20
365.68628748
 30
0.0
 11
-30.56491284
 21
365.64638675
 31
0.0
  0
LINE
  5
2DA
100
AcDbEntity
  8
SLD-0_4
  6
PHANTOM
 62
       7
100
AcDbLine
 10
-41.07950109
 20
365.7564143
 30
0.0
 11
-40.7705763
 21
365.68628748
 31
0.0
  0
LINE
  5
2DB
100
AcDbEntity
  8
SLD-0_4
  6
PHANTOM
 62
       7
100
AcDbLine
 10
-53.32663873
 20
368.71238657
 30
0.0
 11
-53.29451749
 21
368.39057074
 31
0.0
  0
LINE
  5
2DC
100
AcDbEntity
  8
SLD-0_4
  6
PHANTOM
 62
       7
100
AcDbLine
 10
-51.26197969
 20
365.85521502
 30
0.0
 11
-50.9650102
 21
365.7564143
 31
0.0
  0
LINE
  5
2DD
100
AcDbEntity
  8
SLD-0_4
  6
PHANTOM
 62
       7
100
AcDbLine
 10
-44.26247084
 20
363.39122018
 30
0.0
 11
-43.37057399
 21
363.39122018
 31
0.0
  0
LINE
  5
2DE
100
AcDbEntity
  8
SLD-0_4
  6
PHANTOM
 62
       7
100
AcDbLine
 10
-9.23386309
 20
365.91488303
 30
0.0
 11
-8.95772888
 21
366.05378422
 31
0.0
  0
LINE
  5
2DF
100
AcDbEntity
  8
SLD-0_4
  6
PHANTOM
 62
       7
100
AcDbLine
 10
-17.19454972
 20
368.87657723
 30
0.0
 11
-17.21079285
 21
369.20283472
 31
0.0
  0
LINE
  5
2E0
100
AcDbEntity
  8
SLD-0_4
  6
PHANTOM
 62
       7
100
AcDbLine
 10
-22.85747604
 20
371.0281544
 30
0.0
 11
-23.05023917
 21
370.78990651
 31
0.0
  0
LINE
  5
2E1
100
AcDbEntity
  8
SLD-0_4
  6
PHANTOM
 62
       7
100
AcDbLine
 10
-22.85747604
 20
366.72500006
 30
0.0
 11
-22.64340694
 21
366.50611286
 31
0.0
  0
LINE
  5
2E2
100
AcDbEntity
  8
SLD-0_4
  6
PHANTOM
 62
       7
100
AcDbLine
 10
-17.7323752
 20
367.08914708
 30
0.0
 11
-17.57455732
 21
367.35352563
 31
0.0
  0
LINE
  5
2E3
100
AcDbEntity
  8
SLD-0_4
  6
PHANTOM
 62
       7
100
AcDbLine
 10
-30.23709937
 20
365.63825623
 30
0.0
 11
-29.91315956
 21
365.66246184
 31
0.0
  0
LINE
  5
2E4
100
AcDbEntity
  8
SLD-0_4
  6
PHANTOM
 62
       7
100
AcDbLine
 10
-40.45125244
 20
365.64638675
 30
0.0
 11
-40.12352196
 21
365.63825623
 31
0.0
  0
LINE
  5
2E5
100
AcDbEntity
  8
SLD-0_4
  6
PHANTOM
 62
       7
100
AcDbLine
 10
-47.09820524
 20
370.11977008
 30
0.0
 11
-47.23073619
 21
370.39962882
 31
0.0
  0
LINE
  5
2E6
100
AcDbEntity
  8
SLD-0_4
  6
PHANTOM
 62
       7
100
AcDbLine
 10
-51.54543768
 20
371.77201701
 30
0.0
 11
-51.81382795
 21
371.6205251
 31
0.0
  0
LINE
  5
2E7
100
AcDbEntity
  8
SLD-0_4
  6
PHANTOM
 62
       7
100
AcDbLine
 10
-50.65608542
 20
365.68628748
 30
0.0
 11
-50.33676156
 21
365.64638675
 31
0.0
  0
LINE
  5
2E8
100
AcDbEntity
  8
SLD-0_4
  6
PHANTOM
 62
       7
100
AcDbLine
 10
-47.77324839
 20
366.61303936
 30
0.0
 11
-47.56981264
 21
366.84180092
 31
0.0
  0
LINE
  5
2E9
100
AcDbEntity
  8
SLD-0_4
  6
PHANTOM
 62
       7
100
AcDbLine
 10
-16.38303842
 20
374.21551772
 30
0.0
 11
-17.28641892
 21
374.21551772
 31
0.0
  0
LINE
  5
2EA
100
AcDbEntity
  8
SLD-0_4
  6
PHANTOM
 62
       7
100
AcDbLine
 10
-14.60785745
 20
374.21551772
 30
0.0
 11
-14.60785745
 21
363.39122018
 31
0.0
  0
LINE
  5
2EB
100
AcDbEntity
  8
SLD-0_4
  6
PHANTOM
 62
       7
100
AcDbLine
 10
-34.37887567
 20
363.39122018
 30
0.0
 11
-33.48506488
 21
363.39122018
 31
0.0
  0
LINE
  5
2EC
100
AcDbEntity
  8
SLD-0_4
  6
PHANTOM
 62
       7
100
AcDbLine
 10
-12.52300844
 20
371.44501589
 30
0.0
 11
-12.75656168
 21
371.24704159
 31
0.0
  0
LINE
  5
2ED
100
AcDbEntity
  8
SLD-0_4
  6
PHANTOM
 62
       7
100
AcDbLine
 10
-13.68883045
 20
368.0788024
 30
0.0
 11
-13.59705268
 21
367.77863375
 31
0.0
  0
LINE
  5
2EE
100
AcDbEntity
  8
SLD-0_4
  6
PHANTOM
 62
       7
100
AcDbLine
 10
-7.68848369
 20
367.35352563
 30
0.0
 11
-7.55602338
 21
367.63338437
 31
0.0
  0
LINE
  5
2EF
100
AcDbEntity
  8
SLD-0_4
  6
PHANTOM
 62
       7
100
AcDbLine
 10
-18.58422649
 20
371.53567564
 30
0.0
 11
-18.84451303
 21
371.69937023
 31
0.0
  0
LINE
  5
2F0
100
AcDbEntity
  8
SLD-0_4
  6
PHANTOM
 62
       7
100
AcDbLine
 10
-23.48509053
 20
369.9745207
 30
0.0
 11
-23.57702753
 21
369.67435205
 31
0.0
  0
LINE
  5
2F1
100
AcDbEntity
  8
SLD-0_4
  6
PHANTOM
 62
       7
100
AcDbLine
 10
-27.14391226
 20
369.51982083
 30
0.0
 11
-27.22139473
 21
369.82598335
 31
0.0
  0
LINE
  5
2F2
100
AcDbEntity
  8
SLD-0_4
  6
PHANTOM
 62
       7
100
AcDbLine
 10
-29.59884071
 20
365.71766964
 30
0.0
 11
-29.29569904
 21
365.80232744
 31
0.0
  0
LINE
  5
2F3
100
AcDbEntity
  8
SLD-0_4
  6
PHANTOM
 62
       7
100
AcDbLine
 10
-42.98978685
 20
367.21930432
 30
0.0
 11
-42.82007841
 21
366.96324794
 31
0.0
  0
LINE
  5
2F4
100
AcDbEntity
  8
SLD-0_4
  6
PHANTOM
 62
       7
100
AcDbLine
 10
-39.79942135
 20
365.66246184
 30
0.0
 11
-39.48496178
 21
365.71766964
 31
0.0
  0
LINE
  5
2F5
100
AcDbEntity
  8
SLD-0_4
  6
PHANTOM
 62
       7
100
AcDbLine
 10
-48.24014053
 20
371.53567564
 30
0.0
 11
-48.50048718
 21
371.69937023
 31
0.0
  0
LINE
  5
2F6
100
AcDbEntity
  8
SLD-0_4
  6
PHANTOM
 62
       7
100
AcDbLine
 10
-52.51303029
 20
371.0281544
 30
0.0
 11
-52.70558752
 21
370.78990651
 31
0.0
  0
LINE
  5
2F7
100
AcDbEntity
  8
SLD-0_4
  6
PHANTOM
 62
       7
100
AcDbLine
 10
-51.54543768
 20
365.98113744
 30
0.0
 11
-51.26197969
 21
365.85521502
 31
0.0
  0
LINE
  5
2F8
100
AcDbEntity
  8
SLD-0_4
  6
PHANTOM
 62
       7
100
AcDbLine
 10
-3.82853754
 20
375.49498778
 30
0.0
 11
-3.82853754
 21
374.21551772
 31
0.0
  0
LINE
  5
2F9
100
AcDbEntity
  8
SLD-0_4
  6
PHANTOM
 62
       7
100
AcDbLine
 10
-27.17192803
 20
374.21551772
 30
0.0
 11
-27.17192803
 21
375.49498778
 31
0.0
  0
LINE
  5
2FA
100
AcDbEntity
  8
SLD-0_4
  6
PHANTOM
 62
       7
100
AcDbLine
 10
-37.0555232
 20
374.21551772
 30
0.0
 11
-37.0555232
 21
375.49498778
 31
0.0
  0
LINE
  5
2FB
100
AcDbEntity
  8
SLD-0_4
  6
PHANTOM
 62
       7
100
AcDbLine
 10
-13.71404666
 20
363.39122018
 30
0.0
 11
-13.71404666
 21
362.49740939
 31
0.0
  0
LINE
  5
2FC
100
AcDbEntity
  8
SLD-0_4
  6
PHANTOM
 62
       7
100
AcDbLine
 10
-53.2560831
 20
363.39122018
 30
0.0
 11
-53.2560831
 21
362.49740939
 31
0.0
  0
LINE
  5
2FD
100
AcDbEntity
  8
SLD-0_4
  6
PHANTOM
 62
       7
100
AcDbLine
 10
-13.68883045
 20
369.67435205
 30
0.0
 11
-13.75154627
 21
369.36258371
 31
0.0
  0
LINE
  5
2FE
100
AcDbEntity
  8
SLD-0_4
  6
PHANTOM
 62
       7
100
AcDbLine
 10
-11.7193783
 20
365.85521502
 30
0.0
 11
-11.4223521
 21
365.7564143
 31
0.0
  0
LINE
  5
2FF
100
AcDbEntity
  8
SLD-0_4
  6
PHANTOM
 62
       7
100
AcDbLine
 10
-7.32525313
 20
368.55031973
 30
0.0
 11
-7.30904061
 21
368.87657723
 31
0.0
  0
LINE
  5
300
100
AcDbEntity
  8
SLD-0_4
  6
PHANTOM
 62
       7
100
AcDbLine
 10
-20.02802678
 20
365.66246184
 30
0.0
 11
-19.7139217
 21
365.71766964
 31
0.0
  0
LINE
  5
301
100
AcDbEntity
  8
SLD-0_4
  6
PHANTOM
 62
       7
100
AcDbLine
 10
-31.77408028
 20
371.77201701
 30
0.0
 11
-32.04255156
 21
371.6205251
 31
0.0
  0
LINE
  5
302
100
AcDbEntity
  8
SLD-0_4
  6
PHANTOM
 62
       7
100
AcDbLine
 10
-37.88773927
 20
371.14011509
 30
0.0
 11
-38.1117002
 21
371.34873986
 31
0.0
  0
LINE
  5
303
100
AcDbEntity
  8
SLD-0_4
  6
PHANTOM
 62
       7
100
AcDbLine
 10
-41.37647058
 20
371.89793943
 30
0.0
 11
-41.65992857
 21
371.77201701
 31
0.0
  0
LINE
  5
304
100
AcDbEntity
  8
SLD-0_4
  6
PHANTOM
 62
       7
100
AcDbLine
 10
-41.37647058
 20
365.85521502
 30
0.0
 11
-41.07950109
 21
365.7564143
 31
0.0
  0
LINE
  5
305
100
AcDbEntity
  8
SLD-0_4
  6
PHANTOM
 62
       7
100
AcDbLine
 10
-37.34522708
 20
367.35352563
 30
0.0
 11
-37.21269613
 21
367.63338437
 31
0.0
  0
LINE
  5
306
100
AcDbEntity
  8
SLD-0_4
  6
PHANTOM
 62
       7
100
AcDbLine
 10
-49.37047089
 20
372.03548481
 30
0.0
 11
-49.68493046
 21
372.09069261
 31
0.0
  0
LINE
  5
307
100
AcDbEntity
  8
SLD-0_4
  6
PHANTOM
 62
       7
100
AcDbLine
 10
-3.82853754
 20
362.49740939
 30
0.0
 11
-56.8274984
 21
362.49740939
 31
0.0
  0
LINE
  5
308
100
AcDbEntity
  8
SLD-0_4
  6
PHANTOM
 62
       7
100
AcDbLine
 10
-8.02739645
 20
370.91135353
 30
0.0
 11
-8.23074449
 21
371.14011509
 31
0.0
  0
LINE
  5
309
100
AcDbEntity
  8
SLD-0_4
  6
PHANTOM
 62
       7
100
AcDbLine
 10
-10.79388869
 20
372.1067677
 30
0.0
 11
-11.11333817
 21
372.06686698
 31
0.0
  0
LINE
  5
30A
100
AcDbEntity
  8
SLD-0_4
  6
PHANTOM
 62
       7
100
AcDbLine
 10
-9.82752743
 20
365.71766964
 30
0.0
 11
-9.52431334
 21
365.80232744
 31
0.0
  0
LINE
  5
30B
100
AcDbEntity
  8
SLD-0_4
  6
PHANTOM
 62
       7
100
AcDbLine
 10
-23.36560665
 20
367.49161699
 30
0.0
 11
-23.22013612
 21
367.21930432
 31
0.0
  0
LINE
  5
30C
100
AcDbEntity
  8
SLD-0_4
  6
PHANTOM
 62
       7
100
AcDbLine
 10
-32.29438485
 20
371.44501589
 30
0.0
 11
-32.52802528
 21
371.24704159
 31
0.0
  0
LINE
  5
30D
100
AcDbEntity
  8
SLD-0_4
  6
PHANTOM
 62
       7
100
AcDbLine
 10
-31.77408028
 20
365.98113744
 30
0.0
 11
-31.49052589
 21
365.85521502
 31
0.0
  0
LINE
  5
30E
100
AcDbEntity
  8
SLD-0_4
  6
PHANTOM
 62
       7
100
AcDbLine
 10
-27.32717274
 20
367.63338437
 30
0.0
 11
-27.22139473
 21
367.9271711
 31
0.0
  0
LINE
  5
30F
100
AcDbEntity
  8
SLD-0_4
  6
PHANTOM
 62
       7
100
AcDbLine
 10
-41.92831884
 20
371.6205251
 30
0.0
 11
-42.18008517
 21
371.44501589
 31
0.0
  0
LINE
  5
310
100
AcDbEntity
  8
SLD-0_4
  6
PHANTOM
 62
       7
100
AcDbLine
 10
-43.44112962
 20
369.04076788
 30
0.0
 11
-43.44112962
 21
368.71238657
 31
0.0
  0
LINE
  5
311
100
AcDbEntity
  8
SLD-0_4
  6
PHANTOM
 62
       7
100
AcDbLine
 10
-46.8673
 20
369.20283472
 30
0.0
 11
-46.91493227
 21
369.51982083
 31
0.0
  0
LINE
  5
312
100
AcDbEntity
  8
SLD-0_4
  6
PHANTOM
 62
       7
100
AcDbLine
 10
-49.06720723
 20
365.80232744
 30
0.0
 11
-48.77669437
 21
365.91488303
 31
0.0
  0
LINE
  5
313
100
AcDbEntity
  8
SLD-0_4
  6
PHANTOM
 62
       7
100
AcDbLine
 10
-25.37899371
 20
375.41843011
 30
0.0
 11
-46.52825495
 21
375.41843011
 31
0.0
  0
LINE
  5
314
100
AcDbEntity
  8
SLD-0_4
  6
PHANTOM
 62
       7
100
AcDbLine
 10
-8.69746291
 20
366.21747881
 30
0.0
 11
-8.45461738
 21
366.40441459
 31
0.0
  0
LINE
  5
315
100
AcDbEntity
  8
SLD-0_4
  6
PHANTOM
 62
       7
100
AcDbLine
 10
-23.05023917
 20
366.96324794
 30
0.0
 11
-22.85747604
 21
366.72500006
 31
0.0
  0
LINE
  5
316
100
AcDbEntity
  8
SLD-0_4
  6
PHANTOM
 62
       7
100
AcDbLine
 10
-29.29569904
 20
371.95082701
 30
0.0
 11
-29.59884071
 21
372.03548481
 31
0.0
  0
LINE
  5
317
100
AcDbEntity
  8
SLD-0_4
  6
PHANTOM
 62
       7
100
AcDbLine
 10
-32.74191798
 20
371.0281544
 30
0.0
 11
-32.93450805
 21
370.78990651
 31
0.0
  0
LINE
  5
318
100
AcDbEntity
  8
SLD-0_4
  6
PHANTOM
 62
       7
100
AcDbLine
 10
-29.91315956
 20
365.66246184
 30
0.0
 11
-29.59884071
 21
365.71766964
 31
0.0
  0
LINE
  5
319
100
AcDbEntity
  8
SLD-0_4
  6
PHANTOM
 62
       7
100
AcDbLine
 10
-36.96556794
 20
368.87657723
 30
0.0
 11
-36.98179089
 21
369.20283472
 31
0.0
  0
LINE
  5
31A
100
AcDbEntity
  8
SLD-0_4
  6
PHANTOM
 62
       7
100
AcDbLine
 10
-41.07950109
 20
371.99674015
 30
0.0
 11
-41.37647058
 21
371.89793943
 31
0.0
  0
LINE
  5
31B
100
AcDbEntity
  8
SLD-0_4
  6
PHANTOM
 62
       7
100
AcDbLine
 10
-47.23073619
 20
370.39962882
 30
0.0
 11
-47.38845695
 21
370.66400737
 31
0.0
  0
LINE
  5
31C
100
AcDbEntity
  8
SLD-0_4
  6
PHANTOM
 62
       7
100
AcDbLine
 10
-48.50048718
 20
366.05378422
 30
0.0
 11
-48.24014053
 21
366.21747881
 31
0.0
  0
LINE
  5
31D
100
AcDbEntity
  8
SLD-0_4
  6
PHANTOM
 62
       7
100
AcDbLine
 10
-3.82853754
 20
374.21551772
 30
0.0
 11
-4.72139137
 21
374.21551772
 31
0.0
  0
LINE
  5
31E
100
AcDbEntity
  8
SLD-0_4
  6
PHANTOM
 62
       7
100
AcDbLine
 10
-7.45029672
 20
369.82598335
 30
0.0
 11
-7.55602338
 21
370.11977008
 31
0.0
  0
LINE
  5
31F
100
AcDbEntity
  8
SLD-0_4
  6
PHANTOM
 62
       7
100
AcDbLine
 10
-12.97036617
 20
371.0281544
 30
0.0
 11
-13.16286971
 21
370.78990651
 31
0.0
  0
LINE
  5
320
100
AcDbEntity
  8
SLD-0_4
  6
PHANTOM
 62
       7
100
AcDbLine
 10
-18.34130519
 20
371.34873986
 30
0.0
 11
-18.58422649
 21
371.53567564
 31
0.0
  0
LINE
  5
321
100
AcDbEntity
  8
SLD-0_4
  6
PHANTOM
 62
       7
100
AcDbLine
 10
-17.25847942
 20
368.23333362
 30
0.0
 11
-17.21079285
 21
368.55031973
 31
0.0
  0
LINE
  5
322
100
AcDbEntity
  8
SLD-0_4
  6
PHANTOM
 62
       7
100
AcDbLine
 10
-28.46889929
 20
371.53567564
 30
0.0
 11
-28.72917212
 21
371.69937023
 31
0.0
  0
LINE
  5
323
100
AcDbEntity
  8
SLD-0_4
  6
PHANTOM
 62
       7
100
AcDbLine
 10
-33.10424064
 20
370.53385013
 30
0.0
 11
-33.24956085
 21
370.26153746
 31
0.0
  0
LINE
  5
324
100
AcDbEntity
  8
SLD-0_4
  6
PHANTOM
 62
       7
100
AcDbLine
 10
-33.24956085
 20
367.49161699
 30
0.0
 11
-33.10424064
 21
367.21930432
 31
0.0
  0
LINE
  5
325
100
AcDbEntity
  8
SLD-0_4
  6
PHANTOM
 62
       7
100
AcDbLine
 10
-37.50294784
 20
370.66400737
 30
0.0
 11
-37.68430353
 21
370.91135353
 31
0.0
  0
LINE
  5
326
100
AcDbEntity
  8
SLD-0_4
  6
PHANTOM
 62
       7
100
AcDbLine
 10
-37.88773927
 20
366.61303936
 30
0.0
 11
-37.68430353
 21
366.84180092
 31
0.0
  0
LINE
  5
327
100
AcDbEntity
  8
SLD-0_4
  6
PHANTOM
 62
       7
100
AcDbLine
 10
-47.99720931
 20
366.40441459
 30
0.0
 11
-47.77324839
 21
366.61303936
 31
0.0
  0
LINE
  5
328
100
AcDbEntity
  8
SLD-0_4
  6
PHANTOM
 62
       7
100
AcDbLine
 10
-17.28641892
 20
362.49740939
 30
0.0
 11
-17.28641892
 21
363.39122018
 31
0.0
  0
LINE
  5
329
100
AcDbEntity
  8
SLD-0_4
  6
PHANTOM
 62
       7
100
AcDbLine
 10
-46.03956575
 20
374.21551772
 30
0.0
 11
-46.94103232
 21
374.21551772
 31
0.0
  0
LINE
  5
32A
100
AcDbEntity
  8
SLD-0_4
  6
PHANTOM
 62
       7
100
AcDbLine
 10
-33.48506488
 20
375.49498778
 30
0.0
 11
-33.48506488
 21
374.21551772
 31
0.0
  0
LINE
  5
32B
100
AcDbEntity
  8
SLD-0_4
  6
PHANTOM
 62
       7
100
AcDbLine
 10
-12.00286455
 20
365.98113744
 30
0.0
 11
-11.7193783
 21
365.85521502
 31
0.0
  0
LINE
  5
32C
100
AcDbEntity
  8
SLD-0_4
  6
PHANTOM
 62
       7
100
AcDbLine
 10
-22.15759177
 20
366.13262935
 30
0.0
 11
-21.88896616
 21
365.98113744
 31
0.0
  0
LINE
  5
32D
100
AcDbEntity
  8
SLD-0_4
  6
PHANTOM
 62
       7
100
AcDbLine
 10
-32.52802528
 20
371.24704159
 30
0.0
 11
-32.74191798
 21
371.0281544
 31
0.0
  0
LINE
  5
32E
100
AcDbEntity
  8
SLD-0_4
  6
PHANTOM
 62
       7
100
AcDbLine
 10
-38.35463142
 20
371.53567564
 30
0.0
 11
-38.61497806
 21
371.69937023
 31
0.0
  0
LINE
  5
32F
100
AcDbEntity
  8
SLD-0_4
  6
PHANTOM
 62
       7
100
AcDbLine
 10
-37.50294784
 20
367.08914708
 30
0.0
 11
-37.34522708
 21
367.35352563
 31
0.0
  0
LINE
  5
330
100
AcDbEntity
  8
SLD-0_4
  6
PHANTOM
 62
       7
100
AcDbLine
 10
-47.56981264
 20
366.84180092
 30
0.0
 11
-47.38845695
 21
367.08914708
 31
0.0
  0
LINE
  5
331
100
AcDbEntity
  8
SLD-0_4
  6
PHANTOM
 62
       7
100
AcDbLine
 10
-7.40090981
 20
374.21551772
 30
0.0
 11
-7.40090981
 21
375.49498778
 31
0.0
  0
LINE
  5
332
100
AcDbEntity
  8
SLD-0_4
  6
PHANTOM
 62
       7
100
AcDbLine
 10
-36.15405664
 20
374.21551772
 30
0.0
 11
-37.0555232
 21
374.21551772
 31
0.0
  0
LINE
  5
333
100
AcDbEntity
  8
SLD-0_4
  6
PHANTOM
 62
       7
100
AcDbLine
 10
-46.94103232
 20
363.39122018
 30
0.0
 11
-46.03956575
 21
363.39122018
 31
0.0
  0
LINE
  5
334
100
AcDbEntity
  8
SLD-0_4
  6
PHANTOM
 62
       7
100
AcDbLine
 10
-43.37057399
 20
363.39122018
 30
0.0
 11
-43.37057399
 21
362.49740939
 31
0.0
  0
LINE
  5
335
100
AcDbEntity
  8
SLD-0_4
  6
PHANTOM
 62
       7
100
AcDbLine
 10
-11.4223521
 20
365.7564143
 30
0.0
 11
-11.11333817
 21
365.68628748
 31
0.0
  0
LINE
  5
336
100
AcDbEntity
  8
レイヤー_1
  6
CONTINUOUS
 62
       7
100
AcDbLine
 10
26.63204277
 20
-327.50039395
 30
0.0
 11
26.63204277
 21
-339.75147097
 31
0.0
  0
LINE
  5
337
100
AcDbEntity
  8
レイヤー_1
  6
CONTINUOUS
 62
       7
100
AcDbLine
 10
25.43226814
 20
-339.75147097
 30
0.0
 11
25.43226814
 21
-327.50039395
 31
0.0
  0
LINE
  5
338
100
AcDbEntity
  8
レイヤー_1
  6
CONTINUOUS
 62
       7
100
AcDbLine
 10
30.88394675
 20
-339.75147097
 30
0.0
 11
30.88394675
 21
-352.00052133
 31
0.0
  0
LINE
  5
339
100
AcDbEntity
  8
レイヤー_1
  6
CONTINUOUS
 62
       7
100
AcDbLine
 10
29.68417213
 20
-352.00052133
 30
0.0
 11
29.68417213
 21
-339.75147097
 31
0.0
  0
LINE
  5
33A
100
AcDbEntity
  8
レイヤー_1
  6
CONTINUOUS
 62
       7
100
AcDbLine
 10
39.38471474
 20
-339.75147097
 30
0.0
 11
39.38471474
 21
-352.00052133
 31
0.0
  0
LINE
  5
33B
100
AcDbEntity
  8
レイヤー_1
  6
CONTINUOUS
 62
       7
100
AcDbLine
 10
38.18291347
 20
-352.00052133
 30
0.0
 11
38.18291347
 21
-339.75147097
 31
0.0
  0
LINE
  5
33C
100
AcDbEntity
  8
レイヤー_1
  6
CONTINUOUS
 62
       7
100
AcDbLine
 10
47.88446941
 20
-339.75147097
 30
0.0
 11
47.88446941
 21
-352.00052133
 31
0.0
  0
LINE
  5
33D
100
AcDbEntity
  8
レイヤー_1
  6
CONTINUOUS
 62
       7
100
AcDbLine
 10
46.68266814
 20
-352.00052133
 30
0.0
 11
46.68266814
 21
-339.75147097
 31
0.0
  0
LINE
  5
33E
100
AcDbEntity
  8
レイヤー_1
  6
CONTINUOUS
 62
       7
100
AcDbLine
 10
56.38523741
 20
-339.75147097
 30
0.0
 11
56.38523741
 21
-352.00052133
 31
0.0
  0
LINE
  5
33F
100
AcDbEntity
  8
レイヤー_1
  6
CONTINUOUS
 62
       7
100
AcDbLine
 10
55.18343614
 20
-352.00052133
 30
0.0
 11
55.18343614
 21
-339.75147097
 31
0.0
  0
LINE
  5
340
100
AcDbEntity
  8
レイヤー_1
  6
CONTINUOUS
 62
       7
100
AcDbLine
 10
64.88296543
 20
-339.75147097
 30
0.0
 11
64.88296543
 21
-352.00052133
 31
0.0
  0
LINE
  5
341
100
AcDbEntity
  8
レイヤー_1
  6
CONTINUOUS
 62
       7
100
AcDbLine
 10
63.68420413
 20
-352.00052133
 30
0.0
 11
63.68420413
 21
-339.75147097
 31
0.0
  0
LINE
  5
342
100
AcDbEntity
  8
レイヤー_1
  6
CONTINUOUS
 62
       7
100
AcDbLine
 10
73.38373343
 20
-339.75147097
 30
0.0
 11
73.38373343
 21
-352.00052133
 31
0.0
  0
LINE
  5
343
100
AcDbEntity
  8
レイヤー_1
  6
CONTINUOUS
 62
       7
100
AcDbLine
 10
72.1839588
 20
-352.00052133
 30
0.0
 11
72.1839588
 21
-339.75147097
 31
0.0
  0
LINE
  5
344
100
AcDbEntity
  8
レイヤー_1
  6
CONTINUOUS
 62
       7
100
AcDbLine
 10
81.8834881
 20
-339.75147097
 30
0.0
 11
81.8834881
 21
-352.00052133
 31
0.0
  0
LINE
  5
345
100
AcDbEntity
  8
レイヤー_1
  6
CONTINUOUS
 62
       7
100
AcDbLine
 10
80.6847268
 20
-352.00052133
 30
0.0
 11
80.6847268
 21
-339.75147097
 31
0.0
  0
LINE
  5
346
100
AcDbEntity
  8
レイヤー_1
  6
CONTINUOUS
 62
       7
100
AcDbLine
 10
90.38425609
 20
-339.75147097
 30
0.0
 11
90.38425609
 21
-352.00052133
 31
0.0
  0
LINE
  5
347
100
AcDbEntity
  8
レイヤー_1
  6
CONTINUOUS
 62
       7
100
AcDbLine
 10
89.18245482
 20
-352.00052133
 30
0.0
 11
89.18245482
 21
-339.75147097
 31
0.0
  0
LINE
  5
348
100
AcDbEntity
  8
レイヤー_1
  6
CONTINUOUS
 62
       7
100
AcDbLine
 10
98.88299744
 20
-339.75147097
 30
0.0
 11
98.88299744
 21
-352.00052133
 31
0.0
  0
LINE
  5
349
100
AcDbEntity
  8
レイヤー_1
  6
CONTINUOUS
 62
       7
100
AcDbLine
 10
97.68322282
 20
-352.00052133
 30
0.0
 11
97.68322282
 21
-339.75147097
 31
0.0
  0
LINE
  5
34A
100
AcDbEntity
  8
レイヤー_1
  6
CONTINUOUS
 62
       7
100
AcDbLine
 10
107.38275211
 20
-339.75147097
 30
0.0
 11
107.38275211
 21
-352.00052133
 31
0.0
  0
LINE
  5
34B
100
AcDbEntity
  8
レイヤー_1
  6
CONTINUOUS
 62
       7
100
AcDbLine
 10
106.18297749
 20
-352.00052133
 30
0.0
 11
106.18297749
 21
-339.75147097
 31
0.0
  0
LINE
  5
34C
100
AcDbEntity
  8
レイヤー_1
  6
CONTINUOUS
 62
       7
100
AcDbLine
 10
115.88250678
 20
-339.75147097
 30
0.0
 11
115.88250678
 21
-352.00052133
 31
0.0
  0
LINE
  5
34D
100
AcDbEntity
  8
レイヤー_1
  6
CONTINUOUS
 62
       7
100
AcDbLine
 10
114.6847588
 20
-352.00052133
 30
0.0
 11
114.6847588
 21
-339.75147097
 31
0.0
  0
LINE
  5
34E
100
AcDbEntity
  8
レイヤー_1
  6
CONTINUOUS
 62
       7
100
AcDbLine
 10
124.3842881
 20
-339.75147097
 30
0.0
 11
124.3842881
 21
-352.00052133
 31
0.0
  0
LINE
  5
34F
100
AcDbEntity
  8
レイヤー_1
  6
CONTINUOUS
 62
       7
100
AcDbLine
 10
123.18451347
 20
-352.00052133
 30
0.0
 11
123.18451347
 21
-339.75147097
 31
0.0
  0
LINE
  5
350
100
AcDbEntity
  8
レイヤー_1
  6
CONTINUOUS
 62
       7
100
AcDbLine
 10
132.88404277
 20
-339.75147097
 30
0.0
 11
132.88404277
 21
-352.00052133
 31
0.0
  0
LINE
  5
351
100
AcDbEntity
  8
レイヤー_1
  6
CONTINUOUS
 62
       7
100
AcDbLine
 10
131.68426814
 20
-352.00052133
 30
0.0
 11
131.68426814
 21
-339.75147097
 31
0.0
  0
LINE
  5
352
100
AcDbEntity
  8
レイヤー_1
  6
CONTINUOUS
 62
       7
100
AcDbLine
 10
141.38379744
 20
-339.75147097
 30
0.0
 11
141.38379744
 21
-352.00052133
 31
0.0
  0
LINE
  5
353
100
AcDbEntity
  8
レイヤー_1
  6
CONTINUOUS
 62
       7
100
AcDbLine
 10
140.18402282
 20
-352.00052133
 30
0.0
 11
140.18402282
 21
-339.75147097
 31
0.0
  0
LINE
  5
354
100
AcDbEntity
  8
レイヤー_1
  6
CONTINUOUS
 62
       7
100
AcDbLine
 10
149.88557875
 20
-339.75147097
 30
0.0
 11
149.88557875
 21
-352.00052133
 31
0.0
  0
LINE
  5
355
100
AcDbEntity
  8
レイヤー_1
  6
CONTINUOUS
 62
       7
100
AcDbLine
 10
148.68377749
 20
-352.00052133
 30
0.0
 11
148.68377749
 21
-339.75147097
 31
0.0
  0
LINE
  5
356
100
AcDbEntity
  8
レイヤー_1
  6
CONTINUOUS
 62
       7
100
AcDbLine
 10
35.13179744
 20
-327.50039395
 30
0.0
 11
35.13179744
 21
-339.75147097
 31
0.0
  0
LINE
  5
357
100
AcDbEntity
  8
レイヤー_1
  6
CONTINUOUS
 62
       7
100
AcDbLine
 10
33.93202282
 20
-339.75147097
 30
0.0
 11
33.93202282
 21
-327.50039395
 31
0.0
  0
LINE
  5
358
100
AcDbEntity
  8
レイヤー_1
  6
CONTINUOUS
 62
       7
100
AcDbLine
 10
43.63256543
 20
-327.50039395
 30
0.0
 11
43.63256543
 21
-339.75147097
 31
0.0
  0
LINE
  5
359
100
AcDbEntity
  8
レイヤー_1
  6
CONTINUOUS
 62
       7
100
AcDbLine
 10
42.43279081
 20
-339.75147097
 30
0.0
 11
42.43279081
 21
-327.50039395
 31
0.0
  0
LINE
  5
35A
100
AcDbEntity
  8
レイヤー_1
  6
CONTINUOUS
 62
       7
100
AcDbLine
 10
52.1323201
 20
-327.50039395
 30
0.0
 11
52.1323201
 21
-339.75147097
 31
0.0
  0
LINE
  5
35B
100
AcDbEntity
  8
レイヤー_1
  6
CONTINUOUS
 62
       7
100
AcDbLine
 10
50.9335588
 20
-339.75147097
 30
0.0
 11
50.9335588
 21
-327.50039395
 31
0.0
  0
LINE
  5
35C
100
AcDbEntity
  8
レイヤー_1
  6
CONTINUOUS
 62
       7
100
AcDbLine
 10
60.6330881
 20
-327.50039395
 30
0.0
 11
60.6330881
 21
-339.75147097
 31
0.0
  0
LINE
  5
35D
100
AcDbEntity
  8
レイヤー_1
  6
CONTINUOUS
 62
       7
100
AcDbLine
 10
59.43331347
 20
-339.75147097
 30
0.0
 11
59.43331347
 21
-327.50039395
 31
0.0
  0
LINE
  5
35E
100
AcDbEntity
  8
レイヤー_1
  6
CONTINUOUS
 62
       7
100
AcDbLine
 10
69.13385609
 20
-327.50039395
 30
0.0
 11
69.13385609
 21
-339.75147097
 31
0.0
  0
LINE
  5
35F
100
AcDbEntity
  8
レイヤー_1
  6
CONTINUOUS
 62
       7
100
AcDbLine
 10
67.93408147
 20
-339.75147097
 30
0.0
 11
67.93408147
 21
-327.50039395
 31
0.0
  0
LINE
  5
360
100
AcDbEntity
  8
レイヤー_1
  6
CONTINUOUS
 62
       7
100
AcDbLine
 10
77.63361076
 20
-327.50039395
 30
0.0
 11
77.63361076
 21
-339.75147097
 31
0.0
  0
LINE
  5
361
100
AcDbEntity
  8
レイヤー_1
  6
CONTINUOUS
 62
       7
100
AcDbLine
 10
76.43180949
 20
-339.75147097
 30
0.0
 11
76.43180949
 21
-327.50039395
 31
0.0
  0
LINE
  5
362
100
AcDbEntity
  8
レイヤー_1
  6
CONTINUOUS
 62
       7
100
AcDbLine
 10
86.13235211
 20
-327.50039395
 30
0.0
 11
86.13235211
 21
-339.75147097
 31
0.0
  0
LINE
  5
363
100
AcDbEntity
  8
レイヤー_1
  6
CONTINUOUS
 62
       7
100
AcDbLine
 10
84.93257749
 20
-339.75147097
 30
0.0
 11
84.93257749
 21
-327.50039395
 31
0.0
  0
LINE
  5
364
100
AcDbEntity
  8
レイヤー_1
  6
CONTINUOUS
 62
       7
100
AcDbLine
 10
94.63210678
 20
-327.50039395
 30
0.0
 11
94.63210678
 21
-339.75147097
 31
0.0
  0
LINE
  5
365
100
AcDbEntity
  8
レイヤー_1
  6
CONTINUOUS
 62
       7
100
AcDbLine
 10
93.43334548
 20
-339.75147097
 30
0.0
 11
93.43334548
 21
-327.50039395
 31
0.0
  0
LINE
  5
366
100
AcDbEntity
  8
レイヤー_1
  6
CONTINUOUS
 62
       7
100
AcDbLine
 10
103.13287477
 20
-327.50039395
 30
0.0
 11
103.13287477
 21
-339.75147097
 31
0.0
  0
LINE
  5
367
100
AcDbEntity
  8
レイヤー_1
  6
CONTINUOUS
 62
       7
100
AcDbLine
 10
101.9310735
 20
-339.75147097
 30
0.0
 11
101.9310735
 21
-327.50039395
 31
0.0
  0
LINE
  5
368
100
AcDbEntity
  8
レイヤー_1
  6
CONTINUOUS
 62
       7
100
AcDbLine
 10
111.63262944
 20
-327.50039395
 30
0.0
 11
111.63262944
 21
-339.75147097
 31
0.0
  0
LINE
  5
369
100
AcDbEntity
  8
レイヤー_1
  6
CONTINUOUS
 62
       7
100
AcDbLine
 10
110.43082818
 20
-339.75147097
 30
0.0
 11
110.43082818
 21
-327.50039395
 31
0.0
  0
LINE
  5
36A
100
AcDbEntity
  8
レイヤー_1
  6
CONTINUOUS
 62
       7
100
AcDbLine
 10
120.13441076
 20
-327.50039395
 30
0.0
 11
120.13441076
 21
-339.75147097
 31
0.0
  0
LINE
  5
36B
100
AcDbEntity
  8
レイヤー_1
  6
CONTINUOUS
 62
       7
100
AcDbLine
 10
118.93260949
 20
-339.75147097
 30
0.0
 11
118.93260949
 21
-327.50039395
 31
0.0
  0
LINE
  5
36C
100
AcDbEntity
  8
レイヤー_1
  6
CONTINUOUS
 62
       7
100
AcDbLine
 10
128.63416543
 20
-327.50039395
 30
0.0
 11
128.63416543
 21
-339.75147097
 31
0.0
  0
LINE
  5
36D
100
AcDbEntity
  8
レイヤー_1
  6
CONTINUOUS
 62
       7
100
AcDbLine
 10
127.43236416
 20
-339.75147097
 30
0.0
 11
127.43236416
 21
-327.50039395
 31
0.0
  0
LINE
  5
36E
100
AcDbEntity
  8
レイヤー_1
  6
CONTINUOUS
 62
       7
100
AcDbLine
 10
137.13189346
 20
-327.50039395
 30
0.0
 11
137.13189346
 21
-339.75147097
 31
0.0
  0
LINE
  5
36F
100
AcDbEntity
  8
レイヤー_1
  6
CONTINUOUS
 62
       7
100
AcDbLine
 10
135.93211883
 20
-339.75147097
 30
0.0
 11
135.93211883
 21
-327.50039395
 31
0.0
  0
LINE
  5
370
100
AcDbEntity
  8
レイヤー_1
  6
CONTINUOUS
 62
       7
100
AcDbLine
 10
145.63164813
 20
-327.50039395
 30
0.0
 11
145.63164813
 21
-339.75147097
 31
0.0
  0
LINE
  5
371
100
AcDbEntity
  8
レイヤー_1
  6
CONTINUOUS
 62
       7
100
AcDbLine
 10
144.43390015
 20
-339.75147097
 30
0.0
 11
144.43390015
 21
-327.50039395
 31
0.0
  0
LINE
  5
372
100
AcDbEntity
  8
レイヤー_1
  6
CONTINUOUS
 62
       7
100
AcDbLine
 10
152.93365482
 20
-327.50039395
 30
0.0
 11
158.68122379
 21
-327.50039395
 31
0.0
  0
LINE
  5
373
100
AcDbEntity
  8
レイヤー_1
  6
CONTINUOUS
 62
       7
100
AcDbLine
 10
158.68122379
 20
-327.50039395
 30
0.0
 11
158.68122379
 21
-339.75147097
 31
0.0
  0
LINE
  5
374
100
AcDbEntity
  8
レイヤー_1
  6
CONTINUOUS
 62
       7
100
AcDbLine
 10
152.93365482
 20
-339.75147097
 30
0.0
 11
152.93365482
 21
-327.50039395
 31
0.0
  0
LINE
  5
375
100
AcDbEntity
  8
レイヤー_1
  6
CONTINUOUS
 62
       7
100
AcDbLine
 10
22.38317875
 20
-339.75147097
 30
0.0
 11
22.38317875
 21
-352.00052133
 31
0.0
  0
LINE
  5
376
100
AcDbEntity
  8
レイヤー_1
  6
CONTINUOUS
 62
       7
100
AcDbLine
 10
16.63459646
 20
-352.00052133
 30
0.0
 11
16.63459646
 21
-339.75147097
 31
0.0
  0
LINE
  5
377
100
AcDbEntity
  8
レイヤー_1
  6
CONTINUOUS
 62
       7
100
AcDbLine
 10
157.18353216
 20
-339.75147097
 30
0.0
 11
157.18353216
 21
-352.00052133
 31
0.0
  0
LINE
  5
378
100
AcDbEntity
  8
レイヤー_1
  6
CONTINUOUS
 62
       7
100
AcDbLine
 10
3.17169478
 20
-352.08158718
 30
0.0
 11
171.65675976
 21
-352.08158718
 31
0.0
  0
LINE
  5
379
100
AcDbEntity
  8
レイヤー_1
  6
CONTINUOUS
 62
       7
100
AcDbLine
 10
171.65675976
 20
-352.08158718
 30
0.0
 11
171.65675976
 21
-355.08305039
 31
0.0
  0
LINE
  5
37A
100
AcDbEntity
  8
レイヤー_1
  6
CONTINUOUS
 62
       7
100
AcDbLine
 10
193.67169478
 20
-368.08195989
 30
0.0
 11
-86.32830522
 21
-368.08195989
 31
0.0
  0
LINE
  5
37B
100
AcDbEntity
  8
レイヤー_1
  6
CONTINUOUS
 62
       7
100
AcDbLine
 10
3.17169478
 20
-355.08305039
 30
0.0
 11
173.67169478
 21
-355.08305039
 31
0.0
  0
LINE
  5
37C
100
AcDbEntity
  8
レイヤー_1
  6
CONTINUOUS
 62
       7
100
AcDbLine
 10
22.38317875
 20
-352.00052133
 30
0.0
 11
158.68122379
 21
-352.00052133
 31
0.0
  0
LINE
  5
37D
100
AcDbEntity
  8
レイヤー_1
  6
CONTINUOUS
 62
       7
100
AcDbLine
 10
158.68122379
 20
-352.00052133
 30
0.0
 11
158.68122379
 21
-339.75147097
 31
0.0
  0
LINE
  5
37E
100
AcDbEntity
  8
レイヤー_1
  6
CONTINUOUS
 62
       7
100
AcDbLine
 10
158.68122379
 20
-339.75147097
 30
0.0
 11
22.38317875
 21
-339.75147097
 31
0.0
  0
LINE
  5
37F
100
AcDbEntity
  8
レイヤー_1
  6
CONTINUOUS
 62
       7
100
AcDbLine
 10
18.13127477
 20
-333.80731731
 30
0.0
 11
152.89109525
 21
-333.80731731
 31
0.0
  0
LINE
  5
380
100
AcDbEntity
  8
レイヤー_1
  6
CONTINUOUS
 62
       7
100
AcDbLine
 10
18.13127477
 20
-335.73465796
 30
0.0
 11
152.89109525
 21
-335.73465796
 31
0.0
  0
LINE
  5
381
100
AcDbEntity
  8
レイヤー_1
  6
CONTINUOUS
 62
       7
100
AcDbLine
 10
18.13330142
 20
-327.50039395
 30
0.0
 11
18.13330142
 21
-339.75147097
 31
0.0
  0
LINE
  5
382
100
AcDbEntity
  8
レイヤー_1
  6
CONTINUOUS
 62
       7
100
AcDbLine
 10
22.38317875
 20
-346.05839432
 30
0.0
 11
157.14502588
 21
-346.05839432
 31
0.0
  0
LINE
  5
383
100
AcDbEntity
  8
レイヤー_1
  6
CONTINUOUS
 62
       7
100
AcDbLine
 10
22.38317875
 20
-347.73443083
 30
0.0
 11
157.14502588
 21
-347.73443083
 31
0.0
  0
LINE
  5
384
100
AcDbEntity
  8
レイヤー_1
  6
CONTINUOUS
 62
       7
100
AcDbLine
 10
141.38177079
 20
-352.00052133
 30
0.0
 11
141.38177079
 21
-339.75147097
 31
0.0
  0
LINE
  5
385
100
AcDbEntity
  8
レイヤー_1
  6
CONTINUOUS
 62
       7
100
AcDbLine
 10
149.88355211
 20
-352.00052133
 30
0.0
 11
149.88355211
 21
-339.75147097
 31
0.0
  0
LINE
  5
386
100
AcDbEntity
  8
レイヤー_1
  6
CONTINUOUS
 62
       7
100
AcDbLine
 10
16.63459646
 20
-339.75147097
 30
0.0
 11
152.93365482
 21
-339.75147097
 31
0.0
  0
LINE
  5
387
100
AcDbEntity
  8
レイヤー_1
  6
CONTINUOUS
 62
       7
100
AcDbLine
 10
152.93365482
 20
-327.50039395
 30
0.0
 11
16.63459646
 21
-327.50039395
 31
0.0
  0
LINE
  5
388
100
AcDbEntity
  8
レイヤー_1
  6
CONTINUOUS
 62
       7
100
AcDbLine
 10
16.63459646
 20
-327.50039395
 30
0.0
 11
16.63459646
 21
-339.75147097
 31
0.0
  0
LINE
  5
389
100
AcDbEntity
  8
レイヤー_1
  6
CONTINUOUS
 62
       7
100
AcDbLine
 10
3.17169478
 20
-366.08195989
 30
0.0
 11
-86.32830522
 21
-366.08195989
 31
0.0
  0
LINE
  5
38A
100
AcDbEntity
  8
レイヤー_1
  6
CONTINUOUS
 62
       7
100
AcDbLine
 10
193.67169478
 20
-366.08195989
 30
0.0
 11
173.67169478
 21
-366.08195989
 31
0.0
  0
LINE
  5
38B
100
AcDbEntity
  8
レイヤー_1
  6
CONTINUOUS
 62
       7
100
AcDbLine
 10
193.67169478
 20
-366.08195989
 30
0.0
 11
193.67169478
 21
-368.08195989
 31
0.0
  0
LINE
  5
38C
100
AcDbEntity
  8
レイヤー_1
  6
CONTINUOUS
 62
       7
100
AcDbLine
 10
173.67169478
 20
-355.08305039
 30
0.0
 11
173.67169478
 21
-368.08195989
 31
0.0
  0
LINE
  5
38D
100
AcDbEntity
  8
レイヤー_1
  6
CONTINUOUS
 62
       7
100
AcDbLine
 10
-86.32830522
 20
-366.08195989
 30
0.0
 11
-86.32830522
 21
-368.08195989
 31
0.0
  0
LINE
  5
38E
100
AcDbEntity
  8
レイヤー_1
  6
CONTINUOUS
 62
       7
100
AcDbLine
 10
8.67169478
 20
117.91841282
 30
0.0
 11
8.67169478
 21
103.91804011
 31
0.0
  0
LINE
  5
38F
100
AcDbEntity
  8
レイヤー_1
  6
PHANTOM
 62
       7
100
AcDbLine
 10
3.17169478
 20
-98.08156989
 30
0.0
 11
-48.72830522
 21
-98.08156989
 31
0.0
  0
LINE
  5
390
100
AcDbEntity
  8
レイヤー_1
  6
PHANTOM
 62
       7
100
AcDbLine
 10
5.67169478
 20
103.91804011
 30
0.0
 11
5.67169478
 21
124.83550944
 31
0.0
  0
LINE
  5
391
100
AcDbEntity
  8
SLD-0
  6
PHANTOM
 62
       7
100
AcDbLine
 10
-48.72830522
 20
-274.08195989
 30
0.0
 11
-48.72830522
 21
-366.08195989
 31
0.0
  0
LINE
  5
392
100
AcDbEntity
  8
SLD-0
  6
PHANTOM
 62
       7
100
AcDbLine
 10
3.17169478
 20
-274.08195989
 30
0.0
 11
-48.72830522
 21
-274.08195989
 31
0.0
  0
LINE
  5
393
100
AcDbEntity
  8
SLD-0
  6
PHANTOM
 62
       7
100
AcDbLine
 10
3.17169478
 20
-352.08158718
 30
0.0
 11
3.17169478
 21
-274.08195989
 31
0.0
  0
LINE
  5
394
100
AcDbEntity
  8
SLD-0
  6
PHANTOM
 62
       7
100
AcDbLine
 10
3.17169478
 20
-186.08156989
 30
0.0
 11
3.17169478
 21
-98.08156989
 31
0.0
  0
LINE
  5
395
100
AcDbEntity
  8
SLD-0
  6
PHANTOM
 62
       7
100
AcDbLine
 10
-48.72830522
 20
-186.08156989
 30
0.0
 11
-48.72830522
 21
-98.08156989
 31
0.0
  0
LINE
  5
396
100
AcDbEntity
  8
SLD-0
  6
PHANTOM
 62
       7
100
AcDbLine
 10
-2.52830522
 20
-262.08195989
 30
0.0
 11
-15.52830522
 21
-262.08195989
 31
0.0
  0
LINE
  5
397
100
AcDbEntity
  8
SLD-0
  6
PHANTOM
 62
       7
100
AcDbLine
 10
-15.52830522
 20
-274.08195989
 30
0.0
 11
-15.52830522
 21
-262.08195989
 31
0.0
  0
LINE
  5
398
100
AcDbEntity
  8
SLD-0
  6
PHANTOM
 62
       7
100
AcDbLine
 10
-30.02830522
 20
-274.08195989
 30
0.0
 11
-30.02830522
 21
-262.08195989
 31
0.0
  0
LINE
  5
399
100
AcDbEntity
  8
SLD-0
  6
PHANTOM
 62
       7
100
AcDbLine
 10
-43.02830522
 20
-274.08195989
 30
0.0
 11
-43.02830522
 21
-262.08195989
 31
0.0
  0
LINE
  5
39A
100
AcDbEntity
  8
SLD-0
  6
PHANTOM
 62
       7
100
AcDbLine
 10
-2.52830522
 20
-274.08195989
 30
0.0
 11
-2.52830522
 21
-262.08195989
 31
0.0
  0
LINE
  5
39B
100
AcDbEntity
  8
SLD-0
  6
PHANTOM
 62
       7
100
AcDbLine
 10
-30.02830522
 20
-262.08195989
 30
0.0
 11
-43.02830522
 21
-262.08195989
 31
0.0
  0
LINE
  5
39C
100
AcDbEntity
  8
SLD-0
  6
PHANTOM
 62
       7
100
AcDbLine
 10
-30.02830522
 20
-172.08156989
 30
0.0
 11
-43.02830522
 21
-172.08156989
 31
0.0
  0
LINE
  5
39D
100
AcDbEntity
  8
SLD-0
  6
PHANTOM
 62
       7
100
AcDbLine
 10
-30.02830522
 20
-172.08156989
 30
0.0
 11
-30.02830522
 21
-122.08156989
 31
0.0
  0
LINE
  5
39E
100
AcDbEntity
  8
SLD-0
  6
PHANTOM
 62
       7
100
AcDbLine
 10
-15.52830522
 20
-172.08156989
 30
0.0
 11
-15.52830522
 21
-122.08156989
 31
0.0
  0
LINE
  5
39F
100
AcDbEntity
  8
SLD-0
  6
PHANTOM
 62
       7
100
AcDbLine
 10
-2.52830522
 20
-172.08156989
 30
0.0
 11
-2.52830522
 21
-122.08156989
 31
0.0
  0
LINE
  5
3A0
100
AcDbEntity
  8
SLD-0
  6
PHANTOM
 62
       7
100
AcDbLine
 10
-2.52830522
 20
-172.08156989
 30
0.0
 11
-15.52830522
 21
-172.08156989
 31
0.0
  0
LINE
  5
3A1
100
AcDbEntity
  8
SLD-0
  6
PHANTOM
 62
       7
100
AcDbLine
 10
-43.02830522
 20
-172.08156989
 30
0.0
 11
-43.02830522
 21
-122.08156989
 31
0.0
  0
LINE
  5
3A2
100
AcDbEntity
  8
SLD-0
  6
PHANTOM
 62
       7
100
AcDbLine
 10
-30.02830522
 20
-122.08156989
 30
0.0
 11
-43.02830522
 21
-122.08156989
 31
0.0
  0
LINE
  5
3A3
100
AcDbEntity
  8
SLD-0
  6
PHANTOM
 62
       7
100
AcDbLine
 10
-2.52830522
 20
-122.08156989
 30
0.0
 11
-15.52830522
 21
-122.08156989
 31
0.0
  0
LINE
  5
3A4
100
AcDbEntity
  8
SLD-0
  6
PHANTOM
 62
       7
100
AcDbLine
 10
-30.02830522
 20
-170.58156989
 30
0.0
 11
-43.02830522
 21
-170.58156989
 31
0.0
  0
LINE
  5
3A5
100
AcDbEntity
  8
SLD-0
  6
PHANTOM
 62
       7
100
AcDbLine
 10
-30.02830522
 20
-164.08156989
 30
0.0
 11
-43.02830522
 21
-164.08156989
 31
0.0
  0
LINE
  5
3A6
100
AcDbEntity
  8
SLD-0
  6
PHANTOM
 62
       7
100
AcDbLine
 10
-30.02830522
 20
-162.58156989
 30
0.0
 11
-43.02830522
 21
-162.58156989
 31
0.0
  0
LINE
  5
3A7
100
AcDbEntity
  8
SLD-0
  6
PHANTOM
 62
       7
100
AcDbLine
 10
-2.52830522
 20
-164.08156989
 30
0.0
 11
-15.52830522
 21
-164.08156989
 31
0.0
  0
LINE
  5
3A8
100
AcDbEntity
  8
SLD-0
  6
PHANTOM
 62
       7
100
AcDbLine
 10
-30.02830522
 20
-156.08156989
 30
0.0
 11
-43.02830522
 21
-156.08156989
 31
0.0
  0
LINE
  5
3A9
100
AcDbEntity
  8
SLD-0
  6
PHANTOM
 62
       7
100
AcDbLine
 10
-30.02830522
 20
-154.58156989
 30
0.0
 11
-43.02830522
 21
-154.58156989
 31
0.0
  0
LINE
  5
3AA
100
AcDbEntity
  8
SLD-0
  6
PHANTOM
 62
       7
100
AcDbLine
 10
-2.52830522
 20
-156.08156989
 30
0.0
 11
-15.52830522
 21
-156.08156989
 31
0.0
  0
LINE
  5
3AB
100
AcDbEntity
  8
SLD-0
  6
PHANTOM
 62
       7
100
AcDbLine
 10
-30.02830522
 20
-148.08156989
 30
0.0
 11
-43.02830522
 21
-148.08156989
 31
0.0
  0
LINE
  5
3AC
100
AcDbEntity
  8
SLD-0
  6
PHANTOM
 62
       7
100
AcDbLine
 10
-30.02830522
 20
-146.58156989
 30
0.0
 11
-43.02830522
 21
-146.58156989
 31
0.0
  0
LINE
  5
3AD
100
AcDbEntity
  8
SLD-0
  6
PHANTOM
 62
       7
100
AcDbLine
 10
-2.52830522
 20
-148.08156989
 30
0.0
 11
-15.52830522
 21
-148.08156989
 31
0.0
  0
LINE
  5
3AE
100
AcDbEntity
  8
SLD-0
  6
PHANTOM
 62
       7
100
AcDbLine
 10
-30.02830522
 20
-140.08156989
 30
0.0
 11
-43.02830522
 21
-140.08156989
 31
0.0
  0
LINE
  5
3AF
100
AcDbEntity
  8
SLD-0
  6
PHANTOM
 62
       7
100
AcDbLine
 10
-30.02830522
 20
-138.58156989
 30
0.0
 11
-43.02830522
 21
-138.58156989
 31
0.0
  0
LINE
  5
3B0
100
AcDbEntity
  8
SLD-0
  6
PHANTOM
 62
       7
100
AcDbLine
 10
-2.52830522
 20
-140.08156989
 30
0.0
 11
-15.52830522
 21
-140.08156989
 31
0.0
  0
LINE
  5
3B1
100
AcDbEntity
  8
SLD-0
  6
PHANTOM
 62
       7
100
AcDbLine
 10
-30.02830522
 20
-132.08156989
 30
0.0
 11
-43.02830522
 21
-132.08156989
 31
0.0
  0
LINE
  5
3B2
100
AcDbEntity
  8
SLD-0
  6
PHANTOM
 62
       7
100
AcDbLine
 10
-30.02830522
 20
-130.58156989
 30
0.0
 11
-43.02830522
 21
-130.58156989
 31
0.0
  0
LINE
  5
3B3
100
AcDbEntity
  8
SLD-0
  6
PHANTOM
 62
       7
100
AcDbLine
 10
-2.52830522
 20
-132.08156989
 30
0.0
 11
-15.52830522
 21
-132.08156989
 31
0.0
  0
LINE
  5
3B4
100
AcDbEntity
  8
SLD-0
  6
PHANTOM
 62
       7
100
AcDbLine
 10
3.17169478
 20
-113.08156989
 30
0.0
 11
-48.72830522
 21
-113.08156989
 31
0.0
  0
LINE
  5
3B5
100
AcDbEntity
  8
SLD-0
  6
PHANTOM
 62
       7
100
AcDbLine
 10
3.17169478
 20
-177.08156989
 30
0.0
 11
-48.72830522
 21
-177.08156989
 31
0.0
  0
LINE
  5
3B6
100
AcDbEntity
  8
SLD-0
  6
PHANTOM
 62
       7
100
AcDbLine
 10
-20.77830522
 20
-177.08156989
 30
0.0
 11
-20.77830522
 21
-113.08156989
 31
0.0
  0
LINE
  5
3B7
100
AcDbEntity
  8
SLD-0
  6
PHANTOM
 62
       7
100
AcDbLine
 10
-24.77830522
 20
-177.08156989
 30
0.0
 11
-24.77830522
 21
-113.08156989
 31
0.0
  0
LINE
  5
3B8
100
AcDbEntity
  8
SLD-0
  6
PHANTOM
 62
       7
100
AcDbLine
 10
157.01499167
 20
-282.80270934
 30
0.0
 11
157.01499167
 21
-282.58195989
 31
0.0
  0
LINE
  5
3B9
100
AcDbEntity
  8
SLD-0
  6
PHANTOM
 62
       7
100
AcDbLine
 10
145.64282099
 20
-282.78195989
 30
0.0
 11
145.64282099
 21
-327.50039395
 31
0.0
  0
LINE
  5
3BA
100
AcDbEntity
  8
SLD-0
  6
PHANTOM
 62
       7
100
AcDbLine
 10
160.81264516
 20
-281.08195989
 30
0.0
 11
158.51499167
 21
-281.08195989
 31
0.0
  0
LINE
  5
3BB
100
AcDbEntity
  8
SLD-0
  6
PHANTOM
 62
       7
100
AcDbLine
 10
162.31264516
 20
-282.80270934
 30
0.0
 11
162.31264516
 21
-282.58195989
 31
0.0
  0
LINE
  5
3BC
100
AcDbEntity
  8
SLD-0
  6
PHANTOM
 62
       7
100
AcDbLine
 10
163.64282099
 20
-282.78195989
 30
0.0
 11
163.64282099
 21
-352.08158718
 31
0.0
  0
LINE
  5
3BD
100
AcDbEntity
  8
SLD-0
  6
PHANTOM
 62
       7
100
AcDbLine
 10
163.64282099
 20
-282.78195989
 30
0.0
 11
145.64282099
 21
-282.78195989
 31
0.0
  0
ARC
  5
3BE
100
AcDbEntity
  8
SLD-0
  6
PHANTOM
 62
       7
100
AcDbCircle
 10
160.81264516
 20
-282.58195989
 30
0.0
 40
1.5
100
AcDbArc
 50
0.0
 51
90.0
  0
ARC
  5
3BF
100
AcDbEntity
  8
SLD-0
  6
PHANTOM
 62
       7
100
AcDbCircle
 10
158.51499167
 20
-282.58195989
 30
0.0
 40
1.5
100
AcDbArc
 50
90.0
 51
180.0
  0
LINE
  5
3C0
100
AcDbEntity
  8
SLD-0
  6
CONTINUOUS
 62
       7
100
AcDbLine
 10
3.17169478
 20
-352.08158718
 30
0.0
 11
3.17169478
 21
-366.08195989
 31
0.0
  0
LINE
  5
3C1
100
AcDbEntity
  8
SLD-0_1
  6
PHANTOM
 62
       7
100
AcDbLine
 10
-2.52830522
 20
-170.58156989
 30
0.0
 11
-15.52830522
 21
-170.58156989
 31
0.0
  0
LINE
  5
3C2
100
AcDbEntity
  8
SLD-0_1
  6
PHANTOM
 62
       7
100
AcDbLine
 10
-2.52830522
 20
-162.58156989
 30
0.0
 11
-15.52830522
 21
-162.58156989
 31
0.0
  0
LINE
  5
3C3
100
AcDbEntity
  8
SLD-0_1
  6
PHANTOM
 62
       7
100
AcDbLine
 10
-2.52830522
 20
-154.58156989
 30
0.0
 11
-15.52830522
 21
-154.58156989
 31
0.0
  0
LINE
  5
3C4
100
AcDbEntity
  8
SLD-0_1
  6
PHANTOM
 62
       7
100
AcDbLine
 10
-2.52830522
 20
-146.58156989
 30
0.0
 11
-15.52830522
 21
-146.58156989
 31
0.0
  0
LINE
  5
3C5
100
AcDbEntity
  8
SLD-0_1
  6
PHANTOM
 62
       7
100
AcDbLine
 10
-2.52830522
 20
-138.58156989
 30
0.0
 11
-15.52830522
 21
-138.58156989
 31
0.0
  0
LINE
  5
3C6
100
AcDbEntity
  8
SLD-0_1
  6
PHANTOM
 62
       7
100
AcDbLine
 10
-2.52830522
 20
-130.58156989
 30
0.0
 11
-15.52830522
 21
-130.58156989
 31
0.0
  0
LINE
  5
3C7
100
AcDbEntity
  8
SLD-0_0
  6
PHANTOM
 62
       7
100
AcDbLine
 10
3.17169478
 20
-186.08156989
 30
0.0
 11
-48.72830522
 21
-186.08156989
 31
0.0
  0
LINE
  5
3C8
100
AcDbEntity
  8
SLD-0_0
  6
PHANTOM
 62
       7
100
AcDbLine
 10
11.67169478
 20
-282.78195989
 30
0.0
 11
11.67169478
 21
-352.08158718
 31
0.0
  0
LINE
  5
3C9
100
AcDbEntity
  8
SLD-0_0
  6
PHANTOM
 62
       7
100
AcDbLine
 10
29.67169478
 20
-282.78195989
 30
0.0
 11
11.67169478
 21
-282.78195989
 31
0.0
  0
LINE
  5
3CA
100
AcDbEntity
  8
SLD-0_0
  6
PHANTOM
 62
       7
100
AcDbLine
 10
29.67169478
 20
-282.78195989
 30
0.0
 11
29.67169478
 21
-327.50039395
 31
0.0
  0
LINE
  5
3CB
100
AcDbEntity
  8
SLD-0_0
  6
PHANTOM
 62
       7
100
AcDbLine
 10
26.84151894
 20
-281.08195989
 30
0.0
 11
24.54386546
 21
-281.08195989
 31
0.0
  0
LINE
  5
3CC
100
AcDbEntity
  8
SLD-0_0
  6
PHANTOM
 62
       7
100
AcDbLine
 10
23.04386546
 20
-282.80270934
 30
0.0
 11
23.04386546
 21
-282.58195989
 31
0.0
  0
LINE
  5
3CD
100
AcDbEntity
  8
SLD-0_0
  6
PHANTOM
 62
       7
100
AcDbLine
 10
28.34151894
 20
-282.80270934
 30
0.0
 11
28.34151894
 21
-282.58195989
 31
0.0
  0
ARC
  5
3CE
100
AcDbEntity
  8
SLD-0_0
  6
PHANTOM
 62
       7
100
AcDbCircle
 10
26.84151894
 20
-282.58195989
 30
0.0
 40
1.5
100
AcDbArc
 50
0.0
 51
90.0
  0
ARC
  5
3CF
100
AcDbEntity
  8
SLD-0_0
  6
PHANTOM
 62
       7
100
AcDbCircle
 10
24.54386546
 20
-282.58195989
 30
0.0
 40
1.5
100
AcDbArc
 50
90.0
 51
180.0
  0
LINE
  5
3D0
100
AcDbEntity
  8
SLD-0_3
  6
CONTINUOUS
 62
       7
100
AcDbLine
 10
183.67169478
 20
299.41843011
 30
0.0
 11
191.17169478
 21
299.41843011
 31
0.0
  0
LINE
  5
3D1
100
AcDbEntity
  8
SLD-0_3
  6
CONTINUOUS
 62
       7
100
AcDbLine
 10
183.67169478
 20
306.41843011
 30
0.0
 11
191.17169478
 21
306.41843011
 31
0.0
  0
LINE
  5
3D2
100
AcDbEntity
  8
SLD-0_3
  6
CONTINUOUS
 62
       7
100
AcDbLine
 10
183.67169478
 20
356.41843011
 30
0.0
 11
191.17169478
 21
356.41843011
 31
0.0
  0
LINE
  5
3D3
100
AcDbEntity
  8
SLD-0_3
  6
CONTINUOUS
 62
       7
100
AcDbLine
 10
191.17169478
 20
306.41843011
 30
0.0
 11
193.67169478
 21
308.91843011
 31
0.0
  0
LINE
  5
3D4
100
AcDbEntity
  8
SLD-0_3
  6
CONTINUOUS
 62
       7
100
AcDbLine
 10
193.67169478
 20
308.91843011
 30
0.0
 11
193.67169478
 21
346.91843011
 31
0.0
  0
LINE
  5
3D5
100
AcDbEntity
  8
SLD-0_3
  6
CONTINUOUS
 62
       7
100
AcDbLine
 10
193.67169478
 20
358.91843011
 30
0.0
 11
193.67169478
 21
372.91843011
 31
0.0
  0
LINE
  5
3D6
100
AcDbEntity
  8
SLD-0_3
  6
CONTINUOUS
 62
       7
100
AcDbLine
 10
191.17169478
 20
299.41843011
 30
0.0
 11
193.67169478
 21
296.91843011
 31
0.0
  0
LINE
  5
3D7
100
AcDbEntity
  8
SLD-0_3
  6
CONTINUOUS
 62
       7
100
AcDbLine
 10
191.17169478
 20
349.41843011
 30
0.0
 11
193.67169478
 21
346.91843011
 31
0.0
  0
LINE
  5
3D8
100
AcDbEntity
  8
SLD-0_3
  6
CONTINUOUS
 62
       7
100
AcDbLine
 10
183.67169478
 20
349.41843011
 30
0.0
 11
191.17169478
 21
349.41843011
 31
0.0
  0
LINE
  5
3D9
100
AcDbEntity
  8
SLD-0_3
  6
CONTINUOUS
 62
       7
100
AcDbLine
 10
193.67169478
 20
372.91843011
 30
0.0
 11
191.17169478
 21
375.41843011
 31
0.0
  0
LINE
  5
3DA
100
AcDbEntity
  8
SLD-0_3
  6
CONTINUOUS
 62
       7
100
AcDbLine
 10
191.17169478
 20
356.41843011
 30
0.0
 11
193.67169478
 21
358.91843011
 31
0.0
  0
LINE
  5
3DB
100
AcDbEntity
  8
SLD-0_3
  6
CONTINUOUS
 62
       7
100
AcDbLine
 10
191.17169478
 20
280.41843011
 30
0.0
 11
193.67169478
 21
282.91843011
 31
0.0
  0
LINE
  5
3DC
100
AcDbEntity
  8
SLD-0_3
  6
CONTINUOUS
 62
       7
100
AcDbLine
 10
193.67169478
 20
282.91843011
 30
0.0
 11
193.67169478
 21
296.91843011
 31
0.0
  0
LINE
  5
3DD
100
AcDbEntity
  8
SLD-0_3
  6
CONTINUOUS
 62
       7
100
AcDbLine
 10
173.67169478
 20
280.41843011
 30
0.0
 11
173.67169478
 21
375.41843011
 31
0.0
  0
LINE
  5
3DE
100
AcDbEntity
  8
SLD-0_3
  6
CONTINUOUS
 62
       7
100
AcDbLine
 10
191.17169478
 20
280.41843011
 30
0.0
 11
84.41375603
 21
280.41843011
 31
0.0
  0
LINE
  5
3DF
100
AcDbEntity
  8
SLD-0_3
  6
CONTINUOUS
 62
       7
100
AcDbLine
 10
-83.82830522
 20
375.41843011
 30
0.0
 11
191.17169478
 21
375.41843011
 31
0.0
  0
ARC
  5
3E0
100
AcDbEntity
  8
SLD-0_3
  6
CONTINUOUS
 62
       7
100
AcDbCircle
 10
183.67169478
 20
352.91843011
 30
0.0
 40
3.5
100
AcDbArc
 50
90.0
 51
270.0
  0
ARC
  5
3E1
100
AcDbEntity
  8
SLD-0_3
  6
CONTINUOUS
 62
       7
100
AcDbCircle
 10
183.67169478
 20
302.91843011
 30
0.0
 40
3.5
100
AcDbArc
 50
90.0
 51
270.0
  0
LINE
  5
3E2
100
AcDbEntity
  8
SLD-0_3
  6
PHANTOM
 62
       7
100
AcDbLine
 10
-66.32830522
 20
124.83550944
 30
0.0
 11
5.72203176
 21
124.83550944
 31
0.0
  0
LINE
  5
3E3
100
AcDbEntity
  8
SLD-0_3
  6
PHANTOM
 62
       7
100
AcDbLine
 10
-66.32830522
 20
103.91804011
 30
0.0
 11
-66.32830522
 21
124.83550944
 31
0.0
  0
LINE
  5
3E4
100
AcDbEntity
  8
SLD-0_3
  6
PHANTOM
 62
       7
100
AcDbLine
 10
-3.62757366
 20
141.90978375
 30
0.0
 11
-3.62757366
 21
124.83550944
 31
0.0
  0
LINE
  5
3E5
100
AcDbEntity
  8
SLD-0_3
  6
PHANTOM
 62
       7
100
AcDbLine
 10
-56.62749149
 20
141.90978375
 30
0.0
 11
-3.62757366
 21
141.90978375
 31
0.0
  0
LINE
  5
3E6
100
AcDbEntity
  8
SLD-0_3
  6
PHANTOM
 62
       7
100
AcDbLine
 10
-56.62749149
 20
124.83550944
 30
0.0
 11
-56.62749149
 21
141.90978375
 31
0.0
  0
LINE
  5
3E7
100
AcDbEntity
  8
SLD-0_2
  6
CONTINUOUS
 62
       7
100
AcDbLine
 10
26.63204277
 20
142.49960605
 30
0.0
 11
26.63204277
 21
130.24852903
 31
0.0
  0
LINE
  5
3E8
100
AcDbEntity
  8
SLD-0_2
  6
CONTINUOUS
 62
       7
100
AcDbLine
 10
30.88394675
 20
130.24852903
 30
0.0
 11
30.88394675
 21
117.99947867
 31
0.0
  0
LINE
  5
3E9
100
AcDbEntity
  8
SLD-0_2
  6
CONTINUOUS
 62
       7
100
AcDbLine
 10
64.88296543
 20
130.24852903
 30
0.0
 11
64.88296543
 21
117.99947867
 31
0.0
  0
LINE
  5
3EA
100
AcDbEntity
  8
SLD-0_2
  6
CONTINUOUS
 62
       7
100
AcDbLine
 10
50.9335588
 20
130.24852903
 30
0.0
 11
50.9335588
 21
142.49960605
 31
0.0
  0
LINE
  5
3EB
100
AcDbEntity
  8
SLD-0_2
  6
CONTINUOUS
 62
       7
100
AcDbLine
 10
86.13235211
 20
142.49960605
 30
0.0
 11
86.13235211
 21
130.24852903
 31
0.0
  0
LINE
  5
3EC
100
AcDbEntity
  8
SLD-0_2
  6
CONTINUOUS
 62
       7
100
AcDbLine
 10
120.13441076
 20
142.49960605
 30
0.0
 11
120.13441076
 21
130.24852903
 31
0.0
  0
LINE
  5
3ED
100
AcDbEntity
  8
SLD-0_2
  6
CONTINUOUS
 62
       7
100
AcDbLine
 10
193.67169478
 20
101.91804011
 30
0.0
 11
-86.32830522
 21
101.91804011
 31
0.0
  0
LINE
  5
3EE
100
AcDbEntity
  8
SLD-0_2
  6
CONTINUOUS
 62
       7
100
AcDbLine
 10
149.88355211
 20
117.99947867
 30
0.0
 11
149.88355211
 21
130.24852903
 31
0.0
  0
LINE
  5
3EF
100
AcDbEntity
  8
SLD-0_2
  6
CONTINUOUS
 62
       7
100
AcDbLine
 10
90.38425609
 20
130.24852903
 30
0.0
 11
90.38425609
 21
117.99947867
 31
0.0
  0
LINE
  5
3F0
100
AcDbEntity
  8
SLD-0_2
  6
CONTINUOUS
 62
       7
100
AcDbLine
 10
77.63361076
 20
142.49960605
 30
0.0
 11
77.63361076
 21
130.24852903
 31
0.0
  0
LINE
  5
3F1
100
AcDbEntity
  8
SLD-0_2
  6
CONTINUOUS
 62
       7
100
AcDbLine
 10
101.9310735
 20
130.24852903
 30
0.0
 11
101.9310735
 21
142.49960605
 31
0.0
  0
LINE
  5
3F2
100
AcDbEntity
  8
SLD-0_2
  6
CONTINUOUS
 62
       7
100
AcDbLine
 10
158.68122379
 20
142.49960605
 30
0.0
 11
158.68122379
 21
130.24852903
 31
0.0
  0
LINE
  5
3F3
100
AcDbEntity
  8
SLD-0_2
  6
CONTINUOUS
 62
       7
100
AcDbLine
 10
8.67169478
 20
117.91841282
 30
0.0
 11
171.65675976
 21
117.91841282
 31
0.0
  0
LINE
  5
3F4
100
AcDbEntity
  8
SLD-0_2
  6
CONTINUOUS
 62
       7
100
AcDbLine
 10
-86.32830522
 20
103.91804011
 30
0.0
 11
-86.32830522
 21
101.91804011
 31
0.0
  0
LINE
  5
3F5
100
AcDbEntity
  8
SLD-0_2
  6
CONTINUOUS
 62
       7
100
AcDbLine
 10
39.38471474
 20
130.24852903
 30
0.0
 11
39.38471474
 21
117.99947867
 31
0.0
  0
LINE
  5
3F6
100
AcDbEntity
  8
SLD-0_2
  6
CONTINUOUS
 62
       7
100
AcDbLine
 10
123.18451347
 20
117.99947867
 30
0.0
 11
123.18451347
 21
130.24852903
 31
0.0
  0
LINE
  5
3F7
100
AcDbEntity
  8
SLD-0_2
  6
CONTINUOUS
 62
       7
100
AcDbLine
 10
149.88557875
 20
130.24852903
 30
0.0
 11
149.88557875
 21
117.99947867
 31
0.0
  0
LINE
  5
3F8
100
AcDbEntity
  8
SLD-0_2
  6
CONTINUOUS
 62
       7
100
AcDbLine
 10
103.13287477
 20
142.49960605
 30
0.0
 11
103.13287477
 21
130.24852903
 31
0.0
  0
LINE
  5
3F9
100
AcDbEntity
  8
SLD-0_2
  6
CONTINUOUS
 62
       7
100
AcDbLine
 10
152.93365482
 20
142.49960605
 30
0.0
 11
16.63459646
 21
142.49960605
 31
0.0
  0
LINE
  5
3FA
100
AcDbEntity
  8
SLD-0_2
  6
CONTINUOUS
 62
       7
100
AcDbLine
 10
59.43331347
 20
130.24852903
 30
0.0
 11
59.43331347
 21
142.49960605
 31
0.0
  0
LINE
  5
3FB
100
AcDbEntity
  8
SLD-0_2
  6
CONTINUOUS
 62
       7
100
AcDbLine
 10
76.43180949
 20
130.24852903
 30
0.0
 11
76.43180949
 21
142.49960605
 31
0.0
  0
LINE
  5
3FC
100
AcDbEntity
  8
SLD-0_2
  6
CONTINUOUS
 62
       7
100
AcDbLine
 10
110.43082818
 20
130.24852903
 30
0.0
 11
110.43082818
 21
142.49960605
 31
0.0
  0
LINE
  5
3FD
100
AcDbEntity
  8
SLD-0_2
  6
CONTINUOUS
 62
       7
100
AcDbLine
 10
135.93211883
 20
130.24852903
 30
0.0
 11
135.93211883
 21
142.49960605
 31
0.0
  0
LINE
  5
3FE
100
AcDbEntity
  8
SLD-0_2
  6
CONTINUOUS
 62
       7
100
AcDbLine
 10
8.67169478
 20
114.91694961
 30
0.0
 11
173.67169478
 21
114.91694961
 31
0.0
  0
LINE
  5
3FF
100
AcDbEntity
  8
SLD-0_2
  6
CONTINUOUS
 62
       7
100
AcDbLine
 10
18.13127477
 20
136.19268269
 30
0.0
 11
152.89109525
 21
136.19268269
 31
0.0
  0
LINE
  5
400
100
AcDbEntity
  8
SLD-0_2
  6
CONTINUOUS
 62
       7
100
AcDbLine
 10
38.18291347
 20
117.99947867
 30
0.0
 11
38.18291347
 21
130.24852903
 31
0.0
  0
LINE
  5
401
100
AcDbEntity
  8
SLD-0_2
  6
CONTINUOUS
 62
       7
100
AcDbLine
 10
56.38523741
 20
130.24852903
 30
0.0
 11
56.38523741
 21
117.99947867
 31
0.0
  0
LINE
  5
402
100
AcDbEntity
  8
SLD-0_2
  6
CONTINUOUS
 62
       7
100
AcDbLine
 10
55.18343614
 20
117.99947867
 30
0.0
 11
55.18343614
 21
130.24852903
 31
0.0
  0
LINE
  5
403
100
AcDbEntity
  8
SLD-0_2
  6
CONTINUOUS
 62
       7
100
AcDbLine
 10
80.6847268
 20
117.99947867
 30
0.0
 11
80.6847268
 21
130.24852903
 31
0.0
  0
LINE
  5
404
100
AcDbEntity
  8
SLD-0_2
  6
CONTINUOUS
 62
       7
100
AcDbLine
 10
132.88404277
 20
130.24852903
 30
0.0
 11
132.88404277
 21
117.99947867
 31
0.0
  0
LINE
  5
405
100
AcDbEntity
  8
SLD-0_2
  6
CONTINUOUS
 62
       7
100
AcDbLine
 10
128.63416543
 20
142.49960605
 30
0.0
 11
128.63416543
 21
130.24852903
 31
0.0
  0
LINE
  5
406
100
AcDbEntity
  8
SLD-0_2
  6
CONTINUOUS
 62
       7
100
AcDbLine
 10
25.43226814
 20
130.24852903
 30
0.0
 11
25.43226814
 21
142.49960605
 31
0.0
  0
LINE
  5
407
100
AcDbEntity
  8
SLD-0_2
  6
CONTINUOUS
 62
       7
100
AcDbLine
 10
98.88299744
 20
130.24852903
 30
0.0
 11
98.88299744
 21
117.99947867
 31
0.0
  0
LINE
  5
408
100
AcDbEntity
  8
SLD-0_2
  6
CONTINUOUS
 62
       7
100
AcDbLine
 10
35.13179744
 20
142.49960605
 30
0.0
 11
35.13179744
 21
130.24852903
 31
0.0
  0
LINE
  5
409
100
AcDbEntity
  8
SLD-0_2
  6
CONTINUOUS
 62
       7
100
AcDbLine
 10
33.93202282
 20
130.24852903
 30
0.0
 11
33.93202282
 21
142.49960605
 31
0.0
  0
LINE
  5
40A
100
AcDbEntity
  8
SLD-0_2
  6
CONTINUOUS
 62
       7
100
AcDbLine
 10
52.1323201
 20
142.49960605
 30
0.0
 11
52.1323201
 21
130.24852903
 31
0.0
  0
LINE
  5
40B
100
AcDbEntity
  8
SLD-0_2
  6
CONTINUOUS
 62
       7
100
AcDbLine
 10
145.63164813
 20
142.49960605
 30
0.0
 11
145.63164813
 21
130.24852903
 31
0.0
  0
LINE
  5
40C
100
AcDbEntity
  8
SLD-0_2
  6
CONTINUOUS
 62
       7
100
AcDbLine
 10
22.38317875
 20
117.99947867
 30
0.0
 11
158.68122379
 21
117.99947867
 31
0.0
  0
LINE
  5
40D
100
AcDbEntity
  8
SLD-0_2
  6
CONTINUOUS
 62
       7
100
AcDbLine
 10
97.68322282
 20
117.99947867
 30
0.0
 11
97.68322282
 21
130.24852903
 31
0.0
  0
LINE
  5
40E
100
AcDbEntity
  8
SLD-0_2
  6
CONTINUOUS
 62
       7
100
AcDbLine
 10
140.18402282
 20
117.99947867
 30
0.0
 11
140.18402282
 21
130.24852903
 31
0.0
  0
LINE
  5
40F
100
AcDbEntity
  8
SLD-0_2
  6
CONTINUOUS
 62
       7
100
AcDbLine
 10
67.93408147
 20
130.24852903
 30
0.0
 11
67.93408147
 21
142.49960605
 31
0.0
  0
LINE
  5
410
100
AcDbEntity
  8
SLD-0_2
  6
CONTINUOUS
 62
       7
100
AcDbLine
 10
93.43334548
 20
130.24852903
 30
0.0
 11
93.43334548
 21
142.49960605
 31
0.0
  0
LINE
  5
411
100
AcDbEntity
  8
SLD-0_2
  6
CONTINUOUS
 62
       7
100
AcDbLine
 10
16.63459646
 20
130.24852903
 30
0.0
 11
152.93365482
 21
130.24852903
 31
0.0
  0
LINE
  5
412
100
AcDbEntity
  8
SLD-0_2
  6
CONTINUOUS
 62
       7
100
AcDbLine
 10
118.93260949
 20
130.24852903
 30
0.0
 11
118.93260949
 21
142.49960605
 31
0.0
  0
LINE
  5
413
100
AcDbEntity
  8
SLD-0_2
  6
CONTINUOUS
 62
       7
100
AcDbLine
 10
8.67169478
 20
103.91804011
 30
0.0
 11
-86.32830522
 21
103.91804011
 31
0.0
  0
LINE
  5
414
100
AcDbEntity
  8
SLD-0_2
  6
CONTINUOUS
 62
       7
100
AcDbLine
 10
173.67169478
 20
114.91694961
 30
0.0
 11
173.67169478
 21
101.91804011
 31
0.0
  0
LINE
  5
415
100
AcDbEntity
  8
SLD-0_2
  6
CONTINUOUS
 62
       7
100
AcDbLine
 10
131.68426814
 20
117.99947867
 30
0.0
 11
131.68426814
 21
130.24852903
 31
0.0
  0
LINE
  5
416
100
AcDbEntity
  8
SLD-0_2
  6
CONTINUOUS
 62
       7
100
AcDbLine
 10
43.63256543
 20
142.49960605
 30
0.0
 11
43.63256543
 21
130.24852903
 31
0.0
  0
LINE
  5
417
100
AcDbEntity
  8
SLD-0_2
  6
CONTINUOUS
 62
       7
100
AcDbLine
 10
16.63459646
 20
117.99947867
 30
0.0
 11
16.63459646
 21
130.24852903
 31
0.0
  0
LINE
  5
418
100
AcDbEntity
  8
SLD-0_2
  6
CONTINUOUS
 62
       7
100
AcDbLine
 10
157.18353216
 20
130.24852903
 30
0.0
 11
157.18353216
 21
117.99947867
 31
0.0
  0
LINE
  5
419
100
AcDbEntity
  8
SLD-0_2
  6
CONTINUOUS
 62
       7
100
AcDbLine
 10
18.13330142
 20
142.49960605
 30
0.0
 11
18.13330142
 21
130.24852903
 31
0.0
  0
LINE
  5
41A
100
AcDbEntity
  8
SLD-0_2
  6
CONTINUOUS
 62
       7
100
AcDbLine
 10
22.38317875
 20
122.26556917
 30
0.0
 11
157.14502588
 21
122.26556917
 31
0.0
  0
LINE
  5
41B
100
AcDbEntity
  8
SLD-0_2
  6
CONTINUOUS
 62
       7
100
AcDbLine
 10
16.63459646
 20
142.49960605
 30
0.0
 11
16.63459646
 21
130.24852903
 31
0.0
  0
LINE
  5
41C
100
AcDbEntity
  8
SLD-0_2
  6
CONTINUOUS
 62
       7
100
AcDbLine
 10
72.1839588
 20
117.99947867
 30
0.0
 11
72.1839588
 21
130.24852903
 31
0.0
  0
LINE
  5
41D
100
AcDbEntity
  8
SLD-0_2
  6
CONTINUOUS
 62
       7
100
AcDbLine
 10
69.13385609
 20
142.49960605
 30
0.0
 11
69.13385609
 21
130.24852903
 31
0.0
  0
LINE
  5
41E
100
AcDbEntity
  8
SLD-0_2
  6
CONTINUOUS
 62
       7
100
AcDbLine
 10
144.43390015
 20
130.24852903
 30
0.0
 11
144.43390015
 21
142.49960605
 31
0.0
  0
LINE
  5
41F
100
AcDbEntity
  8
SLD-0_2
  6
CONTINUOUS
 62
       7
100
AcDbLine
 10
73.38373343
 20
130.24852903
 30
0.0
 11
73.38373343
 21
117.99947867
 31
0.0
  0
LINE
  5
420
100
AcDbEntity
  8
SLD-0_2
  6
CONTINUOUS
 62
       7
100
AcDbLine
 10
106.18297749
 20
117.99947867
 30
0.0
 11
106.18297749
 21
130.24852903
 31
0.0
  0
LINE
  5
421
100
AcDbEntity
  8
SLD-0_2
  6
CONTINUOUS
 62
       7
100
AcDbLine
 10
114.6847588
 20
117.99947867
 30
0.0
 11
114.6847588
 21
130.24852903
 31
0.0
  0
LINE
  5
422
100
AcDbEntity
  8
SLD-0_2
  6
CONTINUOUS
 62
       7
100
AcDbLine
 10
148.68377749
 20
117.99947867
 30
0.0
 11
148.68377749
 21
130.24852903
 31
0.0
  0
LINE
  5
423
100
AcDbEntity
  8
SLD-0_2
  6
CONTINUOUS
 62
       7
100
AcDbLine
 10
60.6330881
 20
142.49960605
 30
0.0
 11
60.6330881
 21
130.24852903
 31
0.0
  0
LINE
  5
424
100
AcDbEntity
  8
SLD-0_2
  6
CONTINUOUS
 62
       7
100
AcDbLine
 10
22.38317875
 20
130.24852903
 30
0.0
 11
22.38317875
 21
117.99947867
 31
0.0
  0
LINE
  5
425
100
AcDbEntity
  8
SLD-0_2
  6
CONTINUOUS
 62
       7
100
AcDbLine
 10
46.68266814
 20
117.99947867
 30
0.0
 11
46.68266814
 21
130.24852903
 31
0.0
  0
LINE
  5
426
100
AcDbEntity
  8
SLD-0_2
  6
CONTINUOUS
 62
       7
100
AcDbLine
 10
89.18245482
 20
117.99947867
 30
0.0
 11
89.18245482
 21
130.24852903
 31
0.0
  0
LINE
  5
427
100
AcDbEntity
  8
SLD-0_2
  6
CONTINUOUS
 62
       7
100
AcDbLine
 10
42.43279081
 20
130.24852903
 30
0.0
 11
42.43279081
 21
142.49960605
 31
0.0
  0
LINE
  5
428
100
AcDbEntity
  8
SLD-0_2
  6
CONTINUOUS
 62
       7
100
AcDbLine
 10
22.38317875
 20
123.94160568
 30
0.0
 11
157.14502588
 21
123.94160568
 31
0.0
  0
LINE
  5
429
100
AcDbEntity
  8
SLD-0_2
  6
CONTINUOUS
 62
       7
100
AcDbLine
 10
124.3842881
 20
130.24852903
 30
0.0
 11
124.3842881
 21
117.99947867
 31
0.0
  0
LINE
  5
42A
100
AcDbEntity
  8
SLD-0_2
  6
CONTINUOUS
 62
       7
100
AcDbLine
 10
193.67169478
 20
103.91804011
 30
0.0
 11
193.67169478
 21
101.91804011
 31
0.0
  0
LINE
  5
42B
100
AcDbEntity
  8
SLD-0_2
  6
CONTINUOUS
 62
       7
100
AcDbLine
 10
81.8834881
 20
130.24852903
 30
0.0
 11
81.8834881
 21
117.99947867
 31
0.0
  0
LINE
  5
42C
100
AcDbEntity
  8
SLD-0_2
  6
CONTINUOUS
 62
       7
100
AcDbLine
 10
111.63262944
 20
142.49960605
 30
0.0
 11
111.63262944
 21
130.24852903
 31
0.0
  0
LINE
  5
42D
100
AcDbEntity
  8
SLD-0_2
  6
CONTINUOUS
 62
       7
100
AcDbLine
 10
171.65675976
 20
117.91841282
 30
0.0
 11
171.65675976
 21
114.91694961
 31
0.0
  0
LINE
  5
42E
100
AcDbEntity
  8
SLD-0_2
  6
CONTINUOUS
 62
       7
100
AcDbLine
 10
141.38177079
 20
117.99947867
 30
0.0
 11
141.38177079
 21
130.24852903
 31
0.0
  0
LINE
  5
42F
100
AcDbEntity
  8
SLD-0_2
  6
CONTINUOUS
 62
       7
100
AcDbLine
 10
141.38379744
 20
130.24852903
 30
0.0
 11
141.38379744
 21
117.99947867
 31
0.0
  0
LINE
  5
430
100
AcDbEntity
  8
SLD-0_2
  6
CONTINUOUS
 62
       7
100
AcDbLine
 10
84.93257749
 20
130.24852903
 30
0.0
 11
84.93257749
 21
142.49960605
 31
0.0
  0
LINE
  5
431
100
AcDbEntity
  8
SLD-0_2
  6
CONTINUOUS
 62
       7
100
AcDbLine
 10
127.43236416
 20
130.24852903
 30
0.0
 11
127.43236416
 21
142.49960605
 31
0.0
  0
LINE
  5
432
100
AcDbEntity
  8
SLD-0_2
  6
CONTINUOUS
 62
       7
100
AcDbLine
 10
152.93365482
 20
142.49960605
 30
0.0
 11
158.68122379
 21
142.49960605
 31
0.0
  0
LINE
  5
433
100
AcDbEntity
  8
SLD-0_2
  6
CONTINUOUS
 62
       7
100
AcDbLine
 10
158.68122379
 20
117.99947867
 30
0.0
 11
158.68122379
 21
130.24852903
 31
0.0
  0
LINE
  5
434
100
AcDbEntity
  8
SLD-0_2
  6
CONTINUOUS
 62
       7
100
AcDbLine
 10
18.13127477
 20
134.26534204
 30
0.0
 11
152.89109525
 21
134.26534204
 31
0.0
  0
LINE
  5
435
100
AcDbEntity
  8
SLD-0_2
  6
CONTINUOUS
 62
       7
100
AcDbLine
 10
193.67169478
 20
103.91804011
 30
0.0
 11
173.67169478
 21
103.91804011
 31
0.0
  0
LINE
  5
436
100
AcDbEntity
  8
SLD-0_2
  6
CONTINUOUS
 62
       7
100
AcDbLine
 10
47.88446941
 20
130.24852903
 30
0.0
 11
47.88446941
 21
117.99947867
 31
0.0
  0
LINE
  5
437
100
AcDbEntity
  8
SLD-0_2
  6
CONTINUOUS
 62
       7
100
AcDbLine
 10
63.68420413
 20
117.99947867
 30
0.0
 11
63.68420413
 21
130.24852903
 31
0.0
  0
LINE
  5
438
100
AcDbEntity
  8
SLD-0_2
  6
CONTINUOUS
 62
       7
100
AcDbLine
 10
94.63210678
 20
142.49960605
 30
0.0
 11
94.63210678
 21
130.24852903
 31
0.0
  0
LINE
  5
439
100
AcDbEntity
  8
SLD-0_2
  6
CONTINUOUS
 62
       7
100
AcDbLine
 10
29.68417213
 20
117.99947867
 30
0.0
 11
29.68417213
 21
130.24852903
 31
0.0
  0
LINE
  5
43A
100
AcDbEntity
  8
SLD-0_2
  6
CONTINUOUS
 62
       7
100
AcDbLine
 10
107.38275211
 20
130.24852903
 30
0.0
 11
107.38275211
 21
117.99947867
 31
0.0
  0
LINE
  5
43B
100
AcDbEntity
  8
SLD-0_2
  6
CONTINUOUS
 62
       7
100
AcDbLine
 10
115.88250678
 20
130.24852903
 30
0.0
 11
115.88250678
 21
117.99947867
 31
0.0
  0
LINE
  5
43C
100
AcDbEntity
  8
SLD-0_2
  6
CONTINUOUS
 62
       7
100
AcDbLine
 10
137.13189346
 20
142.49960605
 30
0.0
 11
137.13189346
 21
130.24852903
 31
0.0
  0
LINE
  5
43D
100
AcDbEntity
  8
SLD-0_2
  6
CONTINUOUS
 62
       7
100
AcDbLine
 10
152.93365482
 20
130.24852903
 30
0.0
 11
152.93365482
 21
142.49960605
 31
0.0
  0
LINE
  5
43E
100
AcDbEntity
  8
SLD-0_2
  6
CONTINUOUS
 62
       7
100
AcDbLine
 10
158.68122379
 20
130.24852903
 30
0.0
 11
22.38317875
 21
130.24852903
 31
0.0
  0
LINE
  5
43F
100
AcDbEntity
  8
SLD-0_2
  6
PHANTOM
 62
       7
100
AcDbLine
 10
163.64282099
 20
187.21804011
 30
0.0
 11
163.64282099
 21
117.91841282
 31
0.0
  0
LINE
  5
440
100
AcDbEntity
  8
SLD-0_2
  6
PHANTOM
 62
       7
100
AcDbLine
 10
145.64282099
 20
187.21804011
 30
0.0
 11
145.64282099
 21
142.49960605
 31
0.0
  0
LINE
  5
441
100
AcDbEntity
  8
SLD-0_2
  6
PHANTOM
 62
       7
100
AcDbLine
 10
29.67169478
 20
187.21804011
 30
0.0
 11
11.67169478
 21
187.21804011
 31
0.0
  0
LINE
  5
442
100
AcDbEntity
  8
SLD-0_2
  6
PHANTOM
 62
       7
100
AcDbLine
 10
162.31264516
 20
187.19729066
 30
0.0
 11
162.31264516
 21
187.41804011
 31
0.0
  0
LINE
  5
443
100
AcDbEntity
  8
SLD-0_2
  6
PHANTOM
 62
       7
100
AcDbLine
 10
163.64282099
 20
187.21804011
 30
0.0
 11
145.64282099
 21
187.21804011
 31
0.0
  0
LINE
  5
444
100
AcDbEntity
  8
SLD-0_2
  6
PHANTOM
 62
       7
100
AcDbLine
 10
28.34151894
 20
187.19729066
 30
0.0
 11
28.34151894
 21
187.41804011
 31
0.0
  0
LINE
  5
445
100
AcDbEntity
  8
SLD-0_2
  6
PHANTOM
 62
       7
100
AcDbLine
 10
29.67169478
 20
187.21804011
 30
0.0
 11
29.67169478
 21
142.49960605
 31
0.0
  0
LINE
  5
446
100
AcDbEntity
  8
SLD-0_2
  6
PHANTOM
 62
       7
100
AcDbLine
 10
26.84151894
 20
188.91804011
 30
0.0
 11
24.54386546
 21
188.91804011
 31
0.0
  0
LINE
  5
447
100
AcDbEntity
  8
SLD-0_2
  6
PHANTOM
 62
       7
100
AcDbLine
 10
157.01499167
 20
187.19729066
 30
0.0
 11
157.01499167
 21
187.41804011
 31
0.0
  0
LINE
  5
448
100
AcDbEntity
  8
SLD-0_2
  6
PHANTOM
 62
       7
100
AcDbLine
 10
11.67169478
 20
187.21804011
 30
0.0
 11
11.67169478
 21
117.91841282
 31
0.0
  0
LINE
  5
449
100
AcDbEntity
  8
SLD-0_2
  6
PHANTOM
 62
       7
100
AcDbLine
 10
23.04386546
 20
187.19729066
 30
0.0
 11
23.04386546
 21
187.41804011
 31
0.0
  0
LINE
  5
44A
100
AcDbEntity
  8
SLD-0_2
  6
PHANTOM
 62
       7
100
AcDbLine
 10
160.81264516
 20
188.91804011
 30
0.0
 11
158.51499167
 21
188.91804011
 31
0.0
  0
ARC
  5
44B
100
AcDbEntity
  8
SLD-0_2
  6
PHANTOM
 62
       7
100
AcDbCircle
 10
26.84151894
 20
187.41804011
 30
0.0
 40
1.5
100
AcDbArc
 50
0.0
 51
90.0
  0
ARC
  5
44C
100
AcDbEntity
  8
SLD-0_2
  6
PHANTOM
 62
       7
100
AcDbCircle
 10
160.81264516
 20
187.41804011
 30
0.0
 40
1.5
100
AcDbArc
 50
0.0
 51
90.0
  0
ARC
  5
44D
100
AcDbEntity
  8
SLD-0_2
  6
PHANTOM
 62
       7
100
AcDbCircle
 10
158.51499167
 20
187.41804011
 30
0.0
 40
1.5
100
AcDbArc
 50
90.0
 51
180.0
  0
ARC
  5
44E
100
AcDbEntity
  8
SLD-0_2
  6
PHANTOM
 62
       7
100
AcDbCircle
 10
24.54386546
 20
187.41804011
 30
0.0
 40
1.5
100
AcDbArc
 50
90.0
 51
180.0
  0
TEXT
  5
44F
100
AcDbEntity
  8
SLD-0
 62
       7
100
AcDbText
 10
180.63175269
 20
-378.00073472
 30
0.0
 40
5.0
  1
000
 72
       5
 11
195.63175269
 21
-378.00073472
 31
0.0
100
AcDbText
  0
TEXT
  5
450
100
AcDbEntity
  8
SLD-0_3
 62
       7
100
AcDbText
 10
-193.67169478
 20
354.2339445
 30
0.0
 40
10.0
  1
-R
 72
       5
 11
-173.67169478
 21
354.2339445
 31
0.0
100
AcDbText
  0
TEXT
  5
451
100
AcDbEntity
  8
SLD-0_3
 62
       7
100
AcDbText
 10
-179.59964198
 20
-100.71064421
 30
0.0
 40
10.0
  1
-K
 72
       5
 11
-159.59964198
 21
-100.71064421
 31
0.0
100
AcDbText
  0
ENDSEC
  0
SECTION
  2
OBJECTS
  0
DICTIONARY
  5
19
100
AcDbDictionary
  3
ACAD_GROUP
350
1A
  3
ACAD_MLINESTYLE
350
1B
  0
DICTIONARY
  5
1A
102
{ACAD_REACTORS
330
19
102
}
100
AcDbDictionary
  0
DICTIONARY
  5
1B
102
{ACAD_REACTORS
330
19
102
}
100
AcDbDictionary
  3
STANDARD
350
1C
  0
MLINESTYLE
  5
1C
102
{ACAD_REACTORS
330
1B
102
}
100
AcDbMlineStyle
  2
STANDARD
 70
       0
  3

 62
       0
 51
90.0
 52
90.0
 71
       2
 49
0.5
 62
     256
  6
BYLAYER
 49
-0.5
 62
     256
  6
BYLAYER
  0
ENDSEC
  0
EOF
