  0
SECTION
  2
HEADER
  9
$ACADVER
  1
AC1014
  9
$ACADMAINTVER
 70
       0
  9
$DWGCODEPAGE
  3
ANSI_932
  9
$INSBASE
 10
0.0
 20
0.0
 30
0.0
  9
$EXTMIN
 10
-289.91143767
 20
-447.43991351
 30
0.0
  9
$EXTMAX
 10
289.91143767
 20
372.63737915
 30
0.0
  9
$LIMMIN
 10
-308.03090252
 20
-473.0673289
  9
$LIMMAX
 10
308.03090252
 20
398.26479454
  9
$ORTHOMODE
 70
       0
  9
$REGENMODE
 70
       1
  9
$FILLMODE
 70
       1
  9
$QTEXTMODE
 70
       0
  9
$MIRRTEXT
 70
       1
  9
$DRAGMODE
 70
       2
  9
$LTSCALE
 40
1.0
  9
$OSMODE
 70
       0
  9
$ATTMODE
 70
       1
  9
$TEXTSIZE
 40
0.2
  9
$TRACEWID
 40
0.05
  9
$TEXTSTYLE
  7
STANDARD
  9
$CLAYER
  8
0
  9
$CELTYPE
  6
CONTINUOUS
  9
$CECOLOR
 62
     256
  9
$CELTSCALE
 40
1.0
  9
$DELOBJ
 70
       1
  9
$DISPSILH
 70
       0
  9
$DIMSCALE
 40
1.0
  9
$DIMASZ
 40
0.18
  9
$DIMEXO
 40
0.0625
  9
$DIMDLI
 40
0.38
  9
$DIMRND
 40
0.0
  9
$DIMDLE
 40
0.0
  9
$DIMEXE
 40
0.18
  9
$DIMTP
 40
0.0
  9
$DIMTM
 40
0.0
  9
$DIMTXT
 40
0.18
  9
$DIMCEN
 40
0.09
  9
$DIMTSZ
 40
0.0
  9
$DIMTOL
 70
       0
  9
$DIMLIM
 70
       0
  9
$DIMTIH
 70
       1
  9
$DIMTOH
 70
       1
  9
$DIMSE1
 70
       0
  9
$DIMSE2
 70
       0
  9
$DIMTAD
 70
       0
  9
$DIMZIN
 70
       0
  9
$DIMBLK
  1

  9
$DIMASO
 70
       1
  9
$DIMSHO
 70
       1
  9
$DIMPOST
  1

  9
$DIMAPOST
  1

  9
$DIMALT
 70
       0
  9
$DIMALTD
 70
       2
  9
$DIMALTF
 40
25.4
  9
$DIMLFAC
 40
1.0
  9
$DIMTOFL
 70
       0
  9
$DIMTVP
 40
0.0
  9
$DIMTIX
 70
       0
  9
$DIMSOXD
 70
       0
  9
$DIMSAH
 70
       0
  9
$DIMBLK1
  1

  9
$DIMBLK2
  1

  9
$DIMSTYLE
  2
STANDARD
  9
$DIMCLRD
 70
       0
  9
$DIMCLRE
 70
       0
  9
$DIMCLRT
 70
       0
  9
$DIMTFAC
 40
1.0
  9
$DIMGAP
 40
0.09
  9
$DIMJUST
 70
       0
  9
$DIMSD1
 70
       0
  9
$DIMSD2
 70
       0
  9
$DIMTOLJ
 70
       1
  9
$DIMTZIN
 70
       0
  9
$DIMALTZ
 70
       0
  9
$DIMALTTZ
 70
       0
  9
$DIMFIT
 70
       3
  9
$DIMUPT
 70
       0
  9
$DIMUNIT
 70
       2
  9
$DIMDEC
 70
       4
  9
$DIMTDEC
 70
       4
  9
$DIMALTU
 70
       2
  9
$DIMALTTD
 70
       2
  9
$DIMTXSTY
  7
STANDARD
  9
$DIMAUNIT
 70
       0
  9
$LUNITS
 70
       2
  9
$LUPREC
 70
       4
  9
$SKETCHINC
 40
0.1
  9
$FILLETRAD
 40
0.0
  9
$AUNITS
 70
       0
  9
$AUPREC
 70
       0
  9
$MENU
  1
acad
  9
$ELEVATION
 40
0.0
  9
$PELEVATION
 40
0.0
  9
$THICKNESS
 40
0.0
  9
$LIMCHECK
 70
       0
  9
$BLIPMODE
 70
       1
  9
$CHAMFERA
 40
0.0
  9
$CHAMFERB
 40
0.0
  9
$CHAMFERC
 40
0.0
  9
$CHAMFERD
 40
0.0
  9
$SKPOLY
 70
       0
  9
$TDCREATE
 40
0.000000000
  9
$TDUPDATE
 40
0.000000000
  9
$TDINDWG
 40
0.0000000000
  9
$TDUSRTIMER
 40
0.0000000000
  9
$USRTIMER
 70
       1
  9
$ANGBASE
 50
0.0
  9
$ANGDIR
 70
       0
  9
$PDMODE
 70
       0
  9
$PDSIZE
 40
1.0
  9
$PLINEWID
 40
0.0
  9
$COORDS
 70
       1
  9
$SPLFRAME
 70
       0
  9
$SPLINETYPE
 70
       6
  9
$SPLINESEGS
 70
       8
  9
$ATTDIA
 70
       0
  9
$ATTREQ
 70
       1
  9
$HANDLING
 70
       1
  9
$HANDSEED
  5
6CC
  9
$SURFTAB1
 70
       6
  9
$SURFTAB2
 70
       6
  9
$SURFTYPE
 70
       6
  9
$SURFU
 70
       6
  9
$SURFV
 70
       6
  9
$UCSNAME
  2

  9
$UCSORG
 10
0.0
 20
0.0
 30
0.0
  9
$UCSXDIR
 10
1.0
 20
0.0
 30
0.0
  9
$UCSYDIR
 10
0.0
 20
1.0
 30
0.0
  9
$PUCSNAME
  2

  9
$PUCSORG
 10
0.0
 20
0.0
 30
0.0
  9
$PUCSXDIR
 10
1.0
 20
0.0
 30
0.0
  9
$PUCSYDIR
 10
0.0
 20
1.0
 30
0.0
  9
$USERI1
 70
       0
  9
$USERI2
 70
       0
  9
$USERI3
 70
       0
  9
$USERI4
 70
       0
  9
$USERI5
 70
       0
  9
$USERR1
 40
0.0
  9
$USERR2
 40
0.0
  9
$USERR3
 40
0.0
  9
$USERR4
 40
0.0
  9
$USERR5
 40
0.0
  9
$WORLDVIEW
 70
       1
  9
$SHADEDGE
 70
       3
  9
$SHADEDIF
 70
      70
  9
$TILEMODE
 70
       1
  9
$MAXACTVP
 70
      16
  9
$PINSBASE
 10
0.0
 20
0.0
 30
0.0
  9
$PLIMCHECK
 70
       0
  9
$PEXTMIN
 10
1.00000000E+20
 20
1.00000000E+20
 30
1.00000000E+20
  9
$PEXTMAX
 10
-1.00000000E+20
 20
-1.00000000E+20
 30
-1.00000000E+20
  9
$PLIMMIN
 10
0.0
 20
0.0
  9
$PLIMMAX
 10
12.0
 20
9.0
  9
$UNITMODE
 70
       0
  9
$VISRETAIN
 70
       0
  9
$PLINEGEN
 70
       1
  9
$PSLTSCALE
 70
       0
  9
$TREEDEPTH
 70
    3020
  9
$PICKSTYLE
 70
       1
  9
$CMLSTYLE
  2
STANDARD
  9
$CMLJUST
 70
       0
  9
$CMLSCALE
 40
1.0
  9
$PROXYGRAPHICS
 70
       0
  9
$MEASUREMENT
 70
       0
  0
ENDSEC
  0
SECTION
  2
CLASSES
  0
CLASS
  1
LWPOLYLINE
  2
AcDbPolyline
  3
"AutoCAD"
 90
        0
280
       0
281
       1
  0
CLASS
  1
IMAGE
  2
AcDbRasterImage
  3
ISM
 90
      127
280
       0
281
       1
  0
CLASS
  1
OLE2FRAME
  2
AcDbOle2Frame
  3
""
 90
        0
280
       0
281
       1
  0
CLASS
  1
HATCH
  2
AcDbHatch
  3
"ACAD_SEDONA"
 90
        0
280
       0
281
       1
  0
CLASS
  1
DICTIONARYVAR
  2
AcDbDictionaryVar
  3
"AutoCAD"
 90
        0
280
       0
281
       0
  0
CLASS
  1
RASTERVARIABLES
  2
AcDbRasterVariables
  3
ISM
 90
        0
280
       0
281
       0
  0
CLASS
  1
IMAGEDEF
  2
AcDbRasterImageDef
  3
ISM
 90
        0
280
       0
281
       0
  0
CLASS
  1
IMAGEDEF_REACTOR
  2
AcDbRasterImageDefReactor
  3
ISM
 90
        1
280
       0
281
       0
  0
CLASS
  1
IDBUFFER
  2
AcDbIdBuffer
  3
"Acad"
 90
        0
280
       0
281
       0
  0
CLASS
  1
SPATIAL_FILTER
  2
AcDbSpatialFilter
  3
"Acad"
 90
        0
280
       0
281
       0
  0
CLASS
  1
XRECORD
  2
AcDbXrecord
  3
"<Built In>"
 90
        0
280
       0
281
       0
  0
CLASS
  1
SORTENTSTABLE
  2
AcDbSortentsTable
  3
"AutoCAD"
 90
        0
280
       0
281
       0
  0
CLASS
  1
LAYER_INDEX
  2
AcDbLayerIndex
  3
"Acad"
 90
        0
280
       0
281
       0
  0
CLASS
  1
SPATIAL_INDEX
  2
AcDbSpatialIndex
  3
"Acad"
 90
        0
280
       0
281
       0
  0
CLASS
  1
OBJECT_PTR
  2
CAseDLPNTableRecord
  3
"ASE-LPNTableRecord"
 90
        1
280
       0
281
       0
  0
CLASS
  1
LAYOUT
  2
AcDbLayout
  3
"AutoCAD 2000"
 90
        1
280
       0
281
       0
  0
CLASS
  1
PLOTSETTINGS
  2
AcDbPlotSettings
  3
"AutoCAD 2000"
 90
        1
280
       0
281
       0
  0
CLASS
  1
ACDBDICTIONARYWDFLT
  2
AcDbDictionaryWithDefault
  3
"AutoCAD 2000"
 90
        1
280
       0
281
       0
  0
CLASS
  1
ACDBPLACEHOLDER
  2
AcDbPlaceHolder
  3
"AutoCAD 2000"
 90
        1
280
       0
281
       0
  0
CLASS
  1
VBA_PROJECT
  2
AcDbVbaProject
  3
"acadvba"
 90
        1
280
       0
281
       0
  0
CLASS
  1
WIPEOUT
  2
AcDbWipeout
  3
WipeOut|AutoCAD Express Tool|expresstools@autodesk.com
 90
      127
280
       0
281
       1
  0
CLASS
  1
WIPEOUTVARIABLES
  2
AcDbWipeoutVariables
  3
WipeOut|AutoCAD Express Tool|expresstools@autodesk.com
 90
        0
280
       0
281
       0
  0
CLASS
  1
RTEXT
  2
RText
  3
RText|AutoCAD Express Tool|expresstools@autodesk.com
 90
        0
280
       0
281
       1
  0
CLASS
  1
ARCALIGNEDTEXT
  2
AcDbArcAlignedText
  3
ATEXT|AutoCAD Express Tool|expresstools@autodesk.com
 90
        0
280
       0
281
       1
  0
ENDSEC
  0
SECTION
  2
TABLES
  0
TABLE
  2
VPORT
  5
7
100
AcDbSymbolTable
 70
       1
  0
VPORT
  5
15
100
AcDbSymbolTableRecord
100
AcDbViewportTableRecord
  2
*ACTIVE
 70
       0
 10
0.0
 20
0.0
 11
1.0
 21
1.0
 12
0.0
 22
-37.40126718
 13
0.0
 23
0.0
 14
1.0
 24
1.0
 15
0.0
 25
0.0
 16
0.0
 26
0.0
 36
1.0
 17
0.0
 27
0.0
 37
0.0
 40
871.33212345
 41
0.70703442
 42
50.0
 43
0.0
 44
0.0
 50
0.0
 51
0.0
 71
       0
 72
     100
 73
       1
 74
       1
 75
       0
 76
       0
 77
       0
 78
       0
  0
ENDTAB
  0
TABLE
  2
LTYPE
  5
4
100
AcDbSymbolTable
 70
      30
  0
LTYPE
  5
11
100
AcDbSymbolTableRecord
100
AcDbLinetypeTableRecord
  2
BYBLOCK
 70
      64
  3

 72
      65
 73
       0
 40
0.0
  0
LTYPE
  5
12
100
AcDbSymbolTableRecord
100
AcDbLinetypeTableRecord
  2
BYLAYER
 70
      64
  3

 72
      65
 73
       0
 40
0.0
  0
LTYPE
  5
13
100
AcDbSymbolTableRecord
100
AcDbLinetypeTableRecord
  2
CONTINUOUS
 70
      64
  3
Solid line
 72
      65
 73
       0
 40
0.0
  0
LTYPE
  5
1D
100
AcDbSymbolTableRecord
100
AcDbLinetypeTableRecord
  2
HIDDENX2
 70
      64
  3
CADPAC LINETYPE
 72
      65
 73
       2
 40
50.77620561
 49
38.0821542
 74
       0
 49
-12.6940514
 74
       0
  0
LTYPE
  5
1E
100
AcDbSymbolTableRecord
100
AcDbLinetypeTableRecord
  2
HIDDEN
 70
      64
  3
CADPAC LINETYPE
 72
      65
 73
       2
 40
38.0821542
 49
25.3881028
 74
       0
 49
-12.6940514
 74
       0
  0
LTYPE
  5
1F
100
AcDbSymbolTableRecord
100
AcDbLinetypeTableRecord
  2
HIDDEN2
 70
      64
  3
CADPAC LINETYPE
 72
      65
 73
       2
 40
31.7351285
 49
19.0410771
 74
       0
 49
-12.6940514
 74
       0
  0
LTYPE
  5
20
100
AcDbSymbolTableRecord
100
AcDbLinetypeTableRecord
  2
DASHED
 70
      64
  3
CADPAC LINETYPE
 72
      65
 73
       2
 40
38.0821542
 49
25.3881028
 74
       0
 49
-12.6940514
 74
       0
  0
LTYPE
  5
21
100
AcDbSymbolTableRecord
100
AcDbLinetypeTableRecord
  2
DASHED2
 70
      64
  3
CADPAC LINETYPE
 72
      65
 73
       2
 40
28.56161565
 49
19.0410771
 74
       0
 49
-9.52053855
 74
       0
  0
LTYPE
  5
22
100
AcDbSymbolTableRecord
100
AcDbLinetypeTableRecord
  2
DASHEDX2
 70
      64
  3
CADPAC LINETYPE
 72
      65
 73
       2
 40
57.12323131
 49
38.0821542
 74
       0
 49
-19.0410771
 74
       0
  0
LTYPE
  5
23
100
AcDbSymbolTableRecord
100
AcDbLinetypeTableRecord
  2
DOTX2
 70
      64
  3
CADPAC LINETYPE
 72
      65
 73
       2
 40
15.86756425
 49
0.0
 74
       0
 49
-15.86756425
 74
       0
  0
LTYPE
  5
24
100
AcDbSymbolTableRecord
100
AcDbLinetypeTableRecord
  2
DOT
 70
      64
  3
CADPAC LINETYPE
 72
      65
 73
       2
 40
12.6940514
 49
0.0
 74
       0
 49
-12.6940514
 74
       0
  0
LTYPE
  5
25
100
AcDbSymbolTableRecord
100
AcDbLinetypeTableRecord
  2
DOT2
 70
      64
  3
CADPAC LINETYPE
 72
      65
 73
       2
 40
9.52053855
 49
0.0
 74
       0
 49
-9.52053855
 74
       0
  0
LTYPE
  5
26
100
AcDbSymbolTableRecord
100
AcDbLinetypeTableRecord
  2
CENTERX2
 70
      64
  3
CADPAC LINETYPE
 72
      65
 73
       4
 40
76.16430841
 49
31.7351285
 74
       0
 49
-15.86756425
 74
       0
 49
12.6940514
 74
       0
 49
-15.86756425
 74
       0
  0
LTYPE
  5
27
100
AcDbSymbolTableRecord
100
AcDbLinetypeTableRecord
  2
CENTER
 70
      64
  3
CADPAC LINETYPE
 72
      65
 73
       4
 40
58.39263645
 49
25.3881028
 74
       0
 49
-12.6940514
 74
       0
 49
7.61643084
 74
       0
 49
-12.6940514
 74
       0
  0
LTYPE
  5
28
100
AcDbSymbolTableRecord
100
AcDbLinetypeTableRecord
  2
CENTER2
 70
      64
  3
CADPAC LINETYPE
 72
      65
 73
       4
 40
40.62096448
 49
19.0410771
 74
       0
 49
-9.52053855
 74
       0
 49
2.53881028
 74
       0
 49
-9.52053855
 74
       0
  0
LTYPE
  5
29
100
AcDbSymbolTableRecord
100
AcDbLinetypeTableRecord
  2
DASHDOTX2
 70
      64
  3
CADPAC LINETYPE
 72
      65
 73
       4
 40
63.47025701
 49
31.7351285
 74
       0
 49
-15.86756425
 74
       0
 49
0.0
 74
       0
 49
-15.86756425
 74
       0
  0
LTYPE
  5
2A
100
AcDbSymbolTableRecord
100
AcDbLinetypeTableRecord
  2
DASHDOT
 70
      64
  3
CADPAC LINETYPE
 72
      65
 73
       4
 40
50.77620561
 49
25.3881028
 74
       0
 49
-12.6940514
 74
       0
 49
0.0
 74
       0
 49
-12.6940514
 74
       0
  0
LTYPE
  5
2B
100
AcDbSymbolTableRecord
100
AcDbLinetypeTableRecord
  2
DASHDOT2
 70
      64
  3
CADPAC LINETYPE
 72
      65
 73
       4
 40
38.0821542
 49
19.0410771
 74
       0
 49
-9.52053855
 74
       0
 49
0.0
 74
       0
 49
-9.52053855
 74
       0
  0
LTYPE
  5
2C
100
AcDbSymbolTableRecord
100
AcDbLinetypeTableRecord
  2
DIVIDEX2
 70
      64
  3
CADPAC LINETYPE
 72
      65
 73
       6
 40
79.33782126
 49
31.7351285
 74
       0
 49
-15.86756425
 74
       0
 49
0.0
 74
       0
 49
-15.86756425
 74
       0
 49
0.0
 74
       0
 49
-15.86756425
 74
       0
  0
LTYPE
  5
2D
100
AcDbSymbolTableRecord
100
AcDbLinetypeTableRecord
  2
DIVIDE
 70
      64
  3
CADPAC LINETYPE
 72
      65
 73
       6
 40
63.47025701
 49
25.3881028
 74
       0
 49
-12.6940514
 74
       0
 49
0.0
 74
       0
 49
-12.6940514
 74
       0
 49
0.0
 74
       0
 49
-12.6940514
 74
       0
  0
LTYPE
  5
2E
100
AcDbSymbolTableRecord
100
AcDbLinetypeTableRecord
  2
DIVIDE2
 70
      64
  3
CADPAC LINETYPE
 72
      65
 73
       6
 40
47.60269276
 49
19.0410771
 74
       0
 49
-9.52053855
 74
       0
 49
0.0
 74
       0
 49
-9.52053855
 74
       0
 49
0.0
 74
       0
 49
-9.52053855
 74
       0
  0
LTYPE
  5
2F
100
AcDbSymbolTableRecord
100
AcDbLinetypeTableRecord
  2
BORDERX2
 70
      64
  3
CADPAC LINETYPE
 72
      65
 73
       6
 40
111.07294976
 49
31.7351285
 74
       0
 49
-15.86756425
 74
       0
 49
31.7351285
 74
       0
 49
-15.86756425
 74
       0
 49
0.0
 74
       0
 49
-15.86756425
 74
       0
  0
LTYPE
  5
30
100
AcDbSymbolTableRecord
100
AcDbLinetypeTableRecord
  2
BORDER
 70
      64
  3
CADPAC LINETYPE
 72
      65
 73
       6
 40
88.85835981
 49
25.3881028
 74
       0
 49
-12.6940514
 74
       0
 49
25.3881028
 74
       0
 49
-12.6940514
 74
       0
 49
0.0
 74
       0
 49
-12.6940514
 74
       0
  0
LTYPE
  5
31
100
AcDbSymbolTableRecord
100
AcDbLinetypeTableRecord
  2
BORDER2
 70
      64
  3
CADPAC LINETYPE
 72
      65
 73
       6
 40
66.64376986
 49
19.0410771
 74
       0
 49
-9.52053855
 74
       0
 49
19.0410771
 74
       0
 49
-9.52053855
 74
       0
 49
0.0
 74
       0
 49
-9.52053855
 74
       0
  0
LTYPE
  5
32
100
AcDbSymbolTableRecord
100
AcDbLinetypeTableRecord
  2
PHANTOMX2
 70
      64
  3
CADPAC LINETYPE
 72
      65
 73
       6
 40
95.20538551
 49
31.7351285
 74
       0
 49
-12.6940514
 74
       0
 49
12.6940514
 74
       0
 49
-12.6940514
 74
       0
 49
12.6940514
 74
       0
 49
-12.6940514
 74
       0
  0
LTYPE
  5
33
100
AcDbSymbolTableRecord
100
AcDbLinetypeTableRecord
  2
PHANTOM
 70
      64
  3
CADPAC LINETYPE
 72
      65
 73
       6
 40
78.70311869
 49
25.3881028
 74
       0
 49
-12.6940514
 74
       0
 49
7.61643084
 74
       0
 49
-12.6940514
 74
       0
 49
7.61643084
 74
       0
 49
-12.6940514
 74
       0
  0
LTYPE
  5
34
100
AcDbSymbolTableRecord
100
AcDbLinetypeTableRecord
  2
PHANTOM2
 70
      64
  3
CADPAC LINETYPE
 72
      65
 73
       6
 40
67.27847243
 49
19.0410771
 74
       0
 49
-12.6940514
 74
       0
 49
5.07762056
 74
       0
 49
-12.6940514
 74
       0
 49
5.07762056
 74
       0
 49
-12.6940514
 74
       0
  0
LTYPE
  5
35
100
AcDbSymbolTableRecord
100
AcDbLinetypeTableRecord
  2
ACAD_ISO06W100
 70
      64
  3
CADPAC LINETYPE
 72
      65
 73
       8
 40
85.68484696
 49
31.7351285
 74
       0
 49
-15.86756425
 74
       0
 49
0.0
 74
       0
 49
-12.6940514
 74
       0
 49
0.0
 74
       0
 49
-12.6940514
 74
       0
 49
0.0
 74
       0
 49
-12.6940514
 74
       0
  0
LTYPE
  5
36
100
AcDbSymbolTableRecord
100
AcDbLinetypeTableRecord
  2
ACAD_ISO13W100
 70
      64
  3
CADPAC LINETYPE
 72
      65
 73
       8
 40
101.55241121
 49
25.3881028
 74
       0
 49
-12.6940514
 74
       0
 49
25.3881028
 74
       0
 49
-12.6940514
 74
       0
 49
0.0
 74
       0
 49
-12.6940514
 74
       0
 49
0.0
 74
       0
 49
-12.6940514
 74
       0
  0
LTYPE
  5
37
100
AcDbSymbolTableRecord
100
AcDbLinetypeTableRecord
  2
ACAD_ISO14W100
 70
      64
  3
CADPAC LINETYPE
 72
      65
 73
       8
 40
76.16430841
 49
25.3881028
 74
       0
 49
-12.6940514
 74
       0
 49
0.0
 74
       0
 49
-12.6940514
 74
       0
 49
0.0
 74
       0
 49
-12.6940514
 74
       0
 49
0.0
 74
       0
 49
-12.6940514
 74
       0
  0
ENDTAB
  0
TABLE
  2
LAYER
  5
2
100
AcDbSymbolTable
 70
       3
  0
LAYER
  5
14
100
AcDbSymbolTableRecord
100
AcDbLayerTableRecord
  2
0
 70
       0
 62
       7
  6
CONTINUOUS
  0
LAYER
  5
38
100
AcDbSymbolTableRecord
100
AcDbLayerTableRecord
  2
SLD-0_2
 70
       0
 62
       7
  6
CONTINUOUS
  0
LAYER
  5
39
100
AcDbSymbolTableRecord
100
AcDbLayerTableRecord
  2
SLD-0
 70
       0
 62
       7
  6
CONTINUOUS
  0
ENDTAB
  0
TABLE
  2
STYLE
  5
3
100
AcDbSymbolTable
 70
       1
  0
STYLE
  5
17
100
AcDbSymbolTableRecord
100
AcDbTextStyleTableRecord
  2
STANDARD
 70
       0
 40
0.0
 41
1.0
 50
0.0
 71
       0
 42
9.525
  3
txt.shx
  4
bigfont.shx
  0
ENDTAB
  0
TABLE
  2
VIEW
  5
5
100
AcDbSymbolTable
 70
       1
  0
VIEW
  5
3A
100
AcDbSymbolTableRecord
100
AcDbViewTableRecord
  2
QQQQ
 70
       0
 40
871.33212345
 10
0.0
 20
-37.40126718
 41
616.06180505
 11
0.0
 21
0.0
 31
1.0
 12
100.0
 22
100.0
 32
0.0
 42
50.0
 43
0.0
 44
0.0
 50
0.0
 71
       0
  0
ENDTAB
  0
TABLE
  2
UCS
  5
6
100
AcDbSymbolTable
 70
       0
  0
ENDTAB
  0
TABLE
  2
APPID
  5
8
100
AcDbSymbolTable
 70
       1
  0
APPID
  5
16
100
AcDbSymbolTableRecord
100
AcDbRegAppTableRecord
  2
ACAD
 70
       0
  0
ENDTAB
  0
TABLE
  2
DIMSTYLE
  5
9
100
AcDbSymbolTable
 70
       1
  0
DIMSTYLE
105
18
100
AcDbSymbolTableRecord
100
AcDbDimStyleTableRecord
  2
STANDARD
 70
       0
  3

  4

  5

  6

  7

 40
1.0
 41
0.18
 42
0.0625
 43
0.38
 44
0.18
 45
0.0
 46
0.0
 47
0.0
 48
0.0
 71
       0
 72
       0
 73
       1
 74
       1
 75
       0
 76
       0
 77
       0
 78
       0
140
0.18
141
0.09
142
0.0
143
25.4
144
1.0
145
0.0
146
1.0
147
0.09
170
       0
171
       2
172
       0
173
       0
174
       0
175
       0
176
       0
177
       0
178
       0
270
       2
271
       4
272
       4
273
       2
274
       2
275
       0
280
       0
281
       0
282
       0
283
       1
284
       0
285
       0
286
       0
287
       0
288
       0
340
17
  0
ENDTAB
  0
TABLE
  2
BLOCK_RECORD
  5
1
100
AcDbSymbolTable
 70
       0
  0
BLOCK_RECORD
  5
A
100
AcDbSymbolTableRecord
100
AcDbBlockTableRecord
  2
*MODEL_SPACE
  0
BLOCK_RECORD
  5
B
100
AcDbSymbolTableRecord
100
AcDbBlockTableRecord
  2
*PAPER_SPACE
  0
ENDTAB
  0
ENDSEC
  0
SECTION
  2
BLOCKS
  0
BLOCK
  5
D
100
AcDbEntity
  8
0
100
AcDbBlockBegin
  2
*MODEL_SPACE
 70
       0
 10
0.0
 20
0.0
 30
0.0
  3
*MODEL_SPACE
  1

  0
ENDBLK
  5
E
100
AcDbEntity
  8
0
100
AcDbBlockEnd
  0
BLOCK
  5
F
100
AcDbEntity
 67
       1
  8
0
100
AcDbBlockBegin
  2
*PAPER_SPACE
 70
       0
 10
0.0
 20
0.0
 30
0.0
  3
*PAPER_SPACE
  1

  0
ENDBLK
  5
10
100
AcDbEntity
 67
       1
  8
0
100
AcDbBlockEnd
  0
ENDSEC
  0
SECTION
  2
ENTITIES
  0
LINE
  5
3B
100
AcDbEntity
  8
SLD-0_2
  6
CONTINUOUS
 62
       3
100
AcDbLine
 10
-9.45899816
 20
-203.76522929
 30
0.0
 11
-12.49694099
 21
-203.76522929
 31
0.0
  0
LINE
  5
3C
100
AcDbEntity
  8
SLD-0_2
  6
CONTINUOUS
 62
       3
100
AcDbLine
 10
-71.47842888
 20
-347.08300935
 30
0.0
 11
-71.47842888
 21
-334.83193233
 31
0.0
  0
LINE
  5
3D
100
AcDbEntity
  8
SLD-0_2
  6
CONTINUOUS
 62
       3
100
AcDbLine
 10
27.47359108
 20
-347.08300935
 30
0.0
 11
27.47359108
 21
-359.33205971
 31
0.0
  0
LINE
  5
3E
100
AcDbEntity
  8
SLD-0_2
  6
CONTINUOUS
 62
       3
100
AcDbLine
 10
118.7983276
 20
-359.33205971
 30
0.0
 11
118.7983276
 21
-347.08300935
 31
0.0
  0
LINE
  5
3F
100
AcDbEntity
  8
SLD-0_2
  6
CONTINUOUS
 62
       3
100
AcDbLine
 10
161.2991276
 20
-359.33205971
 30
0.0
 11
161.2991276
 21
-347.08300935
 31
0.0
  0
LINE
  5
40
100
AcDbEntity
  8
SLD-0_2
  6
CONTINUOUS
 62
       3
100
AcDbLine
 10
106.05072224
 20
-347.08300935
 30
0.0
 11
106.05072224
 21
-334.83193233
 31
0.0
  0
LINE
  5
41
100
AcDbEntity
  8
SLD-0_2
  6
CONTINUOUS
 62
       3
100
AcDbLine
 10
191.04826895
 20
-347.08300935
 30
0.0
 11
191.04826895
 21
-334.83193233
 31
0.0
  0
LINE
  5
42
100
AcDbEntity
  8
SLD-0_2
  6
CONTINUOUS
 62
       3
100
AcDbLine
 10
200.74779824
 20
-334.83193233
 30
0.0
 11
200.74779824
 21
-347.08300935
 31
0.0
  0
LINE
  5
43
100
AcDbEntity
  8
SLD-0_2
  6
CONTINUOUS
 62
       3
100
AcDbLine
 10
208.04777829
 20
-334.83193233
 30
0.0
 11
213.79940055
 21
-334.83193233
 31
0.0
  0
LINE
  5
44
100
AcDbEntity
  8
SLD-0_2
  6
CONTINUOUS
 62
       3
100
AcDbLine
 10
-12.49694099
 20
-210.39540273
 30
0.0
 11
-27.49513709
 21
-210.39540273
 31
0.0
  0
LINE
  5
45
100
AcDbEntity
  8
SLD-0_2
  6
CONTINUOUS
 62
       3
100
AcDbLine
 10
53.18362631
 20
-193.41311988
 30
0.0
 11
53.18362631
 21
-182.66378779
 31
0.0
  0
LINE
  5
46
100
AcDbEntity
  8
SLD-0_2
  6
CONTINUOUS
 62
       3
100
AcDbLine
 10
-50.12568324
 20
-193.41311988
 30
0.0
 11
-50.12568324
 21
-182.66378779
 31
0.0
  0
LINE
  5
47
100
AcDbEntity
  8
SLD-0_2
  6
CONTINUOUS
 62
       3
100
AcDbLine
 10
-19.9965457
 20
-182.66378779
 30
0.0
 11
-19.9965457
 21
-171.91344238
 31
0.0
  0
LINE
  5
48
100
AcDbEntity
  8
SLD-0_2
  6
CONTINUOUS
 62
       3
100
AcDbLine
 10
-80.25887406
 20
-182.66378779
 30
0.0
 11
57.48619645
 21
-182.66378779
 31
0.0
  0
LINE
  5
49
100
AcDbEntity
  8
SLD-0_2
  6
CONTINUOUS
 62
       3
100
AcDbLine
 10
144.96030496
 20
-193.41311988
 30
0.0
 11
144.96030496
 21
-182.66378779
 31
0.0
  0
LINE
  5
4A
100
AcDbEntity
  8
SLD-0_2
  6
CONTINUOUS
 62
       3
100
AcDbLine
 10
149.26490174
 20
-182.66378779
 30
0.0
 11
149.26490174
 21
-171.91344238
 31
0.0
  0
LINE
  5
4B
100
AcDbEntity
  8
SLD-0_2
  6
CONTINUOUS
 62
       3
100
AcDbLine
 10
-11.09349144
 20
-206.05588471
 30
0.0
 11
-11.08244068
 21
-206.47830795
 31
0.0
  0
LINE
  5
4C
100
AcDbEntity
  8
SLD-0_2
  6
CONTINUOUS
 62
       3
100
AcDbLine
 10
223.5198494
 20
-114.94241209
 30
0.0
 11
223.7239573
 21
-114.82074386
 31
0.0
  0
LINE
  5
4D
100
AcDbEntity
  8
SLD-0_2
  6
CONTINUOUS
 62
       3
100
AcDbLine
 10
221.27550976
 20
-110.47466557
 30
0.0
 11
221.06544897
 21
-110.58672781
 31
0.0
  0
LINE
  5
4E
100
AcDbEntity
  8
SLD-0_2
  6
CONTINUOUS
 62
       3
100
AcDbLine
 10
-201.23900224
 20
-373.41349827
 30
0.0
 11
-201.23900224
 21
-375.41349827
 31
0.0
  0
LINE
  5
4F
100
AcDbEntity
  8
SLD-0_2
  6
CONTINUOUS
 62
       3
100
AcDbLine
 10
73.24843821
 20
-343.06619634
 30
0.0
 11
208.00825869
 21
-343.06619634
 31
0.0
  0
LINE
  5
50
100
AcDbEntity
  8
SLD-0_2
  6
CONTINUOUS
 62
       3
100
AcDbLine
 10
-41.72726088
 20
-359.33205971
 30
0.0
 11
-41.72726088
 21
-347.08300935
 31
0.0
  0
LINE
  5
51
100
AcDbEntity
  8
SLD-0_2
  6
CONTINUOUS
 62
       3
100
AcDbLine
 10
35.97334575
 20
-347.08300935
 30
0.0
 11
35.97334575
 21
-359.33205971
 31
0.0
  0
LINE
  5
52
100
AcDbEntity
  8
SLD-0_2
  6
CONTINUOUS
 62
       3
100
AcDbLine
 10
86.00111018
 20
-347.08300935
 30
0.0
 11
86.00111018
 21
-359.33205971
 31
0.0
  0
LINE
  5
53
100
AcDbEntity
  8
SLD-0_2
  6
CONTINUOUS
 62
       3
100
AcDbLine
 10
110.30059957
 20
-359.33205971
 30
0.0
 11
110.30059957
 21
-347.08300935
 31
0.0
  0
LINE
  5
54
100
AcDbEntity
  8
SLD-0_2
  6
CONTINUOUS
 62
       3
100
AcDbLine
 10
178.30066359
 20
-359.33205971
 30
0.0
 11
178.30066359
 21
-347.08300935
 31
0.0
  0
LINE
  5
55
100
AcDbEntity
  8
SLD-0_2
  6
CONTINUOUS
 62
       3
100
AcDbLine
 10
186.79839161
 20
-359.33205971
 30
0.0
 11
186.79839161
 21
-347.08300935
 31
0.0
  0
LINE
  5
56
100
AcDbEntity
  8
SLD-0_2
  6
CONTINUOUS
 62
       3
100
AcDbLine
 10
196.4979209
 20
-347.08300935
 30
0.0
 11
196.4979209
 21
-359.33205971
 31
0.0
  0
LINE
  5
57
100
AcDbEntity
  8
SLD-0_2
  6
CONTINUOUS
 62
       3
100
AcDbLine
 10
205.00172887
 20
-347.08300935
 30
0.0
 11
205.00172887
 21
-359.33205971
 31
0.0
  0
LINE
  5
58
100
AcDbEntity
  8
SLD-0_2
  6
CONTINUOUS
 62
       3
100
AcDbLine
 10
140.05176757
 20
-347.08300935
 30
0.0
 11
140.05176757
 21
-334.83193233
 31
0.0
  0
LINE
  5
59
100
AcDbEntity
  8
SLD-0_2
  6
CONTINUOUS
 62
       3
100
AcDbLine
 10
77.49932887
 20
-359.33205971
 30
0.0
 11
71.7517599
 21
-359.33205971
 31
0.0
  0
LINE
  5
5A
100
AcDbEntity
  8
SLD-0_2
  6
CONTINUOUS
 62
       3
100
AcDbLine
 10
-27.99571873
 20
-182.94549163
 30
0.0
 11
-21.7465548
 21
-182.94549163
 31
0.0
  0
LINE
  5
5B
100
AcDbEntity
  8
SLD-0_2
  6
CONTINUOUS
 62
       3
100
AcDbLine
 10
-91.30004322
 20
-362.41458877
 30
0.0
 11
258.76099776
 21
-362.41458877
 31
0.0
  0
LINE
  5
5C
100
AcDbEntity
  8
SLD-0_2
  6
CONTINUOUS
 62
       3
100
AcDbLine
 10
61.79079323
 20
-182.66378779
 30
0.0
 11
-75.95326395
 21
-182.66378779
 31
0.0
  0
LINE
  5
5D
100
AcDbEntity
  8
SLD-0_2
  6
CONTINUOUS
 62
       3
100
AcDbLine
 10
-54.43230667
 20
-182.66378779
 30
0.0
 11
-54.43230667
 21
-171.91344238
 31
0.0
  0
LINE
  5
5E
100
AcDbEntity
  8
SLD-0_2
  6
CONTINUOUS
 62
       3
100
AcDbLine
 10
-71.64866717
 20
-182.66378779
 30
0.0
 11
-71.64866717
 21
-171.91344238
 31
0.0
  0
LINE
  5
5F
100
AcDbEntity
  8
SLD-0_2
  6
CONTINUOUS
 62
       3
100
AcDbLine
 10
110.52353067
 20
-193.41311988
 30
0.0
 11
110.52353067
 21
-182.66378779
 31
0.0
  0
LINE
  5
60
100
AcDbEntity
  8
SLD-0_2
  6
CONTINUOUS
 62
       3
100
AcDbLine
 10
44.47107377
 20
-359.33205971
 30
0.0
 11
44.47107377
 21
-347.08300935
 31
0.0
  0
LINE
  5
61
100
AcDbEntity
  8
SLD-0_2
  6
CONTINUOUS
 62
       3
100
AcDbLine
 10
-11.07831516
 20
-206.90708354
 30
0.0
 11
-11.08284832
 21
-207.33307689
 31
0.0
  0
LINE
  5
62
100
AcDbEntity
  8
SLD-0_2
  6
CONTINUOUS
 62
       3
100
AcDbLine
 10
223.91490361
 20
-114.68083162
 30
0.0
 11
224.09149247
 21
-114.52387124
 31
0.0
  0
LINE
  5
63
100
AcDbEntity
  8
SLD-0_2
  6
CONTINUOUS
 62
       3
100
AcDbLine
 10
220.86792137
 20
-110.71761641
 30
0.0
 11
220.68412565
 21
-110.86613265
 31
0.0
  0
LINE
  5
64
100
AcDbEntity
  8
SLD-0_2
  6
CONTINUOUS
 62
       3
100
AcDbLine
 10
220.96504361
 20
-114.82074386
 30
0.0
 11
221.16898764
 21
-114.94241209
 31
0.0
  0
LINE
  5
65
100
AcDbEntity
  8
SLD-0_2
  6
CONTINUOUS
 62
       3
100
AcDbLine
 10
221.16898764
 20
-114.94241209
 30
0.0
 11
221.38486551
 21
-115.04464047
 31
0.0
  0
LINE
  5
66
100
AcDbEntity
  8
SLD-0_2
  6
CONTINUOUS
 62
       3
100
AcDbLine
 10
77.50034219
 20
-355.06596921
 30
0.0
 11
212.26218932
 21
-355.06596921
 31
0.0
  0
LINE
  5
67
100
AcDbEntity
  8
SLD-0_2
  6
CONTINUOUS
 62
       3
100
AcDbLine
 10
61.79079323
 20
-171.91344238
 30
0.0
 11
61.79079323
 21
-182.66378779
 31
0.0
  0
LINE
  5
68
100
AcDbEntity
  8
SLD-0_2
  6
CONTINUOUS
 62
       3
100
AcDbLine
 10
-24.72673822
 20
-359.33205971
 30
0.0
 11
-24.72673822
 21
-347.08300935
 31
0.0
  0
LINE
  5
69
100
AcDbEntity
  8
SLD-0_2
  6
CONTINUOUS
 62
       3
100
AcDbLine
 10
44.47310042
 20
-347.08300935
 30
0.0
 11
44.47310042
 21
-359.33205971
 31
0.0
  0
LINE
  5
6A
100
AcDbEntity
  8
SLD-0_2
  6
CONTINUOUS
 62
       3
100
AcDbLine
 10
23.22371374
 20
-334.83193233
 30
0.0
 11
23.22371374
 21
-347.08300935
 31
0.0
  0
LINE
  5
6B
100
AcDbEntity
  8
SLD-0_2
  6
CONTINUOUS
 62
       3
100
AcDbLine
 10
-74.52751827
 20
-347.08300935
 30
0.0
 11
-74.52751827
 21
-359.33205971
 31
0.0
  0
LINE
  5
6C
100
AcDbEntity
  8
SLD-0_2
  6
CONTINUOUS
 62
       3
100
AcDbLine
 10
102.99859288
 20
-347.08300935
 30
0.0
 11
102.99859288
 21
-359.33205971
 31
0.0
  0
LINE
  5
6D
100
AcDbEntity
  8
SLD-0_2
  6
CONTINUOUS
 62
       3
100
AcDbLine
 10
98.74871554
 20
-334.83193233
 30
0.0
 11
98.74871554
 21
-347.08300935
 31
0.0
  0
LINE
  5
6E
100
AcDbEntity
  8
SLD-0_2
  6
CONTINUOUS
 62
       3
100
AcDbLine
 10
123.05023158
 20
-347.08300935
 30
0.0
 11
123.05023158
 21
-334.83193233
 31
0.0
  0
LINE
  5
6F
100
AcDbEntity
  8
SLD-0_2
  6
CONTINUOUS
 62
       3
100
AcDbLine
 10
165.54900493
 20
-347.08300935
 30
0.0
 11
165.54900493
 21
-334.83193233
 31
0.0
  0
LINE
  5
70
100
AcDbEntity
  8
SLD-0_2
  6
CONTINUOUS
 62
       3
100
AcDbLine
 10
-11.9943327
 20
-182.94549163
 30
0.0
 11
-18.24552328
 21
-182.94549163
 31
0.0
  0
LINE
  5
71
100
AcDbEntity
  8
SLD-0_2
  6
CONTINUOUS
 62
       3
100
AcDbLine
 10
-25.99440549
 20
-187.91381509
 30
0.0
 11
-27.99571873
 21
-182.94549163
 31
0.0
  0
LINE
  5
72
100
AcDbEntity
  8
SLD-0_2
  6
CONTINUOUS
 62
       3
100
AcDbLine
 10
-80.27610056
 20
-347.08300935
 30
0.0
 11
56.0229578
 21
-347.08300935
 31
0.0
  0
LINE
  5
73
100
AcDbEntity
  8
SLD-0_2
  6
CONTINUOUS
 62
       3
100
AcDbLine
 10
-11.09777361
 20
-207.74715342
 30
0.0
 11
-11.12482446
 21
-208.14017854
 31
0.0
  0
LINE
  5
74
100
AcDbEntity
  8
SLD-0_2
  6
CONTINUOUS
 62
       3
100
AcDbLine
 10
224.25252803
 20
-114.35105859
 30
0.0
 11
224.39681441
 21
-114.16358953
 31
0.0
  0
LINE
  5
75
100
AcDbEntity
  8
SLD-0_2
  6
CONTINUOUS
 62
       3
100
AcDbLine
 10
223.19162555
 20
-110.38262837
 30
0.0
 11
222.95984561
 21
-110.3118149
 31
0.0
  0
LINE
  5
76
100
AcDbEntity
  8
SLD-0_2
  6
CONTINUOUS
 62
       3
100
AcDbLine
 10
222.95984561
 20
-110.3118149
 30
0.0
 11
222.7190896
 21
-110.26342388
 31
0.0
  0
LINE
  5
77
100
AcDbEntity
  8
SLD-0_2
  6
CONTINUOUS
 62
       3
100
AcDbLine
 10
220.51526051
 20
-111.03107785
 30
0.0
 11
220.36252465
 21
-111.2112533
 31
0.0
  0
LINE
  5
78
100
AcDbEntity
  8
SLD-0_2
  6
CONTINUOUS
 62
       3
100
AcDbLine
 10
219.84567775
 20
-112.79795888
 30
0.0
 11
219.86435506
 21
-113.04825328
 31
0.0
  0
LINE
  5
79
100
AcDbEntity
  8
SLD-0_2
  6
CONTINUOUS
 62
       3
100
AcDbLine
 10
220.43680151
 20
-114.35105859
 30
0.0
 11
220.59775184
 21
-114.52387124
 31
0.0
  0
LINE
  5
7A
100
AcDbEntity
  8
SLD-0_2
  6
CONTINUOUS
 62
       3
100
AcDbLine
 10
222.09211518
 20
-115.22272776
 30
0.0
 11
222.34374144
 21
-115.23523804
 31
0.0
  0
LINE
  5
7B
100
AcDbEntity
  8
SLD-0_2
  6
CONTINUOUS
 62
       3
100
AcDbLine
 10
278.76099776
 20
-373.41349827
 30
0.0
 11
258.76099776
 21
-373.41349827
 31
0.0
  0
LINE
  5
7C
100
AcDbEntity
  8
SLD-0_2
  6
CONTINUOUS
 62
       3
100
AcDbLine
 10
73.24843821
 20
-341.13885569
 30
0.0
 11
208.00825869
 21
-341.13885569
 31
0.0
  0
LINE
  5
7D
100
AcDbEntity
  8
SLD-0_2
  6
CONTINUOUS
 62
       3
100
AcDbLine
 10
-27.49513709
 20
-193.41310827
 30
0.0
 11
-198.73900224
 21
-193.41310827
 31
0.0
  0
LINE
  5
7E
100
AcDbEntity
  8
SLD-0_2
  6
CONTINUOUS
 62
       3
100
AcDbLine
 10
213.83385353
 20
-182.66378779
 30
0.0
 11
209.52925675
 21
-182.66378779
 31
0.0
  0
LINE
  5
7F
100
AcDbEntity
  8
SLD-0_2
  6
CONTINUOUS
 62
       3
100
AcDbLine
 10
1.97230042
 20
-347.08300935
 30
0.0
 11
1.97230042
 21
-359.33205971
 31
0.0
  0
LINE
  5
80
100
AcDbEntity
  8
SLD-0_2
  6
CONTINUOUS
 62
       3
100
AcDbLine
 10
0.7725258
 20
-359.33205971
 30
0.0
 11
0.7725258
 21
-347.08300935
 31
0.0
  0
LINE
  5
81
100
AcDbEntity
  8
SLD-0_2
  6
CONTINUOUS
 62
       3
100
AcDbLine
 10
52.97488173
 20
-347.08300935
 30
0.0
 11
52.97488173
 21
-359.33205971
 31
0.0
  0
LINE
  5
82
100
AcDbEntity
  8
SLD-0_2
  6
CONTINUOUS
 62
       3
100
AcDbLine
 10
-37.47738355
 20
-347.08300935
 30
0.0
 11
-37.47738355
 21
-334.83193233
 31
0.0
  0
LINE
  5
83
100
AcDbEntity
  8
SLD-0_2
  6
CONTINUOUS
 62
       3
100
AcDbLine
 10
-2.27859024
 20
-334.83193233
 30
0.0
 11
-2.27859024
 21
-347.08300935
 31
0.0
  0
LINE
  5
84
100
AcDbEntity
  8
SLD-0_2
  6
CONTINUOUS
 62
       3
100
AcDbLine
 10
6.22217775
 20
-334.83193233
 30
0.0
 11
6.22217775
 21
-347.08300935
 31
0.0
  0
LINE
  5
85
100
AcDbEntity
  8
SLD-0_2
  6
CONTINUOUS
 62
       3
100
AcDbLine
 10
48.72095111
 20
-334.83193233
 30
0.0
 11
48.72095111
 21
-347.08300935
 31
0.0
  0
LINE
  5
86
100
AcDbEntity
  8
SLD-0_2
  6
CONTINUOUS
 62
       3
100
AcDbLine
 10
145.49939288
 20
-347.08300935
 30
0.0
 11
145.49939288
 21
-359.33205971
 31
0.0
  0
LINE
  5
87
100
AcDbEntity
  8
SLD-0_2
  6
CONTINUOUS
 62
       3
100
AcDbLine
 10
115.75025153
 20
-334.83193233
 30
0.0
 11
115.75025153
 21
-347.08300935
 31
0.0
  0
LINE
  5
88
100
AcDbEntity
  8
SLD-0_2
  6
CONTINUOUS
 62
       3
100
AcDbLine
 10
124.24797956
 20
-334.83193233
 30
0.0
 11
124.24797956
 21
-347.08300935
 31
0.0
  0
LINE
  5
89
100
AcDbEntity
  8
SLD-0_2
  6
CONTINUOUS
 62
       3
100
AcDbLine
 10
182.54851427
 20
-347.08300935
 30
0.0
 11
182.54851427
 21
-334.83193233
 31
0.0
  0
LINE
  5
8A
100
AcDbEntity
  8
SLD-0_2
  6
CONTINUOUS
 62
       3
100
AcDbLine
 10
10.1356318
 20
-193.41311988
 30
0.0
 11
10.1356318
 21
-182.66378779
 31
0.0
  0
LINE
  5
8B
100
AcDbEntity
  8
SLD-0_2
  6
CONTINUOUS
 62
       3
100
AcDbLine
 10
188.00627282
 20
-193.41311988
 30
0.0
 11
188.00627282
 21
-182.66378779
 31
0.0
  0
LINE
  5
8C
100
AcDbEntity
  8
SLD-0_2
  6
CONTINUOUS
 62
       3
100
AcDbLine
 10
-80.27610056
 20
-334.83193233
 30
0.0
 11
-80.27610056
 21
-347.08300935
 31
0.0
  0
LINE
  5
8D
100
AcDbEntity
  8
SLD-0_2
  6
CONTINUOUS
 62
       3
100
AcDbLine
 10
-11.1657343
 20
-208.50301767
 30
0.0
 11
-11.22223659
 21
-208.82653622
 31
0.0
  0
LINE
  5
8E
100
AcDbEntity
  8
SLD-0_2
  6
CONTINUOUS
 62
       3
100
AcDbLine
 10
-12.21306915
 20
-209.63133792
 30
0.0
 11
-12.21422383
 21
-209.62527713
 31
0.0
  0
LINE
  5
8F
100
AcDbEntity
  8
SLD-0_2
  6
CONTINUOUS
 62
       3
100
AcDbLine
 10
222.34374144
 20
-115.23523804
 30
0.0
 11
222.59571929
 21
-115.22272776
 31
0.0
  0
LINE
  5
90
100
AcDbEntity
  8
SLD-0_2
  6
CONTINUOUS
 62
       3
100
AcDbLine
 10
224.52315576
 20
-113.96265992
 30
0.0
 11
224.63035621
 21
-113.74946563
 31
0.0
  0
LINE
  5
91
100
AcDbEntity
  8
SLD-0_2
  6
CONTINUOUS
 62
       3
100
AcDbLine
 10
224.75265175
 20
-112.06028372
 30
0.0
 11
224.67640489
 21
-111.83117422
 31
0.0
  0
LINE
  5
92
100
AcDbEntity
  8
SLD-0_2
  6
CONTINUOUS
 62
       3
100
AcDbLine
 10
223.82115039
 20
-110.71761641
 30
0.0
 11
223.62347381
 21
-110.58672781
 31
0.0
  0
LINE
  5
93
100
AcDbEntity
  8
SLD-0_2
  6
CONTINUOUS
 62
       3
100
AcDbLine
 10
221.96890428
 20
-110.26342388
 30
0.0
 11
221.72843612
 21
-110.3118149
 31
0.0
  0
LINE
  5
94
100
AcDbEntity
  8
SLD-0_2
  6
CONTINUOUS
 62
       3
100
AcDbLine
 10
221.49690504
 20
-110.38262837
 30
0.0
 11
221.27550976
 21
-110.47466557
 31
0.0
  0
LINE
  5
95
100
AcDbEntity
  8
SLD-0_2
  6
CONTINUOUS
 62
       3
100
AcDbLine
 10
220.22711677
 20
-111.40546031
 30
0.0
 11
220.11023556
 21
-111.61250018
 31
0.0
  0
LINE
  5
96
100
AcDbEntity
  8
SLD-0_2
  6
CONTINUOUS
 62
       3
100
AcDbLine
 10
220.05911705
 20
-113.74946563
 30
0.0
 11
220.16628541
 21
-113.96265992
 31
0.0
  0
LINE
  5
97
100
AcDbEntity
  8
SLD-0_2
  6
CONTINUOUS
 62
       3
100
AcDbLine
 10
276.26099776
 20
-98.41310827
 30
0.0
 11
-198.73900224
 21
-98.41310827
 31
0.0
  0
LINE
  5
98
100
AcDbEntity
  8
SLD-0_2
  6
CONTINUOUS
 62
       3
100
AcDbLine
 10
-66.02675027
 20
-347.08300935
 30
0.0
 11
-66.02675027
 21
-359.33205971
 31
0.0
  0
LINE
  5
99
100
AcDbEntity
  8
SLD-0_2
  6
CONTINUOUS
 62
       3
100
AcDbLine
 10
-49.02622761
 20
-347.08300935
 30
0.0
 11
-49.02622761
 21
-359.33205971
 31
0.0
  0
LINE
  5
9A
100
AcDbEntity
  8
SLD-0_2
  6
CONTINUOUS
 62
       3
100
AcDbLine
 10
17.77406178
 20
-359.33205971
 30
0.0
 11
17.77406178
 21
-347.08300935
 31
0.0
  0
LINE
  5
9B
100
AcDbEntity
  8
SLD-0_2
  6
CONTINUOUS
 62
       3
100
AcDbLine
 10
-62.9786742
 20
-347.08300935
 30
0.0
 11
-62.9786742
 21
-334.83193233
 31
0.0
  0
LINE
  5
9C
100
AcDbEntity
  8
SLD-0_2
  6
CONTINUOUS
 62
       3
100
AcDbLine
 10
-20.47888753
 20
-347.08300935
 30
0.0
 11
-20.47888753
 21
-334.83193233
 31
0.0
  0
LINE
  5
9D
100
AcDbEntity
  8
SLD-0_2
  6
CONTINUOUS
 62
       3
100
AcDbLine
 10
56.0229578
 20
-347.08300935
 30
0.0
 11
56.0229578
 21
-334.83193233
 31
0.0
  0
LINE
  5
9E
100
AcDbEntity
  8
SLD-0_2
  6
CONTINUOUS
 62
       3
100
AcDbLine
 10
60.27283514
 20
-347.08300935
 30
0.0
 11
60.27283514
 21
-359.33205971
 31
0.0
  0
LINE
  5
9F
100
AcDbEntity
  8
SLD-0_2
  6
CONTINUOUS
 62
       3
100
AcDbLine
 10
153.99914755
 20
-347.08300935
 30
0.0
 11
153.99914755
 21
-359.33205971
 31
0.0
  0
LINE
  5
A0
100
AcDbEntity
  8
SLD-0_2
  6
CONTINUOUS
 62
       3
100
AcDbLine
 10
-27.49513709
 20
-210.39540273
 30
0.0
 11
-27.49513709
 21
-187.91381509
 31
0.0
  0
LINE
  5
A1
100
AcDbEntity
  8
SLD-0_2
  6
CONTINUOUS
 62
       3
100
AcDbLine
 10
-7.0807287
 20
-193.41311988
 30
0.0
 11
-7.0807287
 21
-182.66378779
 31
0.0
  0
LINE
  5
A2
100
AcDbEntity
  8
SLD-0_2
  6
CONTINUOUS
 62
       3
100
AcDbLine
 10
170.78788567
 20
-193.41311988
 30
0.0
 11
170.78788567
 21
-182.66378779
 31
0.0
  0
LINE
  5
A3
100
AcDbEntity
  8
SLD-0_2
  6
CONTINUOUS
 62
       3
100
AcDbLine
 10
192.30884296
 20
-182.66378779
 30
0.0
 11
192.30884296
 21
-171.91344238
 31
0.0
  0
LINE
  5
A4
100
AcDbEntity
  8
SLD-0_2
  6
CONTINUOUS
 62
       3
100
AcDbLine
 10
213.79940055
 20
-359.33205971
 30
0.0
 11
213.79940055
 21
-347.08300935
 31
0.0
  0
LINE
  5
A5
100
AcDbEntity
  8
SLD-0_2
  6
CONTINUOUS
 62
       3
100
AcDbLine
 10
-11.17227818
 20
-204.61240694
 30
0.0
 11
-11.15086082
 21
-204.91807493
 31
0.0
  0
LINE
  5
A6
100
AcDbEntity
  8
SLD-0_2
  6
CONTINUOUS
 62
       3
100
AcDbLine
 10
-11.15086082
 20
-204.91807493
 30
0.0
 11
-11.12943495
 21
-205.26663362
 31
0.0
  0
LINE
  5
A7
100
AcDbEntity
  8
SLD-0_2
  6
CONTINUOUS
 62
       3
100
AcDbLine
 10
-11.29606475
 20
-209.10159961
 30
0.0
 11
-11.38895222
 21
-209.31907325
 31
0.0
  0
LINE
  5
A8
100
AcDbEntity
  8
SLD-0_2
  6
CONTINUOUS
 62
       3
100
AcDbLine
 10
-11.9745304
 20
-209.86103553
 30
0.0
 11
-12.02439266
 21
-209.86124257
 31
0.0
  0
LINE
  5
A9
100
AcDbEntity
  8
SLD-0_2
  6
CONTINUOUS
 62
       3
100
AcDbLine
 10
-12.19178291
 20
-209.70251043
 30
0.0
 11
-12.20234445
 21
-209.672422
 31
0.0
  0
LINE
  5
AA
100
AcDbEntity
  8
SLD-0_2
  6
CONTINUOUS
 62
       3
100
AcDbLine
 10
223.30377579
 20
-115.04464047
 30
0.0
 11
223.5198494
 21
-114.94241209
 31
0.0
  0
LINE
  5
AB
100
AcDbEntity
  8
SLD-0_2
  6
CONTINUOUS
 62
       3
100
AcDbLine
 10
223.7239573
 20
-114.82074386
 30
0.0
 11
223.91490361
 21
-114.68083162
 31
0.0
  0
LINE
  5
AC
100
AcDbEntity
  8
SLD-0_2
  6
CONTINUOUS
 62
       3
100
AcDbLine
 10
224.7172199
 20
-113.52520252
 30
0.0
 11
224.78255096
 21
-113.29106645
 31
0.0
  0
LINE
  5
AD
100
AcDbEntity
  8
SLD-0_2
  6
CONTINUOUS
 62
       3
100
AcDbLine
 10
224.32683961
 20
-111.2112533
 30
0.0
 11
224.17402916
 21
-111.03107785
 31
0.0
  0
LINE
  5
AE
100
AcDbEntity
  8
SLD-0_2
  6
CONTINUOUS
 62
       3
100
AcDbLine
 10
220.68412565
 20
-110.86613265
 30
0.0
 11
220.51526051
 21
-111.03107785
 31
0.0
  0
LINE
  5
AF
100
AcDbEntity
  8
SLD-0_2
  6
CONTINUOUS
 62
       3
100
AcDbLine
 10
-12.49694099
 20
-193.30773427
 30
0.0
 11
-9.45899816
 21
-193.30773427
 31
0.0
  0
LINE
  5
B0
100
AcDbEntity
  8
SLD-0_2
  6
CONTINUOUS
 62
       3
100
AcDbLine
 10
-67.22652489
 20
-359.33205971
 30
0.0
 11
-67.22652489
 21
-347.08300935
 31
0.0
  0
LINE
  5
B1
100
AcDbEntity
  8
SLD-0_2
  6
CONTINUOUS
 62
       3
100
AcDbLine
 10
43.2733258
 20
-359.33205971
 30
0.0
 11
43.2733258
 21
-347.08300935
 31
0.0
  0
LINE
  5
B2
100
AcDbEntity
  8
SLD-0_2
  6
CONTINUOUS
 62
       3
100
AcDbLine
 10
80.55145823
 20
-347.08300935
 30
0.0
 11
80.55145823
 21
-334.83193233
 31
0.0
  0
LINE
  5
B3
100
AcDbEntity
  8
SLD-0_2
  6
CONTINUOUS
 62
       3
100
AcDbLine
 10
162.49890222
 20
-347.08300935
 30
0.0
 11
162.49890222
 21
-359.33205971
 31
0.0
  0
LINE
  5
B4
100
AcDbEntity
  8
SLD-0_2
  6
CONTINUOUS
 62
       3
100
AcDbLine
 10
149.74724357
 20
-334.83193233
 30
0.0
 11
149.74724357
 21
-347.08300935
 31
0.0
  0
LINE
  5
B5
100
AcDbEntity
  8
SLD-0_2
  6
CONTINUOUS
 62
       3
100
AcDbLine
 10
-89.30075662
 20
-359.41312556
 30
0.0
 11
256.74606274
 21
-359.41312556
 31
0.0
  0
LINE
  5
B6
100
AcDbEntity
  8
SLD-0_2
  6
CONTINUOUS
 62
       3
100
AcDbLine
 10
-41.51750299
 20
-193.41311988
 30
0.0
 11
-41.51750299
 21
-182.66378779
 31
0.0
  0
LINE
  5
B7
100
AcDbEntity
  8
SLD-0_2
  6
CONTINUOUS
 62
       3
100
AcDbLine
 10
153.56949853
 20
-193.41311988
 30
0.0
 11
153.56949853
 21
-182.66378779
 31
0.0
  0
LINE
  5
B8
100
AcDbEntity
  8
SLD-0_2
  6
CONTINUOUS
 62
       3
100
AcDbLine
 10
175.09248246
 20
-182.66378779
 30
0.0
 11
175.09248246
 21
-171.91344238
 31
0.0
  0
LINE
  5
B9
100
AcDbEntity
  8
SLD-0_2
  6
CONTINUOUS
 62
       3
100
AcDbLine
 10
-78.77942225
 20
-343.06619634
 30
0.0
 11
55.98039823
 21
-343.06619634
 31
0.0
  0
LINE
  5
BA
100
AcDbEntity
  8
SLD-0_2
  6
CONTINUOUS
 62
       3
100
AcDbLine
 10
-78.7773956
 20
-334.83193233
 30
0.0
 11
-78.7773956
 21
-347.08300935
 31
0.0
  0
LINE
  5
BB
100
AcDbEntity
  8
SLD-0_2
  6
CONTINUOUS
 62
       3
100
AcDbLine
 10
73.24945153
 20
-334.83193233
 30
0.0
 11
73.24945153
 21
-347.08300935
 31
0.0
  0
LINE
  5
BC
100
AcDbEntity
  8
SLD-0_2
  6
CONTINUOUS
 62
       3
100
AcDbLine
 10
71.7517599
 20
-347.08300935
 30
0.0
 11
208.04777829
 21
-347.08300935
 31
0.0
  0
LINE
  5
BD
100
AcDbEntity
  8
SLD-0_2
  6
CONTINUOUS
 62
       3
100
AcDbLine
 10
-11.21914484
 20
-204.04409296
 30
0.0
 11
-11.20815363
 21
-204.16628137
 31
0.0
  0
LINE
  5
BE
100
AcDbEntity
  8
SLD-0_2
  6
CONTINUOUS
 62
       3
100
AcDbLine
 10
-11.08244068
 20
-206.47830795
 30
0.0
 11
-11.07831516
 21
-206.90708354
 31
0.0
  0
LINE
  5
BF
100
AcDbEntity
  8
SLD-0_2
  6
CONTINUOUS
 62
       3
100
AcDbLine
 10
-11.08284832
 20
-207.33307689
 30
0.0
 11
-11.09777361
 21
-207.74715342
 31
0.0
  0
LINE
  5
C0
100
AcDbEntity
  8
SLD-0_2
  6
CONTINUOUS
 62
       3
100
AcDbLine
 10
-11.4984599
 20
-209.47528308
 30
0.0
 11
-11.60134292
 21
-209.59768732
 31
0.0
  0
LINE
  5
C1
100
AcDbEntity
  8
SLD-0_2
  6
CONTINUOUS
 62
       3
100
AcDbLine
 10
-12.13335254
 20
-209.80135216
 30
0.0
 11
-12.15778271
 21
-209.76944294
 31
0.0
  0
LINE
  5
C2
100
AcDbEntity
  8
SLD-0_2
  6
CONTINUOUS
 62
       3
100
AcDbLine
 10
224.39681441
 20
-114.16358953
 30
0.0
 11
224.52315576
 21
-113.96265992
 31
0.0
  0
LINE
  5
C3
100
AcDbEntity
  8
SLD-0_2
  6
CONTINUOUS
 62
       3
100
AcDbLine
 10
219.93684794
 20
-112.06028372
 30
0.0
 11
219.88273893
 21
-112.29862999
 31
0.0
  0
LINE
  5
C4
100
AcDbEntity
  8
SLD-0_2
  6
CONTINUOUS
 62
       3
100
AcDbLine
 10
221.38486551
 20
-115.04464047
 30
0.0
 11
221.61147852
 21
-115.12623311
 31
0.0
  0
LINE
  5
C5
100
AcDbEntity
  8
SLD-0_2
  6
CONTINUOUS
 62
       3
100
AcDbLine
 10
-75.95326395
 20
-182.66378779
 30
0.0
 11
-75.95326395
 21
-193.41311988
 31
0.0
  0
LINE
  5
C6
100
AcDbEntity
  8
SLD-0_2
  6
CONTINUOUS
 62
       3
100
AcDbLine
 10
-32.02773159
 20
-347.08300935
 30
0.0
 11
-32.02773159
 21
-359.33205971
 31
0.0
  0
LINE
  5
C7
100
AcDbEntity
  8
SLD-0_2
  6
CONTINUOUS
 62
       3
100
AcDbLine
 10
-44.77837692
 20
-334.83193233
 30
0.0
 11
-44.77837692
 21
-347.08300935
 31
0.0
  0
LINE
  5
C8
100
AcDbEntity
  8
SLD-0_2
  6
CONTINUOUS
 62
       3
100
AcDbLine
 10
22.02191247
 20
-347.08300935
 30
0.0
 11
22.02191247
 21
-334.83193233
 31
0.0
  0
LINE
  5
C9
100
AcDbEntity
  8
SLD-0_2
  6
CONTINUOUS
 62
       3
100
AcDbLine
 10
84.79930891
 20
-359.33205971
 30
0.0
 11
84.79930891
 21
-347.08300935
 31
0.0
  0
LINE
  5
CA
100
AcDbEntity
  8
SLD-0_2
  6
CONTINUOUS
 62
       3
100
AcDbLine
 10
171.00068354
 20
-347.08300935
 30
0.0
 11
171.00068354
 21
-359.33205971
 31
0.0
  0
LINE
  5
CB
100
AcDbEntity
  8
SLD-0_2
  6
CONTINUOUS
 62
       3
100
AcDbLine
 10
158.25105153
 20
-334.83193233
 30
0.0
 11
158.25105153
 21
-347.08300935
 31
0.0
  0
LINE
  5
CC
100
AcDbEntity
  8
SLD-0_2
  6
CONTINUOUS
 62
       3
100
AcDbLine
 10
278.76099776
 20
-375.41349827
 30
0.0
 11
-201.23900224
 21
-375.41349827
 31
0.0
  0
LINE
  5
CD
100
AcDbEntity
  8
SLD-0_2
  6
CONTINUOUS
 62
       3
100
AcDbLine
 10
-58.73386349
 20
-193.41311988
 30
0.0
 11
-58.73386349
 21
-182.66378779
 31
0.0
  0
LINE
  5
CE
100
AcDbEntity
  8
SLD-0_2
  6
CONTINUOUS
 62
       3
100
AcDbLine
 10
136.35111138
 20
-193.41311988
 30
0.0
 11
136.35111138
 21
-182.66378779
 31
0.0
  0
LINE
  5
CF
100
AcDbEntity
  8
SLD-0_2
  6
CONTINUOUS
 62
       3
100
AcDbLine
 10
157.87409531
 20
-182.66378779
 30
0.0
 11
157.87409531
 21
-171.91344238
 31
0.0
  0
LINE
  5
D0
100
AcDbEntity
  8
SLD-0_2
  6
CONTINUOUS
 62
       3
100
AcDbLine
 10
89.00257338
 20
-182.66378779
 30
0.0
 11
89.00257338
 21
-171.91344238
 31
0.0
  0
LINE
  5
D1
100
AcDbEntity
  8
SLD-0_2
  6
CONTINUOUS
 62
       3
100
AcDbLine
 10
61.77052677
 20
-359.33205971
 30
0.0
 11
61.77052677
 21
-347.08300935
 31
0.0
  0
LINE
  5
D2
100
AcDbEntity
  8
SLD-0_2
  6
CONTINUOUS
 62
       3
100
AcDbLine
 10
52.97285509
 20
-359.33205971
 30
0.0
 11
52.97285509
 21
-347.08300935
 31
0.0
  0
LINE
  5
D3
100
AcDbEntity
  8
SLD-0_2
  6
CONTINUOUS
 62
       3
100
AcDbLine
 10
56.0229578
 20
-334.83193233
 30
0.0
 11
-80.27610056
 21
-334.83193233
 31
0.0
  0
LINE
  5
D4
100
AcDbEntity
  8
SLD-0_2
  6
CONTINUOUS
 62
       3
100
AcDbLine
 10
141.2474889
 20
-347.08300935
 30
0.0
 11
141.2474889
 21
-334.83193233
 31
0.0
  0
LINE
  5
D5
100
AcDbEntity
  8
SLD-0_2
  6
CONTINUOUS
 62
       3
100
AcDbLine
 10
-11.22223659
 20
-208.82653622
 30
0.0
 11
-11.29606475
 21
-209.10159961
 31
0.0
  0
LINE
  5
D6
100
AcDbEntity
  8
SLD-0_2
  6
CONTINUOUS
 62
       3
100
AcDbLine
 10
224.84383176
 20
-112.79795888
 30
0.0
 11
224.83755794
 21
-112.54501433
 31
0.0
  0
LINE
  5
D7
100
AcDbEntity
  8
SLD-0_2
  6
CONTINUOUS
 62
       3
100
AcDbLine
 10
222.7190896
 20
-110.26342388
 30
0.0
 11
222.4705534
 21
-110.23865399
 31
0.0
  0
LINE
  5
D8
100
AcDbEntity
  8
SLD-0_2
  6
CONTINUOUS
 62
       3
100
AcDbLine
 10
219.85195138
 20
-112.54501433
 30
0.0
 11
219.84567775
 21
-112.79795888
 31
0.0
  0
LINE
  5
D9
100
AcDbEntity
  8
SLD-0_2
  6
CONTINUOUS
 62
       3
100
AcDbLine
 10
57.48619645
 20
-182.66378779
 30
0.0
 11
57.48619645
 21
-171.91344238
 31
0.0
  0
LINE
  5
DA
100
AcDbEntity
  8
SLD-0_2
  6
CONTINUOUS
 62
       3
100
AcDbLine
 10
-15.02720892
 20
-347.08300935
 30
0.0
 11
-15.02720892
 21
-359.33205971
 31
0.0
  0
LINE
  5
DB
100
AcDbEntity
  8
SLD-0_2
  6
CONTINUOUS
 62
       3
100
AcDbLine
 10
-6.52644093
 20
-347.08300935
 30
0.0
 11
-6.52644093
 21
-359.33205971
 31
0.0
  0
LINE
  5
DC
100
AcDbEntity
  8
SLD-0_2
  6
CONTINUOUS
 62
       3
100
AcDbLine
 10
10.47205509
 20
-347.08300935
 30
0.0
 11
10.47205509
 21
-359.33205971
 31
0.0
  0
LINE
  5
DD
100
AcDbEntity
  8
SLD-0_2
  6
CONTINUOUS
 62
       3
100
AcDbLine
 10
-36.27760892
 20
-334.83193233
 30
0.0
 11
-36.27760892
 21
-347.08300935
 31
0.0
  0
LINE
  5
DE
100
AcDbEntity
  8
SLD-0_2
  6
CONTINUOUS
 62
       3
100
AcDbLine
 10
30.52166714
 20
-347.08300935
 30
0.0
 11
30.52166714
 21
-334.83193233
 31
0.0
  0
LINE
  5
DF
100
AcDbEntity
  8
SLD-0_2
  6
CONTINUOUS
 62
       3
100
AcDbLine
 10
93.29906359
 20
-359.33205971
 30
0.0
 11
93.29906359
 21
-347.08300935
 31
0.0
  0
LINE
  5
E0
100
AcDbEntity
  8
SLD-0_2
  6
CONTINUOUS
 62
       3
100
AcDbLine
 10
128.49785689
 20
-347.08300935
 30
0.0
 11
128.49785689
 21
-359.33205971
 31
0.0
  0
LINE
  5
E1
100
AcDbEntity
  8
SLD-0_2
  6
CONTINUOUS
 62
       3
100
AcDbLine
 10
127.30010891
 20
-359.33205971
 30
0.0
 11
127.30010891
 21
-347.08300935
 31
0.0
  0
LINE
  5
E2
100
AcDbEntity
  8
SLD-0_2
  6
CONTINUOUS
 62
       3
100
AcDbLine
 10
179.49841156
 20
-347.08300935
 30
0.0
 11
179.49841156
 21
-359.33205971
 31
0.0
  0
LINE
  5
E3
100
AcDbEntity
  8
SLD-0_2
  6
CONTINUOUS
 62
       3
100
AcDbLine
 10
166.74877956
 20
-334.83193233
 30
0.0
 11
166.74877956
 21
-347.08300935
 31
0.0
  0
LINE
  5
E4
100
AcDbEntity
  8
SLD-0_2
  6
CONTINUOUS
 62
       3
100
AcDbLine
 10
44.57240609
 20
-193.41311988
 30
0.0
 11
44.57240609
 21
-182.66378779
 31
0.0
  0
LINE
  5
E5
100
AcDbEntity
  8
SLD-0_2
  6
CONTINUOUS
 62
       3
100
AcDbLine
 10
35.96321252
 20
-193.41311988
 30
0.0
 11
35.96321252
 21
-182.66378779
 31
0.0
  0
LINE
  5
E6
100
AcDbEntity
  8
SLD-0_2
  6
CONTINUOUS
 62
       3
100
AcDbLine
 10
61.79079323
 20
-193.41311988
 30
0.0
 11
61.79079323
 21
-182.66378779
 31
0.0
  0
LINE
  5
E7
100
AcDbEntity
  8
SLD-0_2
  6
CONTINUOUS
 62
       3
100
AcDbLine
 10
57.48619645
 20
-171.91344238
 30
0.0
 11
-80.25887406
 21
-171.91344238
 31
0.0
  0
LINE
  5
E8
100
AcDbEntity
  8
SLD-0_2
  6
CONTINUOUS
 62
       3
100
AcDbLine
 10
-80.25887406
 20
-171.91344238
 30
0.0
 11
-80.25887406
 21
-182.66378779
 31
0.0
  0
LINE
  5
E9
100
AcDbEntity
  8
SLD-0_2
  6
CONTINUOUS
 62
       3
100
AcDbLine
 10
119.13475089
 20
-193.41311988
 30
0.0
 11
119.13475089
 21
-182.66378779
 31
0.0
  0
LINE
  5
EA
100
AcDbEntity
  8
SLD-0_2
  6
CONTINUOUS
 62
       3
100
AcDbLine
 10
200.92006318
 20
-182.66378779
 30
0.0
 11
200.92006318
 21
-171.91344238
 31
0.0
  0
LINE
  5
EB
100
AcDbEntity
  8
SLD-0_2
  6
CONTINUOUS
 62
       3
100
AcDbLine
 10
140.65570817
 20
-182.66378779
 30
0.0
 11
140.65570817
 21
-171.91344238
 31
0.0
  0
LINE
  5
EC
100
AcDbEntity
  8
SLD-0_2
  6
CONTINUOUS
 62
       3
100
AcDbLine
 10
209.5272301
 20
-171.91344238
 30
0.0
 11
71.78215959
 21
-171.91344238
 31
0.0
  0
LINE
  5
ED
100
AcDbEntity
  8
SLD-0_2
  6
CONTINUOUS
 62
       3
100
AcDbLine
 10
213.79940055
 20
-347.08300935
 30
0.0
 11
77.49932887
 21
-347.08300935
 31
0.0
  0
LINE
  5
EE
100
AcDbEntity
  8
SLD-0_2
  6
CONTINUOUS
 62
       3
100
AcDbLine
 10
-11.77737616
 20
-209.76535892
 30
0.0
 11
-11.8515179
 21
-209.81556113
 31
0.0
  0
LINE
  5
EF
100
AcDbEntity
  8
SLD-0_2
  6
CONTINUOUS
 62
       3
100
AcDbLine
 10
222.59571929
 20
-115.22272776
 30
0.0
 11
222.84051487
 21
-115.18599416
 31
0.0
  0
LINE
  5
F0
100
AcDbEntity
  8
SLD-0_2
  6
CONTINUOUS
 62
       3
100
AcDbLine
 10
224.80676805
 20
-112.29862999
 30
0.0
 11
224.75265175
 21
-112.06028372
 31
0.0
  0
LINE
  5
F1
100
AcDbEntity
  8
SLD-0_2
  6
CONTINUOUS
 62
       3
100
AcDbLine
 10
219.86435506
 20
-113.04825328
 30
0.0
 11
219.90695317
 21
-113.29106645
 31
0.0
  0
LINE
  5
F2
100
AcDbEntity
  8
SLD-0_2
  6
CONTINUOUS
 62
       3
100
AcDbLine
 10
209.52925675
 20
-182.66378779
 30
0.0
 11
209.52925675
 21
-171.91344238
 31
0.0
  0
LINE
  5
F3
100
AcDbEntity
  8
SLD-0_2
  6
CONTINUOUS
 62
       3
100
AcDbLine
 10
-27.77684093
 20
-334.83193233
 30
0.0
 11
-27.77684093
 21
-347.08300935
 31
0.0
  0
LINE
  5
F4
100
AcDbEntity
  8
SLD-0_2
  6
CONTINUOUS
 62
       3
100
AcDbLine
 10
39.02142181
 20
-347.08300935
 30
0.0
 11
39.02142181
 21
-334.83193233
 31
0.0
  0
LINE
  5
F5
100
AcDbEntity
  8
SLD-0_2
  6
CONTINUOUS
 62
       3
100
AcDbLine
 10
101.79881826
 20
-359.33205971
 30
0.0
 11
101.79881826
 21
-347.08300935
 31
0.0
  0
LINE
  5
F6
100
AcDbEntity
  8
SLD-0_2
  6
CONTINUOUS
 62
       3
100
AcDbLine
 10
144.29961826
 20
-359.33205971
 30
0.0
 11
144.29961826
 21
-347.08300935
 31
0.0
  0
LINE
  5
F7
100
AcDbEntity
  8
SLD-0_2
  6
CONTINUOUS
 62
       3
100
AcDbLine
 10
152.79937293
 20
-359.33205971
 30
0.0
 11
152.79937293
 21
-347.08300935
 31
0.0
  0
LINE
  5
F8
100
AcDbEntity
  8
SLD-0_2
  6
CONTINUOUS
 62
       3
100
AcDbLine
 10
175.24853423
 20
-334.83193233
 30
0.0
 11
175.24853423
 21
-347.08300935
 31
0.0
  0
LINE
  5
F9
100
AcDbEntity
  8
SLD-0_2
  6
CONTINUOUS
 62
       3
100
AcDbLine
 10
-21.7465548
 20
-182.94549163
 30
0.0
 11
-21.7465548
 21
-187.91381509
 31
0.0
  0
LINE
  5
FA
100
AcDbEntity
  8
SLD-0_2
  6
CONTINUOUS
 62
       3
100
AcDbLine
 10
-27.49513709
 20
-187.91381509
 30
0.0
 11
-12.49694099
 21
-187.91381509
 31
0.0
  0
LINE
  5
FB
100
AcDbEntity
  8
SLD-0_2
  6
CONTINUOUS
 62
       3
100
AcDbLine
 10
1.52745155
 20
-193.41311988
 30
0.0
 11
1.52745155
 21
-182.66378779
 31
0.0
  0
LINE
  5
FC
100
AcDbEntity
  8
SLD-0_2
  6
CONTINUOUS
 62
       3
100
AcDbLine
 10
-32.90729609
 20
-193.41311988
 30
0.0
 11
-32.90729609
 21
-182.66378779
 31
0.0
  0
LINE
  5
FD
100
AcDbEntity
  8
SLD-0_2
  6
CONTINUOUS
 62
       3
100
AcDbLine
 10
-2.77613191
 20
-182.66378779
 30
0.0
 11
-2.77613191
 21
-171.91344238
 31
0.0
  0
LINE
  5
FE
100
AcDbEntity
  8
SLD-0_2
  6
CONTINUOUS
 62
       3
100
AcDbLine
 10
-63.03846027
 20
-182.66378779
 30
0.0
 11
-63.03846027
 21
-171.91344238
 31
0.0
  0
LINE
  5
FF
100
AcDbEntity
  8
SLD-0_2
  6
CONTINUOUS
 62
       3
100
AcDbLine
 10
179.39707925
 20
-193.41311988
 30
0.0
 11
179.39707925
 21
-182.66378779
 31
0.0
  0
LINE
  5
100
100
AcDbEntity
  8
SLD-0_2
  6
CONTINUOUS
 62
       3
100
AcDbLine
 10
162.1786921
 20
-193.41311988
 30
0.0
 11
162.1786921
 21
-182.66378779
 31
0.0
  0
LINE
  5
101
100
AcDbEntity
  8
SLD-0_2
  6
CONTINUOUS
 62
       3
100
AcDbLine
 10
101.9143371
 20
-193.41311988
 30
0.0
 11
101.9143371
 21
-182.66378779
 31
0.0
  0
LINE
  5
102
100
AcDbEntity
  8
SLD-0_2
  6
CONTINUOUS
 62
       3
100
AcDbLine
 10
166.48328889
 20
-182.66378779
 30
0.0
 11
166.48328889
 21
-171.91344238
 31
0.0
  0
LINE
  5
103
100
AcDbEntity
  8
SLD-0_2
  6
CONTINUOUS
 62
       3
100
AcDbLine
 10
166.74675291
 20
-347.08300935
 30
0.0
 11
166.74675291
 21
-334.83193233
 31
0.0
  0
LINE
  5
104
100
AcDbEntity
  8
SLD-0_2
  6
CONTINUOUS
 62
       3
100
AcDbLine
 10
-11.12943495
 20
-205.26663362
 30
0.0
 11
-11.10973401
 21
-205.6489484
 31
0.0
  0
LINE
  5
105
100
AcDbEntity
  8
SLD-0_2
  6
CONTINUOUS
 62
       3
100
AcDbLine
 10
-11.91707073
 20
-209.84663086
 30
0.0
 11
-11.9745304
 21
-209.86103553
 31
0.0
  0
LINE
  5
106
100
AcDbEntity
  8
SLD-0_2
  6
CONTINUOUS
 62
       3
100
AcDbLine
 10
224.67640489
 20
-111.83117422
 30
0.0
 11
224.57922334
 21
-111.61250018
 31
0.0
  0
LINE
  5
107
100
AcDbEntity
  8
SLD-0_2
  6
CONTINUOUS
 62
       3
100
AcDbLine
 10
219.9722734
 20
-113.52520252
 30
0.0
 11
220.05911705
 21
-113.74946563
 31
0.0
  0
LINE
  5
108
100
AcDbEntity
  8
SLD-0_2
  6
CONTINUOUS
 62
       3
100
AcDbLine
 10
-58.72778355
 20
-359.33205971
 30
0.0
 11
-58.72778355
 21
-347.08300935
 31
0.0
  0
LINE
  5
109
100
AcDbEntity
  8
SLD-0_2
  6
CONTINUOUS
 62
       3
100
AcDbLine
 10
-50.22802888
 20
-359.33205971
 30
0.0
 11
-50.22802888
 21
-347.08300935
 31
0.0
  0
LINE
  5
10A
100
AcDbEntity
  8
SLD-0_2
  6
CONTINUOUS
 62
       3
100
AcDbLine
 10
-19.27708626
 20
-334.83193233
 30
0.0
 11
-19.27708626
 21
-347.08300935
 31
0.0
  0
LINE
  5
10B
100
AcDbEntity
  8
SLD-0_2
  6
CONTINUOUS
 62
       3
100
AcDbLine
 10
47.52320313
 20
-347.08300935
 30
0.0
 11
47.52320313
 21
-334.83193233
 31
0.0
  0
LINE
  5
10C
100
AcDbEntity
  8
SLD-0_2
  6
CONTINUOUS
 62
       3
100
AcDbLine
 10
-74.52751827
 20
-359.33205971
 30
0.0
 11
-80.27610056
 21
-359.33205971
 31
0.0
  0
LINE
  5
10D
100
AcDbEntity
  8
SLD-0_2
  6
CONTINUOUS
 62
       3
100
AcDbLine
 10
-80.27610056
 20
-359.33205971
 30
0.0
 11
-80.27610056
 21
-347.08300935
 31
0.0
  0
LINE
  5
10E
100
AcDbEntity
  8
SLD-0_2
  6
CONTINUOUS
 62
       3
100
AcDbLine
 10
81.7492062
 20
-334.83193233
 30
0.0
 11
81.7492062
 21
-347.08300935
 31
0.0
  0
LINE
  5
10F
100
AcDbEntity
  8
SLD-0_2
  6
CONTINUOUS
 62
       3
100
AcDbLine
 10
169.79888227
 20
-359.33205971
 30
0.0
 11
169.79888227
 21
-347.08300935
 31
0.0
  0
LINE
  5
110
100
AcDbEntity
  8
SLD-0_2
  6
CONTINUOUS
 62
       3
100
AcDbLine
 10
132.74976087
 20
-334.83193233
 30
0.0
 11
132.74976087
 21
-347.08300935
 31
0.0
  0
LINE
  5
111
100
AcDbEntity
  8
SLD-0_2
  6
CONTINUOUS
 62
       3
100
AcDbLine
 10
131.54998625
 20
-347.08300935
 30
0.0
 11
131.54998625
 21
-334.83193233
 31
0.0
  0
LINE
  5
112
100
AcDbEntity
  8
SLD-0_2
  6
CONTINUOUS
 62
       3
100
AcDbLine
 10
183.75234219
 20
-334.83193233
 30
0.0
 11
183.75234219
 21
-347.08300935
 31
0.0
  0
LINE
  5
113
100
AcDbEntity
  8
SLD-0_2
  6
CONTINUOUS
 62
       3
100
AcDbLine
 10
208.04777829
 20
-347.08300935
 30
0.0
 11
208.04777829
 21
-334.83193233
 31
0.0
  0
LINE
  5
114
100
AcDbEntity
  8
SLD-0_2
  6
CONTINUOUS
 62
       3
100
AcDbLine
 10
-18.24552328
 20
-182.94549163
 30
0.0
 11
-18.24552328
 21
-187.91381509
 31
0.0
  0
LINE
  5
115
100
AcDbEntity
  8
SLD-0_2
  6
CONTINUOUS
 62
       3
100
AcDbLine
 10
-89.30075662
 20
-362.41458877
 30
0.0
 11
-89.30075662
 21
-359.41312556
 31
0.0
  0
LINE
  5
116
100
AcDbEntity
  8
SLD-0_2
  6
CONTINUOUS
 62
       3
100
AcDbLine
 10
256.74606274
 20
-359.41312556
 30
0.0
 11
256.74606274
 21
-362.41458877
 31
0.0
  0
LINE
  5
117
100
AcDbEntity
  8
SLD-0_2
  6
CONTINUOUS
 62
       3
100
AcDbLine
 10
-67.3450837
 20
-193.41311988
 30
0.0
 11
-67.3450837
 21
-182.66378779
 31
0.0
  0
LINE
  5
118
100
AcDbEntity
  8
SLD-0_2
  6
CONTINUOUS
 62
       3
100
AcDbLine
 10
48.87700287
 20
-182.66378779
 30
0.0
 11
48.87700287
 21
-171.91344238
 31
0.0
  0
LINE
  5
119
100
AcDbEntity
  8
SLD-0_2
  6
CONTINUOUS
 62
       3
100
AcDbLine
 10
-37.21391952
 20
-182.66378779
 30
0.0
 11
-37.21391952
 21
-171.91344238
 31
0.0
  0
LINE
  5
11A
100
AcDbEntity
  8
SLD-0_2
  6
CONTINUOUS
 62
       3
100
AcDbLine
 10
127.74191781
 20
-193.41311988
 30
0.0
 11
127.74191781
 21
-182.66378779
 31
0.0
  0
LINE
  5
11B
100
AcDbEntity
  8
SLD-0_2
  6
CONTINUOUS
 62
       3
100
AcDbLine
 10
114.82812745
 20
-182.66378779
 30
0.0
 11
114.82812745
 21
-171.91344238
 31
0.0
  0
LINE
  5
11C
100
AcDbEntity
  8
SLD-0_2
  6
CONTINUOUS
 62
       3
100
AcDbLine
 10
-74.52751827
 20
-353.3899327
 30
0.0
 11
60.23432886
 21
-353.3899327
 31
0.0
  0
LINE
  5
11D
100
AcDbEntity
  8
SLD-0_2
  6
CONTINUOUS
 62
       3
100
AcDbLine
 10
192.24804357
 20
-347.08300935
 30
0.0
 11
192.24804357
 21
-334.83193233
 31
0.0
  0
LINE
  5
11E
100
AcDbEntity
  8
SLD-0_2
  6
CONTINUOUS
 62
       3
100
AcDbLine
 10
-12.02439266
 20
-209.86124257
 30
0.0
 11
-12.06715326
 21
-209.8497194
 31
0.0
  0
LINE
  5
11F
100
AcDbEntity
  8
SLD-0_2
  6
CONTINUOUS
 62
       3
100
AcDbLine
 10
224.46230296
 20
-111.40546031
 30
0.0
 11
224.32683961
 21
-111.2112533
 31
0.0
  0
LINE
  5
120
100
AcDbEntity
  8
SLD-0_2
  6
CONTINUOUS
 62
       3
100
AcDbLine
 10
220.16628541
 20
-113.96265992
 30
0.0
 11
220.2925798
 21
-114.16358953
 31
0.0
  0
LINE
  5
121
100
AcDbEntity
  8
SLD-0_2
  6
CONTINUOUS
 62
       3
100
AcDbLine
 10
258.76099776
 20
-193.41310827
 30
0.0
 11
258.76099776
 21
-98.41310827
 31
0.0
  0
LINE
  5
122
100
AcDbEntity
  8
SLD-0_2
  6
CONTINUOUS
 62
       3
100
AcDbLine
 10
-91.30004322
 20
-362.41458877
 30
0.0
 11
-91.30004322
 21
-375.41349827
 31
0.0
  0
LINE
  5
123
100
AcDbEntity
  8
SLD-0_2
  6
CONTINUOUS
 62
       3
100
AcDbLine
 10
-80.25887406
 20
-193.41311988
 30
0.0
 11
-80.25887406
 21
-182.66378779
 31
0.0
  0
LINE
  5
124
100
AcDbEntity
  8
SLD-0_2
  6
CONTINUOUS
 62
       3
100
AcDbLine
 10
-33.22649289
 20
-359.33205971
 30
0.0
 11
-33.22649289
 21
-347.08300935
 31
0.0
  0
LINE
  5
125
100
AcDbEntity
  8
SLD-0_2
  6
CONTINUOUS
 62
       3
100
AcDbLine
 10
-10.77834491
 20
-334.83193233
 30
0.0
 11
-10.77834491
 21
-347.08300935
 31
0.0
  0
LINE
  5
126
100
AcDbEntity
  8
SLD-0_2
  6
CONTINUOUS
 62
       3
100
AcDbLine
 10
5.02037648
 20
-347.08300935
 30
0.0
 11
5.02037648
 21
-334.83193233
 31
0.0
  0
LINE
  5
127
100
AcDbEntity
  8
SLD-0_2
  6
CONTINUOUS
 62
       3
100
AcDbLine
 10
14.72193242
 20
-334.83193233
 30
0.0
 11
14.72193242
 21
-347.08300935
 31
0.0
  0
LINE
  5
128
100
AcDbEntity
  8
SLD-0_2
  6
CONTINUOUS
 62
       3
100
AcDbLine
 10
61.77052677
 20
-334.83193233
 30
0.0
 11
61.77052677
 21
-347.08300935
 31
0.0
  0
LINE
  5
129
100
AcDbEntity
  8
SLD-0_2
  6
CONTINUOUS
 62
       3
100
AcDbLine
 10
94.49883821
 20
-347.08300935
 30
0.0
 11
94.49883821
 21
-359.33205971
 31
0.0
  0
LINE
  5
12A
100
AcDbEntity
  8
SLD-0_2
  6
CONTINUOUS
 62
       3
100
AcDbLine
 10
90.25098752
 20
-334.83193233
 30
0.0
 11
90.25098752
 21
-347.08300935
 31
0.0
  0
LINE
  5
12B
100
AcDbEntity
  8
SLD-0_2
  6
CONTINUOUS
 62
       3
100
AcDbLine
 10
114.55047691
 20
-347.08300935
 30
0.0
 11
114.55047691
 21
-334.83193233
 31
0.0
  0
LINE
  5
12C
100
AcDbEntity
  8
SLD-0_2
  6
CONTINUOUS
 62
       3
100
AcDbLine
 10
148.54949559
 20
-347.08300935
 30
0.0
 11
148.54949559
 21
-334.83193233
 31
0.0
  0
LINE
  5
12D
100
AcDbEntity
  8
SLD-0_2
  6
CONTINUOUS
 62
       3
100
AcDbLine
 10
157.04925026
 20
-347.08300935
 30
0.0
 11
157.04925026
 21
-334.83193233
 31
0.0
  0
LINE
  5
12E
100
AcDbEntity
  8
SLD-0_2
  6
CONTINUOUS
 62
       3
100
AcDbLine
 10
192.25007021
 20
-334.83193233
 30
0.0
 11
192.25007021
 21
-347.08300935
 31
0.0
  0
LINE
  5
12F
100
AcDbEntity
  8
SLD-0_2
  6
CONTINUOUS
 62
       3
100
AcDbLine
 10
212.29765562
 20
-347.08300935
 30
0.0
 11
212.29765562
 21
-359.33205971
 31
0.0
  0
LINE
  5
130
100
AcDbEntity
  8
SLD-0_2
  6
CONTINUOUS
 62
       3
100
AcDbLine
 10
213.83182689
 20
-193.41311988
 30
0.0
 11
213.83182689
 21
-182.66378779
 31
0.0
  0
LINE
  5
131
100
AcDbEntity
  8
SLD-0_2
  6
CONTINUOUS
 62
       3
100
AcDbLine
 10
97.60974031
 20
-182.66378779
 30
0.0
 11
97.60974031
 21
-171.91344238
 31
0.0
  0
LINE
  5
132
100
AcDbEntity
  8
SLD-0_2
  6
CONTINUOUS
 62
       3
100
AcDbLine
 10
208.04777829
 20
-334.83193233
 30
0.0
 11
71.7517599
 21
-334.83193233
 31
0.0
  0
LINE
  5
133
100
AcDbEntity
  8
SLD-0_2
  6
CONTINUOUS
 62
       3
100
AcDbLine
 10
-12.10330797
 20
-209.82893346
 30
0.0
 11
-12.13335254
 21
-209.80135216
 31
0.0
  0
LINE
  5
134
100
AcDbEntity
  8
SLD-0_2
  6
CONTINUOUS
 62
       3
100
AcDbLine
 10
224.17402916
 20
-111.03107785
 30
0.0
 11
224.00506746
 21
-110.86613265
 31
0.0
  0
LINE
  5
135
100
AcDbEntity
  8
SLD-0_2
  6
CONTINUOUS
 62
       3
100
AcDbLine
 10
220.11023556
 20
-111.61250018
 30
0.0
 11
220.01307972
 21
-111.83117422
 31
0.0
  0
LINE
  5
136
100
AcDbEntity
  8
SLD-0_2
  6
CONTINUOUS
 62
       3
100
AcDbLine
 10
220.01307972
 20
-111.83117422
 30
0.0
 11
219.93684794
 21
-112.06028372
 31
0.0
  0
LINE
  5
137
100
AcDbEntity
  8
SLD-0_2
  6
CONTINUOUS
 62
       3
100
AcDbLine
 10
219.88273893
 20
-112.29862999
 30
0.0
 11
219.85195138
 21
-112.54501433
 31
0.0
  0
LINE
  5
138
100
AcDbEntity
  8
SLD-0_2
  6
CONTINUOUS
 62
       3
100
AcDbLine
 10
221.61147852
 20
-115.12623311
 30
0.0
 11
221.84762798
 21
-115.18599416
 31
0.0
  0
LINE
  5
139
100
AcDbEntity
  8
SLD-0_2
  6
CONTINUOUS
 62
       3
100
AcDbLine
 10
-201.23900224
 20
-190.91310827
 30
0.0
 11
-201.23900224
 21
-176.91310827
 31
0.0
  0
LINE
  5
13A
100
AcDbEntity
  8
SLD-0_2
  6
CONTINUOUS
 62
       3
100
AcDbLine
 10
-198.73900224
 20
-193.41310827
 30
0.0
 11
-201.23900224
 21
-190.91310827
 31
0.0
  0
LINE
  5
13B
100
AcDbEntity
  8
SLD-0_2
  6
CONTINUOUS
 62
       3
100
AcDbLine
 10
76.08878303
 20
-182.66378779
 30
0.0
 11
76.08878303
 21
-193.41311988
 31
0.0
  0
LINE
  5
13C
100
AcDbEntity
  8
SLD-0_2
  6
CONTINUOUS
 62
       3
100
AcDbLine
 10
209.52925675
 20
-171.91344238
 30
0.0
 11
213.83385353
 21
-171.91344238
 31
0.0
  0
LINE
  5
13D
100
AcDbEntity
  8
SLD-0_2
  6
CONTINUOUS
 62
       3
100
AcDbLine
 10
-16.22597022
 20
-359.33205971
 30
0.0
 11
-16.22597022
 21
-347.08300935
 31
0.0
  0
LINE
  5
13E
100
AcDbEntity
  8
SLD-0_2
  6
CONTINUOUS
 62
       3
100
AcDbLine
 10
-53.27813159
 20
-334.83193233
 30
0.0
 11
-53.27813159
 21
-347.08300935
 31
0.0
  0
LINE
  5
13F
100
AcDbEntity
  8
SLD-0_2
  6
CONTINUOUS
 62
       3
100
AcDbLine
 10
-54.47790621
 20
-347.08300935
 30
0.0
 11
-54.47790621
 21
-334.83193233
 31
0.0
  0
LINE
  5
140
100
AcDbEntity
  8
SLD-0_2
  6
CONTINUOUS
 62
       3
100
AcDbLine
 10
-45.97713822
 20
-347.08300935
 30
0.0
 11
-45.97713822
 21
-334.83193233
 31
0.0
  0
LINE
  5
141
100
AcDbEntity
  8
SLD-0_2
  6
CONTINUOUS
 62
       3
100
AcDbLine
 10
31.72346841
 20
-334.83193233
 30
0.0
 11
31.72346841
 21
-347.08300935
 31
0.0
  0
LINE
  5
142
100
AcDbEntity
  8
SLD-0_2
  6
CONTINUOUS
 62
       3
100
AcDbLine
 10
40.22119644
 20
-334.83193233
 30
0.0
 11
40.22119644
 21
-347.08300935
 31
0.0
  0
LINE
  5
143
100
AcDbEntity
  8
SLD-0_2
  6
CONTINUOUS
 62
       3
100
AcDbLine
 10
111.49834755
 20
-347.08300935
 30
0.0
 11
111.49834755
 21
-359.33205971
 31
0.0
  0
LINE
  5
144
100
AcDbEntity
  8
SLD-0_2
  6
CONTINUOUS
 62
       3
100
AcDbLine
 10
119.99810222
 20
-347.08300935
 30
0.0
 11
119.99810222
 21
-359.33205971
 31
0.0
  0
LINE
  5
145
100
AcDbEntity
  8
SLD-0_2
  6
CONTINUOUS
 62
       3
100
AcDbLine
 10
136.99963821
 20
-347.08300935
 30
0.0
 11
136.99963821
 21
-359.33205971
 31
0.0
  0
LINE
  5
146
100
AcDbEntity
  8
SLD-0_2
  6
CONTINUOUS
 62
       3
100
AcDbLine
 10
188.00019288
 20
-347.08300935
 30
0.0
 11
188.00019288
 21
-359.33205971
 31
0.0
  0
LINE
  5
147
100
AcDbEntity
  8
SLD-0_2
  6
CONTINUOUS
 62
       3
100
AcDbLine
 10
107.25049686
 20
-334.83193233
 30
0.0
 11
107.25049686
 21
-347.08300935
 31
0.0
  0
LINE
  5
148
100
AcDbEntity
  8
SLD-0_2
  6
CONTINUOUS
 62
       3
100
AcDbLine
 10
174.0487596
 20
-347.08300935
 30
0.0
 11
174.0487596
 21
-334.83193233
 31
0.0
  0
LINE
  5
149
100
AcDbEntity
  8
SLD-0_2
  6
CONTINUOUS
 62
       3
100
AcDbLine
 10
27.35401894
 20
-193.41311988
 30
0.0
 11
27.35401894
 21
-182.66378779
 31
0.0
  0
LINE
  5
14A
100
AcDbEntity
  8
SLD-0_2
  6
CONTINUOUS
 62
       3
100
AcDbLine
 10
23.0514488
 20
-182.66378779
 30
0.0
 11
23.0514488
 21
-171.91344238
 31
0.0
  0
LINE
  5
14B
100
AcDbEntity
  8
SLD-0_2
  6
CONTINUOUS
 62
       3
100
AcDbLine
 10
205.22263331
 20
-193.41311988
 30
0.0
 11
205.22263331
 21
-182.66378779
 31
0.0
  0
LINE
  5
14C
100
AcDbEntity
  8
SLD-0_2
  6
CONTINUOUS
 62
       3
100
AcDbLine
 10
80.39337981
 20
-182.66378779
 30
0.0
 11
80.39337981
 21
-171.91344238
 31
0.0
  0
LINE
  5
14D
100
AcDbEntity
  8
SLD-0_2
  6
CONTINUOUS
 62
       3
100
AcDbLine
 10
-12.15778271
 20
-209.76944294
 30
0.0
 11
-12.17709425
 21
-209.73567322
 31
0.0
  0
LINE
  5
14E
100
AcDbEntity
  8
SLD-0_2
  6
CONTINUOUS
 62
       3
100
AcDbLine
 10
224.78255096
 20
-113.29106645
 30
0.0
 11
224.82515354
 21
-113.04825328
 31
0.0
  0
LINE
  5
14F
100
AcDbEntity
  8
SLD-0_2
  6
CONTINUOUS
 62
       3
100
AcDbLine
 10
224.82515354
 20
-113.04825328
 30
0.0
 11
224.84383176
 21
-112.79795888
 31
0.0
  0
LINE
  5
150
100
AcDbEntity
  8
SLD-0_2
  6
CONTINUOUS
 62
       3
100
AcDbLine
 10
224.83755794
 20
-112.54501433
 30
0.0
 11
224.80676805
 21
-112.29862999
 31
0.0
  0
LINE
  5
151
100
AcDbEntity
  8
SLD-0_2
  6
CONTINUOUS
 62
       3
100
AcDbLine
 10
222.4705534
 20
-110.23865399
 30
0.0
 11
222.21711085
 21
-110.23865399
 31
0.0
  0
LINE
  5
152
100
AcDbEntity
  8
SLD-0_2
  6
CONTINUOUS
 62
       3
100
AcDbLine
 10
219.90695317
 20
-113.29106645
 30
0.0
 11
219.9722734
 21
-113.52520252
 31
0.0
  0
LINE
  5
153
100
AcDbEntity
  8
SLD-0_2
  6
CONTINUOUS
 62
       3
100
AcDbLine
 10
220.77423211
 20
-114.68083162
 30
0.0
 11
220.96504361
 21
-114.82074386
 31
0.0
  0
LINE
  5
154
100
AcDbEntity
  8
SLD-0_2
  6
CONTINUOUS
 62
       3
100
AcDbLine
 10
258.76099776
 20
-362.41458877
 30
0.0
 11
258.76099776
 21
-375.41349827
 31
0.0
  0
LINE
  5
155
100
AcDbEntity
  8
SLD-0_2
  6
CONTINUOUS
 62
       3
100
AcDbLine
 10
77.50034219
 20
-353.3899327
 30
0.0
 11
212.26218932
 21
-353.3899327
 31
0.0
  0
LINE
  5
156
100
AcDbEntity
  8
SLD-0_2
  6
CONTINUOUS
 62
       3
100
AcDbLine
 10
-70.27865425
 20
-334.83193233
 30
0.0
 11
-70.27865425
 21
-347.08300935
 31
0.0
  0
LINE
  5
157
100
AcDbEntity
  8
SLD-0_2
  6
CONTINUOUS
 62
       3
100
AcDbLine
 10
9.27228047
 20
-359.33205971
 30
0.0
 11
9.27228047
 21
-347.08300935
 31
0.0
  0
LINE
  5
158
100
AcDbEntity
  8
SLD-0_2
  6
CONTINUOUS
 62
       3
100
AcDbLine
 10
-61.77889958
 20
-334.83193233
 30
0.0
 11
-61.77889958
 21
-347.08300935
 31
0.0
  0
LINE
  5
159
100
AcDbEntity
  8
SLD-0_2
  6
CONTINUOUS
 62
       3
100
AcDbLine
 10
-28.97661555
 20
-347.08300935
 30
0.0
 11
-28.97661555
 21
-334.83193233
 31
0.0
  0
LINE
  5
15A
100
AcDbEntity
  8
SLD-0_2
  6
CONTINUOUS
 62
       3
100
AcDbLine
 10
56.0229578
 20
-334.83193233
 30
0.0
 11
61.77052677
 21
-334.83193233
 31
0.0
  0
LINE
  5
15B
100
AcDbEntity
  8
SLD-0_2
  6
CONTINUOUS
 62
       3
100
AcDbLine
 10
199.54802362
 20
-347.08300935
 30
0.0
 11
199.54802362
 21
-334.83193233
 31
0.0
  0
LINE
  5
15C
100
AcDbEntity
  8
SLD-0_2
  6
CONTINUOUS
 62
       3
100
AcDbLine
 10
-12.49694099
 20
-187.91381509
 30
0.0
 11
-12.49694099
 21
-210.39540273
 31
0.0
  0
LINE
  5
15D
100
AcDbEntity
  8
SLD-0_2
  6
CONTINUOUS
 62
       3
100
AcDbLine
 10
5.83002169
 20
-182.66378779
 30
0.0
 11
5.83002169
 21
-171.91344238
 31
0.0
  0
LINE
  5
15E
100
AcDbEntity
  8
SLD-0_2
  6
CONTINUOUS
 62
       3
100
AcDbLine
 10
209.5272301
 20
-182.66378779
 30
0.0
 11
209.5272301
 21
-171.91344238
 31
0.0
  0
LINE
  5
15F
100
AcDbEntity
  8
SLD-0_2
  6
CONTINUOUS
 62
       3
100
AcDbLine
 10
-11.60134292
 20
-209.59768732
 30
0.0
 11
-11.69414975
 21
-209.69355679
 31
0.0
  0
LINE
  5
160
100
AcDbEntity
  8
SLD-0_2
  6
CONTINUOUS
 62
       3
100
AcDbLine
 10
-11.69414975
 20
-209.69355679
 30
0.0
 11
-11.77737616
 21
-209.76535892
 31
0.0
  0
LINE
  5
161
100
AcDbEntity
  8
SLD-0_2
  6
CONTINUOUS
 62
       3
100
AcDbLine
 10
-11.8515179
 20
-209.81556113
 30
0.0
 11
-11.91707073
 21
-209.84663086
 31
0.0
  0
LINE
  5
162
100
AcDbEntity
  8
SLD-0_2
  6
CONTINUOUS
 62
       3
100
AcDbLine
 10
222.84051487
 20
-115.18599416
 30
0.0
 11
223.07693233
 21
-115.12623311
 31
0.0
  0
LINE
  5
163
100
AcDbEntity
  8
SLD-0_2
  6
CONTINUOUS
 62
       3
100
AcDbLine
 10
224.57922334
 20
-111.61250018
 30
0.0
 11
224.46230296
 21
-111.40546031
 31
0.0
  0
LINE
  5
164
100
AcDbEntity
  8
SLD-0_2
  6
CONTINUOUS
 62
       3
100
AcDbLine
 10
223.41323357
 20
-110.47466557
 30
0.0
 11
223.19162555
 21
-110.38262837
 31
0.0
  0
LINE
  5
165
100
AcDbEntity
  8
SLD-0_2
  6
CONTINUOUS
 62
       3
100
AcDbLine
 10
221.06544897
 20
-110.58672781
 30
0.0
 11
220.86792137
 21
-110.71761641
 31
0.0
  0
LINE
  5
166
100
AcDbEntity
  8
SLD-0_2
  6
CONTINUOUS
 62
       3
100
AcDbLine
 10
220.2925798
 20
-114.16358953
 30
0.0
 11
220.43680151
 21
-114.35105859
 31
0.0
  0
LINE
  5
167
100
AcDbEntity
  8
SLD-0_2
  6
CONTINUOUS
 62
       3
100
AcDbLine
 10
220.59775184
 20
-114.52387124
 30
0.0
 11
220.77423211
 21
-114.68083162
 31
0.0
  0
LINE
  5
168
100
AcDbEntity
  8
SLD-0_2
  6
CONTINUOUS
 62
       3
100
AcDbLine
 10
-9.45899816
 20
-193.30773427
 30
0.0
 11
-9.45899816
 21
-203.76522929
 31
0.0
  0
LINE
  5
169
100
AcDbEntity
  8
SLD-0_2
  6
CONTINUOUS
 62
       3
100
AcDbLine
 10
-7.7282422
 20
-359.33205971
 30
0.0
 11
-7.7282422
 21
-347.08300935
 31
0.0
  0
LINE
  5
16A
100
AcDbEntity
  8
SLD-0_2
  6
CONTINUOUS
 62
       3
100
AcDbLine
 10
26.27381645
 20
-359.33205971
 30
0.0
 11
26.27381645
 21
-347.08300935
 31
0.0
  0
LINE
  5
16B
100
AcDbEntity
  8
SLD-0_2
  6
CONTINUOUS
 62
       3
100
AcDbLine
 10
34.77357112
 20
-359.33205971
 30
0.0
 11
34.77357112
 21
-347.08300935
 31
0.0
  0
LINE
  5
16C
100
AcDbEntity
  8
SLD-0_2
  6
CONTINUOUS
 62
       3
100
AcDbLine
 10
-11.97811953
 20
-347.08300935
 30
0.0
 11
-11.97811953
 21
-334.83193233
 31
0.0
  0
LINE
  5
16D
100
AcDbEntity
  8
SLD-0_2
  6
CONTINUOUS
 62
       3
100
AcDbLine
 10
-3.47735154
 20
-347.08300935
 30
0.0
 11
-3.47735154
 21
-334.83193233
 31
0.0
  0
LINE
  5
16E
100
AcDbEntity
  8
SLD-0_2
  6
CONTINUOUS
 62
       3
100
AcDbLine
 10
195.30017293
 20
-359.33205971
 30
0.0
 11
195.30017293
 21
-347.08300935
 31
0.0
  0
LINE
  5
16F
100
AcDbEntity
  8
SLD-0_2
  6
CONTINUOUS
 62
       3
100
AcDbLine
 10
141.25154219
 20
-334.83193233
 30
0.0
 11
141.25154219
 21
-347.08300935
 31
0.0
  0
LINE
  5
170
100
AcDbEntity
  8
SLD-0_2
  6
CONTINUOUS
 62
       3
100
AcDbLine
 10
213.79940055
 20
-334.83193233
 30
0.0
 11
213.79940055
 21
-347.08300935
 31
0.0
  0
LINE
  5
171
100
AcDbEntity
  8
SLD-0_2
  6
CONTINUOUS
 62
       3
100
AcDbLine
 10
-11.38633881
 20
-182.66378779
 30
0.0
 11
-11.38633881
 21
-171.91344238
 31
0.0
  0
LINE
  5
172
100
AcDbEntity
  8
SLD-0_2
  6
CONTINUOUS
 62
       3
100
AcDbLine
 10
71.78215959
 20
-171.91344238
 30
0.0
 11
71.78215959
 21
-182.66378779
 31
0.0
  0
LINE
  5
173
100
AcDbEntity
  8
SLD-0_2
  6
CONTINUOUS
 62
       3
100
AcDbLine
 10
149.74927021
 20
-347.08300935
 30
0.0
 11
149.74927021
 21
-334.83193233
 31
0.0
  0
LINE
  5
174
100
AcDbEntity
  8
SLD-0_2
  6
CONTINUOUS
 62
       3
100
AcDbLine
 10
158.24902488
 20
-347.08300935
 30
0.0
 11
158.24902488
 21
-334.83193233
 31
0.0
  0
LINE
  5
175
100
AcDbEntity
  8
SLD-0_2
  6
CONTINUOUS
 62
       3
100
AcDbLine
 10
183.75031554
 20
-347.08300935
 30
0.0
 11
183.75031554
 21
-334.83193233
 31
0.0
  0
LINE
  5
176
100
AcDbEntity
  8
SLD-0_2
  6
CONTINUOUS
 62
       3
100
AcDbLine
 10
-11.10973401
 20
-205.6489484
 30
0.0
 11
-11.09349144
 21
-206.05588471
 31
0.0
  0
LINE
  5
177
100
AcDbEntity
  8
SLD-0_2
  6
CONTINUOUS
 62
       3
100
AcDbLine
 10
-12.06715326
 20
-209.8497194
 30
0.0
 11
-12.10330797
 21
-209.82893346
 31
0.0
  0
LINE
  5
178
100
AcDbEntity
  8
SLD-0_2
  6
CONTINUOUS
 62
       3
100
AcDbLine
 10
-12.20927461
 20
-209.64787535
 30
0.0
 11
-12.21306915
 21
-209.63133792
 31
0.0
  0
LINE
  5
179
100
AcDbEntity
  8
SLD-0_2
  6
CONTINUOUS
 62
       3
100
AcDbLine
 10
224.09149247
 20
-114.52387124
 30
0.0
 11
224.25252803
 21
-114.35105859
 31
0.0
  0
LINE
  5
17A
100
AcDbEntity
  8
SLD-0_2
  6
CONTINUOUS
 62
       3
100
AcDbLine
 10
224.00506746
 20
-110.86613265
 30
0.0
 11
223.82115039
 21
-110.71761641
 31
0.0
  0
LINE
  5
17B
100
AcDbEntity
  8
SLD-0_2
  6
CONTINUOUS
 62
       3
100
AcDbLine
 10
223.62347381
 20
-110.58672781
 30
0.0
 11
223.41323357
 21
-110.47466557
 31
0.0
  0
LINE
  5
17C
100
AcDbEntity
  8
SLD-0_2
  6
CONTINUOUS
 62
       3
100
AcDbLine
 10
220.36252465
 20
-111.2112533
 30
0.0
 11
220.22711677
 21
-111.40546031
 31
0.0
  0
LINE
  5
17D
100
AcDbEntity
  8
SLD-0_2
  6
CONTINUOUS
 62
       3
100
AcDbLine
 10
57.48619645
 20
-171.91344238
 30
0.0
 11
61.79079323
 21
-171.91344238
 31
0.0
  0
LINE
  5
17E
100
AcDbEntity
  8
SLD-0_2
  6
CONTINUOUS
 62
       3
100
AcDbLine
 10
-40.52545961
 20
-347.08300935
 30
0.0
 11
-40.52545961
 21
-359.33205971
 31
0.0
  0
LINE
  5
17F
100
AcDbEntity
  8
SLD-0_2
  6
CONTINUOUS
 62
       3
100
AcDbLine
 10
51.77308047
 20
-359.33205971
 30
0.0
 11
51.77308047
 21
-347.08300935
 31
0.0
  0
LINE
  5
180
100
AcDbEntity
  8
SLD-0_2
  6
CONTINUOUS
 62
       3
100
AcDbLine
 10
13.52013116
 20
-347.08300935
 30
0.0
 11
13.52013116
 21
-334.83193233
 31
0.0
  0
LINE
  5
181
100
AcDbEntity
  8
SLD-0_2
  6
CONTINUOUS
 62
       3
100
AcDbLine
 10
203.7999276
 20
-359.33205971
 30
0.0
 11
203.7999276
 21
-347.08300935
 31
0.0
  0
LINE
  5
182
100
AcDbEntity
  8
SLD-0_2
  6
CONTINUOUS
 62
       3
100
AcDbLine
 10
77.49932887
 20
-347.08300935
 30
0.0
 11
77.49932887
 21
-359.33205971
 31
0.0
  0
LINE
  5
183
100
AcDbEntity
  8
SLD-0_2
  6
CONTINUOUS
 62
       3
100
AcDbLine
 10
-28.60371263
 20
-182.66378779
 30
0.0
 11
-28.60371263
 21
-171.91344238
 31
0.0
  0
LINE
  5
184
100
AcDbEntity
  8
SLD-0_2
  6
CONTINUOUS
 62
       3
100
AcDbLine
 10
132.0465146
 20
-182.66378779
 30
0.0
 11
132.0465146
 21
-171.91344238
 31
0.0
  0
LINE
  5
185
100
AcDbEntity
  8
SLD-0_2
  6
CONTINUOUS
 62
       3
100
AcDbLine
 10
123.43934767
 20
-182.66378779
 30
0.0
 11
123.43934767
 21
-171.91344238
 31
0.0
  0
LINE
  5
186
100
AcDbEntity
  8
SLD-0_2
  6
CONTINUOUS
 62
       3
100
AcDbLine
 10
106.21893388
 20
-182.66378779
 30
0.0
 11
106.21893388
 21
-171.91344238
 31
0.0
  0
LINE
  5
187
100
AcDbEntity
  8
SLD-0_2
  6
CONTINUOUS
 62
       3
100
AcDbLine
 10
-74.52751827
 20
-355.06596921
 30
0.0
 11
60.23432886
 21
-355.06596921
 31
0.0
  0
LINE
  5
188
100
AcDbEntity
  8
SLD-0_2
  6
CONTINUOUS
 62
       3
100
AcDbLine
 10
71.7517599
 20
-334.83193233
 30
0.0
 11
71.7517599
 21
-347.08300935
 31
0.0
  0
LINE
  5
189
100
AcDbEntity
  8
SLD-0_2
  6
CONTINUOUS
 62
       3
100
AcDbLine
 10
-11.1919536
 20
-204.35876423
 30
0.0
 11
-11.17227818
 21
-204.61240694
 31
0.0
  0
LINE
  5
18A
100
AcDbEntity
  8
SLD-0_2
  6
CONTINUOUS
 62
       3
100
AcDbLine
 10
-11.12482446
 20
-208.14017854
 30
0.0
 11
-11.1657343
 21
-208.50301767
 31
0.0
  0
LINE
  5
18B
100
AcDbEntity
  8
SLD-0_2
  6
CONTINUOUS
 62
       3
100
AcDbLine
 10
-12.17709425
 20
-209.73567322
 30
0.0
 11
-12.19178291
 21
-209.70251043
 31
0.0
  0
LINE
  5
18C
100
AcDbEntity
  8
SLD-0_2
  6
CONTINUOUS
 62
       3
100
AcDbLine
 10
-12.20234445
 20
-209.672422
 30
0.0
 11
-12.20927461
 21
-209.64787535
 31
0.0
  0
LINE
  5
18D
100
AcDbEntity
  8
SLD-0_2
  6
CONTINUOUS
 62
       3
100
AcDbLine
 10
224.63035621
 20
-113.74946563
 30
0.0
 11
224.7172199
 21
-113.52520252
 31
0.0
  0
LINE
  5
18E
100
AcDbEntity
  8
SLD-0_2
  6
CONTINUOUS
 62
       3
100
AcDbLine
 10
221.84762798
 20
-115.18599416
 30
0.0
 11
222.09211518
 21
-115.22272776
 31
0.0
  0
LINE
  5
18F
100
AcDbEntity
  8
SLD-0_2
  6
CONTINUOUS
 62
       3
100
AcDbLine
 10
-23.52696359
 20
-347.08300935
 30
0.0
 11
-23.52696359
 21
-359.33205971
 31
0.0
  0
LINE
  5
190
100
AcDbEntity
  8
SLD-0_2
  6
CONTINUOUS
 62
       3
100
AcDbLine
 10
89.04918625
 20
-347.08300935
 30
0.0
 11
89.04918625
 21
-334.83193233
 31
0.0
  0
LINE
  5
191
100
AcDbEntity
  8
SLD-0_2
  6
CONTINUOUS
 62
       3
100
AcDbLine
 10
71.7517599
 20
-359.33205971
 30
0.0
 11
71.7517599
 21
-347.08300935
 31
0.0
  0
LINE
  5
192
100
AcDbEntity
  8
SLD-0_2
  6
CONTINUOUS
 62
       3
100
AcDbLine
 10
-45.82209977
 20
-182.66378779
 30
0.0
 11
-45.82209977
 21
-171.91344238
 31
0.0
  0
LINE
  5
193
100
AcDbEntity
  8
SLD-0_2
  6
CONTINUOUS
 62
       3
100
AcDbLine
 10
93.30717017
 20
-193.41311988
 30
0.0
 11
93.30717017
 21
-182.66378779
 31
0.0
  0
LINE
  5
194
100
AcDbEntity
  8
SLD-0_2
  6
CONTINUOUS
 62
       3
100
AcDbLine
 10
84.69594995
 20
-193.41311988
 30
0.0
 11
84.69594995
 21
-182.66378779
 31
0.0
  0
LINE
  5
195
100
AcDbEntity
  8
SLD-0_2
  6
CONTINUOUS
 62
       3
100
AcDbLine
 10
213.83182689
 20
-182.66378779
 30
0.0
 11
76.08878303
 21
-182.66378779
 31
0.0
  0
LINE
  5
196
100
AcDbEntity
  8
SLD-0_2
  6
CONTINUOUS
 62
       3
100
AcDbLine
 10
71.78215959
 20
-182.66378779
 30
0.0
 11
209.5272301
 21
-182.66378779
 31
0.0
  0
LINE
  5
197
100
AcDbEntity
  8
SLD-0_2
  6
CONTINUOUS
 62
       3
100
AcDbLine
 10
-78.77942225
 20
-341.13885569
 30
0.0
 11
55.98039823
 21
-341.13885569
 31
0.0
  0
LINE
  5
198
100
AcDbEntity
  8
SLD-0_2
  6
CONTINUOUS
 62
       3
100
AcDbLine
 10
77.49932887
 20
-359.33205971
 30
0.0
 11
213.79940055
 21
-359.33205971
 31
0.0
  0
LINE
  5
199
100
AcDbEntity
  8
SLD-0_2
  6
CONTINUOUS
 62
       3
100
AcDbLine
 10
-11.22319378
 20
-204.00133358
 30
0.0
 11
-11.21914484
 21
-204.04409296
 31
0.0
  0
LINE
  5
19A
100
AcDbEntity
  8
SLD-0_2
  6
CONTINUOUS
 62
       3
100
AcDbLine
 10
-11.20815363
 20
-204.16628137
 30
0.0
 11
-11.1919536
 21
-204.35876423
 31
0.0
  0
LINE
  5
19B
100
AcDbEntity
  8
SLD-0_2
  6
CONTINUOUS
 62
       3
100
AcDbLine
 10
-11.38895222
 20
-209.31907325
 30
0.0
 11
-11.4984599
 21
-209.47528308
 31
0.0
  0
LINE
  5
19C
100
AcDbEntity
  8
SLD-0_2
  6
CONTINUOUS
 62
       3
100
AcDbLine
 10
222.21711085
 20
-110.23865399
 30
0.0
 11
221.96890428
 21
-110.26342388
 31
0.0
  0
LINE
  5
19D
100
AcDbEntity
  8
SLD-0_2
  6
CONTINUOUS
 62
       3
100
AcDbLine
 10
-91.30004322
 20
-373.41349827
 30
0.0
 11
-201.23900224
 21
-373.41349827
 31
0.0
  0
LINE
  5
19E
100
AcDbEntity
  8
SLD-0_2
  6
CONTINUOUS
 62
       3
100
AcDbLine
 10
71.78215959
 20
-193.41311988
 30
0.0
 11
71.78215959
 21
-182.66378779
 31
0.0
  0
LINE
  5
19F
100
AcDbEntity
  8
SLD-0_2
  6
CONTINUOUS
 62
       3
100
AcDbLine
 10
213.83385353
 20
-171.91344238
 30
0.0
 11
213.83385353
 21
-182.66378779
 31
0.0
  0
LINE
  5
1A0
100
AcDbEntity
  8
SLD-0_2
  6
CONTINUOUS
 62
       3
100
AcDbLine
 10
-57.52598228
 20
-347.08300935
 30
0.0
 11
-57.52598228
 21
-359.33205971
 31
0.0
  0
LINE
  5
1A1
100
AcDbEntity
  8
SLD-0_2
  6
CONTINUOUS
 62
       3
100
AcDbLine
 10
18.97180976
 20
-347.08300935
 30
0.0
 11
18.97180976
 21
-359.33205971
 31
0.0
  0
LINE
  5
1A2
100
AcDbEntity
  8
SLD-0_2
  6
CONTINUOUS
 62
       3
100
AcDbLine
 10
135.79986359
 20
-359.33205971
 30
0.0
 11
135.79986359
 21
-347.08300935
 31
0.0
  0
LINE
  5
1A3
100
AcDbEntity
  8
SLD-0_2
  6
CONTINUOUS
 62
       3
100
AcDbLine
 10
97.55096757
 20
-347.08300935
 30
0.0
 11
97.55096757
 21
-334.83193233
 31
0.0
  0
LINE
  5
1A4
100
AcDbEntity
  8
SLD-0_2
  6
CONTINUOUS
 62
       3
100
AcDbLine
 10
-13.99564595
 20
-187.91381509
 30
0.0
 11
-11.9943327
 21
-182.94549163
 31
0.0
  0
LINE
  5
1A5
100
AcDbEntity
  8
SLD-0_2
  6
CONTINUOUS
 62
       3
100
AcDbLine
 10
18.74685202
 20
-193.41311988
 30
0.0
 11
18.74685202
 21
-182.66378779
 31
0.0
  0
LINE
  5
1A6
100
AcDbEntity
  8
SLD-0_2
  6
CONTINUOUS
 62
       3
100
AcDbLine
 10
40.2678093
 20
-182.66378779
 30
0.0
 11
40.2678093
 21
-171.91344238
 31
0.0
  0
LINE
  5
1A7
100
AcDbEntity
  8
SLD-0_2
  6
CONTINUOUS
 62
       3
100
AcDbLine
 10
31.65861573
 20
-182.66378779
 30
0.0
 11
31.65861573
 21
-171.91344238
 31
0.0
  0
LINE
  5
1A8
100
AcDbEntity
  8
SLD-0_2
  6
CONTINUOUS
 62
       3
100
AcDbLine
 10
14.44022858
 20
-182.66378779
 30
0.0
 11
14.44022858
 21
-171.91344238
 31
0.0
  0
LINE
  5
1A9
100
AcDbEntity
  8
SLD-0_2
  6
CONTINUOUS
 62
       3
100
AcDbLine
 10
196.61546639
 20
-193.41311988
 30
0.0
 11
196.61546639
 21
-182.66378779
 31
0.0
  0
LINE
  5
1AA
100
AcDbEntity
  8
SLD-0_2
  6
CONTINUOUS
 62
       3
100
AcDbLine
 10
183.69964938
 20
-182.66378779
 30
0.0
 11
183.69964938
 21
-171.91344238
 31
0.0
  0
LINE
  5
1AB
100
AcDbEntity
  8
SLD-0_2
  6
CONTINUOUS
 62
       3
100
AcDbLine
 10
-74.52751827
 20
-359.33205971
 30
0.0
 11
61.77052677
 21
-359.33205971
 31
0.0
  0
LINE
  5
1AC
100
AcDbEntity
  8
SLD-0_2
  6
CONTINUOUS
 62
       3
100
AcDbLine
 10
61.77052677
 20
-347.08300935
 30
0.0
 11
-74.52751827
 21
-347.08300935
 31
0.0
  0
LINE
  5
1AD
100
AcDbEntity
  8
SLD-0_2
  6
CONTINUOUS
 62
       3
100
AcDbLine
 10
124.2500062
 20
-347.08300935
 30
0.0
 11
124.2500062
 21
-334.83193233
 31
0.0
  0
LINE
  5
1AE
100
AcDbEntity
  8
SLD-0_2
  6
CONTINUOUS
 62
       3
100
AcDbLine
 10
223.07693233
 20
-115.12623311
 30
0.0
 11
223.30377579
 21
-115.04464047
 31
0.0
  0
LINE
  5
1AF
100
AcDbEntity
  8
SLD-0_2
  6
CONTINUOUS
 62
       3
100
AcDbLine
 10
221.72843612
 20
-110.3118149
 30
0.0
 11
221.49690504
 21
-110.38262837
 31
0.0
  0
LINE
  5
1B0
100
AcDbEntity
  8
SLD-0_2
  6
CONTINUOUS
 62
       3
100
AcDbLine
 10
278.76099776
 20
-373.41349827
 30
0.0
 11
278.76099776
 21
-375.41349827
 31
0.0
  0
LINE
  5
1B1
100
AcDbEntity
  8
SLD-0_2
  6
PHANTOM2
 62
       3
100
AcDbLine
 10
-91.22708395
 20
-193.41311988
 30
0.0
 11
-91.22708395
 21
-98.41310827
 31
0.0
  0
LINE
  5
1B2
100
AcDbEntity
  8
SLD-0_2
  6
PHANTOM2
 62
       3
100
AcDbLine
 10
-181.23900224
 20
-193.41310827
 30
0.0
 11
-181.23900224
 21
-98.41310827
 31
0.0
  0
LINE
  5
1B3
100
AcDbEntity
  8
SLD-0_2
  6
PHANTOM
 62
       3
100
AcDbLine
 10
-29.23900224
 20
-169.41310827
 30
0.0
 11
-47.23900224
 21
-169.41310827
 31
0.0
  0
LINE
  5
1B4
100
AcDbEntity
  8
SLD-0_2
  6
PHANTOM
 62
       3
100
AcDbLine
 10
124.76099776
 20
-169.41310827
 30
0.0
 11
124.76099776
 21
-121.41310827
 31
0.0
  0
LINE
  5
1B5
100
AcDbEntity
  8
SLD-0_2
  6
PHANTOM
 62
       3
100
AcDbLine
 10
-73.86683156
 20
-290.13424772
 30
0.0
 11
-73.86683156
 21
-289.91349827
 31
0.0
  0
LINE
  5
1B6
100
AcDbEntity
  8
SLD-0_2
  6
PHANTOM
 62
       3
100
AcDbLine
 10
-29.23900224
 20
-121.41310827
 30
0.0
 11
-47.23900224
 21
-121.41310827
 31
0.0
  0
LINE
  5
1B7
100
AcDbEntity
  8
SLD-0_2
  6
PHANTOM
 62
       3
100
AcDbLine
 10
142.76099776
 20
-169.41310827
 30
0.0
 11
142.76099776
 21
-121.41310827
 31
0.0
  0
LINE
  5
1B8
100
AcDbEntity
  8
SLD-0_2
  6
PHANTOM
 62
       3
100
AcDbLine
 10
85.76099776
 20
-169.41310827
 30
0.0
 11
85.76099776
 21
-121.41310827
 31
0.0
  0
LINE
  5
1B9
100
AcDbEntity
  8
SLD-0_2
  6
PHANTOM
 62
       3
100
AcDbLine
 10
212.13316844
 20
-290.13424772
 30
0.0
 11
212.13316844
 21
-289.91349827
 31
0.0
  0
LINE
  5
1BA
100
AcDbEntity
  8
SLD-0_2
  6
PHANTOM
 62
       3
100
AcDbLine
 10
-10.23900224
 20
-169.41310827
 30
0.0
 11
-28.23900224
 21
-169.41310827
 31
0.0
  0
LINE
  5
1BB
100
AcDbEntity
  8
SLD-0_2
  6
PHANTOM
 62
       3
100
AcDbLine
 10
86.76099776
 20
-169.41310827
 30
0.0
 11
86.76099776
 21
-121.41310827
 31
0.0
  0
LINE
  5
1BC
100
AcDbEntity
  8
SLD-0_2
  6
PHANTOM
 62
       3
100
AcDbLine
 10
104.76099776
 20
-169.41310827
 30
0.0
 11
86.76099776
 21
-169.41310827
 31
0.0
  0
LINE
  5
1BD
100
AcDbEntity
  8
SLD-0_2
  6
PHANTOM
 62
       3
100
AcDbLine
 10
143.76099776
 20
-169.41310827
 30
0.0
 11
143.76099776
 21
-121.41310827
 31
0.0
  0
LINE
  5
1BE
100
AcDbEntity
  8
SLD-0_2
  6
PHANTOM
 62
       3
100
AcDbLine
 10
181.76099776
 20
-169.41310827
 30
0.0
 11
181.76099776
 21
-121.41310827
 31
0.0
  0
LINE
  5
1BF
100
AcDbEntity
  8
SLD-0_2
  6
PHANTOM
 62
       3
100
AcDbLine
 10
218.76099776
 20
-121.41310827
 30
0.0
 11
200.76099776
 21
-121.41310827
 31
0.0
  0
LINE
  5
1C0
100
AcDbEntity
  8
SLD-0_2
  6
PHANTOM
 62
       3
100
AcDbLine
 10
-67.23900224
 20
-290.11349827
 30
0.0
 11
-85.23900224
 21
-290.11349827
 31
0.0
  0
LINE
  5
1C1
100
AcDbEntity
  8
SLD-0_2
  6
PHANTOM
 62
       3
100
AcDbLine
 10
215.93082192
 20
-288.41349827
 30
0.0
 11
213.63316844
 21
-288.41349827
 31
0.0
  0
LINE
  5
1C2
100
AcDbEntity
  8
SLD-0_2
  6
PHANTOM
 62
       3
100
AcDbLine
 10
-67.23900224
 20
-121.41310827
 30
0.0
 11
-85.23900224
 21
-121.41310827
 31
0.0
  0
LINE
  5
1C3
100
AcDbEntity
  8
SLD-0_2
  6
PHANTOM
 62
       3
100
AcDbLine
 10
-66.23900224
 20
-169.41310827
 30
0.0
 11
-66.23900224
 21
-121.41310827
 31
0.0
  0
LINE
  5
1C4
100
AcDbEntity
  8
SLD-0_2
  6
PHANTOM
 62
       3
100
AcDbLine
 10
-10.23900224
 20
-121.41310827
 30
0.0
 11
-28.23900224
 21
-121.41310827
 31
0.0
  0
LINE
  5
1C5
100
AcDbEntity
  8
SLD-0_2
  6
PHANTOM
 62
       3
100
AcDbLine
 10
27.76099776
 20
-121.41310827
 30
0.0
 11
9.76099776
 21
-121.41310827
 31
0.0
  0
LINE
  5
1C6
100
AcDbEntity
  8
SLD-0_2
  6
PHANTOM
 62
       3
100
AcDbLine
 10
65.76099776
 20
-169.41310827
 30
0.0
 11
65.76099776
 21
-121.41310827
 31
0.0
  0
LINE
  5
1C7
100
AcDbEntity
  8
SLD-0_2
  6
PHANTOM
 62
       3
100
AcDbLine
 10
123.76099776
 20
-169.41310827
 30
0.0
 11
105.76099776
 21
-169.41310827
 31
0.0
  0
LINE
  5
1C8
100
AcDbEntity
  8
SLD-0_2
  6
PHANTOM
 62
       3
100
AcDbLine
 10
123.76099776
 20
-121.41310827
 30
0.0
 11
105.76099776
 21
-121.41310827
 31
0.0
  0
LINE
  5
1C9
100
AcDbEntity
  8
SLD-0_2
  6
PHANTOM
 62
       3
100
AcDbLine
 10
161.76099776
 20
-169.41310827
 30
0.0
 11
161.76099776
 21
-121.41310827
 31
0.0
  0
LINE
  5
1CA
100
AcDbEntity
  8
SLD-0_2
  6
PHANTOM
 62
       3
100
AcDbLine
 10
200.76099776
 20
-169.41310827
 30
0.0
 11
200.76099776
 21
-121.41310827
 31
0.0
  0
LINE
  5
1CB
100
AcDbEntity
  8
SLD-0_2
  6
PHANTOM
 62
       3
100
AcDbLine
 10
-68.56917808
 20
-290.13424772
 30
0.0
 11
-68.56917808
 21
-289.91349827
 31
0.0
  0
LINE
  5
1CC
100
AcDbEntity
  8
SLD-0_2
  6
PHANTOM
 62
       3
100
AcDbLine
 10
-47.23900224
 20
-169.41310827
 30
0.0
 11
-47.23900224
 21
-121.41310827
 31
0.0
  0
LINE
  5
1CD
100
AcDbEntity
  8
SLD-0_2
  6
PHANTOM
 62
       3
100
AcDbLine
 10
-29.23900224
 20
-169.41310827
 30
0.0
 11
-29.23900224
 21
-121.41310827
 31
0.0
  0
LINE
  5
1CE
100
AcDbEntity
  8
SLD-0_2
  6
PHANTOM
 62
       3
100
AcDbLine
 10
8.76099776
 20
-169.41310827
 30
0.0
 11
-9.23900224
 21
-169.41310827
 31
0.0
  0
LINE
  5
1CF
100
AcDbEntity
  8
SLD-0_2
  6
PHANTOM
 62
       3
100
AcDbLine
 10
46.76099776
 20
-121.41310827
 30
0.0
 11
28.76099776
 21
-121.41310827
 31
0.0
  0
LINE
  5
1D0
100
AcDbEntity
  8
SLD-0_2
  6
PHANTOM
 62
       3
100
AcDbLine
 10
142.76099776
 20
-121.41310827
 30
0.0
 11
124.76099776
 21
-121.41310827
 31
0.0
  0
LINE
  5
1D1
100
AcDbEntity
  8
SLD-0_2
  6
PHANTOM
 62
       3
100
AcDbLine
 10
218.76099776
 20
-290.11349827
 30
0.0
 11
200.76099776
 21
-290.11349827
 31
0.0
  0
LINE
  5
1D2
100
AcDbEntity
  8
SLD-0_2
  6
PHANTOM
 62
       3
100
AcDbLine
 10
-10.23900224
 20
-169.41310827
 30
0.0
 11
-10.23900224
 21
-121.41310827
 31
0.0
  0
LINE
  5
1D3
100
AcDbEntity
  8
SLD-0_2
  6
PHANTOM
 62
       3
100
AcDbLine
 10
180.76099776
 20
-169.41310827
 30
0.0
 11
162.76099776
 21
-169.41310827
 31
0.0
  0
LINE
  5
1D4
100
AcDbEntity
  8
SLD-0_2
  6
PHANTOM
 62
       3
100
AcDbLine
 10
-67.23900224
 20
-169.41310827
 30
0.0
 11
-85.23900224
 21
-169.41310827
 31
0.0
  0
LINE
  5
1D5
100
AcDbEntity
  8
SLD-0_2
  6
PHANTOM
 62
       3
100
AcDbLine
 10
9.76099776
 20
-169.41310827
 30
0.0
 11
9.76099776
 21
-121.41310827
 31
0.0
  0
LINE
  5
1D6
100
AcDbEntity
  8
SLD-0_2
  6
PHANTOM
 62
       3
100
AcDbLine
 10
104.76099776
 20
-169.41310827
 30
0.0
 11
104.76099776
 21
-121.41310827
 31
0.0
  0
LINE
  5
1D7
100
AcDbEntity
  8
SLD-0_2
  6
PHANTOM
 62
       3
100
AcDbLine
 10
180.76099776
 20
-121.41310827
 30
0.0
 11
162.76099776
 21
-121.41310827
 31
0.0
  0
LINE
  5
1D8
100
AcDbEntity
  8
SLD-0_2
  6
PHANTOM
 62
       3
100
AcDbLine
 10
-48.23900224
 20
-169.41310827
 30
0.0
 11
-66.23900224
 21
-169.41310827
 31
0.0
  0
LINE
  5
1D9
100
AcDbEntity
  8
SLD-0_2
  6
PHANTOM
 62
       3
100
AcDbLine
 10
27.76099776
 20
-169.41310827
 30
0.0
 11
27.76099776
 21
-121.41310827
 31
0.0
  0
LINE
  5
1DA
100
AcDbEntity
  8
SLD-0_2
  6
PHANTOM
 62
       3
100
AcDbLine
 10
199.76099776
 20
-169.41310827
 30
0.0
 11
181.76099776
 21
-169.41310827
 31
0.0
  0
LINE
  5
1DB
100
AcDbEntity
  8
SLD-0_2
  6
PHANTOM
 62
       3
100
AcDbLine
 10
28.76099776
 20
-169.41310827
 30
0.0
 11
28.76099776
 21
-121.41310827
 31
0.0
  0
LINE
  5
1DC
100
AcDbEntity
  8
SLD-0_2
  6
PHANTOM
 62
       3
100
AcDbLine
 10
199.76099776
 20
-121.41310827
 30
0.0
 11
181.76099776
 21
-121.41310827
 31
0.0
  0
LINE
  5
1DD
100
AcDbEntity
  8
SLD-0_2
  6
PHANTOM
 62
       3
100
AcDbLine
 10
46.76099776
 20
-169.41310827
 30
0.0
 11
46.76099776
 21
-121.41310827
 31
0.0
  0
LINE
  5
1DE
100
AcDbEntity
  8
SLD-0_2
  6
PHANTOM
 62
       3
100
AcDbLine
 10
218.76099776
 20
-169.41310827
 30
0.0
 11
200.76099776
 21
-169.41310827
 31
0.0
  0
LINE
  5
1DF
100
AcDbEntity
  8
SLD-0_2
  6
PHANTOM
 62
       3
100
AcDbLine
 10
217.43082192
 20
-290.13424772
 30
0.0
 11
217.43082192
 21
-289.91349827
 31
0.0
  0
LINE
  5
1E0
100
AcDbEntity
  8
SLD-0_2
  6
PHANTOM
 62
       3
100
AcDbLine
 10
218.76099776
 20
-290.11349827
 30
0.0
 11
218.76099776
 21
-359.41312556
 31
0.0
  0
LINE
  5
1E1
100
AcDbEntity
  8
SLD-0_2
  6
PHANTOM
 62
       3
100
AcDbLine
 10
47.76099776
 20
-169.41310827
 30
0.0
 11
47.76099776
 21
-121.41310827
 31
0.0
  0
LINE
  5
1E2
100
AcDbEntity
  8
SLD-0_2
  6
PHANTOM
 62
       3
100
AcDbLine
 10
161.76099776
 20
-121.41310827
 30
0.0
 11
143.76099776
 21
-121.41310827
 31
0.0
  0
LINE
  5
1E3
100
AcDbEntity
  8
SLD-0_2
  6
PHANTOM
 62
       3
100
AcDbLine
 10
162.76099776
 20
-169.41310827
 30
0.0
 11
162.76099776
 21
-121.41310827
 31
0.0
  0
LINE
  5
1E4
100
AcDbEntity
  8
SLD-0_2
  6
PHANTOM
 62
       3
100
AcDbLine
 10
180.76099776
 20
-169.41310827
 30
0.0
 11
180.76099776
 21
-121.41310827
 31
0.0
  0
LINE
  5
1E5
100
AcDbEntity
  8
SLD-0_2
  6
PHANTOM
 62
       3
100
AcDbLine
 10
-85.23900224
 20
-169.41310827
 30
0.0
 11
-85.23900224
 21
-121.41310827
 31
0.0
  0
LINE
  5
1E6
100
AcDbEntity
  8
SLD-0_2
  6
PHANTOM
 62
       3
100
AcDbLine
 10
8.76099776
 20
-169.41310827
 30
0.0
 11
8.76099776
 21
-121.41310827
 31
0.0
  0
LINE
  5
1E7
100
AcDbEntity
  8
SLD-0_2
  6
PHANTOM
 62
       3
100
AcDbLine
 10
8.76099776
 20
-121.41310827
 30
0.0
 11
-9.23900224
 21
-121.41310827
 31
0.0
  0
LINE
  5
1E8
100
AcDbEntity
  8
SLD-0_2
  6
PHANTOM
 62
       3
100
AcDbLine
 10
27.76099776
 20
-169.41310827
 30
0.0
 11
9.76099776
 21
-169.41310827
 31
0.0
  0
LINE
  5
1E9
100
AcDbEntity
  8
SLD-0_2
  6
PHANTOM
 62
       3
100
AcDbLine
 10
104.76099776
 20
-121.41310827
 30
0.0
 11
86.76099776
 21
-121.41310827
 31
0.0
  0
LINE
  5
1EA
100
AcDbEntity
  8
SLD-0_2
  6
PHANTOM
 62
       3
100
AcDbLine
 10
199.76099776
 20
-169.41310827
 30
0.0
 11
199.76099776
 21
-121.41310827
 31
0.0
  0
LINE
  5
1EB
100
AcDbEntity
  8
SLD-0_2
  6
PHANTOM
 62
       3
100
AcDbLine
 10
67.76099776
 20
-169.41310827
 30
0.0
 11
67.76099776
 21
-121.41310827
 31
0.0
  0
LINE
  5
1EC
100
AcDbEntity
  8
SLD-0_2
  6
PHANTOM
 62
       3
100
AcDbLine
 10
-70.06917808
 20
-288.41349827
 30
0.0
 11
-72.36683156
 21
-288.41349827
 31
0.0
  0
LINE
  5
1ED
100
AcDbEntity
  8
SLD-0_2
  6
PHANTOM
 62
       3
100
AcDbLine
 10
-48.23900224
 20
-169.41310827
 30
0.0
 11
-48.23900224
 21
-121.41310827
 31
0.0
  0
LINE
  5
1EE
100
AcDbEntity
  8
SLD-0_2
  6
PHANTOM
 62
       3
100
AcDbLine
 10
46.76099776
 20
-169.41310827
 30
0.0
 11
28.76099776
 21
-169.41310827
 31
0.0
  0
LINE
  5
1EF
100
AcDbEntity
  8
SLD-0_2
  6
PHANTOM
 62
       3
100
AcDbLine
 10
85.76099776
 20
-121.41310827
 30
0.0
 11
67.76099776
 21
-121.41310827
 31
0.0
  0
LINE
  5
1F0
100
AcDbEntity
  8
SLD-0_2
  6
PHANTOM
 62
       3
100
AcDbLine
 10
142.76099776
 20
-169.41310827
 30
0.0
 11
124.76099776
 21
-169.41310827
 31
0.0
  0
LINE
  5
1F1
100
AcDbEntity
  8
SLD-0_2
  6
PHANTOM
 62
       3
100
AcDbLine
 10
218.76099776
 20
-169.41310827
 30
0.0
 11
218.76099776
 21
-121.41310827
 31
0.0
  0
LINE
  5
1F2
100
AcDbEntity
  8
SLD-0_2
  6
PHANTOM
 62
       3
100
AcDbLine
 10
85.76099776
 20
-169.41310827
 30
0.0
 11
67.76099776
 21
-169.41310827
 31
0.0
  0
LINE
  5
1F3
100
AcDbEntity
  8
SLD-0_2
  6
PHANTOM
 62
       3
100
AcDbLine
 10
200.76099776
 20
-290.11349827
 30
0.0
 11
200.76099776
 21
-334.83193233
 31
0.0
  0
LINE
  5
1F4
100
AcDbEntity
  8
SLD-0_2
  6
PHANTOM
 62
       3
100
AcDbLine
 10
-28.23900224
 20
-169.41310827
 30
0.0
 11
-28.23900224
 21
-121.41310827
 31
0.0
  0
LINE
  5
1F5
100
AcDbEntity
  8
SLD-0_2
  6
PHANTOM
 62
       3
100
AcDbLine
 10
65.76099776
 20
-169.41310827
 30
0.0
 11
47.76099776
 21
-169.41310827
 31
0.0
  0
LINE
  5
1F6
100
AcDbEntity
  8
SLD-0_2
  6
PHANTOM
 62
       3
100
AcDbLine
 10
65.76099776
 20
-121.41310827
 30
0.0
 11
47.76099776
 21
-121.41310827
 31
0.0
  0
LINE
  5
1F7
100
AcDbEntity
  8
SLD-0_2
  6
PHANTOM
 62
       3
100
AcDbLine
 10
161.76099776
 20
-169.41310827
 30
0.0
 11
143.76099776
 21
-169.41310827
 31
0.0
  0
LINE
  5
1F8
100
AcDbEntity
  8
SLD-0_2
  6
PHANTOM
 62
       3
100
AcDbLine
 10
-9.23900224
 20
-169.41310827
 30
0.0
 11
-9.23900224
 21
-121.41310827
 31
0.0
  0
LINE
  5
1F9
100
AcDbEntity
  8
SLD-0_2
  6
PHANTOM
 62
       3
100
AcDbLine
 10
-67.23900224
 20
-169.41310827
 30
0.0
 11
-67.23900224
 21
-121.41310827
 31
0.0
  0
LINE
  5
1FA
100
AcDbEntity
  8
SLD-0_2
  6
PHANTOM
 62
       3
100
AcDbLine
 10
105.76099776
 20
-169.41310827
 30
0.0
 11
105.76099776
 21
-121.41310827
 31
0.0
  0
LINE
  5
1FB
100
AcDbEntity
  8
SLD-0_2
  6
PHANTOM
 62
       3
100
AcDbLine
 10
-85.23900224
 20
-290.11349827
 30
0.0
 11
-85.23900224
 21
-359.41312556
 31
0.0
  0
LINE
  5
1FC
100
AcDbEntity
  8
SLD-0_2
  6
PHANTOM
 62
       3
100
AcDbLine
 10
-48.23900224
 20
-121.41310827
 30
0.0
 11
-66.23900224
 21
-121.41310827
 31
0.0
  0
LINE
  5
1FD
100
AcDbEntity
  8
SLD-0_2
  6
PHANTOM
 62
       3
100
AcDbLine
 10
123.76099776
 20
-169.41310827
 30
0.0
 11
123.76099776
 21
-121.41310827
 31
0.0
  0
LINE
  5
1FE
100
AcDbEntity
  8
SLD-0_2
  6
PHANTOM
 62
       3
100
AcDbLine
 10
-67.23900224
 20
-290.11349827
 30
0.0
 11
-67.23900224
 21
-334.83193233
 31
0.0
  0
ARC
  5
1FF
100
AcDbEntity
  8
SLD-0_2
  6
PHANTOM
 62
       3
100
AcDbCircle
 10
-72.36683156
 20
-289.91349827
 30
0.0
 40
1.5
100
AcDbArc
 50
90.0
 51
180.0
  0
ARC
  5
200
100
AcDbEntity
  8
SLD-0_2
  6
PHANTOM
 62
       3
100
AcDbCircle
 10
-70.06917808
 20
-289.91349827
 30
0.0
 40
1.5
100
AcDbArc
 50
0.0
 51
90.0
  0
ARC
  5
201
100
AcDbEntity
  8
SLD-0_2
  6
PHANTOM
 62
       3
100
AcDbCircle
 10
215.93082192
 20
-289.91349827
 30
0.0
 40
1.5
100
AcDbArc
 50
0.0
 51
90.0
  0
ARC
  5
202
100
AcDbEntity
  8
SLD-0_2
  6
PHANTOM
 62
       3
100
AcDbCircle
 10
213.63316844
 20
-289.91349827
 30
0.0
 40
1.5
100
AcDbArc
 50
90.0
 51
180.0
  0
LINE
  5
203
100
AcDbEntity
  8
0
  6
CONTINUOUS
 62
       3
100
AcDbLine
 10
84.69962058
 20
-119.83144639
 30
0.0
 11
84.69962058
 21
-109.07825393
 31
0.0
  0
LINE
  5
204
100
AcDbEntity
  8
0
  6
CONTINUOUS
 62
       3
100
AcDbLine
 10
-76.04510272
 20
-119.83144639
 30
0.0
 11
-80.34982501
 21
-119.83144639
 31
0.0
  0
LINE
  5
205
100
AcDbEntity
  8
0
  6
CONTINUOUS
 62
       3
100
AcDbLine
 10
18.65687362
 20
-119.83144639
 30
0.0
 11
18.65687362
 21
-109.07825393
 31
0.0
  0
LINE
  5
206
100
AcDbEntity
  8
0
  6
CONTINUOUS
 62
       3
100
AcDbLine
 10
10.04934309
 20
-119.83144639
 30
0.0
 11
10.04934309
 21
-109.07825393
 31
0.0
  0
LINE
  5
207
100
AcDbEntity
  8
0
  6
CONTINUOUS
 62
       3
100
AcDbLine
 10
22.96159591
 20
-109.07825393
 30
0.0
 11
22.96159591
 21
-98.33080366
 31
0.0
  0
LINE
  5
208
100
AcDbEntity
  8
0
  6
CONTINUOUS
 62
       3
100
AcDbLine
 10
-80.34982501
 20
-98.33080366
 30
0.0
 11
-80.34982501
 21
-109.07825393
 31
0.0
  0
LINE
  5
209
100
AcDbEntity
  8
0
  6
CONTINUOUS
 62
       3
100
AcDbLine
 10
140.66101036
 20
-109.07825393
 30
0.0
 11
140.66101036
 21
-98.33080366
 31
0.0
  0
LINE
  5
20A
100
AcDbEntity
  8
0
  6
CONTINUOUS
 62
       3
100
AcDbLine
 10
61.70792464
 20
-98.33080366
 30
0.0
 11
61.70792464
 21
-109.07825393
 31
0.0
  0
LINE
  5
20B
100
AcDbEntity
  8
0
  6
CONTINUOUS
 62
       3
100
AcDbLine
 10
-32.99787981
 20
-119.83144639
 30
0.0
 11
-32.99787981
 21
-109.07825393
 31
0.0
  0
LINE
  5
20C
100
AcDbEntity
  8
0
  6
CONTINUOUS
 62
       3
100
AcDbLine
 10
61.70792464
 20
-119.83144639
 30
0.0
 11
61.70792464
 21
-109.07825393
 31
0.0
  0
LINE
  5
20D
100
AcDbEntity
  8
0
  6
CONTINUOUS
 62
       3
100
AcDbLine
 10
61.70792464
 20
-109.07825393
 30
0.0
 11
-76.04510272
 21
-109.07825393
 31
0.0
  0
LINE
  5
20E
100
AcDbEntity
  8
0
  6
CONTINUOUS
 62
       3
100
AcDbLine
 10
162.18653588
 20
-119.83144639
 30
0.0
 11
162.18653588
 21
-109.07825393
 31
0.0
  0
LINE
  5
20F
100
AcDbEntity
  8
0
  6
CONTINUOUS
 62
       3
100
AcDbLine
 10
101.91850974
 20
-119.83144639
 30
0.0
 11
101.91850974
 21
-109.07825393
 31
0.0
  0
LINE
  5
210
100
AcDbEntity
  8
0
  6
CONTINUOUS
 62
       3
100
AcDbLine
 10
106.22514609
 20
-109.07825393
 30
0.0
 11
106.22514609
 21
-98.33080366
 31
0.0
  0
LINE
  5
211
100
AcDbEntity
  8
0
  6
CONTINUOUS
 62
       3
100
AcDbLine
 10
1.43702742
 20
-119.83144639
 30
0.0
 11
1.43702742
 21
-109.07825393
 31
0.0
  0
LINE
  5
212
100
AcDbEntity
  8
0
  6
CONTINUOUS
 62
       3
100
AcDbLine
 10
40.18048507
 20
-109.07825393
 30
0.0
 11
40.18048507
 21
-98.33080366
 31
0.0
  0
LINE
  5
213
100
AcDbEntity
  8
0
  6
CONTINUOUS
 62
       3
100
AcDbLine
 10
196.6243142
 20
-119.83144639
 30
0.0
 11
196.6243142
 21
-109.07825393
 31
0.0
  0
LINE
  5
214
100
AcDbEntity
  8
0
  6
CONTINUOUS
 62
       3
100
AcDbLine
 10
179.40351098
 20
-119.83144639
 30
0.0
 11
179.40351098
 21
-109.07825393
 31
0.0
  0
LINE
  5
215
100
AcDbEntity
  8
0
  6
CONTINUOUS
 62
       3
100
AcDbLine
 10
136.35820213
 20
-119.83144639
 30
0.0
 11
136.35820213
 21
-109.07825393
 31
0.0
  0
LINE
  5
216
100
AcDbEntity
  8
0
  6
CONTINUOUS
 62
       3
100
AcDbLine
 10
213.84320337
 20
-119.83144639
 30
0.0
 11
213.84320337
 21
-109.07825393
 31
0.0
  0
LINE
  5
217
100
AcDbEntity
  8
0
  6
CONTINUOUS
 62
       3
100
AcDbLine
 10
123.4421212
 20
-109.07825393
 30
0.0
 11
123.4421212
 21
-98.33080366
 31
0.0
  0
LINE
  5
218
100
AcDbEntity
  8
0
  6
CONTINUOUS
 62
       3
100
AcDbLine
 10
80.39298423
 20
-109.07825393
 30
0.0
 11
80.39298423
 21
-98.33080366
 31
0.0
  0
LINE
  5
219
100
AcDbEntity
  8
0
  6
CONTINUOUS
 62
       3
100
AcDbLine
 10
53.096566
 20
-119.83144639
 30
0.0
 11
53.096566
 21
-109.07825393
 31
0.0
  0
LINE
  5
21A
100
AcDbEntity
  8
0
  6
CONTINUOUS
 62
       3
100
AcDbLine
 10
-63.13093585
 20
-109.07825393
 30
0.0
 11
-63.13093585
 21
-98.33080366
 31
0.0
  0
LINE
  5
21B
100
AcDbEntity
  8
0
  6
CONTINUOUS
 62
       3
100
AcDbLine
 10
76.09209006
 20
-109.07825393
 30
0.0
 11
76.09209006
 21
-119.83144639
 31
0.0
  0
LINE
  5
21C
100
AcDbEntity
  8
0
  6
CONTINUOUS
 62
       3
100
AcDbLine
 10
71.78545371
 20
-98.33080366
 30
0.0
 11
71.78545371
 21
-109.07825393
 31
0.0
  0
LINE
  5
21D
100
AcDbEntity
  8
0
  6
CONTINUOUS
 62
       3
100
AcDbLine
 10
57.40128829
 20
-109.07825393
 30
0.0
 11
57.40128829
 21
-98.33080366
 31
0.0
  0
LINE
  5
21E
100
AcDbEntity
  8
0
  6
CONTINUOUS
 62
       3
100
AcDbLine
 10
-67.43565814
 20
-119.83144639
 30
0.0
 11
-67.43565814
 21
-109.07825393
 31
0.0
  0
LINE
  5
21F
100
AcDbEntity
  8
0
  6
CONTINUOUS
 62
       3
100
AcDbLine
 10
5.74270674
 20
-109.07825393
 30
0.0
 11
5.74270674
 21
-98.33080366
 31
0.0
  0
LINE
  5
220
100
AcDbEntity
  8
0
  6
CONTINUOUS
 62
       3
100
AcDbLine
 10
110.52795433
 20
-119.83144639
 30
0.0
 11
110.52795433
 21
-109.07825393
 31
0.0
  0
LINE
  5
221
100
AcDbEntity
  8
0
  6
CONTINUOUS
 62
       3
100
AcDbLine
 10
27.26823226
 20
-119.83144639
 30
0.0
 11
27.26823226
 21
-109.07825393
 31
0.0
  0
LINE
  5
222
100
AcDbEntity
  8
0
  6
CONTINUOUS
 62
       3
100
AcDbLine
 10
-71.74133746
 20
-109.07825393
 30
0.0
 11
-71.74133746
 21
-98.33080366
 31
0.0
  0
LINE
  5
223
100
AcDbEntity
  8
0
  6
CONTINUOUS
 62
       3
100
AcDbLine
 10
192.31767785
 20
-109.07825393
 30
0.0
 11
192.31767785
 21
-98.33080366
 31
0.0
  0
LINE
  5
224
100
AcDbEntity
  8
0
  6
CONTINUOUS
 62
       3
100
AcDbLine
 10
-41.60828143
 20
-119.83144639
 30
0.0
 11
-41.60828143
 21
-109.07825393
 31
0.0
  0
LINE
  5
225
100
AcDbEntity
  8
0
  6
CONTINUOUS
 62
       3
100
AcDbLine
 10
213.84320337
 20
-98.33080366
 30
0.0
 11
213.84320337
 21
-109.07825393
 31
0.0
  0
LINE
  5
226
100
AcDbEntity
  8
0
  6
CONTINUOUS
 62
       3
100
AcDbLine
 10
166.49125817
 20
-109.07825393
 30
0.0
 11
166.49125817
 21
-98.33080366
 31
0.0
  0
LINE
  5
227
100
AcDbEntity
  8
0
  6
CONTINUOUS
 62
       3
100
AcDbLine
 10
170.79598046
 20
-119.83144639
 30
0.0
 11
170.79598046
 21
-109.07825393
 31
0.0
  0
LINE
  5
228
100
AcDbEntity
  8
0
  6
CONTINUOUS
 62
       3
100
AcDbLine
 10
157.88181359
 20
-109.07825393
 30
0.0
 11
157.88181359
 21
-98.33080366
 31
0.0
  0
LINE
  5
229
100
AcDbEntity
  8
0
  6
CONTINUOUS
 62
       3
100
AcDbLine
 10
149.272369
 20
-109.07825393
 30
0.0
 11
149.272369
 21
-98.33080366
 31
0.0
  0
LINE
  5
22A
100
AcDbEntity
  8
0
  6
CONTINUOUS
 62
       3
100
AcDbLine
 10
89.00625693
 20
-109.07825393
 30
0.0
 11
89.00625693
 21
-98.33080366
 31
0.0
  0
LINE
  5
22B
100
AcDbEntity
  8
0
  6
CONTINUOUS
 62
       3
100
AcDbLine
 10
71.78545371
 20
-109.07825393
 30
0.0
 11
209.53848108
 21
-109.07825393
 31
0.0
  0
LINE
  5
22C
100
AcDbEntity
  8
0
  6
CONTINUOUS
 62
       3
100
AcDbLine
 10
-7.16954607
 20
-119.83144639
 30
0.0
 11
-7.16954607
 21
-109.07825393
 31
0.0
  0
LINE
  5
22D
100
AcDbEntity
  8
0
  6
CONTINUOUS
 62
       3
100
AcDbLine
 10
31.57295455
 20
-109.07825393
 30
0.0
 11
31.57295455
 21
-98.33080366
 31
0.0
  0
LINE
  5
22E
100
AcDbEntity
  8
0
  6
CONTINUOUS
 62
       3
100
AcDbLine
 10
-11.47713945
 20
-109.07825393
 30
0.0
 11
-11.47713945
 21
-98.33080366
 31
0.0
  0
LINE
  5
22F
100
AcDbEntity
  8
0
  6
CONTINUOUS
 62
       3
100
AcDbLine
 10
-28.69602861
 20
-109.07825393
 30
0.0
 11
-28.69602861
 21
-98.33080366
 31
0.0
  0
LINE
  5
230
100
AcDbEntity
  8
0
  6
CONTINUOUS
 62
       3
100
AcDbLine
 10
-80.34982501
 20
-109.07825393
 30
0.0
 11
57.40128829
 21
-109.07825393
 31
0.0
  0
LINE
  5
231
100
AcDbEntity
  8
0
  6
CONTINUOUS
 62
       3
100
AcDbLine
 10
127.74875755
 20
-119.83144639
 30
0.0
 11
127.74875755
 21
-109.07825393
 31
0.0
  0
LINE
  5
232
100
AcDbEntity
  8
0
  6
CONTINUOUS
 62
       3
100
AcDbLine
 10
200.92520837
 20
-109.07825393
 30
0.0
 11
200.92520837
 21
-98.33080366
 31
0.0
  0
LINE
  5
233
100
AcDbEntity
  8
0
  6
CONTINUOUS
 62
       3
100
AcDbLine
 10
-15.77994768
 20
-119.83144639
 30
0.0
 11
-15.77994768
 21
-109.07825393
 31
0.0
  0
LINE
  5
234
100
AcDbEntity
  8
0
  6
CONTINUOUS
 62
       3
100
AcDbLine
 10
-50.21676898
 20
-119.83144639
 30
0.0
 11
-50.21676898
 21
-109.07825393
 31
0.0
  0
LINE
  5
235
100
AcDbEntity
  8
0
  6
CONTINUOUS
 62
       3
100
AcDbLine
 10
-2.86673784
 20
-109.07825393
 30
0.0
 11
-2.86673784
 21
-98.33080366
 31
0.0
  0
LINE
  5
236
100
AcDbEntity
  8
0
  6
CONTINUOUS
 62
       3
100
AcDbLine
 10
-45.91204669
 20
-109.07825393
 30
0.0
 11
-45.91204669
 21
-98.33080366
 31
0.0
  0
LINE
  5
237
100
AcDbEntity
  8
0
  6
CONTINUOUS
 62
       3
100
AcDbLine
 10
-54.5224483
 20
-109.07825393
 30
0.0
 11
-54.5224483
 21
-98.33080366
 31
0.0
  0
LINE
  5
238
100
AcDbEntity
  8
0
  6
CONTINUOUS
 62
       3
100
AcDbLine
 10
-76.04510272
 20
-109.07825393
 30
0.0
 11
-76.04510272
 21
-119.83144639
 31
0.0
  0
LINE
  5
239
100
AcDbEntity
  8
0
  6
CONTINUOUS
 62
       3
100
AcDbLine
 10
93.31289328
 20
-119.83144639
 30
0.0
 11
93.31289328
 21
-109.07825393
 31
0.0
  0
LINE
  5
23A
100
AcDbEntity
  8
0
  6
CONTINUOUS
 62
       3
100
AcDbLine
 10
-24.38939226
 20
-119.83144639
 30
0.0
 11
-24.38939226
 21
-109.07825393
 31
0.0
  0
LINE
  5
23B
100
AcDbEntity
  8
0
  6
CONTINUOUS
 62
       3
100
AcDbLine
 10
209.53848108
 20
-109.07825393
 30
0.0
 11
209.53848108
 21
-98.33080366
 31
0.0
  0
LINE
  5
23C
100
AcDbEntity
  8
0
  6
CONTINUOUS
 62
       3
100
AcDbLine
 10
119.13931297
 20
-119.83144639
 30
0.0
 11
119.13931297
 21
-109.07825393
 31
0.0
  0
LINE
  5
23D
100
AcDbEntity
  8
0
  6
CONTINUOUS
 62
       3
100
AcDbLine
 10
213.84320337
 20
-109.07825393
 30
0.0
 11
76.09209006
 21
-109.07825393
 31
0.0
  0
LINE
  5
23E
100
AcDbEntity
  8
0
  6
CONTINUOUS
 62
       3
100
AcDbLine
 10
97.61378745
 20
-109.07825393
 30
0.0
 11
97.61378745
 21
-98.33080366
 31
0.0
  0
LINE
  5
23F
100
AcDbEntity
  8
0
  6
CONTINUOUS
 62
       3
100
AcDbLine
 10
-80.34982501
 20
-119.83144639
 30
0.0
 11
-80.34982501
 21
-109.07825393
 31
0.0
  0
LINE
  5
240
100
AcDbEntity
  8
0
  6
CONTINUOUS
 62
       3
100
AcDbLine
 10
35.87767684
 20
-119.83144639
 30
0.0
 11
35.87767684
 21
-109.07825393
 31
0.0
  0
LINE
  5
241
100
AcDbEntity
  8
0
  6
CONTINUOUS
 62
       3
100
AcDbLine
 10
48.78992965
 20
-109.07825393
 30
0.0
 11
48.78992965
 21
-98.33080366
 31
0.0
  0
LINE
  5
242
100
AcDbEntity
  8
0
  6
CONTINUOUS
 62
       3
100
AcDbLine
 10
144.96764671
 20
-119.83144639
 30
0.0
 11
144.96764671
 21
-109.07825393
 31
0.0
  0
LINE
  5
243
100
AcDbEntity
  8
0
  6
CONTINUOUS
 62
       3
100
AcDbLine
 10
175.09878869
 20
-109.07825393
 30
0.0
 11
175.09878869
 21
-98.33080366
 31
0.0
  0
LINE
  5
244
100
AcDbEntity
  8
0
  6
CONTINUOUS
 62
       3
100
AcDbLine
 10
-76.04510272
 20
-119.83144639
 30
0.0
 11
61.70792464
 21
-119.83144639
 31
0.0
  0
LINE
  5
245
100
AcDbEntity
  8
0
  6
CONTINUOUS
 62
       3
100
AcDbLine
 10
-37.30451617
 20
-109.07825393
 30
0.0
 11
-37.30451617
 21
-98.33080366
 31
0.0
  0
LINE
  5
246
100
AcDbEntity
  8
0
  6
CONTINUOUS
 62
       3
100
AcDbLine
 10
71.78545371
 20
-119.83144639
 30
0.0
 11
71.78545371
 21
-109.07825393
 31
0.0
  0
LINE
  5
247
100
AcDbEntity
  8
0
  6
CONTINUOUS
 62
       3
100
AcDbLine
 10
76.09209006
 20
-119.83144639
 30
0.0
 11
213.84320337
 21
-119.83144639
 31
0.0
  0
LINE
  5
248
100
AcDbEntity
  8
0
  6
CONTINUOUS
 62
       3
100
AcDbLine
 10
183.70823327
 20
-109.07825393
 30
0.0
 11
183.70823327
 21
-98.33080366
 31
0.0
  0
LINE
  5
249
100
AcDbEntity
  8
0
  6
CONTINUOUS
 62
       3
100
AcDbLine
 10
114.83459068
 20
-109.07825393
 30
0.0
 11
114.83459068
 21
-98.33080366
 31
0.0
  0
LINE
  5
24A
100
AcDbEntity
  8
0
  6
CONTINUOUS
 62
       3
100
AcDbLine
 10
76.09209006
 20
-119.83144639
 30
0.0
 11
71.78545371
 21
-119.83144639
 31
0.0
  0
LINE
  5
24B
100
AcDbEntity
  8
0
  6
CONTINUOUS
 62
       3
100
AcDbLine
 10
205.23375878
 20
-119.83144639
 30
0.0
 11
205.23375878
 21
-109.07825393
 31
0.0
  0
LINE
  5
24C
100
AcDbEntity
  8
0
  6
CONTINUOUS
 62
       3
100
AcDbLine
 10
188.01295556
 20
-119.83144639
 30
0.0
 11
188.01295556
 21
-109.07825393
 31
0.0
  0
LINE
  5
24D
100
AcDbEntity
  8
0
  6
CONTINUOUS
 62
       3
100
AcDbLine
 10
153.57709129
 20
-119.83144639
 30
0.0
 11
153.57709129
 21
-109.07825393
 31
0.0
  0
LINE
  5
24E
100
AcDbEntity
  8
0
  6
CONTINUOUS
 62
       3
100
AcDbLine
 10
132.05156578
 20
-109.07825393
 30
0.0
 11
132.05156578
 21
-98.33080366
 31
0.0
  0
LINE
  5
24F
100
AcDbEntity
  8
0
  6
CONTINUOUS
 62
       3
100
AcDbLine
 10
44.48903548
 20
-119.83144639
 30
0.0
 11
44.48903548
 21
-109.07825393
 31
0.0
  0
LINE
  5
250
100
AcDbEntity
  8
0
  6
CONTINUOUS
 62
       3
100
AcDbLine
 10
-58.82717059
 20
-119.83144639
 30
0.0
 11
-58.82717059
 21
-109.07825393
 31
0.0
  0
LINE
  5
251
100
AcDbEntity
  8
0
  6
CONTINUOUS
 62
       3
100
AcDbLine
 10
14.35406538
 20
-109.07825393
 30
0.0
 11
14.35406538
 21
-98.33080366
 31
0.0
  0
LINE
  5
252
100
AcDbEntity
  8
0
  6
CONTINUOUS
 62
       3
100
AcDbLine
 10
-20.085627
 20
-109.07825393
 30
0.0
 11
-20.085627
 21
-98.33080366
 31
0.0
  0
LINE
  5
253
100
AcDbEntity
  8
0
  6
CONTINUOUS
 62
       3
100
AcDbLine
 10
80.39298423
 20
346.11921171
 30
0.0
 11
80.39298423
 21
356.86666198
 31
0.0
  0
LINE
  5
254
100
AcDbEntity
  8
0
  6
CONTINUOUS
 62
       3
100
AcDbLine
 10
-71.74133746
 20
346.11921171
 30
0.0
 11
-71.74133746
 21
356.86666198
 31
0.0
  0
LINE
  5
255
100
AcDbEntity
  8
0
  6
CONTINUOUS
 62
       3
100
AcDbLine
 10
89.00625693
 20
346.11921171
 30
0.0
 11
89.00625693
 21
356.86666198
 31
0.0
  0
LINE
  5
256
100
AcDbEntity
  8
0
  6
CONTINUOUS
 62
       3
100
AcDbLine
 10
-50.21676898
 20
335.36601925
 30
0.0
 11
-50.21676898
 21
346.11921171
 31
0.0
  0
LINE
  5
257
100
AcDbEntity
  8
0
  6
CONTINUOUS
 62
       3
100
AcDbLine
 10
144.96764671
 20
335.36601925
 30
0.0
 11
144.96764671
 21
346.11921171
 31
0.0
  0
LINE
  5
258
100
AcDbEntity
  8
0
  6
CONTINUOUS
 62
       3
100
AcDbLine
 10
44.48903548
 20
335.36601925
 30
0.0
 11
44.48903548
 21
346.11921171
 31
0.0
  0
LINE
  5
259
100
AcDbEntity
  8
0
  6
CONTINUOUS
 62
       3
100
AcDbLine
 10
10.04934309
 20
335.36601925
 30
0.0
 11
10.04934309
 21
346.11921171
 31
0.0
  0
LINE
  5
25A
100
AcDbEntity
  8
0
  6
CONTINUOUS
 62
       3
100
AcDbLine
 10
106.22514609
 20
346.11921171
 30
0.0
 11
106.22514609
 21
356.86666198
 31
0.0
  0
LINE
  5
25B
100
AcDbEntity
  8
0
  6
CONTINUOUS
 62
       3
100
AcDbLine
 10
40.18048507
 20
346.11921171
 30
0.0
 11
40.18048507
 21
356.86666198
 31
0.0
  0
LINE
  5
25C
100
AcDbEntity
  8
0
  6
CONTINUOUS
 62
       3
100
AcDbLine
 10
71.78545371
 20
356.86666198
 30
0.0
 11
71.78545371
 21
346.11921171
 31
0.0
  0
LINE
  5
25D
100
AcDbEntity
  8
0
  6
CONTINUOUS
 62
       3
100
AcDbLine
 10
127.74875755
 20
335.36601925
 30
0.0
 11
127.74875755
 21
346.11921171
 31
0.0
  0
LINE
  5
25E
100
AcDbEntity
  8
0
  6
CONTINUOUS
 62
       3
100
AcDbLine
 10
-45.91204669
 20
346.11921171
 30
0.0
 11
-45.91204669
 21
356.86666198
 31
0.0
  0
LINE
  5
25F
100
AcDbEntity
  8
0
  6
CONTINUOUS
 62
       3
100
AcDbLine
 10
48.78992965
 20
346.11921171
 30
0.0
 11
48.78992965
 21
356.86666198
 31
0.0
  0
LINE
  5
260
100
AcDbEntity
  8
0
  6
CONTINUOUS
 62
       3
100
AcDbLine
 10
114.83459068
 20
346.11921171
 30
0.0
 11
114.83459068
 21
356.86666198
 31
0.0
  0
LINE
  5
261
100
AcDbEntity
  8
0
  6
CONTINUOUS
 62
       3
100
AcDbLine
 10
205.23375878
 20
335.36601925
 30
0.0
 11
205.23375878
 21
346.11921171
 31
0.0
  0
LINE
  5
262
100
AcDbEntity
  8
0
  6
CONTINUOUS
 62
       3
100
AcDbLine
 10
-20.085627
 20
346.11921171
 30
0.0
 11
-20.085627
 21
356.86666198
 31
0.0
  0
LINE
  5
263
100
AcDbEntity
  8
0
  6
CONTINUOUS
 62
       3
100
AcDbLine
 10
196.6243142
 20
335.36601925
 30
0.0
 11
196.6243142
 21
346.11921171
 31
0.0
  0
LINE
  5
264
100
AcDbEntity
  8
0
  6
CONTINUOUS
 62
       3
100
AcDbLine
 10
53.096566
 20
335.36601925
 30
0.0
 11
53.096566
 21
346.11921171
 31
0.0
  0
LINE
  5
265
100
AcDbEntity
  8
0
  6
CONTINUOUS
 62
       3
100
AcDbLine
 10
153.57709129
 20
335.36601925
 30
0.0
 11
153.57709129
 21
346.11921171
 31
0.0
  0
LINE
  5
266
100
AcDbEntity
  8
0
  6
CONTINUOUS
 62
       3
100
AcDbLine
 10
14.35406538
 20
346.11921171
 30
0.0
 11
14.35406538
 21
356.86666198
 31
0.0
  0
LINE
  5
267
100
AcDbEntity
  8
0
  6
CONTINUOUS
 62
       3
100
AcDbLine
 10
-76.04510272
 20
335.36601925
 30
0.0
 11
-80.34982501
 21
335.36601925
 31
0.0
  0
LINE
  5
268
100
AcDbEntity
  8
0
  6
CONTINUOUS
 62
       3
100
AcDbLine
 10
213.84320337
 20
335.36601925
 30
0.0
 11
213.84320337
 21
346.11921171
 31
0.0
  0
LINE
  5
269
100
AcDbEntity
  8
0
  6
CONTINUOUS
 62
       3
100
AcDbLine
 10
76.09209006
 20
346.11921171
 30
0.0
 11
76.09209006
 21
335.36601925
 31
0.0
  0
LINE
  5
26A
100
AcDbEntity
  8
0
  6
CONTINUOUS
 62
       3
100
AcDbLine
 10
-7.16954607
 20
335.36601925
 30
0.0
 11
-7.16954607
 21
346.11921171
 31
0.0
  0
LINE
  5
26B
100
AcDbEntity
  8
0
  6
CONTINUOUS
 62
       3
100
AcDbLine
 10
71.78545371
 20
335.36601925
 30
0.0
 11
71.78545371
 21
346.11921171
 31
0.0
  0
LINE
  5
26C
100
AcDbEntity
  8
0
  6
CONTINUOUS
 62
       3
100
AcDbLine
 10
22.96159591
 20
346.11921171
 30
0.0
 11
22.96159591
 21
356.86666198
 31
0.0
  0
LINE
  5
26D
100
AcDbEntity
  8
0
  6
CONTINUOUS
 62
       3
100
AcDbLine
 10
101.91850974
 20
335.36601925
 30
0.0
 11
101.91850974
 21
346.11921171
 31
0.0
  0
LINE
  5
26E
100
AcDbEntity
  8
0
  6
CONTINUOUS
 62
       3
100
AcDbLine
 10
149.272369
 20
346.11921171
 30
0.0
 11
149.272369
 21
356.86666198
 31
0.0
  0
LINE
  5
26F
100
AcDbEntity
  8
0
  6
CONTINUOUS
 62
       3
100
AcDbLine
 10
71.78545371
 20
346.11921171
 30
0.0
 11
209.53848108
 21
346.11921171
 31
0.0
  0
LINE
  5
270
100
AcDbEntity
  8
0
  6
CONTINUOUS
 62
       3
100
AcDbLine
 10
-2.86673784
 20
346.11921171
 30
0.0
 11
-2.86673784
 21
356.86666198
 31
0.0
  0
LINE
  5
271
100
AcDbEntity
  8
0
  6
CONTINUOUS
 62
       3
100
AcDbLine
 10
18.65687362
 20
335.36601925
 30
0.0
 11
18.65687362
 21
346.11921171
 31
0.0
  0
LINE
  5
272
100
AcDbEntity
  8
0
  6
CONTINUOUS
 62
       3
100
AcDbLine
 10
-80.34982501
 20
356.86666198
 30
0.0
 11
-80.34982501
 21
346.11921171
 31
0.0
  0
LINE
  5
273
100
AcDbEntity
  8
0
  6
CONTINUOUS
 62
       3
100
AcDbLine
 10
27.26823226
 20
335.36601925
 30
0.0
 11
27.26823226
 21
346.11921171
 31
0.0
  0
LINE
  5
274
100
AcDbEntity
  8
0
  6
CONTINUOUS
 62
       3
100
AcDbLine
 10
213.84320337
 20
356.86666198
 30
0.0
 11
213.84320337
 21
346.11921171
 31
0.0
  0
LINE
  5
275
100
AcDbEntity
  8
0
  6
CONTINUOUS
 62
       3
100
AcDbLine
 10
-37.30451617
 20
346.11921171
 30
0.0
 11
-37.30451617
 21
356.86666198
 31
0.0
  0
LINE
  5
276
100
AcDbEntity
  8
0
  6
CONTINUOUS
 62
       3
100
AcDbLine
 10
-80.34982501
 20
346.11921171
 30
0.0
 11
57.40128829
 21
346.11921171
 31
0.0
  0
LINE
  5
277
100
AcDbEntity
  8
0
  6
CONTINUOUS
 62
       3
100
AcDbLine
 10
209.53848108
 20
346.11921171
 30
0.0
 11
209.53848108
 21
356.86666198
 31
0.0
  0
LINE
  5
278
100
AcDbEntity
  8
0
  6
CONTINUOUS
 62
       3
100
AcDbLine
 10
213.84320337
 20
346.11921171
 30
0.0
 11
76.09209006
 21
346.11921171
 31
0.0
  0
LINE
  5
279
100
AcDbEntity
  8
0
  6
CONTINUOUS
 62
       3
100
AcDbLine
 10
97.61378745
 20
346.11921171
 30
0.0
 11
97.61378745
 21
356.86666198
 31
0.0
  0
LINE
  5
27A
100
AcDbEntity
  8
0
  6
CONTINUOUS
 62
       3
100
AcDbLine
 10
175.09878869
 20
346.11921171
 30
0.0
 11
175.09878869
 21
356.86666198
 31
0.0
  0
LINE
  5
27B
100
AcDbEntity
  8
0
  6
CONTINUOUS
 62
       3
100
AcDbLine
 10
188.01295556
 20
335.36601925
 30
0.0
 11
188.01295556
 21
346.11921171
 31
0.0
  0
LINE
  5
27C
100
AcDbEntity
  8
0
  6
CONTINUOUS
 62
       3
100
AcDbLine
 10
-32.99787981
 20
335.36601925
 30
0.0
 11
-32.99787981
 21
346.11921171
 31
0.0
  0
LINE
  5
27D
100
AcDbEntity
  8
0
  6
CONTINUOUS
 62
       3
100
AcDbLine
 10
170.79598046
 20
335.36601925
 30
0.0
 11
170.79598046
 21
346.11921171
 31
0.0
  0
LINE
  5
27E
100
AcDbEntity
  8
0
  6
CONTINUOUS
 62
       3
100
AcDbLine
 10
31.57295455
 20
346.11921171
 30
0.0
 11
31.57295455
 21
356.86666198
 31
0.0
  0
LINE
  5
27F
100
AcDbEntity
  8
0
  6
CONTINUOUS
 62
       3
100
AcDbLine
 10
61.70792464
 20
346.11921171
 30
0.0
 11
-76.04510272
 21
346.11921171
 31
0.0
  0
LINE
  5
280
100
AcDbEntity
  8
0
  6
CONTINUOUS
 62
       3
100
AcDbLine
 10
5.74270674
 20
346.11921171
 30
0.0
 11
5.74270674
 21
356.86666198
 31
0.0
  0
LINE
  5
281
100
AcDbEntity
  8
0
  6
CONTINUOUS
 62
       3
100
AcDbLine
 10
-58.82717059
 20
335.36601925
 30
0.0
 11
-58.82717059
 21
346.11921171
 31
0.0
  0
LINE
  5
282
100
AcDbEntity
  8
0
  6
CONTINUOUS
 62
       3
100
AcDbLine
 10
123.4421212
 20
346.11921171
 30
0.0
 11
123.4421212
 21
356.86666198
 31
0.0
  0
LINE
  5
283
100
AcDbEntity
  8
0
  6
CONTINUOUS
 62
       3
100
AcDbLine
 10
-15.77994768
 20
335.36601925
 30
0.0
 11
-15.77994768
 21
346.11921171
 31
0.0
  0
LINE
  5
284
100
AcDbEntity
  8
0
  6
CONTINUOUS
 62
       3
100
AcDbLine
 10
35.87767684
 20
335.36601925
 30
0.0
 11
35.87767684
 21
346.11921171
 31
0.0
  0
LINE
  5
285
100
AcDbEntity
  8
0
  6
CONTINUOUS
 62
       3
100
AcDbLine
 10
84.69962058
 20
335.36601925
 30
0.0
 11
84.69962058
 21
346.11921171
 31
0.0
  0
LINE
  5
286
100
AcDbEntity
  8
0
  6
CONTINUOUS
 62
       3
100
AcDbLine
 10
61.70792464
 20
356.86666198
 30
0.0
 11
61.70792464
 21
346.11921171
 31
0.0
  0
LINE
  5
287
100
AcDbEntity
  8
0
  6
CONTINUOUS
 62
       3
100
AcDbLine
 10
179.40351098
 20
335.36601925
 30
0.0
 11
179.40351098
 21
346.11921171
 31
0.0
  0
LINE
  5
288
100
AcDbEntity
  8
0
  6
CONTINUOUS
 62
       3
100
AcDbLine
 10
192.31767785
 20
346.11921171
 30
0.0
 11
192.31767785
 21
356.86666198
 31
0.0
  0
LINE
  5
289
100
AcDbEntity
  8
0
  6
CONTINUOUS
 62
       3
100
AcDbLine
 10
-54.5224483
 20
346.11921171
 30
0.0
 11
-54.5224483
 21
356.86666198
 31
0.0
  0
LINE
  5
28A
100
AcDbEntity
  8
0
  6
CONTINUOUS
 62
       3
100
AcDbLine
 10
-80.34982501
 20
335.36601925
 30
0.0
 11
-80.34982501
 21
346.11921171
 31
0.0
  0
LINE
  5
28B
100
AcDbEntity
  8
0
  6
CONTINUOUS
 62
       3
100
AcDbLine
 10
-76.04510272
 20
335.36601925
 30
0.0
 11
61.70792464
 21
335.36601925
 31
0.0
  0
LINE
  5
28C
100
AcDbEntity
  8
0
  6
CONTINUOUS
 62
       3
100
AcDbLine
 10
183.70823327
 20
346.11921171
 30
0.0
 11
183.70823327
 21
356.86666198
 31
0.0
  0
LINE
  5
28D
100
AcDbEntity
  8
0
  6
CONTINUOUS
 62
       3
100
AcDbLine
 10
132.05156578
 20
346.11921171
 30
0.0
 11
132.05156578
 21
356.86666198
 31
0.0
  0
LINE
  5
28E
100
AcDbEntity
  8
0
  6
CONTINUOUS
 62
       3
100
AcDbLine
 10
57.40128829
 20
346.11921171
 30
0.0
 11
57.40128829
 21
356.86666198
 31
0.0
  0
LINE
  5
28F
100
AcDbEntity
  8
0
  6
CONTINUOUS
 62
       3
100
AcDbLine
 10
110.52795433
 20
335.36601925
 30
0.0
 11
110.52795433
 21
346.11921171
 31
0.0
  0
LINE
  5
290
100
AcDbEntity
  8
0
  6
CONTINUOUS
 62
       3
100
AcDbLine
 10
-41.60828143
 20
335.36601925
 30
0.0
 11
-41.60828143
 21
346.11921171
 31
0.0
  0
LINE
  5
291
100
AcDbEntity
  8
0
  6
CONTINUOUS
 62
       3
100
AcDbLine
 10
166.49125817
 20
346.11921171
 30
0.0
 11
166.49125817
 21
356.86666198
 31
0.0
  0
LINE
  5
292
100
AcDbEntity
  8
0
  6
CONTINUOUS
 62
       3
100
AcDbLine
 10
-76.04510272
 20
346.11921171
 30
0.0
 11
-76.04510272
 21
335.36601925
 31
0.0
  0
LINE
  5
293
100
AcDbEntity
  8
0
  6
CONTINUOUS
 62
       3
100
AcDbLine
 10
93.31289328
 20
335.36601925
 30
0.0
 11
93.31289328
 21
346.11921171
 31
0.0
  0
LINE
  5
294
100
AcDbEntity
  8
0
  6
CONTINUOUS
 62
       3
100
AcDbLine
 10
-24.38939226
 20
335.36601925
 30
0.0
 11
-24.38939226
 21
346.11921171
 31
0.0
  0
LINE
  5
295
100
AcDbEntity
  8
0
  6
CONTINUOUS
 62
       3
100
AcDbLine
 10
140.66101036
 20
346.11921171
 30
0.0
 11
140.66101036
 21
356.86666198
 31
0.0
  0
LINE
  5
296
100
AcDbEntity
  8
0
  6
CONTINUOUS
 62
       3
100
AcDbLine
 10
61.70792464
 20
335.36601925
 30
0.0
 11
61.70792464
 21
346.11921171
 31
0.0
  0
LINE
  5
297
100
AcDbEntity
  8
0
  6
CONTINUOUS
 62
       3
100
AcDbLine
 10
1.43702742
 20
335.36601925
 30
0.0
 11
1.43702742
 21
346.11921171
 31
0.0
  0
LINE
  5
298
100
AcDbEntity
  8
0
  6
CONTINUOUS
 62
       3
100
AcDbLine
 10
-11.47713945
 20
346.11921171
 30
0.0
 11
-11.47713945
 21
356.86666198
 31
0.0
  0
LINE
  5
299
100
AcDbEntity
  8
0
  6
CONTINUOUS
 62
       3
100
AcDbLine
 10
-28.69602861
 20
346.11921171
 30
0.0
 11
-28.69602861
 21
356.86666198
 31
0.0
  0
LINE
  5
29A
100
AcDbEntity
  8
0
  6
CONTINUOUS
 62
       3
100
AcDbLine
 10
119.13931297
 20
335.36601925
 30
0.0
 11
119.13931297
 21
346.11921171
 31
0.0
  0
LINE
  5
29B
100
AcDbEntity
  8
0
  6
CONTINUOUS
 62
       3
100
AcDbLine
 10
76.09209006
 20
335.36601925
 30
0.0
 11
213.84320337
 21
335.36601925
 31
0.0
  0
LINE
  5
29C
100
AcDbEntity
  8
0
  6
CONTINUOUS
 62
       3
100
AcDbLine
 10
76.09209006
 20
335.36601925
 30
0.0
 11
71.78545371
 21
335.36601925
 31
0.0
  0
LINE
  5
29D
100
AcDbEntity
  8
0
  6
CONTINUOUS
 62
       3
100
AcDbLine
 10
162.18653588
 20
335.36601925
 30
0.0
 11
162.18653588
 21
346.11921171
 31
0.0
  0
LINE
  5
29E
100
AcDbEntity
  8
0
  6
CONTINUOUS
 62
       3
100
AcDbLine
 10
136.35820213
 20
335.36601925
 30
0.0
 11
136.35820213
 21
346.11921171
 31
0.0
  0
LINE
  5
29F
100
AcDbEntity
  8
0
  6
CONTINUOUS
 62
       3
100
AcDbLine
 10
-63.13093585
 20
346.11921171
 30
0.0
 11
-63.13093585
 21
356.86666198
 31
0.0
  0
LINE
  5
2A0
100
AcDbEntity
  8
0
  6
CONTINUOUS
 62
       3
100
AcDbLine
 10
-67.43565814
 20
335.36601925
 30
0.0
 11
-67.43565814
 21
346.11921171
 31
0.0
  0
LINE
  5
2A1
100
AcDbEntity
  8
0
  6
CONTINUOUS
 62
       3
100
AcDbLine
 10
157.88181359
 20
346.11921171
 30
0.0
 11
157.88181359
 21
356.86666198
 31
0.0
  0
LINE
  5
2A2
100
AcDbEntity
  8
0
  6
CONTINUOUS
 62
       3
100
AcDbLine
 10
200.92520837
 20
346.11921171
 30
0.0
 11
200.92520837
 21
356.86666198
 31
0.0
  0
LINE
  5
2A3
100
AcDbEntity
  8
0
  6
CONTINUOUS
 62
       3
100
AcDbLine
 10
-12.49694099
 20
244.80206291
 30
0.0
 11
-27.49513709
 21
244.80206291
 31
0.0
  0
LINE
  5
2A4
100
AcDbEntity
  8
0
  6
CONTINUOUS
 62
       3
100
AcDbLine
 10
220.43680151
 20
340.84640705
 30
0.0
 11
220.59775184
 21
340.6735944
 31
0.0
  0
LINE
  5
2A5
100
AcDbEntity
  8
0
  6
CONTINUOUS
 62
       3
100
AcDbLine
 10
224.75265175
 20
343.13718192
 30
0.0
 11
224.67640489
 21
343.36629142
 31
0.0
  0
LINE
  5
2A6
100
AcDbEntity
  8
0
  6
CONTINUOUS
 62
       3
100
AcDbLine
 10
-11.9745304
 20
245.33643011
 30
0.0
 11
-12.02439266
 21
245.33622307
 31
0.0
  0
LINE
  5
2A7
100
AcDbEntity
  8
0
  6
CONTINUOUS
 62
       3
100
AcDbLine
 10
-67.22652489
 20
95.86540593
 30
0.0
 11
-67.22652489
 21
108.11445629
 31
0.0
  0
LINE
  5
2A8
100
AcDbEntity
  8
0
  6
CONTINUOUS
 62
       3
100
AcDbLine
 10
-12.13335254
 20
245.39611348
 30
0.0
 11
-12.15778271
 21
245.4280227
 31
0.0
  0
LINE
  5
2A9
100
AcDbEntity
  8
0
  6
CONTINUOUS
 62
       3
100
AcDbLine
 10
93.29906359
 20
95.86540593
 30
0.0
 11
93.29906359
 21
108.11445629
 31
0.0
  0
LINE
  5
2AA
100
AcDbEntity
  8
0
  6
CONTINUOUS
 62
       3
100
AcDbLine
 10
61.79079323
 20
261.78434576
 30
0.0
 11
61.79079323
 21
272.53367785
 31
0.0
  0
LINE
  5
2AB
100
AcDbEntity
  8
0
  6
CONTINUOUS
 62
       3
100
AcDbLine
 10
175.24853423
 20
120.36553331
 30
0.0
 11
175.24853423
 21
108.11445629
 31
0.0
  0
LINE
  5
2AC
100
AcDbEntity
  8
0
  6
CONTINUOUS
 62
       3
100
AcDbLine
 10
-74.52751827
 20
95.86540593
 30
0.0
 11
-80.27610056
 21
95.86540593
 31
0.0
  0
LINE
  5
2AD
100
AcDbEntity
  8
0
  6
CONTINUOUS
 62
       3
100
AcDbLine
 10
224.46230296
 20
343.79200533
 30
0.0
 11
224.32683961
 21
343.98621234
 31
0.0
  0
LINE
  5
2AE
100
AcDbEntity
  8
0
  6
CONTINUOUS
 62
       3
100
AcDbLine
 10
94.49883821
 20
108.11445629
 30
0.0
 11
94.49883821
 21
95.86540593
 31
0.0
  0
LINE
  5
2AF
100
AcDbEntity
  8
0
  6
CONTINUOUS
 62
       3
100
AcDbLine
 10
-12.10330797
 20
245.36853218
 30
0.0
 11
-12.13335254
 21
245.39611348
 31
0.0
  0
LINE
  5
2B0
100
AcDbEntity
  8
0
  6
CONTINUOUS
 62
       3
100
AcDbLine
 10
119.99810222
 20
108.11445629
 30
0.0
 11
119.99810222
 21
95.86540593
 31
0.0
  0
LINE
  5
2B1
100
AcDbEntity
  8
0
  6
CONTINUOUS
 62
       3
100
AcDbLine
 10
-12.15778271
 20
245.4280227
 30
0.0
 11
-12.17709425
 21
245.46179242
 31
0.0
  0
LINE
  5
2B2
100
AcDbEntity
  8
0
  6
CONTINUOUS
 62
       3
100
AcDbLine
 10
77.50034219
 20
101.80753294
 30
0.0
 11
212.26218932
 21
101.80753294
 31
0.0
  0
LINE
  5
2B3
100
AcDbEntity
  8
0
  6
CONTINUOUS
 62
       3
100
AcDbLine
 10
-9.45899816
 20
261.88973137
 30
0.0
 11
-9.45899816
 21
251.43223635
 31
0.0
  0
LINE
  5
2B4
100
AcDbEntity
  8
0
  6
CONTINUOUS
 62
       3
100
AcDbLine
 10
-7.7282422
 20
95.86540593
 30
0.0
 11
-7.7282422
 21
108.11445629
 31
0.0
  0
LINE
  5
2B5
100
AcDbEntity
  8
0
  6
CONTINUOUS
 62
       3
100
AcDbLine
 10
71.7517599
 20
120.36553331
 30
0.0
 11
71.7517599
 21
108.11445629
 31
0.0
  0
LINE
  5
2B6
100
AcDbEntity
  8
0
  6
CONTINUOUS
 62
       3
100
AcDbLine
 10
-57.52598228
 20
108.11445629
 30
0.0
 11
-57.52598228
 21
95.86540593
 31
0.0
  0
LINE
  5
2B7
100
AcDbEntity
  8
0
  6
CONTINUOUS
 62
       3
100
AcDbLine
 10
278.76099776
 20
81.78396737
 30
0.0
 11
278.76099776
 21
79.78396737
 31
0.0
  0
LINE
  5
2B8
100
AcDbEntity
  8
0
  6
CONTINUOUS
 62
       3
100
AcDbLine
 10
-71.47842888
 20
108.11445629
 30
0.0
 11
-71.47842888
 21
120.36553331
 31
0.0
  0
LINE
  5
2B9
100
AcDbEntity
  8
0
  6
CONTINUOUS
 62
       3
100
AcDbLine
 10
110.30059957
 20
95.86540593
 30
0.0
 11
110.30059957
 21
108.11445629
 31
0.0
  0
LINE
  5
2BA
100
AcDbEntity
  8
0
  6
CONTINUOUS
 62
       3
100
AcDbLine
 10
115.75025153
 20
120.36553331
 30
0.0
 11
115.75025153
 21
108.11445629
 31
0.0
  0
LINE
  5
2BB
100
AcDbEntity
  8
0
  6
CONTINUOUS
 62
       3
100
AcDbLine
 10
-20.47888753
 20
108.11445629
 30
0.0
 11
-20.47888753
 21
120.36553331
 31
0.0
  0
LINE
  5
2BC
100
AcDbEntity
  8
0
  6
CONTINUOUS
 62
       3
100
AcDbLine
 10
-27.49513709
 20
244.80206291
 30
0.0
 11
-27.49513709
 21
267.28365055
 31
0.0
  0
LINE
  5
2BD
100
AcDbEntity
  8
0
  6
CONTINUOUS
 62
       3
100
AcDbLine
 10
224.39681441
 20
341.03387611
 30
0.0
 11
224.52315576
 21
341.23480572
 31
0.0
  0
LINE
  5
2BE
100
AcDbEntity
  8
0
  6
CONTINUOUS
 62
       3
100
AcDbLine
 10
127.30010891
 20
95.86540593
 30
0.0
 11
127.30010891
 21
108.11445629
 31
0.0
  0
LINE
  5
2BF
100
AcDbEntity
  8
0
  6
CONTINUOUS
 62
       3
100
AcDbLine
 10
1.52745155
 20
261.78434576
 30
0.0
 11
1.52745155
 21
272.53367785
 31
0.0
  0
LINE
  5
2C0
100
AcDbEntity
  8
0
  6
CONTINUOUS
 62
       3
100
AcDbLine
 10
208.04777829
 20
108.11445629
 30
0.0
 11
208.04777829
 21
120.36553331
 31
0.0
  0
LINE
  5
2C1
100
AcDbEntity
  8
0
  6
CONTINUOUS
 62
       3
100
AcDbLine
 10
48.87700287
 20
272.53367785
 30
0.0
 11
48.87700287
 21
283.28402326
 31
0.0
  0
LINE
  5
2C2
100
AcDbEntity
  8
0
  6
CONTINUOUS
 62
       3
100
AcDbLine
 10
220.16628541
 20
341.23480572
 30
0.0
 11
220.2925798
 21
341.03387611
 31
0.0
  0
LINE
  5
2C3
100
AcDbEntity
  8
0
  6
CONTINUOUS
 62
       3
100
AcDbLine
 10
76.08878303
 20
272.53367785
 30
0.0
 11
76.08878303
 21
261.78434576
 31
0.0
  0
LINE
  5
2C4
100
AcDbEntity
  8
0
  6
CONTINUOUS
 62
       3
100
AcDbLine
 10
-53.27813159
 20
120.36553331
 30
0.0
 11
-53.27813159
 21
108.11445629
 31
0.0
  0
LINE
  5
2C5
100
AcDbEntity
  8
0
  6
CONTINUOUS
 62
       3
100
AcDbLine
 10
158.24902488
 20
108.11445629
 30
0.0
 11
158.24902488
 21
120.36553331
 31
0.0
  0
LINE
  5
2C6
100
AcDbEntity
  8
0
  6
CONTINUOUS
 62
       3
100
AcDbLine
 10
224.09149247
 20
340.6735944
 30
0.0
 11
224.25252803
 21
340.84640705
 31
0.0
  0
LINE
  5
2C7
100
AcDbEntity
  8
0
  6
CONTINUOUS
 62
       3
100
AcDbLine
 10
223.62347381
 20
344.61073783
 30
0.0
 11
223.41323357
 21
344.72280007
 31
0.0
  0
LINE
  5
2C8
100
AcDbEntity
  8
0
  6
CONTINUOUS
 62
       3
100
AcDbLine
 10
13.52013116
 20
108.11445629
 30
0.0
 11
13.52013116
 21
120.36553331
 31
0.0
  0
LINE
  5
2C9
100
AcDbEntity
  8
0
  6
CONTINUOUS
 62
       3
100
AcDbLine
 10
-28.60371263
 20
272.53367785
 30
0.0
 11
-28.60371263
 21
283.28402326
 31
0.0
  0
LINE
  5
2CA
100
AcDbEntity
  8
0
  6
CONTINUOUS
 62
       3
100
AcDbLine
 10
-12.17709425
 20
245.46179242
 30
0.0
 11
-12.19178291
 21
245.49495521
 31
0.0
  0
LINE
  5
2CB
100
AcDbEntity
  8
0
  6
CONTINUOUS
 62
       3
100
AcDbLine
 10
213.83182689
 20
272.53367785
 30
0.0
 11
76.08878303
 21
272.53367785
 31
0.0
  0
LINE
  5
2CC
100
AcDbEntity
  8
0
  6
CONTINUOUS
 62
       3
100
AcDbLine
 10
97.55096757
 20
108.11445629
 30
0.0
 11
97.55096757
 21
120.36553331
 31
0.0
  0
LINE
  5
2CD
100
AcDbEntity
  8
0
  6
CONTINUOUS
 62
       3
100
AcDbLine
 10
161.2991276
 20
95.86540593
 30
0.0
 11
161.2991276
 21
108.11445629
 31
0.0
  0
LINE
  5
2CE
100
AcDbEntity
  8
0
  6
CONTINUOUS
 62
       3
100
AcDbLine
 10
149.26490174
 20
272.53367785
 30
0.0
 11
149.26490174
 21
283.28402326
 31
0.0
  0
LINE
  5
2CF
100
AcDbEntity
  8
0
  6
CONTINUOUS
 62
       3
100
AcDbLine
 10
-11.09349144
 20
249.14158093
 30
0.0
 11
-11.08244068
 21
248.71915769
 31
0.0
  0
LINE
  5
2D0
100
AcDbEntity
  8
0
  6
CONTINUOUS
 62
       3
100
AcDbLine
 10
-11.07831516
 20
248.2903821
 30
0.0
 11
-11.08284832
 21
247.86438875
 31
0.0
  0
LINE
  5
2D1
100
AcDbEntity
  8
0
  6
CONTINUOUS
 62
       3
100
AcDbLine
 10
102.99859288
 20
108.11445629
 30
0.0
 11
102.99859288
 21
95.86540593
 31
0.0
  0
LINE
  5
2D2
100
AcDbEntity
  8
0
  6
CONTINUOUS
 62
       3
100
AcDbLine
 10
0.7725258
 20
95.86540593
 30
0.0
 11
0.7725258
 21
108.11445629
 31
0.0
  0
LINE
  5
2D3
100
AcDbEntity
  8
0
  6
CONTINUOUS
 62
       3
100
AcDbLine
 10
221.49690504
 20
344.81483727
 30
0.0
 11
221.27550976
 21
344.72280007
 31
0.0
  0
LINE
  5
2D4
100
AcDbEntity
  8
0
  6
CONTINUOUS
 62
       3
100
AcDbLine
 10
-12.19178291
 20
245.49495521
 30
0.0
 11
-12.20234445
 21
245.52504364
 31
0.0
  0
LINE
  5
2D5
100
AcDbEntity
  8
0
  6
CONTINUOUS
 62
       3
100
AcDbLine
 10
224.7172199
 20
341.67226312
 30
0.0
 11
224.78255096
 21
341.90639919
 31
0.0
  0
LINE
  5
2D6
100
AcDbEntity
  8
0
  6
CONTINUOUS
 62
       3
100
AcDbLine
 10
73.24945153
 20
120.36553331
 30
0.0
 11
73.24945153
 21
108.11445629
 31
0.0
  0
LINE
  5
2D7
100
AcDbEntity
  8
0
  6
CONTINUOUS
 62
       3
100
AcDbLine
 10
157.87409531
 20
272.53367785
 30
0.0
 11
157.87409531
 21
283.28402326
 31
0.0
  0
LINE
  5
2D8
100
AcDbEntity
  8
0
  6
CONTINUOUS
 62
       3
100
AcDbLine
 10
89.00257338
 20
272.53367785
 30
0.0
 11
89.00257338
 21
283.28402326
 31
0.0
  0
LINE
  5
2D9
100
AcDbEntity
  8
0
  6
CONTINUOUS
 62
       3
100
AcDbLine
 10
57.48619645
 20
272.53367785
 30
0.0
 11
57.48619645
 21
283.28402326
 31
0.0
  0
LINE
  5
2DA
100
AcDbEntity
  8
0
  6
CONTINUOUS
 62
       3
100
AcDbLine
 10
224.67640489
 20
343.36629142
 30
0.0
 11
224.57922334
 21
343.58496546
 31
0.0
  0
LINE
  5
2DB
100
AcDbEntity
  8
0
  6
CONTINUOUS
 62
       3
100
AcDbLine
 10
-58.72778355
 20
95.86540593
 30
0.0
 11
-58.72778355
 21
108.11445629
 31
0.0
  0
LINE
  5
2DC
100
AcDbEntity
  8
0
  6
CONTINUOUS
 62
       3
100
AcDbLine
 10
-19.27708626
 20
120.36553331
 30
0.0
 11
-19.27708626
 21
108.11445629
 31
0.0
  0
LINE
  5
2DD
100
AcDbEntity
  8
0
  6
CONTINUOUS
 62
       3
100
AcDbLine
 10
-18.24552328
 20
272.25197401
 30
0.0
 11
-18.24552328
 21
267.28365055
 31
0.0
  0
LINE
  5
2DE
100
AcDbEntity
  8
0
  6
CONTINUOUS
 62
       3
100
AcDbLine
 10
114.55047691
 20
108.11445629
 30
0.0
 11
114.55047691
 21
120.36553331
 31
0.0
  0
LINE
  5
2DF
100
AcDbEntity
  8
0
  6
CONTINUOUS
 62
       3
100
AcDbLine
 10
224.17402916
 20
344.16638779
 30
0.0
 11
224.00506746
 21
344.33133299
 31
0.0
  0
LINE
  5
2E0
100
AcDbEntity
  8
0
  6
CONTINUOUS
 62
       3
100
AcDbLine
 10
219.88273893
 20
342.89883565
 30
0.0
 11
219.85195138
 21
342.65245131
 31
0.0
  0
LINE
  5
2E1
100
AcDbEntity
  8
0
  6
CONTINUOUS
 62
       3
100
AcDbLine
 10
205.22263331
 20
261.78434576
 30
0.0
 11
205.22263331
 21
272.53367785
 31
0.0
  0
LINE
  5
2E2
100
AcDbEntity
  8
0
  6
CONTINUOUS
 62
       3
100
AcDbLine
 10
195.30017293
 20
95.86540593
 30
0.0
 11
195.30017293
 21
108.11445629
 31
0.0
  0
LINE
  5
2E3
100
AcDbEntity
  8
0
  6
CONTINUOUS
 62
       3
100
AcDbLine
 10
57.48619645
 20
283.28402326
 30
0.0
 11
61.79079323
 21
283.28402326
 31
0.0
  0
LINE
  5
2E4
100
AcDbEntity
  8
0
  6
CONTINUOUS
 62
       3
100
AcDbLine
 10
-91.30004322
 20
81.78396737
 30
0.0
 11
-201.23900224
 21
81.78396737
 31
0.0
  0
LINE
  5
2E5
100
AcDbEntity
  8
0
  6
CONTINUOUS
 62
       3
100
AcDbLine
 10
53.18362631
 20
261.78434576
 30
0.0
 11
53.18362631
 21
272.53367785
 31
0.0
  0
LINE
  5
2E6
100
AcDbEntity
  8
0
  6
CONTINUOUS
 62
       3
100
AcDbLine
 10
-71.64866717
 20
272.53367785
 30
0.0
 11
-71.64866717
 21
283.28402326
 31
0.0
  0
LINE
  5
2E7
100
AcDbEntity
  8
0
  6
CONTINUOUS
 62
       3
100
AcDbLine
 10
61.79079323
 20
283.28402326
 30
0.0
 11
61.79079323
 21
272.53367785
 31
0.0
  0
LINE
  5
2E8
100
AcDbEntity
  8
0
  6
CONTINUOUS
 62
       3
100
AcDbLine
 10
222.95984561
 20
344.88565074
 30
0.0
 11
222.7190896
 21
344.93404176
 31
0.0
  0
LINE
  5
2E9
100
AcDbEntity
  8
0
  6
CONTINUOUS
 62
       3
100
AcDbLine
 10
192.30884296
 20
272.53367785
 30
0.0
 11
192.30884296
 21
283.28402326
 31
0.0
  0
LINE
  5
2EA
100
AcDbEntity
  8
0
  6
CONTINUOUS
 62
       3
100
AcDbLine
 10
149.74724357
 20
120.36553331
 30
0.0
 11
149.74724357
 21
108.11445629
 31
0.0
  0
LINE
  5
2EB
100
AcDbEntity
  8
0
  6
CONTINUOUS
 62
       3
100
AcDbLine
 10
-78.77942225
 20
112.1312693
 30
0.0
 11
55.98039823
 21
112.1312693
 31
0.0
  0
LINE
  5
2EC
100
AcDbEntity
  8
0
  6
CONTINUOUS
 62
       3
100
AcDbLine
 10
84.79930891
 20
95.86540593
 30
0.0
 11
84.79930891
 21
108.11445629
 31
0.0
  0
LINE
  5
2ED
100
AcDbEntity
  8
0
  6
CONTINUOUS
 62
       3
100
AcDbLine
 10
-58.73386349
 20
261.78434576
 30
0.0
 11
-58.73386349
 21
272.53367785
 31
0.0
  0
LINE
  5
2EE
100
AcDbEntity
  8
0
  6
CONTINUOUS
 62
       3
100
AcDbLine
 10
128.49785689
 20
108.11445629
 30
0.0
 11
128.49785689
 21
95.86540593
 31
0.0
  0
LINE
  5
2EF
100
AcDbEntity
  8
0
  6
CONTINUOUS
 62
       3
100
AcDbLine
 10
209.52925675
 20
272.53367785
 30
0.0
 11
209.52925675
 21
283.28402326
 31
0.0
  0
LINE
  5
2F0
100
AcDbEntity
  8
0
  6
CONTINUOUS
 62
       3
100
AcDbLine
 10
-27.49513709
 20
267.28365055
 30
0.0
 11
-12.49694099
 21
267.28365055
 31
0.0
  0
LINE
  5
2F1
100
AcDbEntity
  8
0
  6
CONTINUOUS
 62
       3
100
AcDbLine
 10
148.54949559
 20
108.11445629
 30
0.0
 11
148.54949559
 21
120.36553331
 31
0.0
  0
LINE
  5
2F2
100
AcDbEntity
  8
0
  6
CONTINUOUS
 62
       3
100
AcDbLine
 10
107.25049686
 20
120.36553331
 30
0.0
 11
107.25049686
 21
108.11445629
 31
0.0
  0
LINE
  5
2F3
100
AcDbEntity
  8
0
  6
CONTINUOUS
 62
       3
100
AcDbLine
 10
224.78255096
 20
341.90639919
 30
0.0
 11
224.82515354
 21
342.14921236
 31
0.0
  0
LINE
  5
2F4
100
AcDbEntity
  8
0
  6
CONTINUOUS
 62
       3
100
AcDbLine
 10
183.75031554
 20
108.11445629
 30
0.0
 11
183.75031554
 21
120.36553331
 31
0.0
  0
LINE
  5
2F5
100
AcDbEntity
  8
0
  6
CONTINUOUS
 62
       3
100
AcDbLine
 10
-12.20927461
 20
245.54959029
 30
0.0
 11
-12.21306915
 21
245.56612772
 31
0.0
  0
LINE
  5
2F6
100
AcDbEntity
  8
0
  6
CONTINUOUS
 62
       3
100
AcDbLine
 10
224.63035621
 20
341.44800001
 30
0.0
 11
224.7172199
 21
341.67226312
 31
0.0
  0
LINE
  5
2F7
100
AcDbEntity
  8
0
  6
CONTINUOUS
 62
       3
100
AcDbLine
 10
-78.77942225
 20
114.05860995
 30
0.0
 11
55.98039823
 21
114.05860995
 31
0.0
  0
LINE
  5
2F8
100
AcDbEntity
  8
0
  6
CONTINUOUS
 62
       3
100
AcDbLine
 10
-50.12568324
 20
261.78434576
 30
0.0
 11
-50.12568324
 21
272.53367785
 31
0.0
  0
LINE
  5
2F9
100
AcDbEntity
  8
0
  6
CONTINUOUS
 62
       3
100
AcDbLine
 10
221.27550976
 20
344.72280007
 30
0.0
 11
221.06544897
 21
344.61073783
 31
0.0
  0
LINE
  5
2FA
100
AcDbEntity
  8
0
  6
CONTINUOUS
 62
       3
100
AcDbLine
 10
221.16898764
 20
340.25505355
 30
0.0
 11
221.38486551
 21
340.15282517
 31
0.0
  0
LINE
  5
2FB
100
AcDbEntity
  8
0
  6
CONTINUOUS
 62
       3
100
AcDbLine
 10
-37.47738355
 20
108.11445629
 30
0.0
 11
-37.47738355
 21
120.36553331
 31
0.0
  0
LINE
  5
2FC
100
AcDbEntity
  8
0
  6
CONTINUOUS
 62
       3
100
AcDbLine
 10
170.78788567
 20
261.78434576
 30
0.0
 11
170.78788567
 21
272.53367785
 31
0.0
  0
LINE
  5
2FD
100
AcDbEntity
  8
0
  6
CONTINUOUS
 62
       3
100
AcDbLine
 10
-11.77737616
 20
245.43210672
 30
0.0
 11
-11.8515179
 21
245.38190451
 31
0.0
  0
LINE
  5
2FE
100
AcDbEntity
  8
0
  6
CONTINUOUS
 62
       3
100
AcDbLine
 10
-45.97713822
 20
108.11445629
 30
0.0
 11
-45.97713822
 21
120.36553331
 31
0.0
  0
LINE
  5
2FF
100
AcDbEntity
  8
0
  6
CONTINUOUS
 62
       3
100
AcDbLine
 10
31.72346841
 20
120.36553331
 30
0.0
 11
31.72346841
 21
108.11445629
 31
0.0
  0
LINE
  5
300
100
AcDbEntity
  8
0
  6
CONTINUOUS
 62
       3
100
AcDbLine
 10
136.99963821
 20
108.11445629
 30
0.0
 11
136.99963821
 21
95.86540593
 31
0.0
  0
LINE
  5
301
100
AcDbEntity
  8
0
  6
CONTINUOUS
 62
       3
100
AcDbLine
 10
-11.69414975
 20
245.50390885
 30
0.0
 11
-11.77737616
 21
245.43210672
 31
0.0
  0
LINE
  5
302
100
AcDbEntity
  8
0
  6
CONTINUOUS
 62
       3
100
AcDbLine
 10
-11.38633881
 20
272.53367785
 30
0.0
 11
-11.38633881
 21
283.28402326
 31
0.0
  0
LINE
  5
303
100
AcDbEntity
  8
0
  6
CONTINUOUS
 62
       3
100
AcDbLine
 10
-12.20234445
 20
245.52504364
 30
0.0
 11
-12.20927461
 21
245.54959029
 31
0.0
  0
LINE
  5
304
100
AcDbEntity
  8
0
  6
CONTINUOUS
 62
       3
100
AcDbLine
 10
14.44022858
 20
272.53367785
 30
0.0
 11
14.44022858
 21
283.28402326
 31
0.0
  0
LINE
  5
305
100
AcDbEntity
  8
0
  6
CONTINUOUS
 62
       3
100
AcDbLine
 10
27.47359108
 20
108.11445629
 30
0.0
 11
27.47359108
 21
95.86540593
 31
0.0
  0
LINE
  5
306
100
AcDbEntity
  8
0
  6
CONTINUOUS
 62
       3
100
AcDbLine
 10
-41.72726088
 20
95.86540593
 30
0.0
 11
-41.72726088
 21
108.11445629
 31
0.0
  0
LINE
  5
307
100
AcDbEntity
  8
0
  6
CONTINUOUS
 62
       3
100
AcDbLine
 10
165.54900493
 20
108.11445629
 30
0.0
 11
165.54900493
 21
120.36553331
 31
0.0
  0
LINE
  5
308
100
AcDbEntity
  8
0
  6
CONTINUOUS
 62
       3
100
AcDbLine
 10
219.84567775
 20
342.39950676
 30
0.0
 11
219.86435506
 21
342.14921236
 31
0.0
  0
LINE
  5
309
100
AcDbEntity
  8
0
  6
CONTINUOUS
 62
       3
100
AcDbLine
 10
213.83385353
 20
272.53367785
 30
0.0
 11
209.52925675
 21
272.53367785
 31
0.0
  0
LINE
  5
30A
100
AcDbEntity
  8
0
  6
CONTINUOUS
 62
       3
100
AcDbLine
 10
52.97488173
 20
108.11445629
 30
0.0
 11
52.97488173
 21
95.86540593
 31
0.0
  0
LINE
  5
30B
100
AcDbEntity
  8
0
  6
CONTINUOUS
 62
       3
100
AcDbLine
 10
220.68412565
 20
344.33133299
 30
0.0
 11
220.51526051
 21
344.16638779
 31
0.0
  0
LINE
  5
30C
100
AcDbEntity
  8
0
  6
CONTINUOUS
 62
       3
100
AcDbLine
 10
43.2733258
 20
95.86540593
 30
0.0
 11
43.2733258
 21
108.11445629
 31
0.0
  0
LINE
  5
30D
100
AcDbEntity
  8
0
  6
CONTINUOUS
 62
       3
100
AcDbLine
 10
-78.7773956
 20
120.36553331
 30
0.0
 11
-78.7773956
 21
108.11445629
 31
0.0
  0
LINE
  5
30E
100
AcDbEntity
  8
0
  6
CONTINUOUS
 62
       3
100
AcDbLine
 10
219.93684794
 20
343.13718192
 30
0.0
 11
219.88273893
 21
342.89883565
 31
0.0
  0
LINE
  5
30F
100
AcDbEntity
  8
0
  6
CONTINUOUS
 62
       3
100
AcDbLine
 10
136.35111138
 20
261.78434576
 30
0.0
 11
136.35111138
 21
272.53367785
 31
0.0
  0
LINE
  5
310
100
AcDbEntity
  8
0
  6
CONTINUOUS
 62
       3
100
AcDbLine
 10
52.97285509
 20
95.86540593
 30
0.0
 11
52.97285509
 21
108.11445629
 31
0.0
  0
LINE
  5
311
100
AcDbEntity
  8
0
  6
CONTINUOUS
 62
       3
100
AcDbLine
 10
179.49841156
 20
108.11445629
 30
0.0
 11
179.49841156
 21
95.86540593
 31
0.0
  0
LINE
  5
312
100
AcDbEntity
  8
0
  6
CONTINUOUS
 62
       3
100
AcDbLine
 10
-80.25887406
 20
283.28402326
 30
0.0
 11
-80.25887406
 21
272.53367785
 31
0.0
  0
LINE
  5
313
100
AcDbEntity
  8
0
  6
CONTINUOUS
 62
       3
100
AcDbLine
 10
-2.77613191
 20
272.53367785
 30
0.0
 11
-2.77613191
 21
283.28402326
 31
0.0
  0
LINE
  5
314
100
AcDbEntity
  8
0
  6
CONTINUOUS
 62
       3
100
AcDbLine
 10
-63.03846027
 20
272.53367785
 30
0.0
 11
-63.03846027
 21
283.28402326
 31
0.0
  0
LINE
  5
315
100
AcDbEntity
  8
0
  6
CONTINUOUS
 62
       3
100
AcDbLine
 10
179.39707925
 20
261.78434576
 30
0.0
 11
179.39707925
 21
272.53367785
 31
0.0
  0
LINE
  5
316
100
AcDbEntity
  8
0
  6
CONTINUOUS
 62
       3
100
AcDbLine
 10
219.9722734
 20
341.67226312
 30
0.0
 11
220.05911705
 21
341.44800001
 31
0.0
  0
LINE
  5
317
100
AcDbEntity
  8
0
  6
CONTINUOUS
 62
       3
100
AcDbLine
 10
47.52320313
 20
108.11445629
 30
0.0
 11
47.52320313
 21
120.36553331
 31
0.0
  0
LINE
  5
318
100
AcDbEntity
  8
0
  6
CONTINUOUS
 62
       3
100
AcDbLine
 10
188.00019288
 20
108.11445629
 30
0.0
 11
188.00019288
 21
95.86540593
 31
0.0
  0
LINE
  5
319
100
AcDbEntity
  8
0
  6
CONTINUOUS
 62
       3
100
AcDbLine
 10
-11.8515179
 20
245.38190451
 30
0.0
 11
-11.91707073
 21
245.35083478
 31
0.0
  0
LINE
  5
31A
100
AcDbEntity
  8
0
  6
CONTINUOUS
 62
       3
100
AcDbLine
 10
222.84051487
 20
340.01147148
 30
0.0
 11
223.07693233
 21
340.07123253
 31
0.0
  0
LINE
  5
31B
100
AcDbEntity
  8
0
  6
CONTINUOUS
 62
       3
100
AcDbLine
 10
224.57922334
 20
343.58496546
 30
0.0
 11
224.46230296
 21
343.79200533
 31
0.0
  0
LINE
  5
31C
100
AcDbEntity
  8
0
  6
CONTINUOUS
 62
       3
100
AcDbLine
 10
77.49932887
 20
108.11445629
 30
0.0
 11
77.49932887
 21
95.86540593
 31
0.0
  0
LINE
  5
31D
100
AcDbEntity
  8
0
  6
CONTINUOUS
 62
       3
100
AcDbLine
 10
-11.20815363
 20
251.03118427
 30
0.0
 11
-11.1919536
 21
250.83870141
 31
0.0
  0
LINE
  5
31E
100
AcDbEntity
  8
0
  6
CONTINUOUS
 62
       3
100
AcDbLine
 10
-201.23900224
 20
81.78396737
 30
0.0
 11
-201.23900224
 21
79.78396737
 31
0.0
  0
LINE
  5
31F
100
AcDbEntity
  8
0
  6
CONTINUOUS
 62
       3
100
AcDbLine
 10
178.30066359
 20
95.86540593
 30
0.0
 11
178.30066359
 21
108.11445629
 31
0.0
  0
LINE
  5
320
100
AcDbEntity
  8
0
  6
CONTINUOUS
 62
       3
100
AcDbLine
 10
186.79839161
 20
95.86540593
 30
0.0
 11
186.79839161
 21
108.11445629
 31
0.0
  0
LINE
  5
321
100
AcDbEntity
  8
0
  6
CONTINUOUS
 62
       3
100
AcDbLine
 10
77.50034219
 20
100.13149643
 30
0.0
 11
212.26218932
 21
100.13149643
 31
0.0
  0
LINE
  5
322
100
AcDbEntity
  8
0
  6
CONTINUOUS
 62
       3
100
AcDbLine
 10
278.76099776
 20
81.78396737
 30
0.0
 11
258.76099776
 21
81.78396737
 31
0.0
  0
LINE
  5
323
100
AcDbEntity
  8
0
  6
CONTINUOUS
 62
       3
100
AcDbLine
 10
220.05911705
 20
341.44800001
 30
0.0
 11
220.16628541
 21
341.23480572
 31
0.0
  0
LINE
  5
324
100
AcDbEntity
  8
0
  6
CONTINUOUS
 62
       3
100
AcDbLine
 10
-66.02675027
 20
108.11445629
 30
0.0
 11
-66.02675027
 21
95.86540593
 31
0.0
  0
LINE
  5
325
100
AcDbEntity
  8
0
  6
CONTINUOUS
 62
       3
100
AcDbLine
 10
-75.95326395
 20
272.53367785
 30
0.0
 11
-75.95326395
 21
261.78434576
 31
0.0
  0
LINE
  5
326
100
AcDbEntity
  8
0
  6
CONTINUOUS
 62
       3
100
AcDbLine
 10
22.02191247
 20
108.11445629
 30
0.0
 11
22.02191247
 21
120.36553331
 31
0.0
  0
LINE
  5
327
100
AcDbEntity
  8
0
  6
CONTINUOUS
 62
       3
100
AcDbLine
 10
219.85195138
 20
342.65245131
 30
0.0
 11
219.84567775
 21
342.39950676
 31
0.0
  0
LINE
  5
328
100
AcDbEntity
  8
0
  6
CONTINUOUS
 62
       3
100
AcDbLine
 10
219.86435506
 20
342.14921236
 30
0.0
 11
219.90695317
 21
341.90639919
 31
0.0
  0
LINE
  5
329
100
AcDbEntity
  8
0
  6
CONTINUOUS
 62
       3
100
AcDbLine
 10
256.74606274
 20
95.78434008
 30
0.0
 11
256.74606274
 21
92.78287687
 31
0.0
  0
LINE
  5
32A
100
AcDbEntity
  8
0
  6
CONTINUOUS
 62
       3
100
AcDbLine
 10
-37.21391952
 20
272.53367785
 30
0.0
 11
-37.21391952
 21
283.28402326
 31
0.0
  0
LINE
  5
32B
100
AcDbEntity
  8
0
  6
CONTINUOUS
 62
       3
100
AcDbLine
 10
192.24804357
 20
108.11445629
 30
0.0
 11
192.24804357
 21
120.36553331
 31
0.0
  0
LINE
  5
32C
100
AcDbEntity
  8
0
  6
CONTINUOUS
 62
       3
100
AcDbLine
 10
-33.22649289
 20
95.86540593
 30
0.0
 11
-33.22649289
 21
108.11445629
 31
0.0
  0
LINE
  5
32D
100
AcDbEntity
  8
0
  6
CONTINUOUS
 62
       3
100
AcDbLine
 10
212.29765562
 20
108.11445629
 30
0.0
 11
212.29765562
 21
95.86540593
 31
0.0
  0
LINE
  5
32E
100
AcDbEntity
  8
0
  6
CONTINUOUS
 62
       3
100
AcDbLine
 10
220.11023556
 20
343.58496546
 30
0.0
 11
220.01307972
 21
343.36629142
 31
0.0
  0
LINE
  5
32F
100
AcDbEntity
  8
0
  6
CONTINUOUS
 62
       3
100
AcDbLine
 10
-54.47790621
 20
108.11445629
 30
0.0
 11
-54.47790621
 21
120.36553331
 31
0.0
  0
LINE
  5
330
100
AcDbEntity
  8
0
  6
CONTINUOUS
 62
       3
100
AcDbLine
 10
40.22119644
 20
120.36553331
 30
0.0
 11
40.22119644
 21
108.11445629
 31
0.0
  0
LINE
  5
331
100
AcDbEntity
  8
0
  6
CONTINUOUS
 62
       3
100
AcDbLine
 10
219.90695317
 20
341.90639919
 30
0.0
 11
219.9722734
 21
341.67226312
 31
0.0
  0
LINE
  5
332
100
AcDbEntity
  8
0
  6
CONTINUOUS
 62
       3
100
AcDbLine
 10
221.06544897
 20
344.61073783
 30
0.0
 11
220.86792137
 21
344.47984923
 31
0.0
  0
LINE
  5
333
100
AcDbEntity
  8
0
  6
CONTINUOUS
 62
       3
100
AcDbLine
 10
-3.47735154
 20
108.11445629
 30
0.0
 11
-3.47735154
 21
120.36553331
 31
0.0
  0
LINE
  5
334
100
AcDbEntity
  8
0
  6
CONTINUOUS
 62
       3
100
AcDbLine
 10
71.78215959
 20
283.28402326
 30
0.0
 11
71.78215959
 21
272.53367785
 31
0.0
  0
LINE
  5
335
100
AcDbEntity
  8
0
  6
CONTINUOUS
 62
       3
100
AcDbLine
 10
89.04918625
 20
108.11445629
 30
0.0
 11
89.04918625
 21
120.36553331
 31
0.0
  0
LINE
  5
336
100
AcDbEntity
  8
0
  6
CONTINUOUS
 62
       3
100
AcDbLine
 10
222.21711085
 20
344.95881165
 30
0.0
 11
221.96890428
 21
344.93404176
 31
0.0
  0
LINE
  5
337
100
AcDbEntity
  8
0
  6
CONTINUOUS
 62
       3
100
AcDbLine
 10
118.7983276
 20
95.86540593
 30
0.0
 11
118.7983276
 21
108.11445629
 31
0.0
  0
LINE
  5
338
100
AcDbEntity
  8
0
  6
CONTINUOUS
 62
       3
100
AcDbLine
 10
205.00172887
 20
108.11445629
 30
0.0
 11
205.00172887
 21
95.86540593
 31
0.0
  0
LINE
  5
339
100
AcDbEntity
  8
0
  6
CONTINUOUS
 62
       3
100
AcDbLine
 10
44.47107377
 20
95.86540593
 30
0.0
 11
44.47107377
 21
108.11445629
 31
0.0
  0
LINE
  5
33A
100
AcDbEntity
  8
0
  6
CONTINUOUS
 62
       3
100
AcDbLine
 10
44.47310042
 20
108.11445629
 30
0.0
 11
44.47310042
 21
95.86540593
 31
0.0
  0
LINE
  5
33B
100
AcDbEntity
  8
0
  6
CONTINUOUS
 62
       3
100
AcDbLine
 10
223.82115039
 20
344.47984923
 30
0.0
 11
223.62347381
 21
344.61073783
 31
0.0
  0
LINE
  5
33C
100
AcDbEntity
  8
0
  6
CONTINUOUS
 62
       3
100
AcDbLine
 10
-49.02622761
 20
108.11445629
 30
0.0
 11
-49.02622761
 21
95.86540593
 31
0.0
  0
LINE
  5
33D
100
AcDbEntity
  8
0
  6
CONTINUOUS
 62
       3
100
AcDbLine
 10
71.7517599
 20
108.11445629
 30
0.0
 11
208.04777829
 21
108.11445629
 31
0.0
  0
LINE
  5
33E
100
AcDbEntity
  8
0
  6
CONTINUOUS
 62
       3
100
AcDbLine
 10
-11.21914484
 20
251.15337268
 30
0.0
 11
-11.20815363
 21
251.03118427
 31
0.0
  0
LINE
  5
33F
100
AcDbEntity
  8
0
  6
CONTINUOUS
 62
       3
100
AcDbLine
 10
171.00068354
 20
108.11445629
 30
0.0
 11
171.00068354
 21
95.86540593
 31
0.0
  0
LINE
  5
340
100
AcDbEntity
  8
0
  6
CONTINUOUS
 62
       3
100
AcDbLine
 10
-6.52644093
 20
108.11445629
 30
0.0
 11
-6.52644093
 21
95.86540593
 31
0.0
  0
LINE
  5
341
100
AcDbEntity
  8
0
  6
CONTINUOUS
 62
       3
100
AcDbLine
 10
222.59571929
 20
339.97473788
 30
0.0
 11
222.84051487
 21
340.01147148
 31
0.0
  0
LINE
  5
342
100
AcDbEntity
  8
0
  6
CONTINUOUS
 62
       3
100
AcDbLine
 10
-27.77684093
 20
120.36553331
 30
0.0
 11
-27.77684093
 21
108.11445629
 31
0.0
  0
LINE
  5
343
100
AcDbEntity
  8
0
  6
CONTINUOUS
 62
       3
100
AcDbLine
 10
144.29961826
 20
95.86540593
 30
0.0
 11
144.29961826
 21
108.11445629
 31
0.0
  0
LINE
  5
344
100
AcDbEntity
  8
0
  6
CONTINUOUS
 62
       3
100
AcDbLine
 10
-11.12943495
 20
249.93083202
 30
0.0
 11
-11.10973401
 21
249.54851724
 31
0.0
  0
LINE
  5
345
100
AcDbEntity
  8
0
  6
CONTINUOUS
 62
       3
100
AcDbLine
 10
97.60974031
 20
272.53367785
 30
0.0
 11
97.60974031
 21
283.28402326
 31
0.0
  0
LINE
  5
346
100
AcDbEntity
  8
0
  6
CONTINUOUS
 62
       3
100
AcDbLine
 10
174.0487596
 20
108.11445629
 30
0.0
 11
174.0487596
 21
120.36553331
 31
0.0
  0
LINE
  5
347
100
AcDbEntity
  8
0
  6
CONTINUOUS
 62
       3
100
AcDbLine
 10
-61.77889958
 20
120.36553331
 30
0.0
 11
-61.77889958
 21
108.11445629
 31
0.0
  0
LINE
  5
348
100
AcDbEntity
  8
0
  6
CONTINUOUS
 62
       3
100
AcDbLine
 10
-11.10973401
 20
249.54851724
 30
0.0
 11
-11.09349144
 21
249.14158093
 31
0.0
  0
LINE
  5
349
100
AcDbEntity
  8
0
  6
CONTINUOUS
 62
       3
100
AcDbLine
 10
220.36252465
 20
343.98621234
 30
0.0
 11
220.22711677
 21
343.79200533
 31
0.0
  0
LINE
  5
34A
100
AcDbEntity
  8
0
  6
CONTINUOUS
 62
       3
100
AcDbLine
 10
221.84762798
 20
340.01147148
 30
0.0
 11
222.09211518
 21
339.97473788
 31
0.0
  0
LINE
  5
34B
100
AcDbEntity
  8
0
  6
CONTINUOUS
 62
       3
100
AcDbLine
 10
-45.82209977
 20
272.53367785
 30
0.0
 11
-45.82209977
 21
283.28402326
 31
0.0
  0
LINE
  5
34C
100
AcDbEntity
  8
0
  6
CONTINUOUS
 62
       3
100
AcDbLine
 10
-13.99564595
 20
267.28365055
 30
0.0
 11
-11.9943327
 21
272.25197401
 31
0.0
  0
LINE
  5
34D
100
AcDbEntity
  8
0
  6
CONTINUOUS
 62
       3
100
AcDbLine
 10
124.2500062
 20
108.11445629
 30
0.0
 11
124.2500062
 21
120.36553331
 31
0.0
  0
LINE
  5
34E
100
AcDbEntity
  8
0
  6
CONTINUOUS
 62
       3
100
AcDbLine
 10
-9.45899816
 20
251.43223635
 30
0.0
 11
-12.49694099
 21
251.43223635
 31
0.0
  0
LINE
  5
34F
100
AcDbEntity
  8
0
  6
CONTINUOUS
 62
       3
100
AcDbLine
 10
191.04826895
 20
108.11445629
 30
0.0
 11
191.04826895
 21
120.36553331
 31
0.0
  0
LINE
  5
350
100
AcDbEntity
  8
0
  6
CONTINUOUS
 62
       3
100
AcDbLine
 10
-11.09777361
 20
247.45031222
 30
0.0
 11
-11.12482446
 21
247.0572871
 31
0.0
  0
LINE
  5
351
100
AcDbEntity
  8
0
  6
CONTINUOUS
 62
       3
100
AcDbLine
 10
223.19162555
 20
344.81483727
 30
0.0
 11
222.95984561
 21
344.88565074
 31
0.0
  0
LINE
  5
352
100
AcDbEntity
  8
0
  6
CONTINUOUS
 62
       3
100
AcDbLine
 10
-2.27859024
 20
120.36553331
 30
0.0
 11
-2.27859024
 21
108.11445629
 31
0.0
  0
LINE
  5
353
100
AcDbEntity
  8
0
  6
CONTINUOUS
 62
       3
100
AcDbLine
 10
124.24797956
 20
120.36553331
 30
0.0
 11
124.24797956
 21
108.11445629
 31
0.0
  0
LINE
  5
354
100
AcDbEntity
  8
0
  6
CONTINUOUS
 62
       3
100
AcDbLine
 10
221.96890428
 20
344.93404176
 30
0.0
 11
221.72843612
 21
344.88565074
 31
0.0
  0
LINE
  5
355
100
AcDbEntity
  8
0
  6
CONTINUOUS
 62
       3
100
AcDbLine
 10
276.26099776
 20
356.78435737
 30
0.0
 11
-198.73900224
 21
356.78435737
 31
0.0
  0
LINE
  5
356
100
AcDbEntity
  8
0
  6
CONTINUOUS
 62
       3
100
AcDbLine
 10
278.76099776
 20
79.78396737
 30
0.0
 11
-201.23900224
 21
79.78396737
 31
0.0
  0
LINE
  5
357
100
AcDbEntity
  8
0
  6
CONTINUOUS
 62
       3
100
AcDbLine
 10
166.74675291
 20
108.11445629
 30
0.0
 11
166.74675291
 21
120.36553331
 31
0.0
  0
LINE
  5
358
100
AcDbEntity
  8
0
  6
CONTINUOUS
 62
       3
100
AcDbLine
 10
-67.3450837
 20
261.78434576
 30
0.0
 11
-67.3450837
 21
272.53367785
 31
0.0
  0
LINE
  5
359
100
AcDbEntity
  8
0
  6
CONTINUOUS
 62
       3
100
AcDbLine
 10
-74.52751827
 20
101.80753294
 30
0.0
 11
60.23432886
 21
101.80753294
 31
0.0
  0
LINE
  5
35A
100
AcDbEntity
  8
0
  6
CONTINUOUS
 62
       3
100
AcDbLine
 10
258.76099776
 20
261.78435737
 30
0.0
 11
258.76099776
 21
356.78435737
 31
0.0
  0
LINE
  5
35B
100
AcDbEntity
  8
0
  6
CONTINUOUS
 62
       3
100
AcDbLine
 10
111.49834755
 20
108.11445629
 30
0.0
 11
111.49834755
 21
95.86540593
 31
0.0
  0
LINE
  5
35C
100
AcDbEntity
  8
0
  6
CONTINUOUS
 62
       3
100
AcDbLine
 10
224.82515354
 20
342.14921236
 30
0.0
 11
224.84383176
 21
342.39950676
 31
0.0
  0
LINE
  5
35D
100
AcDbEntity
  8
0
  6
CONTINUOUS
 62
       3
100
AcDbLine
 10
220.77423211
 20
340.51663402
 30
0.0
 11
220.96504361
 21
340.37672178
 31
0.0
  0
LINE
  5
35E
100
AcDbEntity
  8
0
  6
CONTINUOUS
 62
       3
100
AcDbLine
 10
132.0465146
 20
272.53367785
 30
0.0
 11
132.0465146
 21
283.28402326
 31
0.0
  0
LINE
  5
35F
100
AcDbEntity
  8
0
  6
CONTINUOUS
 62
       3
100
AcDbLine
 10
71.78215959
 20
261.78434576
 30
0.0
 11
71.78215959
 21
272.53367785
 31
0.0
  0
LINE
  5
360
100
AcDbEntity
  8
0
  6
CONTINUOUS
 62
       3
100
AcDbLine
 10
86.00111018
 20
108.11445629
 30
0.0
 11
86.00111018
 21
95.86540593
 31
0.0
  0
LINE
  5
361
100
AcDbEntity
  8
0
  6
CONTINUOUS
 62
       3
100
AcDbLine
 10
110.52353067
 20
261.78434576
 30
0.0
 11
110.52353067
 21
272.53367785
 31
0.0
  0
LINE
  5
362
100
AcDbEntity
  8
0
  6
CONTINUOUS
 62
       3
100
AcDbLine
 10
223.91490361
 20
340.51663402
 30
0.0
 11
224.09149247
 21
340.6735944
 31
0.0
  0
LINE
  5
363
100
AcDbEntity
  8
0
  6
CONTINUOUS
 62
       3
100
AcDbLine
 10
220.86792137
 20
344.47984923
 30
0.0
 11
220.68412565
 21
344.33133299
 31
0.0
  0
LINE
  5
364
100
AcDbEntity
  8
0
  6
CONTINUOUS
 62
       3
100
AcDbLine
 10
-74.52751827
 20
108.11445629
 30
0.0
 11
-74.52751827
 21
95.86540593
 31
0.0
  0
LINE
  5
365
100
AcDbEntity
  8
0
  6
CONTINUOUS
 62
       3
100
AcDbLine
 10
-11.9943327
 20
272.25197401
 30
0.0
 11
-18.24552328
 21
272.25197401
 31
0.0
  0
LINE
  5
366
100
AcDbEntity
  8
0
  6
CONTINUOUS
 62
       3
100
AcDbLine
 10
220.51526051
 20
344.16638779
 30
0.0
 11
220.36252465
 21
343.98621234
 31
0.0
  0
LINE
  5
367
100
AcDbEntity
  8
0
  6
CONTINUOUS
 62
       3
100
AcDbLine
 10
48.72095111
 20
120.36553331
 30
0.0
 11
48.72095111
 21
108.11445629
 31
0.0
  0
LINE
  5
368
100
AcDbEntity
  8
0
  6
CONTINUOUS
 62
       3
100
AcDbLine
 10
60.27283514
 20
108.11445629
 30
0.0
 11
60.27283514
 21
95.86540593
 31
0.0
  0
LINE
  5
369
100
AcDbEntity
  8
0
  6
CONTINUOUS
 62
       3
100
AcDbLine
 10
223.30377579
 20
340.15282517
 30
0.0
 11
223.5198494
 21
340.25505355
 31
0.0
  0
LINE
  5
36A
100
AcDbEntity
  8
0
  6
CONTINUOUS
 62
       3
100
AcDbLine
 10
80.55145823
 20
108.11445629
 30
0.0
 11
80.55145823
 21
120.36553331
 31
0.0
  0
LINE
  5
36B
100
AcDbEntity
  8
0
  6
CONTINUOUS
 62
       3
100
AcDbLine
 10
-89.30075662
 20
95.78434008
 30
0.0
 11
256.74606274
 21
95.78434008
 31
0.0
  0
LINE
  5
36C
100
AcDbEntity
  8
0
  6
CONTINUOUS
 62
       3
100
AcDbLine
 10
-36.27760892
 20
120.36553331
 30
0.0
 11
-36.27760892
 21
108.11445629
 31
0.0
  0
LINE
  5
36D
100
AcDbEntity
  8
0
  6
CONTINUOUS
 62
       3
100
AcDbLine
 10
209.5272301
 20
283.28402326
 30
0.0
 11
71.78215959
 21
283.28402326
 31
0.0
  0
LINE
  5
36E
100
AcDbEntity
  8
0
  6
CONTINUOUS
 62
       3
100
AcDbLine
 10
81.7492062
 20
120.36553331
 30
0.0
 11
81.7492062
 21
108.11445629
 31
0.0
  0
LINE
  5
36F
100
AcDbEntity
  8
0
  6
CONTINUOUS
 62
       3
100
AcDbLine
 10
-89.30075662
 20
92.78287687
 30
0.0
 11
-89.30075662
 21
95.78434008
 31
0.0
  0
LINE
  5
370
100
AcDbEntity
  8
0
  6
CONTINUOUS
 62
       3
100
AcDbLine
 10
56.0229578
 20
120.36553331
 30
0.0
 11
61.77052677
 21
120.36553331
 31
0.0
  0
LINE
  5
371
100
AcDbEntity
  8
0
  6
CONTINUOUS
 62
       3
100
AcDbLine
 10
199.54802362
 20
108.11445629
 30
0.0
 11
199.54802362
 21
120.36553331
 31
0.0
  0
LINE
  5
372
100
AcDbEntity
  8
0
  6
CONTINUOUS
 62
       3
100
AcDbLine
 10
220.59775184
 20
340.6735944
 30
0.0
 11
220.77423211
 21
340.51663402
 31
0.0
  0
LINE
  5
373
100
AcDbEntity
  8
0
  6
CONTINUOUS
 62
       3
100
AcDbLine
 10
-23.52696359
 20
108.11445629
 30
0.0
 11
-23.52696359
 21
95.86540593
 31
0.0
  0
LINE
  5
374
100
AcDbEntity
  8
0
  6
CONTINUOUS
 62
       3
100
AcDbLine
 10
77.49932887
 20
95.86540593
 30
0.0
 11
213.79940055
 21
95.86540593
 31
0.0
  0
LINE
  5
375
100
AcDbEntity
  8
0
  6
CONTINUOUS
 62
       3
100
AcDbLine
 10
200.74779824
 20
120.36553331
 30
0.0
 11
200.74779824
 21
108.11445629
 31
0.0
  0
LINE
  5
376
100
AcDbEntity
  8
0
  6
CONTINUOUS
 62
       3
100
AcDbLine
 10
-19.9965457
 20
272.53367785
 30
0.0
 11
-19.9965457
 21
283.28402326
 31
0.0
  0
LINE
  5
377
100
AcDbEntity
  8
0
  6
CONTINUOUS
 62
       3
100
AcDbLine
 10
-91.30004322
 20
92.78287687
 30
0.0
 11
258.76099776
 21
92.78287687
 31
0.0
  0
LINE
  5
378
100
AcDbEntity
  8
0
  6
CONTINUOUS
 62
       3
100
AcDbLine
 10
-27.49513709
 20
261.78435737
 30
0.0
 11
-198.73900224
 21
261.78435737
 31
0.0
  0
LINE
  5
379
100
AcDbEntity
  8
0
  6
CONTINUOUS
 62
       3
100
AcDbLine
 10
145.49939288
 20
108.11445629
 30
0.0
 11
145.49939288
 21
95.86540593
 31
0.0
  0
LINE
  5
37A
100
AcDbEntity
  8
0
  6
CONTINUOUS
 62
       3
100
AcDbLine
 10
188.00627282
 20
261.78434576
 30
0.0
 11
188.00627282
 21
272.53367785
 31
0.0
  0
LINE
  5
37B
100
AcDbEntity
  8
0
  6
CONTINUOUS
 62
       3
100
AcDbLine
 10
-11.17227818
 20
250.5850587
 30
0.0
 11
-11.15086082
 21
250.27939071
 31
0.0
  0
LINE
  5
37C
100
AcDbEntity
  8
0
  6
CONTINUOUS
 62
       3
100
AcDbLine
 10
162.49890222
 20
108.11445629
 30
0.0
 11
162.49890222
 21
95.86540593
 31
0.0
  0
LINE
  5
37D
100
AcDbEntity
  8
0
  6
CONTINUOUS
 62
       3
100
AcDbLine
 10
221.38486551
 20
340.15282517
 30
0.0
 11
221.61147852
 21
340.07123253
 31
0.0
  0
LINE
  5
37E
100
AcDbEntity
  8
0
  6
CONTINUOUS
 62
       3
100
AcDbLine
 10
35.96321252
 20
261.78434576
 30
0.0
 11
35.96321252
 21
272.53367785
 31
0.0
  0
LINE
  5
37F
100
AcDbEntity
  8
0
  6
CONTINUOUS
 62
       3
100
AcDbLine
 10
119.13475089
 20
261.78434576
 30
0.0
 11
119.13475089
 21
272.53367785
 31
0.0
  0
LINE
  5
380
100
AcDbEntity
  8
0
  6
CONTINUOUS
 62
       3
100
AcDbLine
 10
-32.90729609
 20
261.78434576
 30
0.0
 11
-32.90729609
 21
272.53367785
 31
0.0
  0
LINE
  5
381
100
AcDbEntity
  8
0
  6
CONTINUOUS
 62
       3
100
AcDbLine
 10
61.77052677
 20
120.36553331
 30
0.0
 11
61.77052677
 21
108.11445629
 31
0.0
  0
LINE
  5
382
100
AcDbEntity
  8
0
  6
CONTINUOUS
 62
       3
100
AcDbLine
 10
-201.23900224
 20
264.28435737
 30
0.0
 11
-201.23900224
 21
278.28435737
 31
0.0
  0
LINE
  5
383
100
AcDbEntity
  8
0
  6
CONTINUOUS
 62
       3
100
AcDbLine
 10
209.52925675
 20
283.28402326
 30
0.0
 11
213.83385353
 21
283.28402326
 31
0.0
  0
LINE
  5
384
100
AcDbEntity
  8
0
  6
CONTINUOUS
 62
       3
100
AcDbLine
 10
80.39337981
 20
272.53367785
 30
0.0
 11
80.39337981
 21
283.28402326
 31
0.0
  0
LINE
  5
385
100
AcDbEntity
  8
0
  6
CONTINUOUS
 62
       3
100
AcDbLine
 10
9.27228047
 20
95.86540593
 30
0.0
 11
9.27228047
 21
108.11445629
 31
0.0
  0
LINE
  5
386
100
AcDbEntity
  8
0
  6
CONTINUOUS
 62
       3
100
AcDbLine
 10
5.83002169
 20
272.53367785
 30
0.0
 11
5.83002169
 21
283.28402326
 31
0.0
  0
LINE
  5
387
100
AcDbEntity
  8
0
  6
CONTINUOUS
 62
       3
100
AcDbLine
 10
26.27381645
 20
95.86540593
 30
0.0
 11
26.27381645
 21
108.11445629
 31
0.0
  0
LINE
  5
388
100
AcDbEntity
  8
0
  6
CONTINUOUS
 62
       3
100
AcDbLine
 10
141.25154219
 20
120.36553331
 30
0.0
 11
141.25154219
 21
108.11445629
 31
0.0
  0
LINE
  5
389
100
AcDbEntity
  8
0
  6
CONTINUOUS
 62
       3
100
AcDbLine
 10
40.2678093
 20
272.53367785
 30
0.0
 11
40.2678093
 21
283.28402326
 31
0.0
  0
LINE
  5
38A
100
AcDbEntity
  8
0
  6
CONTINUOUS
 62
       3
100
AcDbLine
 10
35.97334575
 20
108.11445629
 30
0.0
 11
35.97334575
 21
95.86540593
 31
0.0
  0
LINE
  5
38B
100
AcDbEntity
  8
0
  6
CONTINUOUS
 62
       3
100
AcDbLine
 10
224.25252803
 20
340.84640705
 30
0.0
 11
224.39681441
 21
341.03387611
 31
0.0
  0
LINE
  5
38C
100
AcDbEntity
  8
0
  6
CONTINUOUS
 62
       3
100
AcDbLine
 10
-80.27610056
 20
120.36553331
 30
0.0
 11
-80.27610056
 21
108.11445629
 31
0.0
  0
LINE
  5
38D
100
AcDbEntity
  8
0
  6
CONTINUOUS
 62
       3
100
AcDbLine
 10
-62.9786742
 20
108.11445629
 30
0.0
 11
-62.9786742
 21
120.36553331
 31
0.0
  0
LINE
  5
38E
100
AcDbEntity
  8
0
  6
CONTINUOUS
 62
       3
100
AcDbLine
 10
153.99914755
 20
108.11445629
 30
0.0
 11
153.99914755
 21
95.86540593
 31
0.0
  0
LINE
  5
38F
100
AcDbEntity
  8
0
  6
CONTINUOUS
 62
       3
100
AcDbLine
 10
213.79940055
 20
95.86540593
 30
0.0
 11
213.79940055
 21
108.11445629
 31
0.0
  0
LINE
  5
390
100
AcDbEntity
  8
0
  6
CONTINUOUS
 62
       3
100
AcDbLine
 10
175.09248246
 20
272.53367785
 30
0.0
 11
175.09248246
 21
283.28402326
 31
0.0
  0
LINE
  5
391
100
AcDbEntity
  8
0
  6
CONTINUOUS
 62
       3
100
AcDbLine
 10
-11.08284832
 20
247.86438875
 30
0.0
 11
-11.09777361
 21
247.45031222
 31
0.0
  0
LINE
  5
392
100
AcDbEntity
  8
0
  6
CONTINUOUS
 62
       3
100
AcDbLine
 10
-32.02773159
 20
108.11445629
 30
0.0
 11
-32.02773159
 21
95.86540593
 31
0.0
  0
LINE
  5
393
100
AcDbEntity
  8
0
  6
CONTINUOUS
 62
       3
100
AcDbLine
 10
61.77052677
 20
95.86540593
 30
0.0
 11
61.77052677
 21
108.11445629
 31
0.0
  0
LINE
  5
394
100
AcDbEntity
  8
0
  6
CONTINUOUS
 62
       3
100
AcDbLine
 10
-11.22223659
 20
246.37092942
 30
0.0
 11
-11.29606475
 21
246.09586603
 31
0.0
  0
LINE
  5
395
100
AcDbEntity
  8
0
  6
CONTINUOUS
 62
       3
100
AcDbLine
 10
140.65570817
 20
272.53367785
 30
0.0
 11
140.65570817
 21
283.28402326
 31
0.0
  0
LINE
  5
396
100
AcDbEntity
  8
0
  6
CONTINUOUS
 62
       3
100
AcDbLine
 10
224.80676805
 20
342.89883565
 30
0.0
 11
224.75265175
 21
343.13718192
 31
0.0
  0
LINE
  5
397
100
AcDbEntity
  8
0
  6
CONTINUOUS
 62
       3
100
AcDbLine
 10
276.26099776
 20
261.78435737
 30
0.0
 11
278.76099776
 21
264.28435737
 31
0.0
  0
LINE
  5
398
100
AcDbEntity
  8
0
  6
CONTINUOUS
 62
       3
100
AcDbLine
 10
162.1786921
 20
261.78434576
 30
0.0
 11
162.1786921
 21
272.53367785
 31
0.0
  0
LINE
  5
399
100
AcDbEntity
  8
0
  6
CONTINUOUS
 62
       3
100
AcDbLine
 10
-11.91707073
 20
245.35083478
 30
0.0
 11
-11.9745304
 21
245.33643011
 31
0.0
  0
LINE
  5
39A
100
AcDbEntity
  8
0
  6
CONTINUOUS
 62
       3
100
AcDbLine
 10
127.74191781
 20
261.78434576
 30
0.0
 11
127.74191781
 21
272.53367785
 31
0.0
  0
LINE
  5
39B
100
AcDbEntity
  8
0
  6
CONTINUOUS
 62
       3
100
AcDbLine
 10
-70.27865425
 20
120.36553331
 30
0.0
 11
-70.27865425
 21
108.11445629
 31
0.0
  0
LINE
  5
39C
100
AcDbEntity
  8
0
  6
CONTINUOUS
 62
       3
100
AcDbLine
 10
209.5272301
 20
272.53367785
 30
0.0
 11
209.5272301
 21
283.28402326
 31
0.0
  0
LINE
  5
39D
100
AcDbEntity
  8
0
  6
CONTINUOUS
 62
       3
100
AcDbLine
 10
-11.60134292
 20
245.59977832
 30
0.0
 11
-11.69414975
 21
245.50390885
 31
0.0
  0
LINE
  5
39E
100
AcDbEntity
  8
0
  6
CONTINUOUS
 62
       3
100
AcDbLine
 10
-40.52545961
 20
108.11445629
 30
0.0
 11
-40.52545961
 21
95.86540593
 31
0.0
  0
LINE
  5
39F
100
AcDbEntity
  8
0
  6
CONTINUOUS
 62
       3
100
AcDbLine
 10
213.83385353
 20
283.28402326
 30
0.0
 11
213.83385353
 21
272.53367785
 31
0.0
  0
LINE
  5
3A0
100
AcDbEntity
  8
0
  6
CONTINUOUS
 62
       3
100
AcDbLine
 10
223.07693233
 20
340.07123253
 30
0.0
 11
223.30377579
 21
340.15282517
 31
0.0
  0
LINE
  5
3A1
100
AcDbEntity
  8
0
  6
CONTINUOUS
 62
       3
100
AcDbLine
 10
73.24843821
 20
112.1312693
 30
0.0
 11
208.00825869
 21
112.1312693
 31
0.0
  0
LINE
  5
3A2
100
AcDbEntity
  8
0
  6
CONTINUOUS
 62
       3
100
AcDbLine
 10
61.79079323
 20
272.53367785
 30
0.0
 11
-75.95326395
 21
272.53367785
 31
0.0
  0
LINE
  5
3A3
100
AcDbEntity
  8
0
  6
CONTINUOUS
 62
       3
100
AcDbLine
 10
-54.43230667
 20
272.53367785
 30
0.0
 11
-54.43230667
 21
283.28402326
 31
0.0
  0
LINE
  5
3A4
100
AcDbEntity
  8
0
  6
CONTINUOUS
 62
       3
100
AcDbLine
 10
-24.72673822
 20
95.86540593
 30
0.0
 11
-24.72673822
 21
108.11445629
 31
0.0
  0
LINE
  5
3A5
100
AcDbEntity
  8
0
  6
CONTINUOUS
 62
       3
100
AcDbLine
 10
123.05023158
 20
108.11445629
 30
0.0
 11
123.05023158
 21
120.36553331
 31
0.0
  0
LINE
  5
3A6
100
AcDbEntity
  8
0
  6
CONTINUOUS
 62
       3
100
AcDbLine
 10
1.97230042
 20
108.11445629
 30
0.0
 11
1.97230042
 21
95.86540593
 31
0.0
  0
LINE
  5
3A7
100
AcDbEntity
  8
0
  6
CONTINUOUS
 62
       3
100
AcDbLine
 10
222.34374144
 20
339.9622276
 30
0.0
 11
222.59571929
 21
339.97473788
 31
0.0
  0
LINE
  5
3A8
100
AcDbEntity
  8
0
  6
CONTINUOUS
 62
       3
100
AcDbLine
 10
-11.29606475
 20
246.09586603
 30
0.0
 11
-11.38895222
 21
245.87839239
 31
0.0
  0
LINE
  5
3A9
100
AcDbEntity
  8
0
  6
CONTINUOUS
 62
       3
100
AcDbLine
 10
224.32683961
 20
343.98621234
 30
0.0
 11
224.17402916
 21
344.16638779
 31
0.0
  0
LINE
  5
3AA
100
AcDbEntity
  8
0
  6
CONTINUOUS
 62
       3
100
AcDbLine
 10
10.47205509
 20
108.11445629
 30
0.0
 11
10.47205509
 21
95.86540593
 31
0.0
  0
LINE
  5
3AB
100
AcDbEntity
  8
0
  6
CONTINUOUS
 62
       3
100
AcDbLine
 10
44.57240609
 20
261.78434576
 30
0.0
 11
44.57240609
 21
272.53367785
 31
0.0
  0
LINE
  5
3AC
100
AcDbEntity
  8
0
  6
CONTINUOUS
 62
       3
100
AcDbLine
 10
200.92006318
 20
272.53367785
 30
0.0
 11
200.92006318
 21
283.28402326
 31
0.0
  0
LINE
  5
3AD
100
AcDbEntity
  8
0
  6
CONTINUOUS
 62
       3
100
AcDbLine
 10
39.02142181
 20
108.11445629
 30
0.0
 11
39.02142181
 21
120.36553331
 31
0.0
  0
LINE
  5
3AE
100
AcDbEntity
  8
0
  6
CONTINUOUS
 62
       3
100
AcDbLine
 10
152.79937293
 20
95.86540593
 30
0.0
 11
152.79937293
 21
108.11445629
 31
0.0
  0
LINE
  5
3AF
100
AcDbEntity
  8
0
  6
CONTINUOUS
 62
       3
100
AcDbLine
 10
169.79888227
 20
95.86540593
 30
0.0
 11
169.79888227
 21
108.11445629
 31
0.0
  0
LINE
  5
3B0
100
AcDbEntity
  8
0
  6
CONTINUOUS
 62
       3
100
AcDbLine
 10
132.74976087
 20
120.36553331
 30
0.0
 11
132.74976087
 21
108.11445629
 31
0.0
  0
LINE
  5
3B1
100
AcDbEntity
  8
0
  6
CONTINUOUS
 62
       3
100
AcDbLine
 10
278.76099776
 20
264.28435737
 30
0.0
 11
278.76099776
 21
278.28435737
 31
0.0
  0
LINE
  5
3B2
100
AcDbEntity
  8
0
  6
CONTINUOUS
 62
       3
100
AcDbLine
 10
-91.30004322
 20
92.78287687
 30
0.0
 11
-91.30004322
 21
79.78396737
 31
0.0
  0
LINE
  5
3B3
100
AcDbEntity
  8
0
  6
CONTINUOUS
 62
       3
100
AcDbLine
 10
-80.25887406
 20
261.78434576
 30
0.0
 11
-80.25887406
 21
272.53367785
 31
0.0
  0
LINE
  5
3B4
100
AcDbEntity
  8
0
  6
CONTINUOUS
 62
       3
100
AcDbLine
 10
14.72193242
 20
120.36553331
 30
0.0
 11
14.72193242
 21
108.11445629
 31
0.0
  0
LINE
  5
3B5
100
AcDbEntity
  8
0
  6
CONTINUOUS
 62
       3
100
AcDbLine
 10
90.25098752
 20
120.36553331
 30
0.0
 11
90.25098752
 21
108.11445629
 31
0.0
  0
LINE
  5
3B6
100
AcDbEntity
  8
0
  6
CONTINUOUS
 62
       3
100
AcDbLine
 10
157.04925026
 20
108.11445629
 30
0.0
 11
157.04925026
 21
120.36553331
 31
0.0
  0
LINE
  5
3B7
100
AcDbEntity
  8
0
  6
CONTINUOUS
 62
       3
100
AcDbLine
 10
192.25007021
 20
120.36553331
 30
0.0
 11
192.25007021
 21
108.11445629
 31
0.0
  0
LINE
  5
3B8
100
AcDbEntity
  8
0
  6
CONTINUOUS
 62
       3
100
AcDbLine
 10
221.61147852
 20
340.07123253
 30
0.0
 11
221.84762798
 21
340.01147148
 31
0.0
  0
LINE
  5
3B9
100
AcDbEntity
  8
0
  6
CONTINUOUS
 62
       3
100
AcDbLine
 10
224.83755794
 20
342.65245131
 30
0.0
 11
224.80676805
 21
342.89883565
 31
0.0
  0
LINE
  5
3BA
100
AcDbEntity
  8
0
  6
CONTINUOUS
 62
       3
100
AcDbLine
 10
-28.97661555
 20
108.11445629
 30
0.0
 11
-28.97661555
 21
120.36553331
 31
0.0
  0
LINE
  5
3BB
100
AcDbEntity
  8
0
  6
CONTINUOUS
 62
       3
100
AcDbLine
 10
203.7999276
 20
95.86540593
 30
0.0
 11
203.7999276
 21
108.11445629
 31
0.0
  0
LINE
  5
3BC
100
AcDbEntity
  8
0
  6
CONTINUOUS
 62
       3
100
AcDbLine
 10
123.43934767
 20
272.53367785
 30
0.0
 11
123.43934767
 21
283.28402326
 31
0.0
  0
LINE
  5
3BD
100
AcDbEntity
  8
0
  6
CONTINUOUS
 62
       3
100
AcDbLine
 10
84.69594995
 20
261.78434576
 30
0.0
 11
84.69594995
 21
272.53367785
 31
0.0
  0
LINE
  5
3BE
100
AcDbEntity
  8
0
  6
CONTINUOUS
 62
       3
100
AcDbLine
 10
208.04777829
 20
120.36553331
 30
0.0
 11
213.79940055
 21
120.36553331
 31
0.0
  0
LINE
  5
3BF
100
AcDbEntity
  8
0
  6
CONTINUOUS
 62
       3
100
AcDbLine
 10
144.96030496
 20
261.78434576
 30
0.0
 11
144.96030496
 21
272.53367785
 31
0.0
  0
LINE
  5
3C0
100
AcDbEntity
  8
0
  6
CONTINUOUS
 62
       3
100
AcDbLine
 10
223.5198494
 20
340.25505355
 30
0.0
 11
223.7239573
 21
340.37672178
 31
0.0
  0
LINE
  5
3C1
100
AcDbEntity
  8
0
  6
CONTINUOUS
 62
       3
100
AcDbLine
 10
77.49932887
 20
95.86540593
 30
0.0
 11
71.7517599
 21
95.86540593
 31
0.0
  0
LINE
  5
3C2
100
AcDbEntity
  8
0
  6
CONTINUOUS
 62
       3
100
AcDbLine
 10
220.96504361
 20
340.37672178
 30
0.0
 11
221.16898764
 21
340.25505355
 31
0.0
  0
LINE
  5
3C3
100
AcDbEntity
  8
0
  6
CONTINUOUS
 62
       3
100
AcDbLine
 10
-11.1657343
 20
246.69444797
 30
0.0
 11
-11.22223659
 21
246.37092942
 31
0.0
  0
LINE
  5
3C4
100
AcDbEntity
  8
0
  6
CONTINUOUS
 62
       3
100
AcDbLine
 10
-12.21306915
 20
245.56612772
 30
0.0
 11
-12.21422383
 21
245.57218851
 31
0.0
  0
LINE
  5
3C5
100
AcDbEntity
  8
0
  6
CONTINUOUS
 62
       3
100
AcDbLine
 10
56.0229578
 20
108.11445629
 30
0.0
 11
56.0229578
 21
120.36553331
 31
0.0
  0
LINE
  5
3C6
100
AcDbEntity
  8
0
  6
CONTINUOUS
 62
       3
100
AcDbLine
 10
153.56949853
 20
261.78434576
 30
0.0
 11
153.56949853
 21
272.53367785
 31
0.0
  0
LINE
  5
3C7
100
AcDbEntity
  8
0
  6
CONTINUOUS
 62
       3
100
AcDbLine
 10
-11.4984599
 20
245.72218256
 30
0.0
 11
-11.60134292
 21
245.59977832
 31
0.0
  0
LINE
  5
3C8
100
AcDbEntity
  8
0
  6
CONTINUOUS
 62
       3
100
AcDbLine
 10
141.2474889
 20
108.11445629
 30
0.0
 11
141.2474889
 21
120.36553331
 31
0.0
  0
LINE
  5
3C9
100
AcDbEntity
  8
0
  6
CONTINUOUS
 62
       3
100
AcDbLine
 10
166.74877956
 20
120.36553331
 30
0.0
 11
166.74877956
 21
108.11445629
 31
0.0
  0
LINE
  5
3CA
100
AcDbEntity
  8
0
  6
CONTINUOUS
 62
       3
100
AcDbLine
 10
57.48619645
 20
283.28402326
 30
0.0
 11
-80.25887406
 21
283.28402326
 31
0.0
  0
LINE
  5
3CB
100
AcDbEntity
  8
0
  6
CONTINUOUS
 62
       3
100
AcDbLine
 10
213.79940055
 20
108.11445629
 30
0.0
 11
77.49932887
 21
108.11445629
 31
0.0
  0
LINE
  5
3CC
100
AcDbEntity
  8
0
  6
CONTINUOUS
 62
       3
100
AcDbLine
 10
-50.22802888
 20
95.86540593
 30
0.0
 11
-50.22802888
 21
108.11445629
 31
0.0
  0
LINE
  5
3CD
100
AcDbEntity
  8
0
  6
CONTINUOUS
 62
       3
100
AcDbLine
 10
-80.27610056
 20
95.86540593
 30
0.0
 11
-80.27610056
 21
108.11445629
 31
0.0
  0
LINE
  5
3CE
100
AcDbEntity
  8
0
  6
CONTINUOUS
 62
       3
100
AcDbLine
 10
114.82812745
 20
272.53367785
 30
0.0
 11
114.82812745
 21
283.28402326
 31
0.0
  0
LINE
  5
3CF
100
AcDbEntity
  8
0
  6
CONTINUOUS
 62
       3
100
AcDbLine
 10
-12.02439266
 20
245.33622307
 30
0.0
 11
-12.06715326
 21
245.34774624
 31
0.0
  0
LINE
  5
3D0
100
AcDbEntity
  8
0
  6
CONTINUOUS
 62
       3
100
AcDbLine
 10
5.02037648
 20
108.11445629
 30
0.0
 11
5.02037648
 21
120.36553331
 31
0.0
  0
LINE
  5
3D1
100
AcDbEntity
  8
0
  6
CONTINUOUS
 62
       3
100
AcDbLine
 10
208.04777829
 20
120.36553331
 30
0.0
 11
71.7517599
 21
120.36553331
 31
0.0
  0
LINE
  5
3D2
100
AcDbEntity
  8
0
  6
CONTINUOUS
 62
       3
100
AcDbLine
 10
-198.73900224
 20
261.78435737
 30
0.0
 11
-201.23900224
 21
264.28435737
 31
0.0
  0
LINE
  5
3D3
100
AcDbEntity
  8
0
  6
CONTINUOUS
 62
       3
100
AcDbLine
 10
222.4705534
 20
344.95881165
 30
0.0
 11
222.21711085
 21
344.95881165
 31
0.0
  0
LINE
  5
3D4
100
AcDbEntity
  8
0
  6
CONTINUOUS
 62
       3
100
AcDbLine
 10
258.76099776
 20
92.78287687
 30
0.0
 11
258.76099776
 21
79.78396737
 31
0.0
  0
LINE
  5
3D5
100
AcDbEntity
  8
0
  6
CONTINUOUS
 62
       3
100
AcDbLine
 10
93.30717017
 20
261.78434576
 30
0.0
 11
93.30717017
 21
272.53367785
 31
0.0
  0
LINE
  5
3D6
100
AcDbEntity
  8
0
  6
CONTINUOUS
 62
       3
100
AcDbLine
 10
-11.22319378
 20
251.19613206
 30
0.0
 11
-11.21914484
 21
251.15337268
 31
0.0
  0
LINE
  5
3D7
100
AcDbEntity
  8
0
  6
CONTINUOUS
 62
       3
100
AcDbLine
 10
18.97180976
 20
108.11445629
 30
0.0
 11
18.97180976
 21
95.86540593
 31
0.0
  0
LINE
  5
3D8
100
AcDbEntity
  8
0
  6
CONTINUOUS
 62
       3
100
AcDbLine
 10
196.61546639
 20
261.78434576
 30
0.0
 11
196.61546639
 21
272.53367785
 31
0.0
  0
LINE
  5
3D9
100
AcDbEntity
  8
0
  6
CONTINUOUS
 62
       3
100
AcDbLine
 10
61.77052677
 20
108.11445629
 30
0.0
 11
-74.52751827
 21
108.11445629
 31
0.0
  0
LINE
  5
3DA
100
AcDbEntity
  8
0
  6
CONTINUOUS
 62
       3
100
AcDbLine
 10
221.72843612
 20
344.88565074
 30
0.0
 11
221.49690504
 21
344.81483727
 31
0.0
  0
LINE
  5
3DB
100
AcDbEntity
  8
0
  6
CONTINUOUS
 62
       3
100
AcDbLine
 10
140.05176757
 20
108.11445629
 30
0.0
 11
140.05176757
 21
120.36553331
 31
0.0
  0
LINE
  5
3DC
100
AcDbEntity
  8
0
  6
CONTINUOUS
 62
       3
100
AcDbLine
 10
17.77406178
 20
95.86540593
 30
0.0
 11
17.77406178
 21
108.11445629
 31
0.0
  0
LINE
  5
3DD
100
AcDbEntity
  8
0
  6
CONTINUOUS
 62
       3
100
AcDbLine
 10
-11.15086082
 20
250.27939071
 30
0.0
 11
-11.12943495
 21
249.93083202
 31
0.0
  0
LINE
  5
3DE
100
AcDbEntity
  8
0
  6
CONTINUOUS
 62
       3
100
AcDbLine
 10
223.7239573
 20
340.37672178
 30
0.0
 11
223.91490361
 21
340.51663402
 31
0.0
  0
LINE
  5
3DF
100
AcDbEntity
  8
0
  6
CONTINUOUS
 62
       3
100
AcDbLine
 10
-11.08244068
 20
248.71915769
 30
0.0
 11
-11.07831516
 21
248.2903821
 31
0.0
  0
LINE
  5
3E0
100
AcDbEntity
  8
0
  6
CONTINUOUS
 62
       3
100
AcDbLine
 10
56.0229578
 20
120.36553331
 30
0.0
 11
-80.27610056
 21
120.36553331
 31
0.0
  0
LINE
  5
3E1
100
AcDbEntity
  8
0
  6
CONTINUOUS
 62
       3
100
AcDbLine
 10
183.75234219
 20
120.36553331
 30
0.0
 11
183.75234219
 21
108.11445629
 31
0.0
  0
LINE
  5
3E2
100
AcDbEntity
  8
0
  6
CONTINUOUS
 62
       3
100
AcDbLine
 10
-10.77834491
 20
120.36553331
 30
0.0
 11
-10.77834491
 21
108.11445629
 31
0.0
  0
LINE
  5
3E3
100
AcDbEntity
  8
0
  6
CONTINUOUS
 62
       3
100
AcDbLine
 10
-16.22597022
 20
95.86540593
 30
0.0
 11
-16.22597022
 21
108.11445629
 31
0.0
  0
LINE
  5
3E4
100
AcDbEntity
  8
0
  6
CONTINUOUS
 62
       3
100
AcDbLine
 10
27.35401894
 20
261.78434576
 30
0.0
 11
27.35401894
 21
272.53367785
 31
0.0
  0
LINE
  5
3E5
100
AcDbEntity
  8
0
  6
CONTINUOUS
 62
       3
100
AcDbLine
 10
-11.97811953
 20
108.11445629
 30
0.0
 11
-11.97811953
 21
120.36553331
 31
0.0
  0
LINE
  5
3E6
100
AcDbEntity
  8
0
  6
CONTINUOUS
 62
       3
100
AcDbLine
 10
213.79940055
 20
120.36553331
 30
0.0
 11
213.79940055
 21
108.11445629
 31
0.0
  0
LINE
  5
3E7
100
AcDbEntity
  8
0
  6
CONTINUOUS
 62
       3
100
AcDbLine
 10
149.74927021
 20
108.11445629
 30
0.0
 11
149.74927021
 21
120.36553331
 31
0.0
  0
LINE
  5
3E8
100
AcDbEntity
  8
0
  6
CONTINUOUS
 62
       3
100
AcDbLine
 10
-12.06715326
 20
245.34774624
 30
0.0
 11
-12.10330797
 21
245.36853218
 31
0.0
  0
LINE
  5
3E9
100
AcDbEntity
  8
0
  6
CONTINUOUS
 62
       3
100
AcDbLine
 10
224.00506746
 20
344.33133299
 30
0.0
 11
223.82115039
 21
344.47984923
 31
0.0
  0
LINE
  5
3EA
100
AcDbEntity
  8
0
  6
CONTINUOUS
 62
       3
100
AcDbLine
 10
71.7517599
 20
95.86540593
 30
0.0
 11
71.7517599
 21
108.11445629
 31
0.0
  0
LINE
  5
3EB
100
AcDbEntity
  8
0
  6
CONTINUOUS
 62
       3
100
AcDbLine
 10
135.79986359
 20
95.86540593
 30
0.0
 11
135.79986359
 21
108.11445629
 31
0.0
  0
LINE
  5
3EC
100
AcDbEntity
  8
0
  6
CONTINUOUS
 62
       3
100
AcDbLine
 10
183.69964938
 20
272.53367785
 30
0.0
 11
183.69964938
 21
283.28402326
 31
0.0
  0
LINE
  5
3ED
100
AcDbEntity
  8
0
  6
CONTINUOUS
 62
       3
100
AcDbLine
 10
-74.52751827
 20
95.86540593
 30
0.0
 11
61.77052677
 21
95.86540593
 31
0.0
  0
LINE
  5
3EE
100
AcDbEntity
  8
0
  6
CONTINUOUS
 62
       3
100
AcDbLine
 10
106.05072224
 20
108.11445629
 30
0.0
 11
106.05072224
 21
120.36553331
 31
0.0
  0
LINE
  5
3EF
100
AcDbEntity
  8
0
  6
CONTINUOUS
 62
       3
100
AcDbLine
 10
-80.25887406
 20
272.53367785
 30
0.0
 11
57.48619645
 21
272.53367785
 31
0.0
  0
LINE
  5
3F0
100
AcDbEntity
  8
0
  6
CONTINUOUS
 62
       3
100
AcDbLine
 10
-27.99571873
 20
272.25197401
 30
0.0
 11
-21.7465548
 21
272.25197401
 31
0.0
  0
LINE
  5
3F1
100
AcDbEntity
  8
0
  6
CONTINUOUS
 62
       3
100
AcDbLine
 10
98.74871554
 20
120.36553331
 30
0.0
 11
98.74871554
 21
108.11445629
 31
0.0
  0
LINE
  5
3F2
100
AcDbEntity
  8
0
  6
CONTINUOUS
 62
       3
100
AcDbLine
 10
-25.99440549
 20
267.28365055
 30
0.0
 11
-27.99571873
 21
272.25197401
 31
0.0
  0
LINE
  5
3F3
100
AcDbEntity
  8
0
  6
CONTINUOUS
 62
       3
100
AcDbLine
 10
-80.27610056
 20
108.11445629
 30
0.0
 11
56.0229578
 21
108.11445629
 31
0.0
  0
LINE
  5
3F4
100
AcDbEntity
  8
0
  6
CONTINUOUS
 62
       3
100
AcDbLine
 10
182.54851427
 20
108.11445629
 30
0.0
 11
182.54851427
 21
120.36553331
 31
0.0
  0
LINE
  5
3F5
100
AcDbEntity
  8
0
  6
CONTINUOUS
 62
       3
100
AcDbLine
 10
-7.0807287
 20
261.78434576
 30
0.0
 11
-7.0807287
 21
272.53367785
 31
0.0
  0
LINE
  5
3F6
100
AcDbEntity
  8
0
  6
CONTINUOUS
 62
       3
100
AcDbLine
 10
158.25105153
 20
120.36553331
 30
0.0
 11
158.25105153
 21
108.11445629
 31
0.0
  0
LINE
  5
3F7
100
AcDbEntity
  8
0
  6
CONTINUOUS
 62
       3
100
AcDbLine
 10
224.84383176
 20
342.39950676
 30
0.0
 11
224.83755794
 21
342.65245131
 31
0.0
  0
LINE
  5
3F8
100
AcDbEntity
  8
0
  6
CONTINUOUS
 62
       3
100
AcDbLine
 10
101.79881826
 20
95.86540593
 30
0.0
 11
101.79881826
 21
108.11445629
 31
0.0
  0
LINE
  5
3F9
100
AcDbEntity
  8
0
  6
CONTINUOUS
 62
       3
100
AcDbLine
 10
101.9143371
 20
261.78434576
 30
0.0
 11
101.9143371
 21
272.53367785
 31
0.0
  0
LINE
  5
3FA
100
AcDbEntity
  8
0
  6
CONTINUOUS
 62
       3
100
AcDbLine
 10
166.48328889
 20
272.53367785
 30
0.0
 11
166.48328889
 21
283.28402326
 31
0.0
  0
LINE
  5
3FB
100
AcDbEntity
  8
0
  6
CONTINUOUS
 62
       3
100
AcDbLine
 10
131.54998625
 20
108.11445629
 30
0.0
 11
131.54998625
 21
120.36553331
 31
0.0
  0
LINE
  5
3FC
100
AcDbEntity
  8
0
  6
CONTINUOUS
 62
       3
100
AcDbLine
 10
220.01307972
 20
343.36629142
 30
0.0
 11
219.93684794
 21
343.13718192
 31
0.0
  0
LINE
  5
3FD
100
AcDbEntity
  8
0
  6
CONTINUOUS
 62
       3
100
AcDbLine
 10
23.0514488
 20
272.53367785
 30
0.0
 11
23.0514488
 21
283.28402326
 31
0.0
  0
LINE
  5
3FE
100
AcDbEntity
  8
0
  6
CONTINUOUS
 62
       3
100
AcDbLine
 10
-12.49694099
 20
267.28365055
 30
0.0
 11
-12.49694099
 21
244.80206291
 31
0.0
  0
LINE
  5
3FF
100
AcDbEntity
  8
0
  6
CONTINUOUS
 62
       3
100
AcDbLine
 10
34.77357112
 20
95.86540593
 30
0.0
 11
34.77357112
 21
108.11445629
 31
0.0
  0
LINE
  5
400
100
AcDbEntity
  8
0
  6
CONTINUOUS
 62
       3
100
AcDbLine
 10
51.77308047
 20
95.86540593
 30
0.0
 11
51.77308047
 21
108.11445629
 31
0.0
  0
LINE
  5
401
100
AcDbEntity
  8
0
  6
CONTINUOUS
 62
       3
100
AcDbLine
 10
-11.12482446
 20
247.0572871
 30
0.0
 11
-11.1657343
 21
246.69444797
 31
0.0
  0
LINE
  5
402
100
AcDbEntity
  8
0
  6
CONTINUOUS
 62
       3
100
AcDbLine
 10
71.78215959
 20
272.53367785
 30
0.0
 11
209.5272301
 21
272.53367785
 31
0.0
  0
LINE
  5
403
100
AcDbEntity
  8
0
  6
CONTINUOUS
 62
       3
100
AcDbLine
 10
-11.38895222
 20
245.87839239
 30
0.0
 11
-11.4984599
 21
245.72218256
 31
0.0
  0
LINE
  5
404
100
AcDbEntity
  8
0
  6
CONTINUOUS
 62
       3
100
AcDbLine
 10
196.4979209
 20
108.11445629
 30
0.0
 11
196.4979209
 21
95.86540593
 31
0.0
  0
LINE
  5
405
100
AcDbEntity
  8
0
  6
CONTINUOUS
 62
       3
100
AcDbLine
 10
23.22371374
 20
120.36553331
 30
0.0
 11
23.22371374
 21
108.11445629
 31
0.0
  0
LINE
  5
406
100
AcDbEntity
  8
0
  6
CONTINUOUS
 62
       3
100
AcDbLine
 10
222.09211518
 20
339.97473788
 30
0.0
 11
222.34374144
 21
339.9622276
 31
0.0
  0
LINE
  5
407
100
AcDbEntity
  8
0
  6
CONTINUOUS
 62
       3
100
AcDbLine
 10
73.24843821
 20
114.05860995
 30
0.0
 11
208.00825869
 21
114.05860995
 31
0.0
  0
LINE
  5
408
100
AcDbEntity
  8
0
  6
CONTINUOUS
 62
       3
100
AcDbLine
 10
6.22217775
 20
120.36553331
 30
0.0
 11
6.22217775
 21
108.11445629
 31
0.0
  0
LINE
  5
409
100
AcDbEntity
  8
0
  6
CONTINUOUS
 62
       3
100
AcDbLine
 10
10.1356318
 20
261.78434576
 30
0.0
 11
10.1356318
 21
272.53367785
 31
0.0
  0
LINE
  5
40A
100
AcDbEntity
  8
0
  6
CONTINUOUS
 62
       3
100
AcDbLine
 10
224.52315576
 20
341.23480572
 30
0.0
 11
224.63035621
 21
341.44800001
 31
0.0
  0
LINE
  5
40B
100
AcDbEntity
  8
0
  6
CONTINUOUS
 62
       3
100
AcDbLine
 10
220.22711677
 20
343.79200533
 30
0.0
 11
220.11023556
 21
343.58496546
 31
0.0
  0
LINE
  5
40C
100
AcDbEntity
  8
0
  6
CONTINUOUS
 62
       3
100
AcDbLine
 10
-12.49694099
 20
261.88973137
 30
0.0
 11
-9.45899816
 21
261.88973137
 31
0.0
  0
LINE
  5
40D
100
AcDbEntity
  8
0
  6
CONTINUOUS
 62
       3
100
AcDbLine
 10
-41.51750299
 20
261.78434576
 30
0.0
 11
-41.51750299
 21
272.53367785
 31
0.0
  0
LINE
  5
40E
100
AcDbEntity
  8
0
  6
CONTINUOUS
 62
       3
100
AcDbLine
 10
-44.77837692
 20
120.36553331
 30
0.0
 11
-44.77837692
 21
108.11445629
 31
0.0
  0
LINE
  5
40F
100
AcDbEntity
  8
0
  6
CONTINUOUS
 62
       3
100
AcDbLine
 10
222.7190896
 20
344.93404176
 30
0.0
 11
222.4705534
 21
344.95881165
 31
0.0
  0
LINE
  5
410
100
AcDbEntity
  8
0
  6
CONTINUOUS
 62
       3
100
AcDbLine
 10
-15.02720892
 20
108.11445629
 30
0.0
 11
-15.02720892
 21
95.86540593
 31
0.0
  0
LINE
  5
411
100
AcDbEntity
  8
0
  6
CONTINUOUS
 62
       3
100
AcDbLine
 10
30.52166714
 20
108.11445629
 30
0.0
 11
30.52166714
 21
120.36553331
 31
0.0
  0
LINE
  5
412
100
AcDbEntity
  8
0
  6
CONTINUOUS
 62
       3
100
AcDbLine
 10
-21.7465548
 20
272.25197401
 30
0.0
 11
-21.7465548
 21
267.28365055
 31
0.0
  0
LINE
  5
413
100
AcDbEntity
  8
0
  6
CONTINUOUS
 62
       3
100
AcDbLine
 10
213.83182689
 20
261.78434576
 30
0.0
 11
213.83182689
 21
272.53367785
 31
0.0
  0
LINE
  5
414
100
AcDbEntity
  8
0
  6
CONTINUOUS
 62
       3
100
AcDbLine
 10
223.41323357
 20
344.72280007
 30
0.0
 11
223.19162555
 21
344.81483727
 31
0.0
  0
LINE
  5
415
100
AcDbEntity
  8
0
  6
CONTINUOUS
 62
       3
100
AcDbLine
 10
220.2925798
 20
341.03387611
 30
0.0
 11
220.43680151
 21
340.84640705
 31
0.0
  0
LINE
  5
416
100
AcDbEntity
  8
0
  6
CONTINUOUS
 62
       3
100
AcDbLine
 10
106.21893388
 20
272.53367785
 30
0.0
 11
106.21893388
 21
283.28402326
 31
0.0
  0
LINE
  5
417
100
AcDbEntity
  8
0
  6
CONTINUOUS
 62
       3
100
AcDbLine
 10
-74.52751827
 20
100.13149643
 30
0.0
 11
60.23432886
 21
100.13149643
 31
0.0
  0
LINE
  5
418
100
AcDbEntity
  8
0
  6
CONTINUOUS
 62
       3
100
AcDbLine
 10
-11.1919536
 20
250.83870141
 30
0.0
 11
-11.17227818
 21
250.5850587
 31
0.0
  0
LINE
  5
419
100
AcDbEntity
  8
0
  6
CONTINUOUS
 62
       3
100
AcDbLine
 10
18.74685202
 20
261.78434576
 30
0.0
 11
18.74685202
 21
272.53367785
 31
0.0
  0
LINE
  5
41A
100
AcDbEntity
  8
0
  6
CONTINUOUS
 62
       3
100
AcDbLine
 10
31.65861573
 20
272.53367785
 30
0.0
 11
31.65861573
 21
283.28402326
 31
0.0
  0
LINE
  5
41B
100
AcDbEntity
  8
0
  6
CONTINUOUS
 62
       3
100
AcDbLine
 10
278.76099776
 20
290.28435737
 30
0.0
 11
278.76099776
 21
328.28435737
 31
0.0
  0
LINE
  5
41C
100
AcDbEntity
  8
0
  6
CONTINUOUS
 62
       3
100
AcDbLine
 10
-198.73900224
 20
337.78435737
 30
0.0
 11
-201.23900224
 21
340.28435737
 31
0.0
  0
LINE
  5
41D
100
AcDbEntity
  8
0
  6
CONTINUOUS
 62
       3
100
AcDbLine
 10
271.26099776
 20
287.78435737
 30
0.0
 11
276.26099776
 21
287.78435737
 31
0.0
  0
LINE
  5
41E
100
AcDbEntity
  8
0
  6
CONTINUOUS
 62
       3
100
AcDbLine
 10
278.76099776
 20
354.28435737
 30
0.0
 11
276.26099776
 21
356.78435737
 31
0.0
  0
LINE
  5
41F
100
AcDbEntity
  8
0
  6
CONTINUOUS
 62
       3
100
AcDbLine
 10
271.26099776
 20
337.78435737
 30
0.0
 11
276.26099776
 21
337.78435737
 31
0.0
  0
LINE
  5
420
100
AcDbEntity
  8
0
  6
CONTINUOUS
 62
       3
100
AcDbLine
 10
-201.23900224
 20
290.28435737
 30
0.0
 11
-201.23900224
 21
328.28435737
 31
0.0
  0
LINE
  5
421
100
AcDbEntity
  8
0
  6
CONTINUOUS
 62
       3
100
AcDbLine
 10
276.26099776
 20
280.78435737
 30
0.0
 11
278.76099776
 21
278.28435737
 31
0.0
  0
LINE
  5
422
100
AcDbEntity
  8
0
  6
CONTINUOUS
 62
       3
100
AcDbLine
 10
276.26099776
 20
261.78435737
 30
0.0
 11
-9.45899816
 21
261.78435737
 31
0.0
  0
LINE
  5
423
100
AcDbEntity
  8
0
  6
CONTINUOUS
 62
       3
100
AcDbLine
 10
276.26099776
 20
287.78435737
 30
0.0
 11
278.76099776
 21
290.28435737
 31
0.0
  0
LINE
  5
424
100
AcDbEntity
  8
0
  6
CONTINUOUS
 62
       3
100
AcDbLine
 10
271.26099776
 20
280.78435737
 30
0.0
 11
276.26099776
 21
280.78435737
 31
0.0
  0
LINE
  5
425
100
AcDbEntity
  8
0
  6
CONTINUOUS
 62
       3
100
AcDbLine
 10
-201.23900224
 20
354.28435737
 30
0.0
 11
-198.73900224
 21
356.78435737
 31
0.0
  0
LINE
  5
426
100
AcDbEntity
  8
0
  6
CONTINUOUS
 62
       3
100
AcDbLine
 10
271.26099776
 20
330.78435737
 30
0.0
 11
276.26099776
 21
330.78435737
 31
0.0
  0
LINE
  5
427
100
AcDbEntity
  8
0
  6
CONTINUOUS
 62
       3
100
AcDbLine
 10
-198.73900224
 20
287.78435737
 30
0.0
 11
-201.23900224
 21
290.28435737
 31
0.0
  0
LINE
  5
428
100
AcDbEntity
  8
0
  6
CONTINUOUS
 62
       3
100
AcDbLine
 10
276.26099776
 20
337.78435737
 30
0.0
 11
278.76099776
 21
340.28435737
 31
0.0
  0
LINE
  5
429
100
AcDbEntity
  8
0
  6
CONTINUOUS
 62
       3
100
AcDbLine
 10
-193.73900224
 20
330.78435737
 30
0.0
 11
-198.73900224
 21
330.78435737
 31
0.0
  0
LINE
  5
42A
100
AcDbEntity
  8
0
  6
CONTINUOUS
 62
       3
100
AcDbLine
 10
-193.73900224
 20
337.78435737
 30
0.0
 11
-198.73900224
 21
337.78435737
 31
0.0
  0
LINE
  5
42B
100
AcDbEntity
  8
0
  6
CONTINUOUS
 62
       3
100
AcDbLine
 10
-198.73900224
 20
330.78435737
 30
0.0
 11
-201.23900224
 21
328.28435737
 31
0.0
  0
LINE
  5
42C
100
AcDbEntity
  8
0
  6
CONTINUOUS
 62
       3
100
AcDbLine
 10
276.26099776
 20
330.78435737
 30
0.0
 11
278.76099776
 21
328.28435737
 31
0.0
  0
LINE
  5
42D
100
AcDbEntity
  8
0
  6
CONTINUOUS
 62
       3
100
AcDbLine
 10
-193.73900224
 20
287.78435737
 30
0.0
 11
-198.73900224
 21
287.78435737
 31
0.0
  0
LINE
  5
42E
100
AcDbEntity
  8
0
  6
CONTINUOUS
 62
       3
100
AcDbLine
 10
-198.73900224
 20
280.78435737
 30
0.0
 11
-201.23900224
 21
278.28435737
 31
0.0
  0
LINE
  5
42F
100
AcDbEntity
  8
0
  6
CONTINUOUS
 62
       3
100
AcDbLine
 10
278.76099776
 20
340.28435737
 30
0.0
 11
278.76099776
 21
354.28435737
 31
0.0
  0
LINE
  5
430
100
AcDbEntity
  8
0
  6
CONTINUOUS
 62
       3
100
AcDbLine
 10
-193.73900224
 20
280.78435737
 30
0.0
 11
-198.73900224
 21
280.78435737
 31
0.0
  0
LINE
  5
431
100
AcDbEntity
  8
0
  6
CONTINUOUS
 62
       3
100
AcDbLine
 10
-201.23900224
 20
340.28435737
 30
0.0
 11
-201.23900224
 21
354.28435737
 31
0.0
  0
ARC
  5
432
100
AcDbEntity
  8
0
  6
CONTINUOUS
 62
       3
100
AcDbCircle
 10
-193.73900224
 20
284.28435737
 30
0.0
 40
3.5
100
AcDbArc
 50
270.0
 51
450.0
  0
ARC
  5
433
100
AcDbEntity
  8
0
  6
CONTINUOUS
 62
       3
100
AcDbCircle
 10
271.26099776
 20
284.28435737
 30
0.0
 40
3.5
100
AcDbArc
 50
90.0
 51
270.0
  0
ARC
  5
434
100
AcDbEntity
  8
0
  6
CONTINUOUS
 62
       3
100
AcDbCircle
 10
-193.73900224
 20
334.28435737
 30
0.0
 40
3.5
100
AcDbArc
 50
270.0
 51
450.0
  0
ARC
  5
435
100
AcDbEntity
  8
0
  6
CONTINUOUS
 62
       3
100
AcDbCircle
 10
271.26099776
 20
334.28435737
 30
0.0
 40
3.5
100
AcDbArc
 50
90.0
 51
270.0
  0
LINE
  5
436
100
AcDbEntity
  8
0
  6
PHANTOM2
 62
       3
100
AcDbLine
 10
-105.72931155
 20
-163.54284833
 30
0.0
 11
-105.72931155
 21
-164.43862869
 31
0.0
  0
LINE
  5
437
100
AcDbEntity
  8
0
  6
PHANTOM2
 62
       3
100
AcDbLine
 10
-116.55715237
 20
-144.66638268
 30
0.0
 11
-116.55715237
 21
-143.77251638
 31
0.0
  0
LINE
  5
438
100
AcDbEntity
  8
0
  6
PHANTOM2
 62
       3
100
AcDbLine
 10
-116.55715237
 20
-124.00027038
 30
0.0
 11
-105.72931155
 21
-124.00027038
 31
0.0
  0
LINE
  5
439
100
AcDbEntity
  8
0
  6
PHANTOM2
 62
       3
100
AcDbLine
 10
-105.72931155
 20
-124.00027038
 30
0.0
 11
-105.72931155
 21
-124.89413668
 31
0.0
  0
LINE
  5
43A
100
AcDbEntity
  8
0
  6
PHANTOM2
 62
       3
100
AcDbLine
 10
-156.61556965
 20
-122.2259362
 30
0.0
 11
-156.61556965
 21
-121.3224996
 31
0.0
  0
LINE
  5
43B
100
AcDbEntity
  8
0
  6
PHANTOM2
 62
       3
100
AcDbLine
 10
-144.8929055
 20
-160.86507755
 30
0.0
 11
-145.78581477
 21
-160.86507755
 31
0.0
  0
LINE
  5
43C
100
AcDbEntity
  8
0
  6
PHANTOM2
 62
       3
100
AcDbLine
 10
-156.61556965
 20
-131.20670854
 30
0.0
 11
-157.8932051
 21
-131.20670854
 31
0.0
  0
LINE
  5
43D
100
AcDbEntity
  8
0
  6
PHANTOM2
 62
       3
100
AcDbLine
 10
-156.61556965
 20
-164.43862869
 30
0.0
 11
-156.61556965
 21
-163.54284833
 31
0.0
  0
LINE
  5
43E
100
AcDbEntity
  8
0
  6
PHANTOM2
 62
       3
100
AcDbLine
 10
-145.78581477
 20
-153.65863938
 30
0.0
 11
-145.78581477
 21
-154.55250569
 31
0.0
  0
LINE
  5
43F
100
AcDbEntity
  8
0
  6
PHANTOM2
 62
       3
100
AcDbLine
 10
-116.55715237
 20
-122.2259362
 30
0.0
 11
-116.55715237
 21
-121.3224996
 31
0.0
  0
LINE
  5
440
100
AcDbEntity
  8
0
  6
PHANTOM2
 62
       3
100
AcDbLine
 10
-105.72931155
 20
-124.89413668
 30
0.0
 11
-104.83640228
 21
-124.89413668
 31
0.0
  0
LINE
  5
441
100
AcDbEntity
  8
0
  6
PHANTOM2
 62
       3
100
AcDbLine
 10
-145.78581477
 20
-173.43088539
 30
0.0
 11
-145.78581477
 21
-174.32475169
 31
0.0
  0
LINE
  5
442
100
AcDbEntity
  8
0
  6
PHANTOM2
 62
       3
100
AcDbLine
 10
-144.8929055
 20
-174.32475169
 30
0.0
 11
-144.8929055
 21
-121.3224996
 31
0.0
  0
LINE
  5
443
100
AcDbEntity
  8
0
  6
PHANTOM2
 62
       3
100
AcDbLine
 10
-156.61556965
 20
-160.86507755
 30
0.0
 11
-157.8932051
 21
-160.86507755
 31
0.0
  0
LINE
  5
444
100
AcDbEntity
  8
0
  6
PHANTOM2
 62
       3
100
AcDbLine
 10
-156.61556965
 20
-153.65863938
 30
0.0
 11
-145.78581477
 21
-153.65863938
 31
0.0
  0
LINE
  5
445
100
AcDbEntity
  8
0
  6
PHANTOM2
 62
       3
100
AcDbLine
 10
-139.89433624
 20
-187.32313723
 30
0.0
 11
-172.89465506
 21
-187.32313723
 31
0.0
  0
LINE
  5
446
100
AcDbEntity
  8
0
  6
PHANTOM2
 62
       3
100
AcDbLine
 10
-116.55715237
 20
-164.43862869
 30
0.0
 11
-116.55715237
 21
-163.54284833
 31
0.0
  0
LINE
  5
447
100
AcDbEntity
  8
0
  6
PHANTOM2
 62
       3
100
AcDbLine
 10
-105.72931155
 20
-143.77251638
 30
0.0
 11
-105.72931155
 21
-144.66638268
 31
0.0
  0
LINE
  5
448
100
AcDbEntity
  8
0
  6
PHANTOM2
 62
       3
100
AcDbLine
 10
-116.55715237
 20
-134.78025968
 30
0.0
 11
-116.55715237
 21
-133.88830744
 31
0.0
  0
LINE
  5
449
100
AcDbEntity
  8
0
  6
PHANTOM2
 62
       3
100
AcDbLine
 10
-145.78581477
 20
-171.65655121
 30
0.0
 11
-156.61556965
 21
-171.65655121
 31
0.0
  0
LINE
  5
44A
100
AcDbEntity
  8
0
  6
PHANTOM2
 62
       3
100
AcDbLine
 10
-172.89465506
 20
-104.31989928
 30
0.0
 11
-139.89433624
 21
-104.31989928
 31
0.0
  0
LINE
  5
44B
100
AcDbEntity
  8
0
  6
PHANTOM2
 62
       3
100
AcDbLine
 10
-172.89465506
 20
-187.32313723
 30
0.0
 11
-172.89465506
 21
-104.31989928
 31
0.0
  0
LINE
  5
44C
100
AcDbEntity
  8
0
  6
PHANTOM2
 62
       3
100
AcDbLine
 10
-105.72931155
 20
-173.43088539
 30
0.0
 11
-105.72931155
 21
-174.32475169
 31
0.0
  0
LINE
  5
44D
100
AcDbEntity
  8
0
  6
PHANTOM2
 62
       3
100
AcDbLine
 10
-116.55715237
 20
-160.86507755
 30
0.0
 11
-117.83670188
 21
-160.86507755
 31
0.0
  0
LINE
  5
44E
100
AcDbEntity
  8
0
  6
PHANTOM2
 62
       3
100
AcDbLine
 10
-105.72931155
 20
-141.99626814
 30
0.0
 11
-116.55715237
 21
-141.99626814
 31
0.0
  0
LINE
  5
44F
100
AcDbEntity
  8
0
  6
PHANTOM2
 62
       3
100
AcDbLine
 10
-116.55715237
 20
-153.65863938
 30
0.0
 11
-105.72931155
 21
-153.65863938
 31
0.0
  0
LINE
  5
450
100
AcDbEntity
  8
0
  6
PHANTOM2
 62
       3
100
AcDbLine
 10
-105.72931155
 20
-153.65863938
 30
0.0
 11
-105.72931155
 21
-154.55250569
 31
0.0
  0
LINE
  5
451
100
AcDbEntity
  8
0
  6
PHANTOM2
 62
       3
100
AcDbLine
 10
-117.83670188
 20
-144.66638268
 30
0.0
 11
-116.55715237
 21
-144.66638268
 31
0.0
  0
LINE
  5
452
100
AcDbEntity
  8
0
  6
PHANTOM2
 62
       3
100
AcDbLine
 10
-105.72931155
 20
-144.66638268
 30
0.0
 11
-104.83640228
 21
-144.66638268
 31
0.0
  0
LINE
  5
453
100
AcDbEntity
  8
0
  6
PHANTOM2
 62
       3
100
AcDbLine
 10
-116.55715237
 20
-133.88830744
 30
0.0
 11
-105.72931155
 21
-133.88830744
 31
0.0
  0
LINE
  5
454
100
AcDbEntity
  8
0
  6
PHANTOM2
 62
       3
100
AcDbLine
 10
-156.61556965
 20
-121.3224996
 30
0.0
 11
-157.8932051
 21
-121.3224996
 31
0.0
  0
LINE
  5
455
100
AcDbEntity
  8
0
  6
PHANTOM2
 62
       3
100
AcDbLine
 10
-156.61556965
 20
-174.32475169
 30
0.0
 11
-156.61556965
 21
-173.43088539
 31
0.0
  0
LINE
  5
456
100
AcDbEntity
  8
0
  6
PHANTOM2
 62
       3
100
AcDbLine
 10
-145.78581477
 20
-161.77042821
 30
0.0
 11
-156.61556965
 21
-161.77042821
 31
0.0
  0
LINE
  5
457
100
AcDbEntity
  8
0
  6
PHANTOM2
 62
       3
100
AcDbLine
 10
-157.8932051
 20
-164.43862869
 30
0.0
 11
-156.61556965
 21
-164.43862869
 31
0.0
  0
LINE
  5
458
100
AcDbEntity
  8
0
  6
PHANTOM2
 62
       3
100
AcDbLine
 10
-156.61556965
 20
-154.55250569
 30
0.0
 11
-156.61556965
 21
-153.65863938
 31
0.0
  0
LINE
  5
459
100
AcDbEntity
  8
0
  6
PHANTOM2
 62
       3
100
AcDbLine
 10
-145.78581477
 20
-154.55250569
 30
0.0
 11
-144.8929055
 21
-154.55250569
 31
0.0
  0
LINE
  5
45A
100
AcDbEntity
  8
0
  6
PHANTOM2
 62
       3
100
AcDbLine
 10
-156.61556965
 20
-134.78025968
 30
0.0
 11
-156.61556965
 21
-133.88830744
 31
0.0
  0
LINE
  5
45B
100
AcDbEntity
  8
0
  6
PHANTOM2
 62
       3
100
AcDbLine
 10
-145.78581477
 20
-134.78025968
 30
0.0
 11
-144.8929055
 21
-134.78025968
 31
0.0
  0
LINE
  5
45C
100
AcDbEntity
  8
0
  6
PHANTOM2
 62
       3
100
AcDbLine
 10
-145.78581477
 20
-124.00027038
 30
0.0
 11
-145.78581477
 21
-124.89413668
 31
0.0
  0
LINE
  5
45D
100
AcDbEntity
  8
0
  6
PHANTOM2
 62
       3
100
AcDbLine
 10
-105.72931155
 20
-121.3224996
 30
0.0
 11
-105.72931155
 21
-122.2259362
 31
0.0
  0
LINE
  5
45E
100
AcDbEntity
  8
0
  6
PHANTOM2
 62
       3
100
AcDbLine
 10
-117.83670188
 20
-121.3224996
 30
0.0
 11
-117.83670188
 21
-174.32475169
 31
0.0
  0
LINE
  5
45F
100
AcDbEntity
  8
0
  6
PHANTOM2
 62
       3
100
AcDbLine
 10
-105.72931155
 20
-151.88239115
 30
0.0
 11
-116.55715237
 21
-151.88239115
 31
0.0
  0
LINE
  5
460
100
AcDbEntity
  8
0
  6
PHANTOM2
 62
       3
100
AcDbLine
 10
-157.8932051
 20
-134.78025968
 30
0.0
 11
-156.61556965
 21
-134.78025968
 31
0.0
  0
LINE
  5
461
100
AcDbEntity
  8
0
  6
PHANTOM2
 62
       3
100
AcDbLine
 10
-156.61556965
 20
-124.00027038
 30
0.0
 11
-145.78581477
 21
-124.00027038
 31
0.0
  0
LINE
  5
462
100
AcDbEntity
  8
0
  6
PHANTOM2
 62
       3
100
AcDbLine
 10
-132.83815184
 20
-187.32313723
 30
0.0
 11
-99.83591896
 21
-187.32313723
 31
0.0
  0
LINE
  5
463
100
AcDbEntity
  8
0
  6
PHANTOM2
 62
       3
100
AcDbLine
 10
-105.72931155
 20
-174.32475169
 30
0.0
 11
-104.83640228
 21
-174.32475169
 31
0.0
  0
LINE
  5
464
100
AcDbEntity
  8
0
  6
PHANTOM2
 62
       3
100
AcDbLine
 10
-104.83640228
 20
-174.32475169
 30
0.0
 11
-104.83640228
 21
-121.3224996
 31
0.0
  0
LINE
  5
465
100
AcDbEntity
  8
0
  6
PHANTOM2
 62
       3
100
AcDbLine
 10
-105.72931155
 20
-160.86507755
 30
0.0
 11
-105.72931155
 21
-161.77042821
 31
0.0
  0
LINE
  5
466
100
AcDbEntity
  8
0
  6
PHANTOM2
 62
       3
100
AcDbLine
 10
-105.72931155
 20
-161.77042821
 30
0.0
 11
-116.55715237
 21
-161.77042821
 31
0.0
  0
LINE
  5
467
100
AcDbEntity
  8
0
  6
PHANTOM2
 62
       3
100
AcDbLine
 10
-116.55715237
 20
-132.11014514
 30
0.0
 11
-116.55715237
 21
-131.20670854
 31
0.0
  0
LINE
  5
468
100
AcDbEntity
  8
0
  6
PHANTOM2
 62
       3
100
AcDbLine
 10
-145.78581477
 20
-141.09283154
 30
0.0
 11
-145.78581477
 21
-141.99626814
 31
0.0
  0
LINE
  5
469
100
AcDbEntity
  8
0
  6
PHANTOM2
 62
       3
100
AcDbLine
 10
-156.61556965
 20
-141.99626814
 30
0.0
 11
-156.61556965
 21
-141.09283154
 31
0.0
  0
LINE
  5
46A
100
AcDbEntity
  8
0
  6
PHANTOM2
 62
       3
100
AcDbLine
 10
-104.83640228
 20
-170.75311461
 30
0.0
 11
-105.72931155
 21
-170.75311461
 31
0.0
  0
LINE
  5
46B
100
AcDbEntity
  8
0
  6
PHANTOM2
 62
       3
100
AcDbLine
 10
-104.83640228
 20
-160.86507755
 30
0.0
 11
-105.72931155
 21
-160.86507755
 31
0.0
  0
LINE
  5
46C
100
AcDbEntity
  8
0
  6
PHANTOM2
 62
       3
100
AcDbLine
 10
-116.55715237
 20
-150.97895454
 30
0.0
 11
-117.83670188
 21
-150.97895454
 31
0.0
  0
LINE
  5
46D
100
AcDbEntity
  8
0
  6
PHANTOM2
 62
       3
100
AcDbLine
 10
-104.83640228
 20
-141.09283154
 30
0.0
 11
-105.72931155
 21
-141.09283154
 31
0.0
  0
LINE
  5
46E
100
AcDbEntity
  8
0
  6
PHANTOM2
 62
       3
100
AcDbLine
 10
-105.72931155
 20
-164.43862869
 30
0.0
 11
-104.83640228
 21
-164.43862869
 31
0.0
  0
LINE
  5
46F
100
AcDbEntity
  8
0
  6
PHANTOM2
 62
       3
100
AcDbLine
 10
-116.55715237
 20
-143.77251638
 30
0.0
 11
-105.72931155
 21
-143.77251638
 31
0.0
  0
LINE
  5
470
100
AcDbEntity
  8
0
  6
PHANTOM2
 62
       3
100
AcDbLine
 10
-145.78581477
 20
-174.32475169
 30
0.0
 11
-144.8929055
 21
-174.32475169
 31
0.0
  0
LINE
  5
471
100
AcDbEntity
  8
0
  6
PHANTOM2
 62
       3
100
AcDbLine
 10
-144.8929055
 20
-150.97895454
 30
0.0
 11
-145.78581477
 21
-150.97895454
 31
0.0
  0
LINE
  5
472
100
AcDbEntity
  8
0
  6
PHANTOM2
 62
       3
100
AcDbLine
 10
-99.83591896
 20
-104.31989928
 30
0.0
 11
-132.83815184
 21
-104.31989928
 31
0.0
  0
LINE
  5
473
100
AcDbEntity
  8
0
  6
PHANTOM2
 62
       3
100
AcDbLine
 10
-132.83815184
 20
-104.31989928
 30
0.0
 11
-132.83815184
 21
-187.32313723
 31
0.0
  0
LINE
  5
474
100
AcDbEntity
  8
0
  6
PHANTOM2
 62
       3
100
AcDbLine
 10
-116.55715237
 20
-171.65655121
 30
0.0
 11
-116.55715237
 21
-170.75311461
 31
0.0
  0
LINE
  5
475
100
AcDbEntity
  8
0
  6
PHANTOM2
 62
       3
100
AcDbLine
 10
-116.55715237
 20
-141.99626814
 30
0.0
 11
-116.55715237
 21
-141.09283154
 31
0.0
  0
LINE
  5
476
100
AcDbEntity
  8
0
  6
PHANTOM2
 62
       3
100
AcDbLine
 10
-105.72931155
 20
-131.20670854
 30
0.0
 11
-105.72931155
 21
-132.11014514
 31
0.0
  0
LINE
  5
477
100
AcDbEntity
  8
0
  6
PHANTOM2
 62
       3
100
AcDbLine
 10
-105.72931155
 20
-154.55250569
 30
0.0
 11
-104.83640228
 21
-154.55250569
 31
0.0
  0
LINE
  5
478
100
AcDbEntity
  8
0
  6
PHANTOM2
 62
       3
100
AcDbLine
 10
-105.72931155
 20
-133.88830744
 30
0.0
 11
-105.72931155
 21
-134.78025968
 31
0.0
  0
LINE
  5
479
100
AcDbEntity
  8
0
  6
PHANTOM2
 62
       3
100
AcDbLine
 10
-144.8929055
 20
-121.3224996
 30
0.0
 11
-145.78581477
 21
-121.3224996
 31
0.0
  0
LINE
  5
47A
100
AcDbEntity
  8
0
  6
PHANTOM2
 62
       3
100
AcDbLine
 10
-145.78581477
 20
-121.3224996
 30
0.0
 11
-145.78581477
 21
-122.2259362
 31
0.0
  0
LINE
  5
47B
100
AcDbEntity
  8
0
  6
PHANTOM2
 62
       3
100
AcDbLine
 10
-156.61556965
 20
-150.97895454
 30
0.0
 11
-157.8932051
 21
-150.97895454
 31
0.0
  0
LINE
  5
47C
100
AcDbEntity
  8
0
  6
PHANTOM2
 62
       3
100
AcDbLine
 10
-105.72931155
 20
-170.75311461
 30
0.0
 11
-105.72931155
 21
-171.65655121
 31
0.0
  0
LINE
  5
47D
100
AcDbEntity
  8
0
  6
PHANTOM2
 62
       3
100
AcDbLine
 10
-117.83670188
 20
-164.43862869
 30
0.0
 11
-116.55715237
 21
-164.43862869
 31
0.0
  0
LINE
  5
47E
100
AcDbEntity
  8
0
  6
PHANTOM2
 62
       3
100
AcDbLine
 10
-144.8929055
 20
-131.20670854
 30
0.0
 11
-145.78581477
 21
-131.20670854
 31
0.0
  0
LINE
  5
47F
100
AcDbEntity
  8
0
  6
PHANTOM2
 62
       3
100
AcDbLine
 10
-104.83640228
 20
-150.97895454
 30
0.0
 11
-105.72931155
 21
-150.97895454
 31
0.0
  0
LINE
  5
480
100
AcDbEntity
  8
0
  6
PHANTOM2
 62
       3
100
AcDbLine
 10
-105.72931155
 20
-141.09283154
 30
0.0
 11
-105.72931155
 21
-141.99626814
 31
0.0
  0
LINE
  5
481
100
AcDbEntity
  8
0
  6
PHANTOM2
 62
       3
100
AcDbLine
 10
-117.83670188
 20
-124.89413668
 30
0.0
 11
-116.55715237
 21
-124.89413668
 31
0.0
  0
LINE
  5
482
100
AcDbEntity
  8
0
  6
PHANTOM2
 62
       3
100
AcDbLine
 10
-145.78581477
 20
-122.2259362
 30
0.0
 11
-156.61556965
 21
-122.2259362
 31
0.0
  0
LINE
  5
483
100
AcDbEntity
  8
0
  6
PHANTOM2
 62
       3
100
AcDbLine
 10
-156.61556965
 20
-141.09283154
 30
0.0
 11
-157.8932051
 21
-141.09283154
 31
0.0
  0
LINE
  5
484
100
AcDbEntity
  8
0
  6
PHANTOM2
 62
       3
100
AcDbLine
 10
-156.61556965
 20
-163.54284833
 30
0.0
 11
-145.78581477
 21
-163.54284833
 31
0.0
  0
LINE
  5
485
100
AcDbEntity
  8
0
  6
PHANTOM2
 62
       3
100
AcDbLine
 10
-105.72931155
 20
-122.2259362
 30
0.0
 11
-116.55715237
 21
-122.2259362
 31
0.0
  0
LINE
  5
486
100
AcDbEntity
  8
0
  6
PHANTOM2
 62
       3
100
AcDbLine
 10
-105.72931155
 20
-171.65655121
 30
0.0
 11
-116.55715237
 21
-171.65655121
 31
0.0
  0
LINE
  5
487
100
AcDbEntity
  8
0
  6
PHANTOM2
 62
       3
100
AcDbLine
 10
-104.83640228
 20
-131.20670854
 30
0.0
 11
-105.72931155
 21
-131.20670854
 31
0.0
  0
LINE
  5
488
100
AcDbEntity
  8
0
  6
PHANTOM2
 62
       3
100
AcDbLine
 10
-117.83670188
 20
-134.78025968
 30
0.0
 11
-116.55715237
 21
-134.78025968
 31
0.0
  0
LINE
  5
489
100
AcDbEntity
  8
0
  6
PHANTOM2
 62
       3
100
AcDbLine
 10
-105.72931155
 20
-134.78025968
 30
0.0
 11
-104.83640228
 21
-134.78025968
 31
0.0
  0
LINE
  5
48A
100
AcDbEntity
  8
0
  6
PHANTOM2
 62
       3
100
AcDbLine
 10
-116.55715237
 20
-124.89413668
 30
0.0
 11
-116.55715237
 21
-124.00027038
 31
0.0
  0
LINE
  5
48B
100
AcDbEntity
  8
0
  6
PHANTOM2
 62
       3
100
AcDbLine
 10
-157.8932051
 20
-121.3224996
 30
0.0
 11
-157.8932051
 21
-174.32475169
 31
0.0
  0
LINE
  5
48C
100
AcDbEntity
  8
0
  6
PHANTOM2
 62
       3
100
AcDbLine
 10
-145.78581477
 20
-160.86507755
 30
0.0
 11
-145.78581477
 21
-161.77042821
 31
0.0
  0
LINE
  5
48D
100
AcDbEntity
  8
0
  6
PHANTOM2
 62
       3
100
AcDbLine
 10
-156.61556965
 20
-132.11014514
 30
0.0
 11
-156.61556965
 21
-131.20670854
 31
0.0
  0
LINE
  5
48E
100
AcDbEntity
  8
0
  6
PHANTOM2
 62
       3
100
AcDbLine
 10
-156.61556965
 20
-144.66638268
 30
0.0
 11
-156.61556965
 21
-143.77251638
 31
0.0
  0
LINE
  5
48F
100
AcDbEntity
  8
0
  6
PHANTOM2
 62
       3
100
AcDbLine
 10
-145.78581477
 20
-133.88830744
 30
0.0
 11
-145.78581477
 21
-134.78025968
 31
0.0
  0
LINE
  5
490
100
AcDbEntity
  8
0
  6
PHANTOM2
 62
       3
100
AcDbLine
 10
-116.55715237
 20
-161.77042821
 30
0.0
 11
-116.55715237
 21
-160.86507755
 31
0.0
  0
LINE
  5
491
100
AcDbEntity
  8
0
  6
PHANTOM2
 62
       3
100
AcDbLine
 10
-116.55715237
 20
-163.54284833
 30
0.0
 11
-105.72931155
 21
-163.54284833
 31
0.0
  0
LINE
  5
492
100
AcDbEntity
  8
0
  6
PHANTOM2
 62
       3
100
AcDbLine
 10
-156.61556965
 20
-173.43088539
 30
0.0
 11
-145.78581477
 21
-173.43088539
 31
0.0
  0
LINE
  5
493
100
AcDbEntity
  8
0
  6
PHANTOM2
 62
       3
100
AcDbLine
 10
-145.78581477
 20
-144.66638268
 30
0.0
 11
-144.8929055
 21
-144.66638268
 31
0.0
  0
LINE
  5
494
100
AcDbEntity
  8
0
  6
PHANTOM2
 62
       3
100
AcDbLine
 10
-156.61556965
 20
-124.89413668
 30
0.0
 11
-156.61556965
 21
-124.00027038
 31
0.0
  0
LINE
  5
495
100
AcDbEntity
  8
0
  6
PHANTOM2
 62
       3
100
AcDbLine
 10
-117.83670188
 20
-174.32475169
 30
0.0
 11
-116.55715237
 21
-174.32475169
 31
0.0
  0
LINE
  5
496
100
AcDbEntity
  8
0
  6
PHANTOM2
 62
       3
100
AcDbLine
 10
-116.55715237
 20
-141.09283154
 30
0.0
 11
-117.83670188
 21
-141.09283154
 31
0.0
  0
LINE
  5
497
100
AcDbEntity
  8
0
  6
PHANTOM2
 62
       3
100
AcDbLine
 10
-116.55715237
 20
-131.20670854
 30
0.0
 11
-117.83670188
 21
-131.20670854
 31
0.0
  0
LINE
  5
498
100
AcDbEntity
  8
0
  6
PHANTOM2
 62
       3
100
AcDbLine
 10
-117.83670188
 20
-154.55250569
 30
0.0
 11
-116.55715237
 21
-154.55250569
 31
0.0
  0
LINE
  5
499
100
AcDbEntity
  8
0
  6
PHANTOM2
 62
       3
100
AcDbLine
 10
-156.61556965
 20
-171.65655121
 30
0.0
 11
-156.61556965
 21
-170.75311461
 31
0.0
  0
LINE
  5
49A
100
AcDbEntity
  8
0
  6
PHANTOM2
 62
       3
100
AcDbLine
 10
-156.61556965
 20
-161.77042821
 30
0.0
 11
-156.61556965
 21
-160.86507755
 31
0.0
  0
LINE
  5
49B
100
AcDbEntity
  8
0
  6
PHANTOM2
 62
       3
100
AcDbLine
 10
-156.61556965
 20
-143.77251638
 30
0.0
 11
-145.78581477
 21
-143.77251638
 31
0.0
  0
LINE
  5
49C
100
AcDbEntity
  8
0
  6
PHANTOM2
 62
       3
100
AcDbLine
 10
-156.61556965
 20
-133.88830744
 30
0.0
 11
-145.78581477
 21
-133.88830744
 31
0.0
  0
LINE
  5
49D
100
AcDbEntity
  8
0
  6
PHANTOM2
 62
       3
100
AcDbLine
 10
-139.89433624
 20
-104.31989928
 30
0.0
 11
-139.89433624
 21
-187.32313723
 31
0.0
  0
LINE
  5
49E
100
AcDbEntity
  8
0
  6
PHANTOM2
 62
       3
100
AcDbLine
 10
-104.83640228
 20
-121.3224996
 30
0.0
 11
-105.72931155
 21
-121.3224996
 31
0.0
  0
LINE
  5
49F
100
AcDbEntity
  8
0
  6
PHANTOM2
 62
       3
100
AcDbLine
 10
-116.55715237
 20
-121.3224996
 30
0.0
 11
-117.83670188
 21
-121.3224996
 31
0.0
  0
LINE
  5
4A0
100
AcDbEntity
  8
0
  6
PHANTOM2
 62
       3
100
AcDbLine
 10
-116.55715237
 20
-173.43088539
 30
0.0
 11
-105.72931155
 21
-173.43088539
 31
0.0
  0
LINE
  5
4A1
100
AcDbEntity
  8
0
  6
PHANTOM2
 62
       3
100
AcDbLine
 10
-116.55715237
 20
-154.55250569
 30
0.0
 11
-116.55715237
 21
-153.65863938
 31
0.0
  0
LINE
  5
4A2
100
AcDbEntity
  8
0
  6
PHANTOM2
 62
       3
100
AcDbLine
 10
-145.78581477
 20
-131.20670854
 30
0.0
 11
-145.78581477
 21
-132.11014514
 31
0.0
  0
LINE
  5
4A3
100
AcDbEntity
  8
0
  6
PHANTOM2
 62
       3
100
AcDbLine
 10
-116.55715237
 20
-170.75311461
 30
0.0
 11
-117.83670188
 21
-170.75311461
 31
0.0
  0
LINE
  5
4A4
100
AcDbEntity
  8
0
  6
PHANTOM2
 62
       3
100
AcDbLine
 10
-156.61556965
 20
-170.75311461
 30
0.0
 11
-157.8932051
 21
-170.75311461
 31
0.0
  0
LINE
  5
4A5
100
AcDbEntity
  8
0
  6
PHANTOM2
 62
       3
100
AcDbLine
 10
-145.78581477
 20
-151.88239115
 30
0.0
 11
-156.61556965
 21
-151.88239115
 31
0.0
  0
LINE
  5
4A6
100
AcDbEntity
  8
0
  6
PHANTOM2
 62
       3
100
AcDbLine
 10
-144.8929055
 20
-141.09283154
 30
0.0
 11
-145.78581477
 21
-141.09283154
 31
0.0
  0
LINE
  5
4A7
100
AcDbEntity
  8
0
  6
PHANTOM2
 62
       3
100
AcDbLine
 10
-145.78581477
 20
-163.54284833
 30
0.0
 11
-145.78581477
 21
-164.43862869
 31
0.0
  0
LINE
  5
4A8
100
AcDbEntity
  8
0
  6
PHANTOM2
 62
       3
100
AcDbLine
 10
-145.78581477
 20
-143.77251638
 30
0.0
 11
-145.78581477
 21
-144.66638268
 31
0.0
  0
LINE
  5
4A9
100
AcDbEntity
  8
0
  6
PHANTOM2
 62
       3
100
AcDbLine
 10
-145.78581477
 20
-124.89413668
 30
0.0
 11
-144.8929055
 21
-124.89413668
 31
0.0
  0
LINE
  5
4AA
100
AcDbEntity
  8
0
  6
PHANTOM2
 62
       3
100
AcDbLine
 10
-99.83591896
 20
-187.32313723
 30
0.0
 11
-99.83591896
 21
-104.31989928
 31
0.0
  0
LINE
  5
4AB
100
AcDbEntity
  8
0
  6
PHANTOM2
 62
       3
100
AcDbLine
 10
-105.72931155
 20
-150.97895454
 30
0.0
 11
-105.72931155
 21
-151.88239115
 31
0.0
  0
LINE
  5
4AC
100
AcDbEntity
  8
0
  6
PHANTOM2
 62
       3
100
AcDbLine
 10
-116.55715237
 20
-151.88239115
 30
0.0
 11
-116.55715237
 21
-150.97895454
 31
0.0
  0
LINE
  5
4AD
100
AcDbEntity
  8
0
  6
PHANTOM2
 62
       3
100
AcDbLine
 10
-105.72931155
 20
-132.11014514
 30
0.0
 11
-116.55715237
 21
-132.11014514
 31
0.0
  0
LINE
  5
4AE
100
AcDbEntity
  8
0
  6
PHANTOM2
 62
       3
100
AcDbLine
 10
-157.8932051
 20
-174.32475169
 30
0.0
 11
-156.61556965
 21
-174.32475169
 31
0.0
  0
LINE
  5
4AF
100
AcDbEntity
  8
0
  6
PHANTOM2
 62
       3
100
AcDbLine
 10
-145.78581477
 20
-132.11014514
 30
0.0
 11
-156.61556965
 21
-132.11014514
 31
0.0
  0
LINE
  5
4B0
100
AcDbEntity
  8
0
  6
PHANTOM2
 62
       3
100
AcDbLine
 10
-145.78581477
 20
-164.43862869
 30
0.0
 11
-144.8929055
 21
-164.43862869
 31
0.0
  0
LINE
  5
4B1
100
AcDbEntity
  8
0
  6
PHANTOM2
 62
       3
100
AcDbLine
 10
-116.55715237
 20
-174.32475169
 30
0.0
 11
-116.55715237
 21
-173.43088539
 31
0.0
  0
LINE
  5
4B2
100
AcDbEntity
  8
0
  6
PHANTOM2
 62
       3
100
AcDbLine
 10
-144.8929055
 20
-170.75311461
 30
0.0
 11
-145.78581477
 21
-170.75311461
 31
0.0
  0
LINE
  5
4B3
100
AcDbEntity
  8
0
  6
PHANTOM2
 62
       3
100
AcDbLine
 10
-145.78581477
 20
-170.75311461
 30
0.0
 11
-145.78581477
 21
-171.65655121
 31
0.0
  0
LINE
  5
4B4
100
AcDbEntity
  8
0
  6
PHANTOM2
 62
       3
100
AcDbLine
 10
-145.78581477
 20
-150.97895454
 30
0.0
 11
-145.78581477
 21
-151.88239115
 31
0.0
  0
LINE
  5
4B5
100
AcDbEntity
  8
0
  6
PHANTOM2
 62
       3
100
AcDbLine
 10
-156.61556965
 20
-151.88239115
 30
0.0
 11
-156.61556965
 21
-150.97895454
 31
0.0
  0
LINE
  5
4B6
100
AcDbEntity
  8
0
  6
PHANTOM2
 62
       3
100
AcDbLine
 10
-145.78581477
 20
-141.99626814
 30
0.0
 11
-156.61556965
 21
-141.99626814
 31
0.0
  0
LINE
  5
4B7
100
AcDbEntity
  8
0
  6
PHANTOM2
 62
       3
100
AcDbLine
 10
-157.8932051
 20
-154.55250569
 30
0.0
 11
-156.61556965
 21
-154.55250569
 31
0.0
  0
LINE
  5
4B8
100
AcDbEntity
  8
0
  6
PHANTOM2
 62
       3
100
AcDbLine
 10
-157.8932051
 20
-144.66638268
 30
0.0
 11
-156.61556965
 21
-144.66638268
 31
0.0
  0
LINE
  5
4B9
100
AcDbEntity
  8
0
  6
PHANTOM2
 62
       3
100
AcDbLine
 10
-157.8932051
 20
-124.89413668
 30
0.0
 11
-156.61556965
 21
-124.89413668
 31
0.0
  0
LINE
  5
4BA
100
AcDbEntity
  8
0
  6
PHANTOM2
 62
       3
100
AcDbLine
 10
-99.87324314
 20
-252.41274418
 30
0.0
 11
-132.87356196
 21
-252.41274418
 31
0.0
  0
LINE
  5
4BB
100
AcDbEntity
  8
0
  6
PHANTOM2
 62
       3
100
AcDbLine
 10
-117.83478782
 20
-240.41349827
 30
0.0
 11
-117.83478782
 21
-252.41465824
 31
0.0
  0
LINE
  5
4BC
100
AcDbEntity
  8
0
  6
PHANTOM2
 62
       3
100
AcDbLine
 10
-144.89194847
 20
-240.41349827
 30
0.0
 11
-157.8932051
 21
-240.41349827
 31
0.0
  0
LINE
  5
4BD
100
AcDbEntity
  8
0
  6
PHANTOM2
 62
       3
100
AcDbLine
 10
-139.89242218
 20
-373.41349827
 30
0.0
 11
-139.89242218
 21
-252.41274418
 31
0.0
  0
LINE
  5
4BE
100
AcDbEntity
  8
0
  6
PHANTOM2
 62
       3
100
AcDbLine
 10
-99.87324314
 20
-373.41349827
 30
0.0
 11
-99.87324314
 21
-252.41274418
 31
0.0
  0
LINE
  5
4BF
100
AcDbEntity
  8
0
  6
PHANTOM2
 62
       3
100
AcDbLine
 10
-104.83353119
 20
-240.41349827
 30
0.0
 11
-117.83478782
 21
-240.41349827
 31
0.0
  0
LINE
  5
4C0
100
AcDbEntity
  8
0
  6
PHANTOM2
 62
       3
100
AcDbLine
 10
-144.89194847
 20
-252.41465824
 30
0.0
 11
-144.89194847
 21
-240.41349827
 31
0.0
  0
LINE
  5
4C1
100
AcDbEntity
  8
0
  6
PHANTOM2
 62
       3
100
AcDbLine
 10
-139.89242218
 20
-252.41274418
 30
0.0
 11
-172.89465506
 21
-252.41274418
 31
0.0
  0
LINE
  5
4C2
100
AcDbEntity
  8
0
  6
PHANTOM2
 62
       3
100
AcDbLine
 10
-157.8932051
 20
-240.41349827
 30
0.0
 11
-157.8932051
 21
-252.41465824
 31
0.0
  0
LINE
  5
4C3
100
AcDbEntity
  8
0
  6
PHANTOM2
 62
       3
100
AcDbLine
 10
-172.89465506
 20
-252.41274418
 30
0.0
 11
-172.89465506
 21
-373.41349827
 31
0.0
  0
LINE
  5
4C4
100
AcDbEntity
  8
0
  6
PHANTOM2
 62
       3
100
AcDbLine
 10
-132.87356196
 20
-252.41274418
 30
0.0
 11
-132.87356196
 21
-373.41349827
 31
0.0
  0
LINE
  5
4C5
100
AcDbEntity
  8
0
  6
PHANTOM2
 62
       3
100
AcDbLine
 10
-104.83353119
 20
-252.41465824
 30
0.0
 11
-104.83353119
 21
-240.41349827
 31
0.0
  0
LINE
  5
4C6
100
AcDbEntity
  8
0
  6
PHANTOM2
 62
       3
100
AcDbLine
 10
-181.23900224
 20
261.78435737
 30
0.0
 11
-181.23900224
 21
356.78435737
 31
0.0
  0
LINE
  5
4C7
100
AcDbEntity
  8
0
  6
PHANTOM2
 62
       3
100
AcDbLine
 10
-91.22708395
 20
261.78434576
 30
0.0
 11
-91.22708395
 21
356.78435737
 31
0.0
  0
LINE
  5
4C8
100
AcDbEntity
  8
0
  6
PHANTOM2
 62
       3
100
AcDbLine
 10
-120.45740384
 20
355.58054108
 30
0.0
 11
-120.45740384
 21
344.75419643
 31
0.0
  0
LINE
  5
4C9
100
AcDbEntity
  8
0
  6
PHANTOM2
 62
       3
100
AcDbLine
 10
-124.694938
 20
353.06410498
 30
0.0
 11
-124.9712785
 21
353.20308671
 31
0.0
  0
LINE
  5
4CA
100
AcDbEntity
  8
0
  6
PHANTOM2
 62
       3
100
AcDbLine
 10
-117.27287745
 20
347.12102238
 30
0.0
 11
-116.96357544
 21
347.05084353
 31
0.0
  0
LINE
  5
4CB
100
AcDbEntity
  8
0
  6
PHANTOM2
 62
       3
100
AcDbLine
 10
-134.58080552
 20
347.41857771
 30
0.0
 11
-134.32034776
 21
347.58235554
 31
0.0
  0
LINE
  5
4CC
100
AcDbEntity
  8
0
  6
PHANTOM2
 62
       3
100
AcDbLine
 10
-143.35380379
 20
352.02839827
 30
0.0
 11
-143.5351568
 21
352.27578878
 31
0.0
  0
LINE
  5
4CD
100
AcDbEntity
  8
0
  6
PHANTOM2
 62
       3
100
AcDbLine
 10
-153.84792045
 20
352.71331039
 30
0.0
 11
-154.09060687
 21
352.90032715
 31
0.0
  0
LINE
  5
4CE
100
AcDbEntity
  8
0
  6
PHANTOM2
 62
       3
100
AcDbLine
 10
-145.33541554
 20
353.40043319
 30
0.0
 11
-145.6497361
 21
353.45568359
 31
0.0
  0
LINE
  5
4CF
100
AcDbEntity
  8
0
  6
PHANTOM2
 62
       3
100
AcDbLine
 10
-145.97367031
 20
353.47990919
 30
0.0
 11
-146.30173119
 21
353.47177181
 31
0.0
  0
LINE
  5
4D0
100
AcDbEntity
  8
0
  6
PHANTOM2
 62
       3
100
AcDbLine
 10
-152.84447064
 20
349.29228865
 30
0.0
 11
-152.76711482
 21
349.59837706
 31
0.0
  0
LINE
  5
4D1
100
AcDbEntity
  8
0
  6
PHANTOM2
 62
       3
100
AcDbLine
 10
-115.37531257
 20
353.31571517
 30
0.0
 11
-115.67820393
 21
353.40043319
 31
0.0
  0
LINE
  5
4D2
100
AcDbEntity
  8
0
  6
PHANTOM2
 62
       3
100
AcDbLine
 10
-158.36340458
 20
348.09006412
 30
0.0
 11
-158.14962494
 21
347.87110866
 31
0.0
  0
LINE
  5
4D3
100
AcDbEntity
  8
0
  6
PHANTOM2
 62
       3
100
AcDbLine
 10
-160.00031354
 20
344.75419643
 30
0.0
 11
-159.10554918
 21
344.75419643
 31
0.0
  0
LINE
  5
4D4
100
AcDbEntity
  8
0
  6
PHANTOM2
 62
       3
100
AcDbLine
 10
-124.694938
 20
347.41857771
 30
0.0
 11
-124.43449477
 21
347.58235554
 31
0.0
  0
LINE
  5
4D5
100
AcDbEntity
  8
0
  6
PHANTOM2
 62
       3
100
AcDbLine
 10
-117.85386527
 20
353.13679268
 30
0.0
 11
-118.1224509
 21
352.98521825
 31
0.0
  0
LINE
  5
4D6
100
AcDbEntity
  8
0
  6
PHANTOM2
 62
       3
100
AcDbLine
 10
-123.18672284
 20
349.29228865
 30
0.0
 11
-123.10926087
 21
349.59837706
 31
0.0
  0
LINE
  5
4D7
100
AcDbEntity
  8
0
  6
PHANTOM2
 62
       3
100
AcDbLine
 10
-126.53215883
 20
353.47177181
 30
0.0
 11
-126.85116194
 21
353.43183916
 31
0.0
  0
LINE
  5
4D8
100
AcDbEntity
  8
0
  6
PHANTOM2
 62
       3
100
AcDbLine
 10
-129.48840432
 20
349.75556167
 30
0.0
 11
-129.42564682
 21
349.44388784
 31
0.0
  0
LINE
  5
4D9
100
AcDbEntity
  8
0
  6
PHANTOM2
 62
       3
100
AcDbLine
 10
-154.62672135
 20
347.27959598
 30
0.0
 11
-154.35072292
 21
347.41857771
 31
0.0
  0
LINE
  5
4DA
100
AcDbEntity
  8
0
  6
PHANTOM2
 62
       3
100
AcDbLine
 10
-149.29148707
 20
350.07723846
 30
0.0
 11
-149.25942145
 21
349.75556167
 31
0.0
  0
LINE
  5
4DB
100
AcDbEntity
  8
0
  6
PHANTOM2
 62
       3
100
AcDbLine
 10
-113.16046376
 20
350.24134134
 30
0.0
 11
-113.17668939
 21
350.56743567
 31
0.0
  0
LINE
  5
4DC
100
AcDbEntity
  8
0
  6
PHANTOM2
 62
       3
100
AcDbLine
 10
-123.76404951
 20
352.27578878
 30
0.0
 11
-123.96750043
 21
352.50461187
 31
0.0
  0
LINE
  5
4DD
100
AcDbEntity
  8
0
  6
PHANTOM2
 62
       3
100
AcDbLine
 10
-148.98588895
 20
351.62590494
 30
0.0
 11
-149.10507797
 21
351.33890855
 31
0.0
  0
LINE
  5
4DE
100
AcDbEntity
  8
0
  6
PHANTOM2
 62
       3
100
AcDbLine
 10
-133.85321598
 20
352.50461187
 30
0.0
 11
-134.07729838
 21
352.71331039
 31
0.0
  0
LINE
  5
4DF
100
AcDbEntity
  8
0
  6
PHANTOM2
 62
       3
100
AcDbLine
 10
-132.99430907
 20
349.59837706
 30
0.0
 11
-132.946636
 21
349.91524702
 31
0.0
  0
LINE
  5
4E0
100
AcDbEntity
  8
0
  6
PHANTOM2
 62
       3
100
AcDbLine
 10
-146.93066524
 20
353.36166031
 30
0.0
 11
-147.22782572
 21
353.26279243
 31
0.0
  0
LINE
  5
4E1
100
AcDbEntity
  8
0
  6
PHANTOM2
 62
       3
100
AcDbLine
 10
-125.26196617
 20
353.31571517
 30
0.0
 11
-125.56545092
 21
353.40043319
 31
0.0
  0
LINE
  5
4E2
100
AcDbEntity
  8
0
  6
PHANTOM2
 62
       3
100
AcDbLine
 10
-132.93039862
 20
350.24134134
 30
0.0
 11
-132.946636
 21
350.56743567
 31
0.0
  0
LINE
  5
4E3
100
AcDbEntity
  8
0
  6
PHANTOM2
 62
       3
100
AcDbLine
 10
-133.64965915
 20
352.27578878
 30
0.0
 11
-133.85321598
 21
352.50461187
 31
0.0
  0
LINE
  5
4E4
100
AcDbEntity
  8
0
  6
PHANTOM2
 62
       3
100
AcDbLine
 10
-123.5826962
 20
352.02839827
 30
0.0
 11
-123.76404951
 21
352.27578878
 31
0.0
  0
LINE
  5
4E5
100
AcDbEntity
  8
0
  6
PHANTOM2
 62
       3
100
AcDbLine
 10
-117.57015743
 20
353.26279243
 30
0.0
 11
-117.85386527
 21
353.13679268
 31
0.0
  0
LINE
  5
4E6
100
AcDbEntity
  8
0
  6
PHANTOM2
 62
       3
100
AcDbLine
 10
-127.15981389
 20
353.36166031
 30
0.0
 11
-127.45655467
 21
353.26279243
 31
0.0
  0
LINE
  5
4E7
100
AcDbEntity
  8
0
  6
PHANTOM2
 62
       3
100
AcDbLine
 10
-129.52053057
 20
350.07723846
 30
0.0
 11
-129.48840432
 21
349.75556167
 31
0.0
  0
LINE
  5
4E8
100
AcDbEntity
  8
0
  6
PHANTOM2
 62
       3
100
AcDbLine
 10
-118.60805515
 20
352.61157403
 30
0.0
 11
-118.8219736
 21
352.39261857
 31
0.0
  0
LINE
  5
4E9
100
AcDbEntity
  8
0
  6
PHANTOM2
 62
       3
100
AcDbLine
 10
-134.85711307
 20
347.27959598
 30
0.0
 11
-134.58080552
 21
347.41857771
 31
0.0
  0
LINE
  5
4EA
100
AcDbEntity
  8
0
  6
PHANTOM2
 62
       3
100
AcDbLine
 10
-142.00470753
 20
355.58054108
 30
0.0
 11
-142.90757846
 21
355.58054108
 31
0.0
  0
LINE
  5
4EB
100
AcDbEntity
  8
0
  6
PHANTOM2
 62
       3
100
AcDbLine
 10
-139.33662765
 20
355.58054108
 30
0.0
 11
-140.22835203
 21
355.58054108
 31
0.0
  0
LINE
  5
4EC
100
AcDbEntity
  8
0
  6
PHANTOM2
 62
       3
100
AcDbLine
 10
-144.4657076
 20
353.06410498
 30
0.0
 11
-144.74184412
 21
353.20308671
 31
0.0
  0
LINE
  5
4ED
100
AcDbEntity
  8
0
  6
PHANTOM2
 62
       3
100
AcDbLine
 10
-147.22782572
 20
347.21989026
 30
0.0
 11
-146.93066524
 21
347.12102238
 31
0.0
  0
LINE
  5
4EE
100
AcDbEntity
  8
0
  6
PHANTOM2
 62
       3
100
AcDbLine
 10
-150.1153461
 20
355.58054108
 30
0.0
 11
-150.1153461
 21
344.75419643
 31
0.0
  0
LINE
  5
4EF
100
AcDbEntity
  8
0
  6
PHANTOM2
 62
       3
100
AcDbLine
 10
-138.95535874
 20
351.89822686
 30
0.0
 11
-139.10060591
 21
351.62590494
 31
0.0
  0
LINE
  5
4F0
100
AcDbEntity
  8
0
  6
PHANTOM2
 62
       3
100
AcDbLine
 10
-138.14591981
 20
347.67305638
 30
0.0
 11
-137.8942192
 21
347.49746444
 31
0.0
  0
LINE
  5
4F1
100
AcDbEntity
  8
0
  6
PHANTOM2
 62
       3
100
AcDbLine
 10
-123.04543119
 20
350.24134134
 30
0.0
 11
-123.06164696
 21
350.56743567
 31
0.0
  0
LINE
  5
4F2
100
AcDbEntity
  8
0
  6
PHANTOM2
 62
       3
100
AcDbLine
 10
-127.45655467
 20
353.26279243
 30
0.0
 11
-127.73982428
 21
353.13679268
 31
0.0
  0
LINE
  5
4F3
100
AcDbEntity
  8
0
  6
PHANTOM2
 62
       3
100
AcDbLine
 10
-122.23375934
 20
344.75419643
 30
0.0
 11
-122.23375934
 21
355.58054108
 31
0.0
  0
LINE
  5
4F4
100
AcDbEntity
  8
0
  6
PHANTOM2
 62
       3
100
AcDbLine
 10
-139.33662765
 20
344.75419643
 30
0.0
 11
-139.33662765
 21
343.86145873
 31
0.0
  0
LINE
  5
4F5
100
AcDbEntity
  8
0
  6
PHANTOM2
 62
       3
100
AcDbLine
 10
-123.29248278
 20
348.99853896
 30
0.0
 11
-123.18672284
 21
349.29228865
 31
0.0
  0
LINE
  5
4F6
100
AcDbEntity
  8
0
  6
PHANTOM2
 62
       3
100
AcDbLine
 10
-113.30181439
 20
349.29228865
 30
0.0
 11
-113.22432627
 21
349.59837706
 31
0.0
  0
LINE
  5
4F7
100
AcDbEntity
  8
0
  6
PHANTOM2
 62
       3
100
AcDbLine
 10
-158.7254847
 20
348.58445583
 30
0.0
 11
-158.55587406
 21
348.32836556
 31
0.0
  0
LINE
  5
4F8
100
AcDbEntity
  8
0
  6
PHANTOM2
 62
       3
100
AcDbLine
 10
-114.30625887
 20
352.71331039
 30
0.0
 11
-114.54902552
 21
352.90032715
 31
0.0
  0
LINE
  5
4F9
100
AcDbEntity
  8
0
  6
PHANTOM2
 62
       3
100
AcDbLine
 10
-142.95774276
 20
349.29228865
 30
0.0
 11
-142.88024566
 21
349.59837706
 31
0.0
  0
LINE
  5
4FA
100
AcDbEntity
  8
0
  6
PHANTOM2
 62
       3
100
AcDbLine
 10
-156.18657096
 20
347.01091088
 30
0.0
 11
-155.85859383
 21
347.0027735
 31
0.0
  0
LINE
  5
4FB
100
AcDbEntity
  8
0
  6
PHANTOM2
 62
       3
100
AcDbLine
 10
-112.34676526
 20
355.58054108
 30
0.0
 11
-113.2496362
 21
355.58054108
 31
0.0
  0
LINE
  5
4FC
100
AcDbEntity
  8
0
  6
PHANTOM2
 62
       3
100
AcDbLine
 10
-142.90757846
 20
343.86145873
 30
0.0
 11
-142.90757846
 21
344.75419643
 31
0.0
  0
LINE
  5
4FD
100
AcDbEntity
  8
0
  6
PHANTOM2
 62
       3
100
AcDbLine
 10
-133.31035653
 20
348.71868516
 30
0.0
 11
-133.17772792
 21
348.99853896
 31
0.0
  0
LINE
  5
4FE
100
AcDbEntity
  8
0
  6
PHANTOM2
 62
       3
100
AcDbLine
 10
-132.946636
 20
350.56743567
 30
0.0
 11
-132.99430907
 21
350.88430563
 31
0.0
  0
LINE
  5
4FF
100
AcDbEntity
  8
0
  6
PHANTOM2
 62
       3
100
AcDbLine
 10
-128.25970995
 20
347.67305638
 30
0.0
 11
-128.00806271
 21
347.49746444
 31
0.0
  0
LINE
  5
500
100
AcDbEntity
  8
0
  6
PHANTOM2
 62
       3
100
AcDbLine
 10
-162.67953997
 20
355.58054108
 30
0.0
 11
-162.67953997
 21
356.86138155
 31
0.0
  0
LINE
  5
501
100
AcDbEntity
  8
0
  6
PHANTOM2
 62
       3
100
AcDbLine
 10
-126.20461133
 20
353.47990919
 30
0.0
 11
-126.53215883
 21
353.47177181
 31
0.0
  0
LINE
  5
502
100
AcDbEntity
  8
0
  6
PHANTOM2
 62
       3
100
AcDbLine
 10
-153.23991159
 20
348.45428442
 30
0.0
 11
-153.08241628
 21
348.71868516
 31
0.0
  0
LINE
  5
503
100
AcDbEntity
  8
0
  6
PHANTOM2
 62
       3
100
AcDbLine
 10
-115.67820393
 20
347.0822495
 30
0.0
 11
-115.37531257
 21
347.16696752
 31
0.0
  0
LINE
  5
504
100
AcDbEntity
  8
0
  6
PHANTOM2
 62
       3
100
AcDbLine
 10
-113.40759375
 20
351.48414373
 30
0.0
 11
-113.54010434
 21
351.76399753
 31
0.0
  0
LINE
  5
505
100
AcDbEntity
  8
0
  6
PHANTOM2
 62
       3
100
AcDbLine
 10
-148.98588895
 20
348.85677775
 30
0.0
 11
-148.84074764
 21
348.58445583
 31
0.0
  0
LINE
  5
506
100
AcDbEntity
  8
0
  6
PHANTOM2
 62
       3
100
AcDbLine
 10
-123.76404951
 20
348.20689391
 30
0.0
 11
-123.5826962
 21
348.45428442
 31
0.0
  0
LINE
  5
507
100
AcDbEntity
  8
0
  6
PHANTOM2
 62
       3
100
AcDbLine
 10
-149.25942145
 20
349.75556167
 30
0.0
 11
-149.19677027
 21
349.44388784
 31
0.0
  0
LINE
  5
508
100
AcDbEntity
  8
0
  6
PHANTOM2
 62
       3
100
AcDbLine
 10
-132.11872677
 20
344.75419643
 30
0.0
 11
-132.11872677
 21
355.58054108
 31
0.0
  0
LINE
  5
509
100
AcDbEntity
  8
0
  6
PHANTOM2
 62
       3
100
AcDbLine
 10
-113.22432627
 20
349.59837706
 30
0.0
 11
-113.17668939
 21
349.91524702
 31
0.0
  0
LINE
  5
50A
100
AcDbEntity
  8
0
  6
PHANTOM2
 62
       3
100
AcDbLine
 10
-144.74184412
 20
353.20308671
 30
0.0
 11
-145.03226583
 21
353.31571517
 31
0.0
  0
LINE
  5
50B
100
AcDbEntity
  8
0
  6
PHANTOM2
 62
       3
100
AcDbLine
 10
-113.30181439
 20
351.19039404
 30
0.0
 11
-113.40759375
 21
351.48414373
 31
0.0
  0
LINE
  5
50C
100
AcDbEntity
  8
0
  6
PHANTOM2
 62
       3
100
AcDbLine
 10
-119.32959316
 20
348.85677775
 30
0.0
 11
-119.18429269
 21
348.58445583
 31
0.0
  0
LINE
  5
50D
100
AcDbEntity
  8
0
  6
PHANTOM2
 62
       3
100
AcDbLine
 10
-123.29248278
 20
351.48414373
 30
0.0
 11
-123.42499059
 21
351.76399753
 31
0.0
  0
LINE
  5
50E
100
AcDbEntity
  8
0
  6
PHANTOM2
 62
       3
100
AcDbLine
 10
-113.87907918
 20
352.27578878
 30
0.0
 11
-114.08242343
 21
352.50461187
 31
0.0
  0
LINE
  5
50F
100
AcDbEntity
  8
0
  6
PHANTOM2
 62
       3
100
AcDbLine
 10
-142.95774276
 20
351.19039404
 30
0.0
 11
-143.06353959
 21
351.48414373
 31
0.0
  0
LINE
  5
510
100
AcDbEntity
  8
0
  6
PHANTOM2
 62
       3
100
AcDbLine
 10
-129.44963357
 20
344.75419643
 30
0.0
 11
-129.44963357
 21
343.86145873
 31
0.0
  0
LINE
  5
511
100
AcDbEntity
  8
0
  6
PHANTOM2
 62
       3
100
AcDbLine
 10
-148.47878584
 20
352.39261857
 30
0.0
 11
-148.67119847
 21
352.15431713
 31
0.0
  0
LINE
  5
512
100
AcDbEntity
  8
0
  6
PHANTOM2
 62
       3
100
AcDbLine
 10
-129.44963357
 20
356.86138155
 30
0.0
 11
-129.44963357
 21
355.58054108
 31
0.0
  0
LINE
  5
513
100
AcDbEntity
  8
0
  6
PHANTOM2
 62
       3
100
AcDbLine
 10
-139.31168477
 20
351.03879485
 30
0.0
 11
-139.37440779
 21
350.72712102
 31
0.0
  0
LINE
  5
514
100
AcDbEntity
  8
0
  6
PHANTOM2
 62
       3
100
AcDbLine
 10
-133.02362435
 20
355.58054108
 30
0.0
 11
-133.02362435
 21
356.86138155
 31
0.0
  0
LINE
  5
515
100
AcDbEntity
  8
0
  6
PHANTOM2
 62
       3
100
AcDbLine
 10
-123.13663028
 20
343.86145873
 30
0.0
 11
-123.13663028
 21
344.75419643
 31
0.0
  0
LINE
  5
516
100
AcDbEntity
  8
0
  6
PHANTOM2
 62
       3
100
AcDbLine
 10
-115.99222647
 20
347.0269991
 30
0.0
 11
-115.67820393
 21
347.0822495
 31
0.0
  0
LINE
  5
517
100
AcDbEntity
  8
0
  6
PHANTOM2
 62
       3
100
AcDbLine
 10
-126.53215883
 20
347.01091088
 30
0.0
 11
-126.20461133
 21
347.0027735
 31
0.0
  0
LINE
  5
518
100
AcDbEntity
  8
0
  6
PHANTOM2
 62
       3
100
AcDbLine
 10
-136.08966944
 20
347.0027735
 30
0.0
 11
-135.76554861
 21
347.0269991
 31
0.0
  0
LINE
  5
519
100
AcDbEntity
  8
0
  6
PHANTOM2
 62
       3
100
AcDbLine
 10
-114.54902552
 20
352.90032715
 30
0.0
 11
-114.80916335
 21
353.06410498
 31
0.0
  0
LINE
  5
51A
100
AcDbEntity
  8
0
  6
PHANTOM2
 62
       3
100
AcDbLine
 10
-126.85116194
 20
353.43183916
 30
0.0
 11
-127.15981389
 21
353.36166031
 31
0.0
  0
LINE
  5
51B
100
AcDbEntity
  8
0
  6
PHANTOM2
 62
       3
100
AcDbLine
 10
-153.23991159
 20
352.02839827
 30
0.0
 11
-153.42102556
 21
352.27578878
 31
0.0
  0
LINE
  5
51C
100
AcDbEntity
  8
0
  6
PHANTOM2
 62
       3
100
AcDbLine
 10
-120.45740384
 20
344.75419643
 30
0.0
 11
-119.56263949
 21
344.75419643
 31
0.0
  0
LINE
  5
51D
100
AcDbEntity
  8
0
  6
PHANTOM2
 62
       3
100
AcDbLine
 10
-159.10554918
 20
344.75419643
 30
0.0
 11
-159.10554918
 21
343.86145873
 31
0.0
  0
LINE
  5
51E
100
AcDbEntity
  8
0
  6
PHANTOM2
 62
       3
100
AcDbLine
 10
-142.83260548
 20
349.91524702
 30
0.0
 11
-142.81637938
 21
350.24134134
 31
0.0
  0
LINE
  5
51F
100
AcDbEntity
  8
0
  6
PHANTOM2
 62
       3
100
AcDbLine
 10
-162.67953997
 20
344.75419643
 30
0.0
 11
-161.77666904
 21
344.75419643
 31
0.0
  0
LINE
  5
520
100
AcDbEntity
  8
0
  6
PHANTOM2
 62
       3
100
AcDbLine
 10
-138.59322066
 20
352.39261857
 30
0.0
 11
-138.78571222
 21
352.15431713
 31
0.0
  0
LINE
  5
521
100
AcDbEntity
  8
0
  6
PHANTOM2
 62
       3
100
AcDbLine
 10
-109.67868538
 20
343.86145873
 30
0.0
 11
-162.67953997
 21
343.86145873
 31
0.0
  0
LINE
  5
522
100
AcDbEntity
  8
0
  6
PHANTOM2
 62
       3
100
AcDbLine
 10
-134.07729838
 20
347.7693723
 30
0.0
 11
-133.85321598
 21
347.97807082
 31
0.0
  0
LINE
  5
523
100
AcDbEntity
  8
0
  6
PHANTOM2
 62
       3
100
AcDbLine
 10
-153.08241628
 20
348.71868516
 30
0.0
 11
-152.95008687
 21
348.99853896
 31
0.0
  0
LINE
  5
524
100
AcDbEntity
  8
0
  6
PHANTOM2
 62
       3
100
AcDbLine
 10
-153.62421094
 20
347.97807082
 30
0.0
 11
-153.42102556
 21
348.20689391
 31
0.0
  0
LINE
  5
525
100
AcDbEntity
  8
0
  6
PHANTOM2
 62
       3
100
AcDbLine
 10
-123.06164696
 20
350.56743567
 30
0.0
 11
-123.10926087
 21
350.88430563
 31
0.0
  0
LINE
  5
526
100
AcDbEntity
  8
0
  6
PHANTOM2
 62
       3
100
AcDbLine
 10
-129.2144781
 20
348.85677775
 30
0.0
 11
-129.0691869
 21
348.58445583
 31
0.0
  0
LINE
  5
527
100
AcDbEntity
  8
0
  6
PHANTOM2
 62
       3
100
AcDbLine
 10
-159.14436537
 20
350.72712102
 30
0.0
 11
-159.17645171
 21
350.40544423
 31
0.0
  0
LINE
  5
528
100
AcDbEntity
  8
0
  6
PHANTOM2
 62
       3
100
AcDbLine
 10
-149.10507797
 20
349.14377414
 30
0.0
 11
-148.98588895
 21
348.85677775
 31
0.0
  0
LINE
  5
529
100
AcDbEntity
  8
0
  6
PHANTOM2
 62
       3
100
AcDbLine
 10
-115.67820393
 20
353.40043319
 30
0.0
 11
-115.99222647
 21
353.45568359
 31
0.0
  0
LINE
  5
52A
100
AcDbEntity
  8
0
  6
PHANTOM2
 62
       3
100
AcDbLine
 10
-116.64380148
 20
347.01091088
 30
0.0
 11
-116.31582016
 21
347.0027735
 31
0.0
  0
LINE
  5
52B
100
AcDbEntity
  8
0
  6
PHANTOM2
 62
       3
100
AcDbLine
 10
-147.51138927
 20
347.34589001
 30
0.0
 11
-147.22782572
 21
347.21989026
 31
0.0
  0
LINE
  5
52C
100
AcDbEntity
  8
0
  6
PHANTOM2
 62
       3
100
AcDbLine
 10
-161.77666904
 20
344.75419643
 30
0.0
 11
-161.77666904
 21
355.58054108
 31
0.0
  0
LINE
  5
52D
100
AcDbEntity
  8
0
  6
PHANTOM2
 62
       3
100
AcDbLine
 10
-116.96357544
 20
353.43183916
 30
0.0
 11
-117.27287745
 21
353.36166031
 31
0.0
  0
LINE
  5
52E
100
AcDbEntity
  8
0
  6
PHANTOM2
 62
       3
100
AcDbLine
 10
-127.15981389
 20
347.12102238
 30
0.0
 11
-126.85116194
 21
347.05084353
 31
0.0
  0
LINE
  5
52F
100
AcDbEntity
  8
0
  6
PHANTOM2
 62
       3
100
AcDbLine
 10
-116.96357544
 20
347.05084353
 30
0.0
 11
-116.64380148
 21
347.01091088
 31
0.0
  0
LINE
  5
530
100
AcDbEntity
  8
0
  6
PHANTOM2
 62
       3
100
AcDbLine
 10
-157.91608378
 20
347.67305638
 30
0.0
 11
-157.6643298
 21
347.49746444
 31
0.0
  0
LINE
  5
531
100
AcDbEntity
  8
0
  6
PHANTOM2
 62
       3
100
AcDbLine
 10
-152.76711482
 20
350.88430563
 30
0.0
 11
-152.84447064
 21
351.19039404
 31
0.0
  0
LINE
  5
532
100
AcDbEntity
  8
0
  6
PHANTOM2
 62
       3
100
AcDbLine
 10
-154.09060687
 20
352.90032715
 30
0.0
 11
-154.35072292
 21
353.06410498
 31
0.0
  0
LINE
  5
533
100
AcDbEntity
  8
0
  6
PHANTOM2
 62
       3
100
AcDbLine
 10
-142.90757846
 20
355.58054108
 30
0.0
 11
-142.90757846
 21
356.86138155
 31
0.0
  0
LINE
  5
534
100
AcDbEntity
  8
0
  6
PHANTOM2
 62
       3
100
AcDbLine
 10
-118.37436422
 20
352.80962631
 30
0.0
 11
-118.60805515
 21
352.61157403
 31
0.0
  0
LINE
  5
535
100
AcDbEntity
  8
0
  6
PHANTOM2
 62
       3
100
AcDbLine
 10
-112.34676526
 20
344.75419643
 30
0.0
 11
-112.34676526
 21
355.58054108
 31
0.0
  0
LINE
  5
536
100
AcDbEntity
  8
0
  6
PHANTOM2
 62
       3
100
AcDbLine
 10
-113.40759375
 20
348.99853896
 30
0.0
 11
-113.30181439
 21
349.29228865
 31
0.0
  0
LINE
  5
537
100
AcDbEntity
  8
0
  6
PHANTOM2
 62
       3
100
AcDbLine
 10
-138.78571222
 20
348.32836556
 30
0.0
 11
-138.59322066
 21
348.09006412
 31
0.0
  0
LINE
  5
538
100
AcDbEntity
  8
0
  6
PHANTOM2
 62
       3
100
AcDbLine
 10
-127.73982428
 20
347.34589001
 30
0.0
 11
-127.45655467
 21
347.21989026
 31
0.0
  0
LINE
  5
539
100
AcDbEntity
  8
0
  6
PHANTOM2
 62
       3
100
AcDbLine
 10
-157.11237804
 20
353.26279243
 30
0.0
 11
-157.39591167
 21
353.13679268
 31
0.0
  0
LINE
  5
53A
100
AcDbEntity
  8
0
  6
PHANTOM2
 62
       3
100
AcDbLine
 10
-133.17772792
 20
351.48414373
 30
0.0
 11
-133.31035653
 21
351.76399753
 31
0.0
  0
LINE
  5
53B
100
AcDbEntity
  8
0
  6
PHANTOM2
 62
       3
100
AcDbLine
 10
-119.4489208
 20
349.14377414
 30
0.0
 11
-119.32959316
 21
348.85677775
 31
0.0
  0
LINE
  5
53C
100
AcDbEntity
  8
0
  6
PHANTOM2
 62
       3
100
AcDbLine
 10
-128.00806271
 20
352.98521825
 30
0.0
 11
-128.25970995
 21
352.80962631
 31
0.0
  0
LINE
  5
53D
100
AcDbEntity
  8
0
  6
PHANTOM2
 62
       3
100
AcDbLine
 10
-140.22835203
 20
344.75419643
 30
0.0
 11
-139.33662765
 21
344.75419643
 31
0.0
  0
LINE
  5
53E
100
AcDbEntity
  8
0
  6
PHANTOM2
 62
       3
100
AcDbLine
 10
-113.69778615
 20
352.02839827
 30
0.0
 11
-113.87907918
 21
352.27578878
 31
0.0
  0
LINE
  5
53F
100
AcDbEntity
  8
0
  6
PHANTOM2
 62
       3
100
AcDbLine
 10
-128.49320599
 20
347.87110866
 30
0.0
 11
-128.25970995
 21
347.67305638
 31
0.0
  0
LINE
  5
540
100
AcDbEntity
  8
0
  6
PHANTOM2
 62
       3
100
AcDbLine
 10
-145.03226583
 20
353.31571517
 30
0.0
 11
-145.33541554
 21
353.40043319
 31
0.0
  0
LINE
  5
541
100
AcDbEntity
  8
0
  6
PHANTOM2
 62
       3
100
AcDbLine
 10
-149.29148707
 20
350.40544423
 30
0.0
 11
-149.29148707
 21
350.07723846
 31
0.0
  0
LINE
  5
542
100
AcDbEntity
  8
0
  6
PHANTOM2
 62
       3
100
AcDbLine
 10
-128.00806271
 20
347.49746444
 30
0.0
 11
-127.73982428
 21
347.34589001
 31
0.0
  0
LINE
  5
543
100
AcDbEntity
  8
0
  6
PHANTOM2
 62
       3
100
AcDbLine
 10
-136.41738784
 20
347.01091088
 30
0.0
 11
-136.08966944
 21
347.0027735
 31
0.0
  0
LINE
  5
544
100
AcDbEntity
  8
0
  6
PHANTOM2
 62
       3
100
AcDbLine
 10
-152.79254589
 20
343.86145873
 30
0.0
 11
-152.79254589
 21
344.75419643
 31
0.0
  0
LINE
  5
545
100
AcDbEntity
  8
0
  6
PHANTOM2
 62
       3
100
AcDbLine
 10
-129.33381808
 20
349.14377414
 30
0.0
 11
-129.2144781
 21
348.85677775
 31
0.0
  0
LINE
  5
546
100
AcDbEntity
  8
0
  6
PHANTOM2
 62
       3
100
AcDbLine
 10
-126.20461133
 20
347.0027735
 30
0.0
 11
-125.88018267
 21
347.0269991
 31
0.0
  0
LINE
  5
547
100
AcDbEntity
  8
0
  6
PHANTOM2
 62
       3
100
AcDbLine
 10
-134.58080552
 20
353.06410498
 30
0.0
 11
-134.85711307
 21
353.20308671
 31
0.0
  0
LINE
  5
548
100
AcDbEntity
  8
0
  6
PHANTOM2
 62
       3
100
AcDbLine
 10
-118.8219736
 20
348.09006412
 30
0.0
 11
-118.60805515
 21
347.87110866
 31
0.0
  0
LINE
  5
549
100
AcDbEntity
  8
0
  6
PHANTOM2
 62
       3
100
AcDbLine
 10
-113.87907918
 20
348.20689391
 30
0.0
 11
-113.69778615
 21
348.45428442
 31
0.0
  0
LINE
  5
54A
100
AcDbEntity
  8
0
  6
PHANTOM2
 62
       3
100
AcDbLine
 10
-123.10926087
 20
349.59837706
 30
0.0
 11
-123.06164696
 21
349.91524702
 31
0.0
  0
LINE
  5
54B
100
AcDbEntity
  8
0
  6
PHANTOM2
 62
       3
100
AcDbLine
 10
-130.34237127
 20
355.58054108
 30
0.0
 11
-130.34237127
 21
344.75419643
 31
0.0
  0
LINE
  5
54C
100
AcDbEntity
  8
0
  6
PHANTOM2
 62
       3
100
AcDbLine
 10
-143.5351568
 20
352.27578878
 30
0.0
 11
-143.73858086
 21
352.50461187
 31
0.0
  0
LINE
  5
54D
100
AcDbEntity
  8
0
  6
PHANTOM2
 62
       3
100
AcDbLine
 10
-119.4489208
 20
351.33890855
 30
0.0
 11
-119.54072551
 21
351.03879485
 31
0.0
  0
LINE
  5
54E
100
AcDbEntity
  8
0
  6
PHANTOM2
 62
       3
100
AcDbLine
 10
-113.2496362
 20
344.75419643
 30
0.0
 11
-112.34676526
 21
344.75419643
 31
0.0
  0
LINE
  5
54F
100
AcDbEntity
  8
0
  6
PHANTOM2
 62
       3
100
AcDbLine
 10
-137.8942192
 20
352.98521825
 30
0.0
 11
-138.14591981
 21
352.80962631
 31
0.0
  0
LINE
  5
550
100
AcDbEntity
  8
0
  6
PHANTOM2
 62
       3
100
AcDbLine
 10
-148.84074764
 20
351.89822686
 30
0.0
 11
-148.98588895
 21
351.62590494
 31
0.0
  0
LINE
  5
551
100
AcDbEntity
  8
0
  6
PHANTOM2
 62
       3
100
AcDbLine
 10
-127.73982428
 20
353.13679268
 30
0.0
 11
-128.00806271
 21
352.98521825
 31
0.0
  0
LINE
  5
552
100
AcDbEntity
  8
0
  6
PHANTOM2
 62
       3
100
AcDbLine
 10
-126.85116194
 20
347.05084353
 30
0.0
 11
-126.53215883
 21
347.01091088
 31
0.0
  0
LINE
  5
553
100
AcDbEntity
  8
0
  6
PHANTOM2
 62
       3
100
AcDbLine
 10
-114.54902552
 20
347.58235554
 30
0.0
 11
-114.30625887
 21
347.7693723
 31
0.0
  0
LINE
  5
554
100
AcDbEntity
  8
0
  6
PHANTOM2
 62
       3
100
AcDbLine
 10
-139.40651409
 20
350.40544423
 30
0.0
 11
-139.40651409
 21
350.07723846
 31
0.0
  0
LINE
  5
555
100
AcDbEntity
  8
0
  6
PHANTOM2
 62
       3
100
AcDbLine
 10
-132.99430907
 20
350.88430563
 30
0.0
 11
-133.07185924
 21
351.19039404
 31
0.0
  0
LINE
  5
556
100
AcDbEntity
  8
0
  6
PHANTOM2
 62
       3
100
AcDbLine
 10
-119.54072551
 20
351.03879485
 30
0.0
 11
-119.60345721
 21
350.72712102
 31
0.0
  0
LINE
  5
557
100
AcDbEntity
  8
0
  6
PHANTOM2
 62
       3
100
AcDbLine
 10
-158.7254847
 20
351.89822686
 30
0.0
 11
-158.87068782
 21
351.62590494
 31
0.0
  0
LINE
  5
558
100
AcDbEntity
  8
0
  6
PHANTOM2
 62
       3
100
AcDbLine
 10
-132.11872677
 20
355.58054108
 30
0.0
 11
-133.02362435
 21
355.58054108
 31
0.0
  0
LINE
  5
559
100
AcDbEntity
  8
0
  6
PHANTOM2
 62
       3
100
AcDbLine
 10
-149.22058175
 20
356.86138155
 30
0.0
 11
-149.22058175
 21
355.58054108
 31
0.0
  0
LINE
  5
55A
100
AcDbEntity
  8
0
  6
PHANTOM2
 62
       3
100
AcDbLine
 10
-117.85386527
 20
347.34589001
 30
0.0
 11
-117.57015743
 21
347.21989026
 31
0.0
  0
LINE
  5
55B
100
AcDbEntity
  8
0
  6
PHANTOM2
 62
       3
100
AcDbLine
 10
-136.73668342
 20
353.43183916
 30
0.0
 11
-137.04556869
 21
353.36166031
 31
0.0
  0
LINE
  5
55C
100
AcDbEntity
  8
0
  6
PHANTOM2
 62
       3
100
AcDbLine
 10
-116.31582016
 20
353.47990919
 30
0.0
 11
-116.64380148
 21
353.47177181
 31
0.0
  0
LINE
  5
55D
100
AcDbEntity
  8
0
  6
PHANTOM2
 62
       3
100
AcDbLine
 10
-129.0691869
 20
348.58445583
 30
0.0
 11
-128.89950448
 21
348.32836556
 31
0.0
  0
LINE
  5
55E
100
AcDbEntity
  8
0
  6
PHANTOM2
 62
       3
100
AcDbLine
 10
-118.60805515
 20
347.87110866
 30
0.0
 11
-118.37436422
 21
347.67305638
 31
0.0
  0
LINE
  5
55F
100
AcDbEntity
  8
0
  6
PHANTOM2
 62
       3
100
AcDbLine
 10
-158.98993475
 20
349.14377414
 30
0.0
 11
-158.87068782
 21
348.85677775
 31
0.0
  0
LINE
  5
560
100
AcDbEntity
  8
0
  6
PHANTOM2
 62
       3
100
AcDbLine
 10
-119.32959316
 20
351.62590494
 30
0.0
 11
-119.4489208
 21
351.33890855
 31
0.0
  0
LINE
  5
561
100
AcDbEntity
  8
0
  6
PHANTOM2
 62
       3
100
AcDbLine
 10
-135.45104321
 20
347.0822495
 30
0.0
 11
-135.14771183
 21
347.16696752
 31
0.0
  0
LINE
  5
562
100
AcDbEntity
  8
0
  6
PHANTOM2
 62
       3
100
AcDbLine
 10
-145.6497361
 20
347.0269991
 30
0.0
 11
-145.33541554
 21
347.0822495
 31
0.0
  0
LINE
  5
563
100
AcDbEntity
  8
0
  6
PHANTOM2
 62
       3
100
AcDbLine
 10
-115.08511237
 20
347.27959598
 30
0.0
 11
-114.80916335
 21
347.41857771
 31
0.0
  0
LINE
  5
564
100
AcDbEntity
  8
0
  6
PHANTOM2
 62
       3
100
AcDbLine
 10
-145.03226583
 20
347.16696752
 30
0.0
 11
-144.74184412
 21
347.27959598
 31
0.0
  0
LINE
  5
565
100
AcDbEntity
  8
0
  6
PHANTOM2
 62
       3
100
AcDbLine
 10
-152.79254589
 20
344.75419643
 30
0.0
 11
-151.8917016
 21
344.75419643
 31
0.0
  0
LINE
  5
566
100
AcDbEntity
  8
0
  6
PHANTOM2
 62
       3
100
AcDbLine
 10
-134.32034776
 20
347.58235554
 30
0.0
 11
-134.07729838
 21
347.7693723
 31
0.0
  0
LINE
  5
567
100
AcDbEntity
  8
0
  6
PHANTOM2
 62
       3
100
AcDbLine
 10
-154.91705491
 20
347.16696752
 30
0.0
 11
-154.62672135
 21
347.27959598
 31
0.0
  0
LINE
  5
568
100
AcDbEntity
  8
0
  6
PHANTOM2
 62
       3
100
AcDbLine
 10
-161.77666904
 20
355.58054108
 30
0.0
 11
-162.67953997
 21
355.58054108
 31
0.0
  0
LINE
  5
569
100
AcDbEntity
  8
0
  6
PHANTOM2
 62
       3
100
AcDbLine
 10
-119.56263949
 20
356.86138155
 30
0.0
 11
-119.56263949
 21
355.58054108
 31
0.0
  0
LINE
  5
56A
100
AcDbEntity
  8
0
  6
PHANTOM2
 62
       3
100
AcDbLine
 10
-158.87068782
 20
348.85677775
 30
0.0
 11
-158.7254847
 21
348.58445583
 31
0.0
  0
LINE
  5
56B
100
AcDbEntity
  8
0
  6
PHANTOM2
 62
       3
100
AcDbLine
 10
-135.14771183
 20
347.16696752
 30
0.0
 11
-134.85711307
 21
347.27959598
 31
0.0
  0
LINE
  5
56C
100
AcDbEntity
  8
0
  6
PHANTOM2
 62
       3
100
AcDbLine
 10
-133.46818647
 20
348.45428442
 30
0.0
 11
-133.31035653
 21
348.71868516
 31
0.0
  0
LINE
  5
56D
100
AcDbEntity
  8
0
  6
PHANTOM2
 62
       3
100
AcDbLine
 10
-142.90757846
 20
344.75419643
 30
0.0
 11
-142.00470753
 21
344.75419643
 31
0.0
  0
LINE
  5
56E
100
AcDbEntity
  8
0
  6
PHANTOM2
 62
       3
100
AcDbLine
 10
-137.3424893
 20
353.26279243
 30
0.0
 11
-137.62589092
 21
353.13679268
 31
0.0
  0
LINE
  5
56F
100
AcDbEntity
  8
0
  6
PHANTOM2
 62
       3
100
AcDbLine
 10
-138.78571222
 20
352.15431713
 30
0.0
 11
-138.95535874
 21
351.89822686
 31
0.0
  0
LINE
  5
570
100
AcDbEntity
  8
0
  6
PHANTOM2
 62
       3
100
AcDbLine
 10
-143.06353959
 20
348.99853896
 30
0.0
 11
-142.95774276
 21
349.29228865
 31
0.0
  0
LINE
  5
571
100
AcDbEntity
  8
0
  6
PHANTOM2
 62
       3
100
AcDbLine
 10
-157.39591167
 20
353.13679268
 30
0.0
 11
-157.6643298
 21
352.98521825
 31
0.0
  0
LINE
  5
572
100
AcDbEntity
  8
0
  6
PHANTOM2
 62
       3
100
AcDbLine
 10
-118.37436422
 20
347.67305638
 30
0.0
 11
-118.1224509
 21
347.49746444
 31
0.0
  0
LINE
  5
573
100
AcDbEntity
  8
0
  6
PHANTOM2
 62
       3
100
AcDbLine
 10
-122.23375934
 20
355.58054108
 30
0.0
 11
-123.13663028
 21
355.58054108
 31
0.0
  0
LINE
  5
574
100
AcDbEntity
  8
0
  6
PHANTOM2
 62
       3
100
AcDbLine
 10
-149.22058175
 20
344.75419643
 30
0.0
 11
-149.22058175
 21
343.86145873
 31
0.0
  0
LINE
  5
575
100
AcDbEntity
  8
0
  6
PHANTOM2
 62
       3
100
AcDbLine
 10
-143.9625188
 20
352.71331039
 30
0.0
 11
-144.20541343
 21
352.90032715
 31
0.0
  0
LINE
  5
576
100
AcDbEntity
  8
0
  6
PHANTOM2
 62
       3
100
AcDbLine
 10
-144.74184412
 20
347.27959598
 30
0.0
 11
-144.4657076
 21
347.41857771
 31
0.0
  0
LINE
  5
577
100
AcDbEntity
  8
0
  6
PHANTOM2
 62
       3
100
AcDbLine
 10
-158.14962494
 20
347.87110866
 30
0.0
 11
-157.91608378
 21
347.67305638
 31
0.0
  0
LINE
  5
578
100
AcDbEntity
  8
0
  6
PHANTOM2
 62
       3
100
AcDbLine
 10
-123.42499059
 20
351.76399753
 30
0.0
 11
-123.5826962
 21
352.02839827
 31
0.0
  0
LINE
  5
579
100
AcDbEntity
  8
0
  6
PHANTOM2
 62
       3
100
AcDbLine
 10
-124.9712785
 20
353.20308671
 30
0.0
 11
-125.26196617
 21
353.31571517
 31
0.0
  0
LINE
  5
57A
100
AcDbEntity
  8
0
  6
PHANTOM2
 62
       3
100
AcDbLine
 10
-159.17645171
 20
350.40544423
 30
0.0
 11
-159.17645171
 21
350.07723846
 31
0.0
  0
LINE
  5
57B
100
AcDbEntity
  8
0
  6
PHANTOM2
 62
       3
100
AcDbLine
 10
-138.14591981
 20
352.80962631
 30
0.0
 11
-138.37943841
 21
352.61157403
 31
0.0
  0
LINE
  5
57C
100
AcDbEntity
  8
0
  6
PHANTOM2
 62
       3
100
AcDbLine
 10
-157.6643298
 20
352.98521825
 30
0.0
 11
-157.91608378
 21
352.80962631
 31
0.0
  0
LINE
  5
57D
100
AcDbEntity
  8
0
  6
PHANTOM2
 62
       3
100
AcDbLine
 10
-153.42102556
 20
352.27578878
 30
0.0
 11
-153.62421094
 21
352.50461187
 31
0.0
  0
LINE
  5
57E
100
AcDbEntity
  8
0
  6
PHANTOM2
 62
       3
100
AcDbLine
 10
-129.42564682
 20
351.03879485
 30
0.0
 11
-129.48840432
 21
350.72712102
 31
0.0
  0
LINE
  5
57F
100
AcDbEntity
  8
0
  6
PHANTOM2
 62
       3
100
AcDbLine
 10
-140.22835203
 20
355.58054108
 30
0.0
 11
-140.22835203
 21
344.75419643
 31
0.0
  0
LINE
  5
580
100
AcDbEntity
  8
0
  6
PHANTOM2
 62
       3
100
AcDbLine
 10
-119.63556581
 20
350.07723846
 30
0.0
 11
-119.60345721
 21
349.75556167
 31
0.0
  0
LINE
  5
581
100
AcDbEntity
  8
0
  6
PHANTOM2
 62
       3
100
AcDbLine
 10
-158.87068782
 20
351.62590494
 30
0.0
 11
-158.98993475
 21
351.33890855
 31
0.0
  0
LINE
  5
582
100
AcDbEntity
  8
0
  6
PHANTOM2
 62
       3
100
AcDbLine
 10
-113.54010434
 20
348.71868516
 30
0.0
 11
-113.40759375
 21
348.99853896
 31
0.0
  0
LINE
  5
583
100
AcDbEntity
  8
0
  6
PHANTOM2
 62
       3
100
AcDbLine
 10
-129.48840432
 20
350.72712102
 30
0.0
 11
-129.52053057
 21
350.40544423
 31
0.0
  0
LINE
  5
584
100
AcDbEntity
  8
0
  6
PHANTOM2
 62
       3
100
AcDbLine
 10
-139.37440779
 20
349.75556167
 30
0.0
 11
-139.31168477
 21
349.44388784
 31
0.0
  0
LINE
  5
585
100
AcDbEntity
  8
0
  6
PHANTOM2
 62
       3
100
AcDbLine
 10
-139.21989936
 20
349.14377414
 30
0.0
 11
-139.10060591
 21
348.85677775
 31
0.0
  0
LINE
  5
586
100
AcDbEntity
  8
0
  6
PHANTOM2
 62
       3
100
AcDbLine
 10
-148.67119847
 20
352.15431713
 30
0.0
 11
-148.84074764
 21
351.89822686
 31
0.0
  0
LINE
  5
587
100
AcDbEntity
  8
0
  6
PHANTOM2
 62
       3
100
AcDbLine
 10
-124.19149888
 20
352.71331039
 30
0.0
 11
-124.43449477
 21
352.90032715
 31
0.0
  0
LINE
  5
588
100
AcDbEntity
  8
0
  6
PHANTOM2
 62
       3
100
AcDbLine
 10
-142.00470753
 20
344.75419643
 30
0.0
 11
-142.00470753
 21
355.58054108
 31
0.0
  0
LINE
  5
589
100
AcDbEntity
  8
0
  6
PHANTOM2
 62
       3
100
AcDbLine
 10
-110.57040976
 20
344.75419643
 30
0.0
 11
-109.67868538
 21
344.75419643
 31
0.0
  0
LINE
  5
58A
100
AcDbEntity
  8
0
  6
PHANTOM2
 62
       3
100
AcDbLine
 10
-137.62589092
 20
347.34589001
 30
0.0
 11
-137.3424893
 21
347.21989026
 31
0.0
  0
LINE
  5
58B
100
AcDbEntity
  8
0
  6
PHANTOM2
 62
       3
100
AcDbLine
 10
-124.9712785
 20
347.27959598
 30
0.0
 11
-124.694938
 21
347.41857771
 31
0.0
  0
LINE
  5
58C
100
AcDbEntity
  8
0
  6
PHANTOM2
 62
       3
100
AcDbLine
 10
-135.45104321
 20
353.40043319
 30
0.0
 11
-135.76554861
 21
353.45568359
 31
0.0
  0
LINE
  5
58D
100
AcDbEntity
  8
0
  6
PHANTOM2
 62
       3
100
AcDbLine
 10
-123.96750043
 20
352.50461187
 30
0.0
 11
-124.19149888
 21
352.71331039
 31
0.0
  0
LINE
  5
58E
100
AcDbEntity
  8
0
  6
PHANTOM2
 62
       3
100
AcDbLine
 10
-155.53453841
 20
353.45568359
 30
0.0
 11
-155.85859383
 21
353.47990919
 31
0.0
  0
LINE
  5
58F
100
AcDbEntity
  8
0
  6
PHANTOM2
 62
       3
100
AcDbLine
 10
-109.67868538
 20
356.86138155
 30
0.0
 11
-109.67868538
 21
355.58054108
 31
0.0
  0
LINE
  5
590
100
AcDbEntity
  8
0
  6
PHANTOM2
 62
       3
100
AcDbLine
 10
-114.80916335
 20
347.41857771
 30
0.0
 11
-114.54902552
 21
347.58235554
 31
0.0
  0
LINE
  5
591
100
AcDbEntity
  8
0
  6
PHANTOM2
 62
       3
100
AcDbLine
 10
-153.08241628
 20
351.76399753
 30
0.0
 11
-153.23991159
 21
352.02839827
 31
0.0
  0
LINE
  5
592
100
AcDbEntity
  8
0
  6
PHANTOM2
 62
       3
100
AcDbLine
 10
-110.57040976
 20
355.58054108
 30
0.0
 11
-110.57040976
 21
344.75419643
 31
0.0
  0
LINE
  5
593
100
AcDbEntity
  8
0
  6
PHANTOM2
 62
       3
100
AcDbLine
 10
-143.19607899
 20
348.71868516
 30
0.0
 11
-143.06353959
 21
348.99853896
 31
0.0
  0
LINE
  5
594
100
AcDbEntity
  8
0
  6
PHANTOM2
 62
       3
100
AcDbLine
 10
-156.8152776
 20
347.12102238
 30
0.0
 11
-156.50615902
 21
347.05084353
 31
0.0
  0
LINE
  5
595
100
AcDbEntity
  8
0
  6
PHANTOM2
 62
       3
100
AcDbLine
 10
-109.67868538
 20
344.75419643
 30
0.0
 11
-109.67868538
 21
343.86145873
 31
0.0
  0
LINE
  5
596
100
AcDbEntity
  8
0
  6
PHANTOM2
 62
       3
100
AcDbLine
 10
-149.19677027
 20
351.03879485
 30
0.0
 11
-149.25942145
 21
350.72712102
 31
0.0
  0
LINE
  5
597
100
AcDbEntity
  8
0
  6
PHANTOM2
 62
       3
100
AcDbLine
 10
-123.13663028
 20
344.75419643
 30
0.0
 11
-122.23375934
 21
344.75419643
 31
0.0
  0
LINE
  5
598
100
AcDbEntity
  8
0
  6
PHANTOM2
 62
       3
100
AcDbLine
 10
-129.2144781
 20
351.62590494
 30
0.0
 11
-129.33381808
 21
351.33890855
 31
0.0
  0
LINE
  5
599
100
AcDbEntity
  8
0
  6
PHANTOM2
 62
       3
100
AcDbLine
 10
-135.76554861
 20
353.45568359
 30
0.0
 11
-136.08966944
 21
353.47990919
 31
0.0
  0
LINE
  5
59A
100
AcDbEntity
  8
0
  6
PHANTOM2
 62
       3
100
AcDbLine
 10
-136.08966944
 20
353.47990919
 30
0.0
 11
-136.41738784
 21
353.47177181
 31
0.0
  0
LINE
  5
59B
100
AcDbEntity
  8
0
  6
PHANTOM2
 62
       3
100
AcDbLine
 10
-148.03154793
 20
347.67305638
 30
0.0
 11
-147.77981149
 21
347.49746444
 31
0.0
  0
LINE
  5
59C
100
AcDbEntity
  8
0
  6
PHANTOM2
 62
       3
100
AcDbLine
 10
-149.10507797
 20
351.33890855
 30
0.0
 11
-149.19677027
 21
351.03879485
 31
0.0
  0
LINE
  5
59D
100
AcDbEntity
  8
0
  6
PHANTOM2
 62
       3
100
AcDbLine
 10
-136.73668342
 20
347.05084353
 30
0.0
 11
-136.41738784
 21
347.01091088
 31
0.0
  0
LINE
  5
59E
100
AcDbEntity
  8
0
  6
PHANTOM2
 62
       3
100
AcDbLine
 10
-155.53453841
 20
347.0269991
 30
0.0
 11
-155.22017635
 21
347.0822495
 31
0.0
  0
LINE
  5
59F
100
AcDbEntity
  8
0
  6
PHANTOM2
 62
       3
100
AcDbLine
 10
-136.41738784
 20
353.47177181
 30
0.0
 11
-136.73668342
 21
353.43183916
 31
0.0
  0
LINE
  5
5A0
100
AcDbEntity
  8
0
  6
PHANTOM2
 62
       3
100
AcDbLine
 10
-150.1153461
 20
344.75419643
 30
0.0
 11
-149.22058175
 21
344.75419643
 31
0.0
  0
LINE
  5
5A1
100
AcDbEntity
  8
0
  6
PHANTOM2
 62
       3
100
AcDbLine
 10
-159.14436537
 20
349.75556167
 30
0.0
 11
-159.08167682
 21
349.44388784
 31
0.0
  0
LINE
  5
5A2
100
AcDbEntity
  8
0
  6
PHANTOM2
 62
       3
100
AcDbLine
 10
-152.95008687
 20
348.99853896
 30
0.0
 11
-152.84447064
 21
349.29228865
 31
0.0
  0
LINE
  5
5A3
100
AcDbEntity
  8
0
  6
PHANTOM2
 62
       3
100
AcDbLine
 10
-148.67119847
 20
348.32836556
 30
0.0
 11
-148.47878584
 21
348.09006412
 31
0.0
  0
LINE
  5
5A4
100
AcDbEntity
  8
0
  6
PHANTOM2
 62
       3
100
AcDbLine
 10
-119.18429269
 20
351.89822686
 30
0.0
 11
-119.32959316
 21
351.62590494
 31
0.0
  0
LINE
  5
5A5
100
AcDbEntity
  8
0
  6
PHANTOM2
 62
       3
100
AcDbLine
 10
-139.37440779
 20
350.72712102
 30
0.0
 11
-139.40651409
 21
350.40544423
 31
0.0
  0
LINE
  5
5A6
100
AcDbEntity
  8
0
  6
PHANTOM2
 62
       3
100
AcDbLine
 10
-143.73858086
 20
352.50461187
 30
0.0
 11
-143.9625188
 21
352.71331039
 31
0.0
  0
LINE
  5
5A7
100
AcDbEntity
  8
0
  6
PHANTOM2
 62
       3
100
AcDbLine
 10
-139.33662765
 20
356.86138155
 30
0.0
 11
-139.33662765
 21
355.58054108
 31
0.0
  0
LINE
  5
5A8
100
AcDbEntity
  8
0
  6
PHANTOM2
 62
       3
100
AcDbLine
 10
-138.37943841
 20
347.87110866
 30
0.0
 11
-138.14591981
 21
347.67305638
 31
0.0
  0
LINE
  5
5A9
100
AcDbEntity
  8
0
  6
PHANTOM2
 62
       3
100
AcDbLine
 10
-155.85859383
 20
347.0027735
 30
0.0
 11
-155.53453841
 21
347.0269991
 31
0.0
  0
LINE
  5
5AA
100
AcDbEntity
  8
0
  6
PHANTOM2
 62
       3
100
AcDbLine
 10
-137.62589092
 20
353.13679268
 30
0.0
 11
-137.8942192
 21
352.98521825
 31
0.0
  0
LINE
  5
5AB
100
AcDbEntity
  8
0
  6
PHANTOM2
 62
       3
100
AcDbLine
 10
-146.62145225
 20
347.05084353
 30
0.0
 11
-146.30173119
 21
347.01091088
 31
0.0
  0
LINE
  5
5AC
100
AcDbEntity
  8
0
  6
PHANTOM2
 62
       3
100
AcDbLine
 10
-162.67953997
 20
343.86145873
 30
0.0
 11
-162.67953997
 21
344.75419643
 31
0.0
  0
LINE
  5
5AD
100
AcDbEntity
  8
0
  6
PHANTOM2
 62
       3
100
AcDbLine
 10
-145.6497361
 20
353.45568359
 30
0.0
 11
-145.97367031
 21
353.47990919
 31
0.0
  0
LINE
  5
5AE
100
AcDbEntity
  8
0
  6
PHANTOM2
 62
       3
100
AcDbLine
 10
-146.30173119
 20
353.47177181
 30
0.0
 11
-146.62145225
 21
353.43183916
 31
0.0
  0
LINE
  5
5AF
100
AcDbEntity
  8
0
  6
PHANTOM2
 62
       3
100
AcDbLine
 10
-147.51138927
 20
353.13679268
 30
0.0
 11
-147.77981149
 21
352.98521825
 31
0.0
  0
LINE
  5
5B0
100
AcDbEntity
  8
0
  6
PHANTOM2
 62
       3
100
AcDbLine
 10
-143.73858086
 20
347.97807082
 30
0.0
 11
-143.5351568
 21
348.20689391
 31
0.0
  0
LINE
  5
5B1
100
AcDbEntity
  8
0
  6
PHANTOM2
 62
       3
100
AcDbLine
 10
-134.85711307
 20
353.20308671
 30
0.0
 11
-135.14771183
 21
353.31571517
 31
0.0
  0
LINE
  5
5B2
100
AcDbEntity
  8
0
  6
PHANTOM2
 62
       3
100
AcDbLine
 10
-153.42102556
 20
348.20689391
 30
0.0
 11
-153.23991159
 21
348.45428442
 31
0.0
  0
LINE
  5
5B3
100
AcDbEntity
  8
0
  6
PHANTOM2
 62
       3
100
AcDbLine
 10
-123.06164696
 20
349.91524702
 30
0.0
 11
-123.04543119
 21
350.24134134
 31
0.0
  0
LINE
  5
5B4
100
AcDbEntity
  8
0
  6
PHANTOM2
 62
       3
100
AcDbLine
 10
-133.07185924
 20
349.29228865
 30
0.0
 11
-132.99430907
 21
349.59837706
 31
0.0
  0
LINE
  5
5B5
100
AcDbEntity
  8
0
  6
PHANTOM2
 62
       3
100
AcDbLine
 10
-149.22058175
 20
355.58054108
 30
0.0
 11
-150.1153461
 21
355.58054108
 31
0.0
  0
LINE
  5
5B6
100
AcDbEntity
  8
0
  6
PHANTOM2
 62
       3
100
AcDbLine
 10
-157.91608378
 20
352.80962631
 30
0.0
 11
-158.14962494
 21
352.61157403
 31
0.0
  0
LINE
  5
5B7
100
AcDbEntity
  8
0
  6
PHANTOM2
 62
       3
100
AcDbLine
 10
-119.63556581
 20
350.40544423
 30
0.0
 11
-119.63556581
 21
350.07723846
 31
0.0
  0
LINE
  5
5B8
100
AcDbEntity
  8
0
  6
PHANTOM2
 62
       3
100
AcDbLine
 10
-130.34237127
 20
344.75419643
 30
0.0
 11
-129.44963357
 21
344.75419643
 31
0.0
  0
LINE
  5
5B9
100
AcDbEntity
  8
0
  6
PHANTOM2
 62
       3
100
AcDbLine
 10
-138.95535874
 20
348.58445583
 30
0.0
 11
-138.78571222
 21
348.32836556
 31
0.0
  0
LINE
  5
5BA
100
AcDbEntity
  8
0
  6
PHANTOM2
 62
       3
100
AcDbLine
 10
-138.59322066
 20
348.09006412
 30
0.0
 11
-138.37943841
 21
347.87110866
 31
0.0
  0
LINE
  5
5BB
100
AcDbEntity
  8
0
  6
PHANTOM2
 62
       3
100
AcDbLine
 10
-162.67953997
 20
356.86138155
 30
0.0
 11
-109.67868538
 21
356.86138155
 31
0.0
  0
LINE
  5
5BC
100
AcDbEntity
  8
0
  6
PHANTOM2
 62
       3
100
AcDbLine
 10
-139.10060591
 20
348.85677775
 30
0.0
 11
-138.95535874
 21
348.58445583
 31
0.0
  0
LINE
  5
5BD
100
AcDbEntity
  8
0
  6
PHANTOM2
 62
       3
100
AcDbLine
 10
-125.88018267
 20
353.45568359
 30
0.0
 11
-126.20461133
 21
353.47990919
 31
0.0
  0
LINE
  5
5BE
100
AcDbEntity
  8
0
  6
PHANTOM2
 62
       3
100
AcDbLine
 10
-137.8942192
 20
347.49746444
 30
0.0
 11
-137.62589092
 21
347.34589001
 31
0.0
  0
LINE
  5
5BF
100
AcDbEntity
  8
0
  6
PHANTOM2
 62
       3
100
AcDbLine
 10
-128.25970995
 20
352.80962631
 30
0.0
 11
-128.49320599
 21
352.61157403
 31
0.0
  0
LINE
  5
5C0
100
AcDbEntity
  8
0
  6
PHANTOM2
 62
       3
100
AcDbLine
 10
-157.11237804
 20
347.21989026
 30
0.0
 11
-156.8152776
 21
347.12102238
 31
0.0
  0
LINE
  5
5C1
100
AcDbEntity
  8
0
  6
PHANTOM2
 62
       3
100
AcDbLine
 10
-146.30173119
 20
347.01091088
 30
0.0
 11
-145.97367031
 21
347.0027735
 31
0.0
  0
LINE
  5
5C2
100
AcDbEntity
  8
0
  6
PHANTOM2
 62
       3
100
AcDbLine
 10
-114.80916335
 20
353.06410498
 30
0.0
 11
-115.08511237
 21
353.20308671
 31
0.0
  0
LINE
  5
5C3
100
AcDbEntity
  8
0
  6
PHANTOM2
 62
       3
100
AcDbLine
 10
-119.60345721
 20
349.75556167
 30
0.0
 11
-119.54072551
 21
349.44388784
 31
0.0
  0
LINE
  5
5C4
100
AcDbEntity
  8
0
  6
PHANTOM2
 62
       3
100
AcDbLine
 10
-156.8152776
 20
353.36166031
 30
0.0
 11
-157.11237804
 21
353.26279243
 31
0.0
  0
LINE
  5
5C5
100
AcDbEntity
  8
0
  6
PHANTOM2
 62
       3
100
AcDbLine
 10
-137.3424893
 20
347.21989026
 30
0.0
 11
-137.04556869
 21
347.12102238
 31
0.0
  0
LINE
  5
5C6
100
AcDbEntity
  8
0
  6
PHANTOM2
 62
       3
100
AcDbLine
 10
-154.35072292
 20
347.41857771
 30
0.0
 11
-154.09060687
 21
347.58235554
 31
0.0
  0
LINE
  5
5C7
100
AcDbEntity
  8
0
  6
PHANTOM2
 62
       3
100
AcDbLine
 10
-119.60345721
 20
350.72712102
 30
0.0
 11
-119.63556581
 21
350.40544423
 31
0.0
  0
LINE
  5
5C8
100
AcDbEntity
  8
0
  6
PHANTOM2
 62
       3
100
AcDbLine
 10
-128.70699084
 20
348.09006412
 30
0.0
 11
-128.49320599
 21
347.87110866
 31
0.0
  0
LINE
  5
5C9
100
AcDbEntity
  8
0
  6
PHANTOM2
 62
       3
100
AcDbLine
 10
-114.30625887
 20
347.7693723
 30
0.0
 11
-114.08242343
 21
347.97807082
 31
0.0
  0
LINE
  5
5CA
100
AcDbEntity
  8
0
  6
PHANTOM2
 62
       3
100
AcDbLine
 10
-128.70699084
 20
352.39261857
 30
0.0
 11
-128.89950448
 21
352.15431713
 31
0.0
  0
LINE
  5
5CB
100
AcDbEntity
  8
0
  6
PHANTOM2
 62
       3
100
AcDbLine
 10
-149.25942145
 20
350.72712102
 30
0.0
 11
-149.29148707
 21
350.40544423
 31
0.0
  0
LINE
  5
5CC
100
AcDbEntity
  8
0
  6
PHANTOM2
 62
       3
100
AcDbLine
 10
-144.20541343
 20
347.58235554
 30
0.0
 11
-143.9625188
 21
347.7693723
 31
0.0
  0
LINE
  5
5CD
100
AcDbEntity
  8
0
  6
PHANTOM2
 62
       3
100
AcDbLine
 10
-152.95008687
 20
351.48414373
 30
0.0
 11
-153.08241628
 21
351.76399753
 31
0.0
  0
LINE
  5
5CE
100
AcDbEntity
  8
0
  6
PHANTOM2
 62
       3
100
AcDbLine
 10
-113.2496362
 20
355.58054108
 30
0.0
 11
-113.2496362
 21
356.86138155
 31
0.0
  0
LINE
  5
5CF
100
AcDbEntity
  8
0
  6
PHANTOM2
 62
       3
100
AcDbLine
 10
-133.17772792
 20
348.99853896
 30
0.0
 11
-133.07185924
 21
349.29228865
 31
0.0
  0
LINE
  5
5D0
100
AcDbEntity
  8
0
  6
PHANTOM2
 62
       3
100
AcDbLine
 10
-154.35072292
 20
353.06410498
 30
0.0
 11
-154.62672135
 21
353.20308671
 31
0.0
  0
LINE
  5
5D1
100
AcDbEntity
  8
0
  6
PHANTOM2
 62
       3
100
AcDbLine
 10
-154.09060687
 20
347.58235554
 30
0.0
 11
-153.84792045
 21
347.7693723
 31
0.0
  0
LINE
  5
5D2
100
AcDbEntity
  8
0
  6
PHANTOM2
 62
       3
100
AcDbLine
 10
-148.47878584
 20
348.09006412
 30
0.0
 11
-148.26505419
 21
347.87110866
 31
0.0
  0
LINE
  5
5D3
100
AcDbEntity
  8
0
  6
PHANTOM2
 62
       3
100
AcDbLine
 10
-148.26505419
 20
347.87110866
 30
0.0
 11
-148.03154793
 21
347.67305638
 31
0.0
  0
LINE
  5
5D4
100
AcDbEntity
  8
0
  6
PHANTOM2
 62
       3
100
AcDbLine
 10
-144.20541343
 20
352.90032715
 30
0.0
 11
-144.4657076
 21
353.06410498
 31
0.0
  0
LINE
  5
5D5
100
AcDbEntity
  8
0
  6
PHANTOM2
 62
       3
100
AcDbLine
 10
-159.10554918
 20
355.58054108
 30
0.0
 11
-160.00031354
 21
355.58054108
 31
0.0
  0
LINE
  5
5D6
100
AcDbEntity
  8
0
  6
PHANTOM2
 62
       3
100
AcDbLine
 10
-123.42499059
 20
348.71868516
 30
0.0
 11
-123.29248278
 21
348.99853896
 31
0.0
  0
LINE
  5
5D7
100
AcDbEntity
  8
0
  6
PHANTOM2
 62
       3
100
AcDbLine
 10
-158.14962494
 20
352.61157403
 30
0.0
 11
-158.36340458
 21
352.39261857
 31
0.0
  0
LINE
  5
5D8
100
AcDbEntity
  8
0
  6
PHANTOM2
 62
       3
100
AcDbLine
 10
-125.88018267
 20
347.0269991
 30
0.0
 11
-125.56545092
 21
347.0822495
 31
0.0
  0
LINE
  5
5D9
100
AcDbEntity
  8
0
  6
PHANTOM2
 62
       3
100
AcDbLine
 10
-159.08167682
 20
351.03879485
 30
0.0
 11
-159.14436537
 21
350.72712102
 31
0.0
  0
LINE
  5
5DA
100
AcDbEntity
  8
0
  6
PHANTOM2
 62
       3
100
AcDbLine
 10
-113.54010434
 20
351.76399753
 30
0.0
 11
-113.69778615
 21
352.02839827
 31
0.0
  0
LINE
  5
5DB
100
AcDbEntity
  8
0
  6
PHANTOM2
 62
       3
100
AcDbLine
 10
-152.71956667
 20
349.91524702
 30
0.0
 11
-152.70337346
 21
350.24134134
 31
0.0
  0
LINE
  5
5DC
100
AcDbEntity
  8
0
  6
PHANTOM2
 62
       3
100
AcDbLine
 10
-143.9625188
 20
347.7693723
 30
0.0
 11
-143.73858086
 21
347.97807082
 31
0.0
  0
LINE
  5
5DD
100
AcDbEntity
  8
0
  6
PHANTOM2
 62
       3
100
AcDbLine
 10
-117.27287745
 20
353.36166031
 30
0.0
 11
-117.57015743
 21
353.26279243
 31
0.0
  0
LINE
  5
5DE
100
AcDbEntity
  8
0
  6
PHANTOM2
 62
       3
100
AcDbLine
 10
-155.22017635
 20
353.40043319
 30
0.0
 11
-155.53453841
 21
353.45568359
 31
0.0
  0
LINE
  5
5DF
100
AcDbEntity
  8
0
  6
PHANTOM2
 62
       3
100
AcDbLine
 10
-139.40651409
 20
350.07723846
 30
0.0
 11
-139.37440779
 21
349.75556167
 31
0.0
  0
LINE
  5
5E0
100
AcDbEntity
  8
0
  6
PHANTOM2
 62
       3
100
AcDbLine
 10
-148.03154793
 20
352.80962631
 30
0.0
 11
-148.26505419
 21
352.61157403
 31
0.0
  0
LINE
  5
5E1
100
AcDbEntity
  8
0
  6
PHANTOM2
 62
       3
100
AcDbLine
 10
-135.14771183
 20
353.31571517
 30
0.0
 11
-135.45104321
 21
353.40043319
 31
0.0
  0
LINE
  5
5E2
100
AcDbEntity
  8
0
  6
PHANTOM2
 62
       3
100
AcDbLine
 10
-154.91705491
 20
353.31571517
 30
0.0
 11
-155.22017635
 21
353.40043319
 31
0.0
  0
LINE
  5
5E3
100
AcDbEntity
  8
0
  6
PHANTOM2
 62
       3
100
AcDbLine
 10
-159.08167682
 20
349.44388784
 30
0.0
 11
-158.98993475
 21
349.14377414
 31
0.0
  0
LINE
  5
5E4
100
AcDbEntity
  8
0
  6
PHANTOM2
 62
       3
100
AcDbLine
 10
-119.56263949
 20
355.58054108
 30
0.0
 11
-120.45740384
 21
355.58054108
 31
0.0
  0
LINE
  5
5E5
100
AcDbEntity
  8
0
  6
PHANTOM2
 62
       3
100
AcDbLine
 10
-146.62145225
 20
353.43183916
 30
0.0
 11
-146.93066524
 21
353.36166031
 31
0.0
  0
LINE
  5
5E6
100
AcDbEntity
  8
0
  6
PHANTOM2
 62
       3
100
AcDbLine
 10
-158.36340458
 20
352.39261857
 30
0.0
 11
-158.55587406
 21
352.15431713
 31
0.0
  0
LINE
  5
5E7
100
AcDbEntity
  8
0
  6
PHANTOM2
 62
       3
100
AcDbLine
 10
-154.62672135
 20
353.20308671
 30
0.0
 11
-154.91705491
 21
353.31571517
 31
0.0
  0
LINE
  5
5E8
100
AcDbEntity
  8
0
  6
PHANTOM2
 62
       3
100
AcDbLine
 10
-119.18429269
 20
348.58445583
 30
0.0
 11
-119.01456947
 21
348.32836556
 31
0.0
  0
LINE
  5
5E9
100
AcDbEntity
  8
0
  6
PHANTOM2
 62
       3
100
AcDbLine
 10
-147.77981149
 20
352.98521825
 30
0.0
 11
-148.03154793
 21
352.80962631
 31
0.0
  0
LINE
  5
5EA
100
AcDbEntity
  8
0
  6
PHANTOM2
 62
       3
100
AcDbLine
 10
-144.4657076
 20
347.41857771
 30
0.0
 11
-144.20541343
 21
347.58235554
 31
0.0
  0
LINE
  5
5EB
100
AcDbEntity
  8
0
  6
PHANTOM2
 62
       3
100
AcDbLine
 10
-137.04556869
 20
347.12102238
 30
0.0
 11
-136.73668342
 21
347.05084353
 31
0.0
  0
LINE
  5
5EC
100
AcDbEntity
  8
0
  6
PHANTOM2
 62
       3
100
AcDbLine
 10
-133.85321598
 20
347.97807082
 30
0.0
 11
-133.64965915
 21
348.20689391
 31
0.0
  0
LINE
  5
5ED
100
AcDbEntity
  8
0
  6
PHANTOM2
 62
       3
100
AcDbLine
 10
-153.84792045
 20
347.7693723
 30
0.0
 11
-153.62421094
 21
347.97807082
 31
0.0
  0
LINE
  5
5EE
100
AcDbEntity
  8
0
  6
PHANTOM2
 62
       3
100
AcDbLine
 10
-133.31035653
 20
351.76399753
 30
0.0
 11
-133.46818647
 21
352.02839827
 31
0.0
  0
LINE
  5
5EF
100
AcDbEntity
  8
0
  6
PHANTOM2
 62
       3
100
AcDbLine
 10
-123.96750043
 20
347.97807082
 30
0.0
 11
-123.76404951
 21
348.20689391
 31
0.0
  0
LINE
  5
5F0
100
AcDbEntity
  8
0
  6
PHANTOM2
 62
       3
100
AcDbLine
 10
-124.43449477
 20
352.90032715
 30
0.0
 11
-124.694938
 21
353.06410498
 31
0.0
  0
LINE
  5
5F1
100
AcDbEntity
  8
0
  6
PHANTOM2
 62
       3
100
AcDbLine
 10
-132.946636
 20
349.91524702
 30
0.0
 11
-132.93039862
 21
350.24134134
 31
0.0
  0
LINE
  5
5F2
100
AcDbEntity
  8
0
  6
PHANTOM2
 62
       3
100
AcDbLine
 10
-155.22017635
 20
347.0822495
 30
0.0
 11
-154.91705491
 21
347.16696752
 31
0.0
  0
LINE
  5
5F3
100
AcDbEntity
  8
0
  6
PHANTOM2
 62
       3
100
AcDbLine
 10
-152.76711482
 20
349.59837706
 30
0.0
 11
-152.71956667
 21
349.91524702
 31
0.0
  0
LINE
  5
5F4
100
AcDbEntity
  8
0
  6
PHANTOM2
 62
       3
100
AcDbLine
 10
-133.46818647
 20
352.02839827
 30
0.0
 11
-133.64965915
 21
352.27578878
 31
0.0
  0
LINE
  5
5F5
100
AcDbEntity
  8
0
  6
PHANTOM2
 62
       3
100
AcDbLine
 10
-147.77981149
 20
347.49746444
 30
0.0
 11
-147.51138927
 21
347.34589001
 31
0.0
  0
LINE
  5
5F6
100
AcDbEntity
  8
0
  6
PHANTOM2
 62
       3
100
AcDbLine
 10
-159.17645171
 20
350.07723846
 30
0.0
 11
-159.14436537
 21
349.75556167
 31
0.0
  0
LINE
  5
5F7
100
AcDbEntity
  8
0
  6
PHANTOM2
 62
       3
100
AcDbLine
 10
-151.8917016
 20
355.58054108
 30
0.0
 11
-152.79254589
 21
355.58054108
 31
0.0
  0
LINE
  5
5F8
100
AcDbEntity
  8
0
  6
PHANTOM2
 62
       3
100
AcDbLine
 10
-160.00031354
 20
355.58054108
 30
0.0
 11
-160.00031354
 21
344.75419643
 31
0.0
  0
LINE
  5
5F9
100
AcDbEntity
  8
0
  6
PHANTOM2
 62
       3
100
AcDbLine
 10
-114.08242343
 20
347.97807082
 30
0.0
 11
-113.87907918
 21
348.20689391
 31
0.0
  0
LINE
  5
5FA
100
AcDbEntity
  8
0
  6
PHANTOM2
 62
       3
100
AcDbLine
 10
-134.32034776
 20
352.90032715
 30
0.0
 11
-134.58080552
 21
353.06410498
 31
0.0
  0
LINE
  5
5FB
100
AcDbEntity
  8
0
  6
PHANTOM2
 62
       3
100
AcDbLine
 10
-148.84074764
 20
348.58445583
 30
0.0
 11
-148.67119847
 21
348.32836556
 31
0.0
  0
LINE
  5
5FC
100
AcDbEntity
  8
0
  6
PHANTOM2
 62
       3
100
AcDbLine
 10
-127.45655467
 20
347.21989026
 30
0.0
 11
-127.15981389
 21
347.12102238
 31
0.0
  0
LINE
  5
5FD
100
AcDbEntity
  8
0
  6
PHANTOM2
 62
       3
100
AcDbLine
 10
-138.37943841
 20
352.61157403
 30
0.0
 11
-138.59322066
 21
352.39261857
 31
0.0
  0
LINE
  5
5FE
100
AcDbEntity
  8
0
  6
PHANTOM2
 62
       3
100
AcDbLine
 10
-157.6643298
 20
347.49746444
 30
0.0
 11
-157.39591167
 21
347.34589001
 31
0.0
  0
LINE
  5
5FF
100
AcDbEntity
  8
0
  6
PHANTOM2
 62
       3
100
AcDbLine
 10
-156.50615902
 20
347.05084353
 30
0.0
 11
-156.18657096
 21
347.01091088
 31
0.0
  0
LINE
  5
600
100
AcDbEntity
  8
0
  6
PHANTOM2
 62
       3
100
AcDbLine
 10
-156.18657096
 20
353.47177181
 30
0.0
 11
-156.50615902
 21
353.43183916
 31
0.0
  0
LINE
  5
601
100
AcDbEntity
  8
0
  6
PHANTOM2
 62
       3
100
AcDbLine
 10
-116.64380148
 20
353.47177181
 30
0.0
 11
-116.96357544
 21
353.43183916
 31
0.0
  0
LINE
  5
602
100
AcDbEntity
  8
0
  6
PHANTOM2
 62
       3
100
AcDbLine
 10
-155.85859383
 20
353.47990919
 30
0.0
 11
-156.18657096
 21
353.47177181
 31
0.0
  0
LINE
  5
603
100
AcDbEntity
  8
0
  6
PHANTOM2
 62
       3
100
AcDbLine
 10
-129.44963357
 20
355.58054108
 30
0.0
 11
-130.34237127
 21
355.58054108
 31
0.0
  0
LINE
  5
604
100
AcDbEntity
  8
0
  6
PHANTOM2
 62
       3
100
AcDbLine
 10
-135.76554861
 20
347.0269991
 30
0.0
 11
-135.45104321
 21
347.0822495
 31
0.0
  0
LINE
  5
605
100
AcDbEntity
  8
0
  6
PHANTOM2
 62
       3
100
AcDbLine
 10
-124.43449477
 20
347.58235554
 30
0.0
 11
-124.19149888
 21
347.7693723
 31
0.0
  0
LINE
  5
606
100
AcDbEntity
  8
0
  6
PHANTOM2
 62
       3
100
AcDbLine
 10
-119.54072551
 20
349.44388784
 30
0.0
 11
-119.4489208
 21
349.14377414
 31
0.0
  0
LINE
  5
607
100
AcDbEntity
  8
0
  6
PHANTOM2
 62
       3
100
AcDbLine
 10
-142.88024566
 20
349.59837706
 30
0.0
 11
-142.83260548
 21
349.91524702
 31
0.0
  0
LINE
  5
608
100
AcDbEntity
  8
0
  6
PHANTOM2
 62
       3
100
AcDbLine
 10
-123.13663028
 20
355.58054108
 30
0.0
 11
-123.13663028
 21
356.86138155
 31
0.0
  0
LINE
  5
609
100
AcDbEntity
  8
0
  6
PHANTOM2
 62
       3
100
AcDbLine
 10
-125.56545092
 20
353.40043319
 30
0.0
 11
-125.88018267
 21
353.45568359
 31
0.0
  0
LINE
  5
60A
100
AcDbEntity
  8
0
  6
PHANTOM2
 62
       3
100
AcDbLine
 10
-149.19677027
 20
349.44388784
 30
0.0
 11
-149.10507797
 21
349.14377414
 31
0.0
  0
LINE
  5
60B
100
AcDbEntity
  8
0
  6
PHANTOM2
 62
       3
100
AcDbLine
 10
-143.5351568
 20
348.20689391
 30
0.0
 11
-143.35380379
 21
348.45428442
 31
0.0
  0
LINE
  5
60C
100
AcDbEntity
  8
0
  6
PHANTOM2
 62
       3
100
AcDbLine
 10
-113.22432627
 20
350.88430563
 30
0.0
 11
-113.30181439
 21
351.19039404
 31
0.0
  0
LINE
  5
60D
100
AcDbEntity
  8
0
  6
PHANTOM2
 62
       3
100
AcDbLine
 10
-145.97367031
 20
347.0027735
 30
0.0
 11
-145.6497361
 21
347.0269991
 31
0.0
  0
LINE
  5
60E
100
AcDbEntity
  8
0
  6
PHANTOM2
 62
       3
100
AcDbLine
 10
-156.50615902
 20
353.43183916
 30
0.0
 11
-156.8152776
 21
353.36166031
 31
0.0
  0
LINE
  5
60F
100
AcDbEntity
  8
0
  6
PHANTOM2
 62
       3
100
AcDbLine
 10
-133.64965915
 20
348.20689391
 30
0.0
 11
-133.46818647
 21
348.45428442
 31
0.0
  0
LINE
  5
610
100
AcDbEntity
  8
0
  6
PHANTOM2
 62
       3
100
AcDbLine
 10
-151.8917016
 20
344.75419643
 30
0.0
 11
-151.8917016
 21
355.58054108
 31
0.0
  0
LINE
  5
611
100
AcDbEntity
  8
0
  6
PHANTOM2
 62
       3
100
AcDbLine
 10
-123.18672284
 20
351.19039404
 30
0.0
 11
-123.29248278
 21
351.48414373
 31
0.0
  0
LINE
  5
612
100
AcDbEntity
  8
0
  6
PHANTOM2
 62
       3
100
AcDbLine
 10
-147.22782572
 20
353.26279243
 30
0.0
 11
-147.51138927
 21
353.13679268
 31
0.0
  0
LINE
  5
613
100
AcDbEntity
  8
0
  6
PHANTOM2
 62
       3
100
AcDbLine
 10
-158.98993475
 20
351.33890855
 30
0.0
 11
-159.08167682
 21
351.03879485
 31
0.0
  0
LINE
  5
614
100
AcDbEntity
  8
0
  6
PHANTOM2
 62
       3
100
AcDbLine
 10
-142.81637938
 20
350.24134134
 30
0.0
 11
-142.83260548
 21
350.56743567
 31
0.0
  0
LINE
  5
615
100
AcDbEntity
  8
0
  6
PHANTOM2
 62
       3
100
AcDbLine
 10
-145.33541554
 20
347.0822495
 30
0.0
 11
-145.03226583
 21
347.16696752
 31
0.0
  0
LINE
  5
616
100
AcDbEntity
  8
0
  6
PHANTOM2
 62
       3
100
AcDbLine
 10
-119.56263949
 20
344.75419643
 30
0.0
 11
-119.56263949
 21
343.86145873
 31
0.0
  0
LINE
  5
617
100
AcDbEntity
  8
0
  6
PHANTOM2
 62
       3
100
AcDbLine
 10
-139.21989936
 20
351.33890855
 30
0.0
 11
-139.31168477
 21
351.03879485
 31
0.0
  0
LINE
  5
618
100
AcDbEntity
  8
0
  6
PHANTOM2
 62
       3
100
AcDbLine
 10
-143.35380379
 20
348.45428442
 30
0.0
 11
-143.19607899
 21
348.71868516
 31
0.0
  0
LINE
  5
619
100
AcDbEntity
  8
0
  6
PHANTOM2
 62
       3
100
AcDbLine
 10
-113.17668939
 20
350.56743567
 30
0.0
 11
-113.22432627
 21
350.88430563
 31
0.0
  0
LINE
  5
61A
100
AcDbEntity
  8
0
  6
PHANTOM2
 62
       3
100
AcDbLine
 10
-129.52053057
 20
350.40544423
 30
0.0
 11
-129.52053057
 21
350.07723846
 31
0.0
  0
LINE
  5
61B
100
AcDbEntity
  8
0
  6
PHANTOM2
 62
       3
100
AcDbLine
 10
-134.07729838
 20
352.71331039
 30
0.0
 11
-134.32034776
 21
352.90032715
 31
0.0
  0
LINE
  5
61C
100
AcDbEntity
  8
0
  6
PHANTOM2
 62
       3
100
AcDbLine
 10
-129.0691869
 20
351.89822686
 30
0.0
 11
-129.2144781
 21
351.62590494
 31
0.0
  0
LINE
  5
61D
100
AcDbEntity
  8
0
  6
PHANTOM2
 62
       3
100
AcDbLine
 10
-117.57015743
 20
347.21989026
 30
0.0
 11
-117.27287745
 21
347.12102238
 31
0.0
  0
LINE
  5
61E
100
AcDbEntity
  8
0
  6
PHANTOM2
 62
       3
100
AcDbLine
 10
-157.39591167
 20
347.34589001
 30
0.0
 11
-157.11237804
 21
347.21989026
 31
0.0
  0
LINE
  5
61F
100
AcDbEntity
  8
0
  6
PHANTOM2
 62
       3
100
AcDbLine
 10
-159.10554918
 20
356.86138155
 30
0.0
 11
-159.10554918
 21
355.58054108
 31
0.0
  0
LINE
  5
620
100
AcDbEntity
  8
0
  6
PHANTOM2
 62
       3
100
AcDbLine
 10
-143.19607899
 20
351.76399753
 30
0.0
 11
-143.35380379
 21
352.02839827
 31
0.0
  0
LINE
  5
621
100
AcDbEntity
  8
0
  6
PHANTOM2
 62
       3
100
AcDbLine
 10
-152.71956667
 20
350.56743567
 30
0.0
 11
-152.76711482
 21
350.88430563
 31
0.0
  0
LINE
  5
622
100
AcDbEntity
  8
0
  6
PHANTOM2
 62
       3
100
AcDbLine
 10
-115.08511237
 20
353.20308671
 30
0.0
 11
-115.37531257
 21
353.31571517
 31
0.0
  0
LINE
  5
623
100
AcDbEntity
  8
0
  6
PHANTOM2
 62
       3
100
AcDbLine
 10
-133.07185924
 20
351.19039404
 30
0.0
 11
-133.17772792
 21
351.48414373
 31
0.0
  0
LINE
  5
624
100
AcDbEntity
  8
0
  6
PHANTOM2
 62
       3
100
AcDbLine
 10
-123.5826962
 20
348.45428442
 30
0.0
 11
-123.42499059
 21
348.71868516
 31
0.0
  0
LINE
  5
625
100
AcDbEntity
  8
0
  6
PHANTOM2
 62
       3
100
AcDbLine
 10
-129.33381808
 20
351.33890855
 30
0.0
 11
-129.42564682
 21
351.03879485
 31
0.0
  0
LINE
  5
626
100
AcDbEntity
  8
0
  6
PHANTOM2
 62
       3
100
AcDbLine
 10
-137.04556869
 20
353.36166031
 30
0.0
 11
-137.3424893
 21
353.26279243
 31
0.0
  0
LINE
  5
627
100
AcDbEntity
  8
0
  6
PHANTOM2
 62
       3
100
AcDbLine
 10
-128.49320599
 20
352.61157403
 30
0.0
 11
-128.70699084
 21
352.39261857
 31
0.0
  0
LINE
  5
628
100
AcDbEntity
  8
0
  6
PHANTOM2
 62
       3
100
AcDbLine
 10
-124.19149888
 20
347.7693723
 30
0.0
 11
-123.96750043
 21
347.97807082
 31
0.0
  0
LINE
  5
629
100
AcDbEntity
  8
0
  6
PHANTOM2
 62
       3
100
AcDbLine
 10
-128.89950448
 20
352.15431713
 30
0.0
 11
-129.0691869
 21
351.89822686
 31
0.0
  0
LINE
  5
62A
100
AcDbEntity
  8
0
  6
PHANTOM2
 62
       3
100
AcDbLine
 10
-109.67868538
 20
355.58054108
 30
0.0
 11
-110.57040976
 21
355.58054108
 31
0.0
  0
LINE
  5
62B
100
AcDbEntity
  8
0
  6
PHANTOM2
 62
       3
100
AcDbLine
 10
-139.31168477
 20
349.44388784
 30
0.0
 11
-139.21989936
 21
349.14377414
 31
0.0
  0
LINE
  5
62C
100
AcDbEntity
  8
0
  6
PHANTOM2
 62
       3
100
AcDbLine
 10
-158.55587406
 20
352.15431713
 30
0.0
 11
-158.7254847
 21
351.89822686
 31
0.0
  0
LINE
  5
62D
100
AcDbEntity
  8
0
  6
PHANTOM2
 62
       3
100
AcDbLine
 10
-123.10926087
 20
350.88430563
 30
0.0
 11
-123.18672284
 21
351.19039404
 31
0.0
  0
LINE
  5
62E
100
AcDbEntity
  8
0
  6
PHANTOM2
 62
       3
100
AcDbLine
 10
-118.8219736
 20
352.39261857
 30
0.0
 11
-119.01456947
 21
352.15431713
 31
0.0
  0
LINE
  5
62F
100
AcDbEntity
  8
0
  6
PHANTOM2
 62
       3
100
AcDbLine
 10
-119.01456947
 20
352.15431713
 30
0.0
 11
-119.18429269
 21
351.89822686
 31
0.0
  0
LINE
  5
630
100
AcDbEntity
  8
0
  6
PHANTOM2
 62
       3
100
AcDbLine
 10
-142.83260548
 20
350.56743567
 30
0.0
 11
-142.88024566
 21
350.88430563
 31
0.0
  0
LINE
  5
631
100
AcDbEntity
  8
0
  6
PHANTOM2
 62
       3
100
AcDbLine
 10
-133.02362435
 20
344.75419643
 30
0.0
 11
-132.11872677
 21
344.75419643
 31
0.0
  0
LINE
  5
632
100
AcDbEntity
  8
0
  6
PHANTOM2
 62
       3
100
AcDbLine
 10
-115.99222647
 20
353.45568359
 30
0.0
 11
-116.31582016
 21
353.47990919
 31
0.0
  0
LINE
  5
633
100
AcDbEntity
  8
0
  6
PHANTOM2
 62
       3
100
AcDbLine
 10
-125.26196617
 20
347.16696752
 30
0.0
 11
-124.9712785
 21
347.27959598
 31
0.0
  0
LINE
  5
634
100
AcDbEntity
  8
0
  6
PHANTOM2
 62
       3
100
AcDbLine
 10
-128.89950448
 20
348.32836556
 30
0.0
 11
-128.70699084
 21
348.09006412
 31
0.0
  0
LINE
  5
635
100
AcDbEntity
  8
0
  6
PHANTOM2
 62
       3
100
AcDbLine
 10
-113.2496362
 20
343.86145873
 30
0.0
 11
-113.2496362
 21
344.75419643
 31
0.0
  0
LINE
  5
636
100
AcDbEntity
  8
0
  6
PHANTOM2
 62
       3
100
AcDbLine
 10
-133.02362435
 20
343.86145873
 30
0.0
 11
-133.02362435
 21
344.75419643
 31
0.0
  0
LINE
  5
637
100
AcDbEntity
  8
0
  6
PHANTOM2
 62
       3
100
AcDbLine
 10
-142.88024566
 20
350.88430563
 30
0.0
 11
-142.95774276
 21
351.19039404
 31
0.0
  0
LINE
  5
638
100
AcDbEntity
  8
0
  6
PHANTOM2
 62
       3
100
AcDbLine
 10
-158.55587406
 20
348.32836556
 30
0.0
 11
-158.36340458
 21
348.09006412
 31
0.0
  0
LINE
  5
639
100
AcDbEntity
  8
0
  6
PHANTOM2
 62
       3
100
AcDbLine
 10
-129.42564682
 20
349.44388784
 30
0.0
 11
-129.33381808
 21
349.14377414
 31
0.0
  0
LINE
  5
63A
100
AcDbEntity
  8
0
  6
PHANTOM2
 62
       3
100
AcDbLine
 10
-139.10060591
 20
351.62590494
 30
0.0
 11
-139.21989936
 21
351.33890855
 31
0.0
  0
LINE
  5
63B
100
AcDbEntity
  8
0
  6
PHANTOM2
 62
       3
100
AcDbLine
 10
-146.93066524
 20
347.12102238
 30
0.0
 11
-146.62145225
 21
347.05084353
 31
0.0
  0
LINE
  5
63C
100
AcDbEntity
  8
0
  6
PHANTOM2
 62
       3
100
AcDbLine
 10
-152.79254589
 20
355.58054108
 30
0.0
 11
-152.79254589
 21
356.86138155
 31
0.0
  0
LINE
  5
63D
100
AcDbEntity
  8
0
  6
PHANTOM2
 62
       3
100
AcDbLine
 10
-118.1224509
 20
347.49746444
 30
0.0
 11
-117.85386527
 21
347.34589001
 31
0.0
  0
LINE
  5
63E
100
AcDbEntity
  8
0
  6
PHANTOM2
 62
       3
100
AcDbLine
 10
-113.17668939
 20
349.91524702
 30
0.0
 11
-113.16046376
 21
350.24134134
 31
0.0
  0
LINE
  5
63F
100
AcDbEntity
  8
0
  6
PHANTOM2
 62
       3
100
AcDbLine
 10
-114.08242343
 20
352.50461187
 30
0.0
 11
-114.30625887
 21
352.71331039
 31
0.0
  0
LINE
  5
640
100
AcDbEntity
  8
0
  6
PHANTOM2
 62
       3
100
AcDbLine
 10
-113.69778615
 20
348.45428442
 30
0.0
 11
-113.54010434
 21
348.71868516
 31
0.0
  0
LINE
  5
641
100
AcDbEntity
  8
0
  6
PHANTOM2
 62
       3
100
AcDbLine
 10
-148.26505419
 20
352.61157403
 30
0.0
 11
-148.47878584
 21
352.39261857
 31
0.0
  0
LINE
  5
642
100
AcDbEntity
  8
0
  6
PHANTOM2
 62
       3
100
AcDbLine
 10
-143.06353959
 20
351.48414373
 30
0.0
 11
-143.19607899
 21
351.76399753
 31
0.0
  0
LINE
  5
643
100
AcDbEntity
  8
0
  6
PHANTOM2
 62
       3
100
AcDbLine
 10
-125.56545092
 20
347.0822495
 30
0.0
 11
-125.26196617
 21
347.16696752
 31
0.0
  0
LINE
  5
644
100
AcDbEntity
  8
0
  6
PHANTOM2
 62
       3
100
AcDbLine
 10
-115.37531257
 20
347.16696752
 30
0.0
 11
-115.08511237
 21
347.27959598
 31
0.0
  0
LINE
  5
645
100
AcDbEntity
  8
0
  6
PHANTOM2
 62
       3
100
AcDbLine
 10
-152.70337346
 20
350.24134134
 30
0.0
 11
-152.71956667
 21
350.56743567
 31
0.0
  0
LINE
  5
646
100
AcDbEntity
  8
0
  6
PHANTOM2
 62
       3
100
AcDbLine
 10
-118.1224509
 20
352.98521825
 30
0.0
 11
-118.37436422
 21
352.80962631
 31
0.0
  0
LINE
  5
647
100
AcDbEntity
  8
0
  6
PHANTOM2
 62
       3
100
AcDbLine
 10
-119.01456947
 20
348.32836556
 30
0.0
 11
-118.8219736
 21
348.09006412
 31
0.0
  0
LINE
  5
648
100
AcDbEntity
  8
0
  6
PHANTOM2
 62
       3
100
AcDbLine
 10
-116.31582016
 20
347.0027735
 30
0.0
 11
-115.99222647
 21
347.0269991
 31
0.0
  0
LINE
  5
649
100
AcDbEntity
  8
0
  6
PHANTOM2
 62
       3
100
AcDbLine
 10
-153.62421094
 20
352.50461187
 30
0.0
 11
-153.84792045
 21
352.71331039
 31
0.0
  0
LINE
  5
64A
100
AcDbEntity
  8
0
  6
PHANTOM2
 62
       3
100
AcDbLine
 10
-152.84447064
 20
351.19039404
 30
0.0
 11
-152.95008687
 21
351.48414373
 31
0.0
  0
CIRCLE
  5
64B
100
AcDbEntity
  8
0
  6
PHANTOM2
 62
       3
100
AcDbCircle
 10
-151.27335267
 20
-147.83147885
 30
0.0
 40
3.24057559
  0
CIRCLE
  5
64C
100
AcDbEntity
  8
0
  6
PHANTOM2
 62
       3
100
AcDbCircle
 10
-151.27335267
 20
-157.71760186
 30
0.0
 40
3.24057559
  0
CIRCLE
  5
64D
100
AcDbEntity
  8
0
  6
PHANTOM2
 62
       3
100
AcDbCircle
 10
-111.2166154
 20
-128.05880648
 30
0.0
 40
3.23998087
  0
CIRCLE
  5
64E
100
AcDbEntity
  8
0
  6
PHANTOM2
 62
       3
100
AcDbCircle
 10
-151.27335267
 20
-167.60372486
 30
0.0
 40
3.24057559
  0
CIRCLE
  5
64F
100
AcDbEntity
  8
0
  6
PHANTOM2
 62
       3
100
AcDbCircle
 10
-111.2166154
 20
-167.60329849
 30
0.0
 40
3.23998087
  0
CIRCLE
  5
650
100
AcDbEntity
  8
0
  6
PHANTOM2
 62
       3
100
AcDbCircle
 10
-151.27335267
 20
-128.05923285
 30
0.0
 40
3.24057559
  0
CIRCLE
  5
651
100
AcDbEntity
  8
0
  6
PHANTOM2
 62
       3
100
AcDbCircle
 10
-111.2166154
 20
-137.94492948
 30
0.0
 40
3.23998087
  0
CIRCLE
  5
652
100
AcDbEntity
  8
0
  6
PHANTOM2
 62
       3
100
AcDbCircle
 10
-151.27335267
 20
-137.94535585
 30
0.0
 40
3.24057559
  0
CIRCLE
  5
653
100
AcDbEntity
  8
0
  6
PHANTOM2
 62
       3
100
AcDbCircle
 10
-111.2166154
 20
-147.83105248
 30
0.0
 40
3.23998087
  0
CIRCLE
  5
654
100
AcDbEntity
  8
0
  6
PHANTOM2
 62
       3
100
AcDbCircle
 10
-111.2166154
 20
-157.71717549
 30
0.0
 40
3.23998087
  0
LINE
  5
655
100
AcDbEntity
  8
0
  6
PHANTOM
 62
       3
100
AcDbLine
 10
142.76099776
 20
285.78435737
 30
0.0
 11
142.76099776
 21
333.78435737
 31
0.0
  0
LINE
  5
656
100
AcDbEntity
  8
0
  6
PHANTOM
 62
       3
100
AcDbLine
 10
-10.23900224
 20
285.78435737
 30
0.0
 11
-28.23900224
 21
285.78435737
 31
0.0
  0
LINE
  5
657
100
AcDbEntity
  8
0
  6
PHANTOM
 62
       3
100
AcDbLine
 10
180.76099776
 20
333.78435737
 30
0.0
 11
162.76099776
 21
333.78435737
 31
0.0
  0
LINE
  5
658
100
AcDbEntity
  8
0
  6
PHANTOM
 62
       3
100
AcDbLine
 10
162.76099776
 20
285.78435737
 30
0.0
 11
162.76099776
 21
333.78435737
 31
0.0
  0
LINE
  5
659
100
AcDbEntity
  8
0
  6
PHANTOM
 62
       3
100
AcDbLine
 10
104.76099776
 20
285.78435737
 30
0.0
 11
86.76099776
 21
285.78435737
 31
0.0
  0
LINE
  5
65A
100
AcDbEntity
  8
0
  6
PHANTOM
 62
       3
100
AcDbLine
 10
27.76099776
 20
333.78435737
 30
0.0
 11
9.76099776
 21
333.78435737
 31
0.0
  0
LINE
  5
65B
100
AcDbEntity
  8
0
  6
PHANTOM
 62
       3
100
AcDbLine
 10
-10.23900224
 20
285.78435737
 30
0.0
 11
-10.23900224
 21
333.78435737
 31
0.0
  0
LINE
  5
65C
100
AcDbEntity
  8
0
  6
PHANTOM
 62
       3
100
AcDbLine
 10
28.76099776
 20
285.78435737
 30
0.0
 11
28.76099776
 21
333.78435737
 31
0.0
  0
LINE
  5
65D
100
AcDbEntity
  8
0
  6
PHANTOM
 62
       3
100
AcDbLine
 10
218.76099776
 20
285.78435737
 30
0.0
 11
200.76099776
 21
285.78435737
 31
0.0
  0
LINE
  5
65E
100
AcDbEntity
  8
0
  6
PHANTOM
 62
       3
100
AcDbLine
 10
161.76099776
 20
333.78435737
 30
0.0
 11
143.76099776
 21
333.78435737
 31
0.0
  0
LINE
  5
65F
100
AcDbEntity
  8
0
  6
PHANTOM
 62
       3
100
AcDbLine
 10
8.76099776
 20
333.78435737
 30
0.0
 11
-9.23900224
 21
333.78435737
 31
0.0
  0
LINE
  5
660
100
AcDbEntity
  8
0
  6
PHANTOM
 62
       3
100
AcDbLine
 10
212.13316844
 20
165.06321792
 30
0.0
 11
212.13316844
 21
165.28396737
 31
0.0
  0
LINE
  5
661
100
AcDbEntity
  8
0
  6
PHANTOM
 62
       3
100
AcDbLine
 10
-68.56917808
 20
165.06321792
 30
0.0
 11
-68.56917808
 21
165.28396737
 31
0.0
  0
LINE
  5
662
100
AcDbEntity
  8
0
  6
PHANTOM
 62
       3
100
AcDbLine
 10
8.76099776
 20
285.78435737
 30
0.0
 11
-9.23900224
 21
285.78435737
 31
0.0
  0
LINE
  5
663
100
AcDbEntity
  8
0
  6
PHANTOM
 62
       3
100
AcDbLine
 10
142.76099776
 20
333.78435737
 30
0.0
 11
124.76099776
 21
333.78435737
 31
0.0
  0
LINE
  5
664
100
AcDbEntity
  8
0
  6
PHANTOM
 62
       3
100
AcDbLine
 10
47.76099776
 20
285.78435737
 30
0.0
 11
47.76099776
 21
333.78435737
 31
0.0
  0
LINE
  5
665
100
AcDbEntity
  8
0
  6
PHANTOM
 62
       3
100
AcDbLine
 10
-70.06917808
 20
166.78396737
 30
0.0
 11
-72.36683156
 21
166.78396737
 31
0.0
  0
LINE
  5
666
100
AcDbEntity
  8
0
  6
PHANTOM
 62
       3
100
AcDbLine
 10
-85.23900224
 20
165.08396737
 30
0.0
 11
-85.23900224
 21
95.78434008
 31
0.0
  0
LINE
  5
667
100
AcDbEntity
  8
0
  6
PHANTOM
 62
       3
100
AcDbLine
 10
161.76099776
 20
285.78435737
 30
0.0
 11
161.76099776
 21
333.78435737
 31
0.0
  0
LINE
  5
668
100
AcDbEntity
  8
0
  6
PHANTOM
 62
       3
100
AcDbLine
 10
46.76099776
 20
333.78435737
 30
0.0
 11
28.76099776
 21
333.78435737
 31
0.0
  0
LINE
  5
669
100
AcDbEntity
  8
0
  6
PHANTOM
 62
       3
100
AcDbLine
 10
-91.30004322
 20
138.78369507
 30
0.0
 11
-91.30004322
 21
92.78287687
 31
0.0
  0
LINE
  5
66A
100
AcDbEntity
  8
0
  6
PHANTOM
 62
       3
100
AcDbLine
 10
46.76099776
 20
285.78435737
 30
0.0
 11
28.76099776
 21
285.78435737
 31
0.0
  0
LINE
  5
66B
100
AcDbEntity
  8
0
  6
PHANTOM
 62
       3
100
AcDbLine
 10
-9.23900224
 20
285.78435737
 30
0.0
 11
-9.23900224
 21
333.78435737
 31
0.0
  0
LINE
  5
66C
100
AcDbEntity
  8
0
  6
PHANTOM
 62
       3
100
AcDbLine
 10
-181.2534409
 20
138.78369507
 30
0.0
 11
-181.25882012
 21
81.78224064
 31
0.0
  0
LINE
  5
66D
100
AcDbEntity
  8
0
  6
PHANTOM
 62
       3
100
AcDbLine
 10
199.76099776
 20
333.78435737
 30
0.0
 11
181.76099776
 21
333.78435737
 31
0.0
  0
LINE
  5
66E
100
AcDbEntity
  8
0
  6
PHANTOM
 62
       3
100
AcDbLine
 10
-67.23900224
 20
333.78435737
 30
0.0
 11
-85.23900224
 21
333.78435737
 31
0.0
  0
LINE
  5
66F
100
AcDbEntity
  8
0
  6
PHANTOM
 62
       3
100
AcDbLine
 10
9.76099776
 20
285.78435737
 30
0.0
 11
9.76099776
 21
333.78435737
 31
0.0
  0
LINE
  5
670
100
AcDbEntity
  8
0
  6
PHANTOM
 62
       3
100
AcDbLine
 10
27.76099776
 20
285.78435737
 30
0.0
 11
27.76099776
 21
333.78435737
 31
0.0
  0
LINE
  5
671
100
AcDbEntity
  8
0
  6
PHANTOM
 62
       3
100
AcDbLine
 10
85.76099776
 20
285.78435737
 30
0.0
 11
67.76099776
 21
285.78435737
 31
0.0
  0
LINE
  5
672
100
AcDbEntity
  8
0
  6
PHANTOM
 62
       3
100
AcDbLine
 10
-109.74049809
 20
138.86070763
 30
0.0
 11
-162.73932604
 21
138.86070763
 31
0.0
  0
LINE
  5
673
100
AcDbEntity
  8
0
  6
PHANTOM
 62
       3
100
AcDbLine
 10
199.76099776
 20
285.78435737
 30
0.0
 11
181.76099776
 21
285.78435737
 31
0.0
  0
LINE
  5
674
100
AcDbEntity
  8
0
  6
PHANTOM
 62
       3
100
AcDbLine
 10
217.43082192
 20
165.06321792
 30
0.0
 11
217.43082192
 21
165.28396737
 31
0.0
  0
LINE
  5
675
100
AcDbEntity
  8
0
  6
PHANTOM
 62
       3
100
AcDbLine
 10
200.76099776
 20
165.08396737
 30
0.0
 11
200.76099776
 21
120.36553331
 31
0.0
  0
LINE
  5
676
100
AcDbEntity
  8
0
  6
PHANTOM
 62
       3
100
AcDbLine
 10
-67.23900224
 20
285.78435737
 30
0.0
 11
-67.23900224
 21
333.78435737
 31
0.0
  0
LINE
  5
677
100
AcDbEntity
  8
0
  6
PHANTOM
 62
       3
100
AcDbLine
 10
-181.2534409
 20
138.78369507
 30
0.0
 11
-91.30004322
 21
138.78369507
 31
0.0
  0
LINE
  5
678
100
AcDbEntity
  8
0
  6
PHANTOM
 62
       3
100
AcDbLine
 10
-162.73932604
 20
155.8612303
 30
0.0
 11
-109.74049809
 21
155.8612303
 31
0.0
  0
LINE
  5
679
100
AcDbEntity
  8
0
  6
PHANTOM
 62
       3
100
AcDbLine
 10
143.76099776
 20
285.78435737
 30
0.0
 11
143.76099776
 21
333.78435737
 31
0.0
  0
LINE
  5
67A
100
AcDbEntity
  8
0
  6
PHANTOM
 62
       3
100
AcDbLine
 10
-67.23900224
 20
165.08396737
 30
0.0
 11
-85.23900224
 21
165.08396737
 31
0.0
  0
LINE
  5
67B
100
AcDbEntity
  8
0
  6
PHANTOM
 62
       3
100
AcDbLine
 10
218.76099776
 20
165.08396737
 30
0.0
 11
200.76099776
 21
165.08396737
 31
0.0
  0
LINE
  5
67C
100
AcDbEntity
  8
0
  6
PHANTOM
 62
       3
100
AcDbLine
 10
-48.23900224
 20
285.78435737
 30
0.0
 11
-48.23900224
 21
333.78435737
 31
0.0
  0
LINE
  5
67D
100
AcDbEntity
  8
0
  6
PHANTOM
 62
       3
100
AcDbLine
 10
-48.23900224
 20
333.78435737
 30
0.0
 11
-66.23900224
 21
333.78435737
 31
0.0
  0
LINE
  5
67E
100
AcDbEntity
  8
0
  6
PHANTOM
 62
       3
100
AcDbLine
 10
-29.23900224
 20
285.78435737
 30
0.0
 11
-47.23900224
 21
285.78435737
 31
0.0
  0
LINE
  5
67F
100
AcDbEntity
  8
0
  6
PHANTOM
 62
       3
100
AcDbLine
 10
86.76099776
 20
285.78435737
 30
0.0
 11
86.76099776
 21
333.78435737
 31
0.0
  0
LINE
  5
680
100
AcDbEntity
  8
0
  6
PHANTOM
 62
       3
100
AcDbLine
 10
65.76099776
 20
285.78435737
 30
0.0
 11
65.76099776
 21
333.78435737
 31
0.0
  0
LINE
  5
681
100
AcDbEntity
  8
0
  6
PHANTOM
 62
       3
100
AcDbLine
 10
104.76099776
 20
333.78435737
 30
0.0
 11
86.76099776
 21
333.78435737
 31
0.0
  0
LINE
  5
682
100
AcDbEntity
  8
0
  6
PHANTOM
 62
       3
100
AcDbLine
 10
199.76099776
 20
285.78435737
 30
0.0
 11
199.76099776
 21
333.78435737
 31
0.0
  0
LINE
  5
683
100
AcDbEntity
  8
0
  6
PHANTOM
 62
       3
100
AcDbLine
 10
124.76099776
 20
285.78435737
 30
0.0
 11
124.76099776
 21
333.78435737
 31
0.0
  0
LINE
  5
684
100
AcDbEntity
  8
0
  6
PHANTOM
 62
       3
100
AcDbLine
 10
123.76099776
 20
333.78435737
 30
0.0
 11
105.76099776
 21
333.78435737
 31
0.0
  0
LINE
  5
685
100
AcDbEntity
  8
0
  6
PHANTOM
 62
       3
100
AcDbLine
 10
104.76099776
 20
285.78435737
 30
0.0
 11
104.76099776
 21
333.78435737
 31
0.0
  0
LINE
  5
686
100
AcDbEntity
  8
0
  6
PHANTOM
 62
       3
100
AcDbLine
 10
-48.23900224
 20
285.78435737
 30
0.0
 11
-66.23900224
 21
285.78435737
 31
0.0
  0
LINE
  5
687
100
AcDbEntity
  8
0
  6
PHANTOM
 62
       3
100
AcDbLine
 10
27.76099776
 20
285.78435737
 30
0.0
 11
9.76099776
 21
285.78435737
 31
0.0
  0
LINE
  5
688
100
AcDbEntity
  8
0
  6
PHANTOM
 62
       3
100
AcDbLine
 10
85.76099776
 20
333.78435737
 30
0.0
 11
67.76099776
 21
333.78435737
 31
0.0
  0
LINE
  5
689
100
AcDbEntity
  8
0
  6
PHANTOM
 62
       3
100
AcDbLine
 10
85.76099776
 20
285.78435737
 30
0.0
 11
85.76099776
 21
333.78435737
 31
0.0
  0
LINE
  5
68A
100
AcDbEntity
  8
0
  6
PHANTOM
 62
       3
100
AcDbLine
 10
181.76099776
 20
285.78435737
 30
0.0
 11
181.76099776
 21
333.78435737
 31
0.0
  0
LINE
  5
68B
100
AcDbEntity
  8
0
  6
PHANTOM
 62
       3
100
AcDbLine
 10
-10.23900224
 20
333.78435737
 30
0.0
 11
-28.23900224
 21
333.78435737
 31
0.0
  0
LINE
  5
68C
100
AcDbEntity
  8
0
  6
PHANTOM
 62
       3
100
AcDbLine
 10
218.76099776
 20
285.78435737
 30
0.0
 11
218.76099776
 21
333.78435737
 31
0.0
  0
LINE
  5
68D
100
AcDbEntity
  8
0
  6
PHANTOM
 62
       3
100
AcDbLine
 10
65.76099776
 20
285.78435737
 30
0.0
 11
47.76099776
 21
285.78435737
 31
0.0
  0
LINE
  5
68E
100
AcDbEntity
  8
0
  6
PHANTOM
 62
       3
100
AcDbLine
 10
-67.23900224
 20
165.08396737
 30
0.0
 11
-67.23900224
 21
120.36553331
 31
0.0
  0
LINE
  5
68F
100
AcDbEntity
  8
0
  6
PHANTOM
 62
       3
100
AcDbLine
 10
180.76099776
 20
285.78435737
 30
0.0
 11
162.76099776
 21
285.78435737
 31
0.0
  0
LINE
  5
690
100
AcDbEntity
  8
0
  6
PHANTOM
 62
       3
100
AcDbLine
 10
-67.23900224
 20
285.78435737
 30
0.0
 11
-85.23900224
 21
285.78435737
 31
0.0
  0
LINE
  5
691
100
AcDbEntity
  8
0
  6
PHANTOM
 62
       3
100
AcDbLine
 10
-109.74049809
 20
155.8612303
 30
0.0
 11
-109.74049809
 21
138.86070763
 31
0.0
  0
LINE
  5
692
100
AcDbEntity
  8
0
  6
PHANTOM
 62
       3
100
AcDbLine
 10
105.76099776
 20
285.78435737
 30
0.0
 11
105.76099776
 21
333.78435737
 31
0.0
  0
LINE
  5
693
100
AcDbEntity
  8
0
  6
PHANTOM
 62
       3
100
AcDbLine
 10
200.76099776
 20
285.78435737
 30
0.0
 11
200.76099776
 21
333.78435737
 31
0.0
  0
LINE
  5
694
100
AcDbEntity
  8
0
  6
PHANTOM
 62
       3
100
AcDbLine
 10
-29.23900224
 20
285.78435737
 30
0.0
 11
-29.23900224
 21
333.78435737
 31
0.0
  0
LINE
  5
695
100
AcDbEntity
  8
0
  6
PHANTOM
 62
       3
100
AcDbLine
 10
218.76099776
 20
165.08396737
 30
0.0
 11
218.76099776
 21
95.78434008
 31
0.0
  0
LINE
  5
696
100
AcDbEntity
  8
0
  6
PHANTOM
 62
       3
100
AcDbLine
 10
8.76099776
 20
285.78435737
 30
0.0
 11
8.76099776
 21
333.78435737
 31
0.0
  0
LINE
  5
697
100
AcDbEntity
  8
0
  6
PHANTOM
 62
       3
100
AcDbLine
 10
123.76099776
 20
285.78435737
 30
0.0
 11
123.76099776
 21
333.78435737
 31
0.0
  0
LINE
  5
698
100
AcDbEntity
  8
0
  6
PHANTOM
 62
       3
100
AcDbLine
 10
-73.86683156
 20
165.06321792
 30
0.0
 11
-73.86683156
 21
165.28396737
 31
0.0
  0
LINE
  5
699
100
AcDbEntity
  8
0
  6
PHANTOM
 62
       3
100
AcDbLine
 10
180.76099776
 20
285.78435737
 30
0.0
 11
180.76099776
 21
333.78435737
 31
0.0
  0
LINE
  5
69A
100
AcDbEntity
  8
0
  6
PHANTOM
 62
       3
100
AcDbLine
 10
-85.23900224
 20
285.78435737
 30
0.0
 11
-85.23900224
 21
333.78435737
 31
0.0
  0
LINE
  5
69B
100
AcDbEntity
  8
0
  6
PHANTOM
 62
       3
100
AcDbLine
 10
142.76099776
 20
285.78435737
 30
0.0
 11
124.76099776
 21
285.78435737
 31
0.0
  0
LINE
  5
69C
100
AcDbEntity
  8
0
  6
PHANTOM
 62
       3
100
AcDbLine
 10
-28.23900224
 20
285.78435737
 30
0.0
 11
-28.23900224
 21
333.78435737
 31
0.0
  0
LINE
  5
69D
100
AcDbEntity
  8
0
  6
PHANTOM
 62
       3
100
AcDbLine
 10
-29.23900224
 20
333.78435737
 30
0.0
 11
-47.23900224
 21
333.78435737
 31
0.0
  0
LINE
  5
69E
100
AcDbEntity
  8
0
  6
PHANTOM
 62
       3
100
AcDbLine
 10
218.76099776
 20
333.78435737
 30
0.0
 11
200.76099776
 21
333.78435737
 31
0.0
  0
LINE
  5
69F
100
AcDbEntity
  8
0
  6
PHANTOM
 62
       3
100
AcDbLine
 10
-47.23900224
 20
285.78435737
 30
0.0
 11
-47.23900224
 21
333.78435737
 31
0.0
  0
LINE
  5
6A0
100
AcDbEntity
  8
0
  6
PHANTOM
 62
       3
100
AcDbLine
 10
67.76099776
 20
285.78435737
 30
0.0
 11
67.76099776
 21
333.78435737
 31
0.0
  0
LINE
  5
6A1
100
AcDbEntity
  8
0
  6
PHANTOM
 62
       3
100
AcDbLine
 10
65.76099776
 20
333.78435737
 30
0.0
 11
47.76099776
 21
333.78435737
 31
0.0
  0
LINE
  5
6A2
100
AcDbEntity
  8
0
  6
PHANTOM
 62
       3
100
AcDbLine
 10
215.93082192
 20
166.78396737
 30
0.0
 11
213.63316844
 21
166.78396737
 31
0.0
  0
LINE
  5
6A3
100
AcDbEntity
  8
0
  6
PHANTOM
 62
       3
100
AcDbLine
 10
-162.73932604
 20
138.86070763
 30
0.0
 11
-162.73932604
 21
155.8612303
 31
0.0
  0
LINE
  5
6A4
100
AcDbEntity
  8
0
  6
PHANTOM
 62
       3
100
AcDbLine
 10
161.76099776
 20
285.78435737
 30
0.0
 11
143.76099776
 21
285.78435737
 31
0.0
  0
LINE
  5
6A5
100
AcDbEntity
  8
0
  6
PHANTOM
 62
       3
100
AcDbLine
 10
-66.23900224
 20
285.78435737
 30
0.0
 11
-66.23900224
 21
333.78435737
 31
0.0
  0
LINE
  5
6A6
100
AcDbEntity
  8
0
  6
PHANTOM
 62
       3
100
AcDbLine
 10
123.76099776
 20
285.78435737
 30
0.0
 11
105.76099776
 21
285.78435737
 31
0.0
  0
LINE
  5
6A7
100
AcDbEntity
  8
0
  6
PHANTOM
 62
       3
100
AcDbLine
 10
46.76099776
 20
285.78435737
 30
0.0
 11
46.76099776
 21
333.78435737
 31
0.0
  0
ARC
  5
6A8
100
AcDbEntity
  8
0
  6
PHANTOM
 62
       3
100
AcDbCircle
 10
215.93082192
 20
165.28396737
 30
0.0
 40
1.5
100
AcDbArc
 50
0.0
 51
90.0
  0
ARC
  5
6A9
100
AcDbEntity
  8
0
  6
PHANTOM
 62
       3
100
AcDbCircle
 10
213.63316844
 20
165.28396737
 30
0.0
 40
1.5
100
AcDbArc
 50
90.0
 51
180.0
  0
ARC
  5
6AA
100
AcDbEntity
  8
0
  6
PHANTOM
 62
       3
100
AcDbCircle
 10
-70.06917808
 20
165.28396737
 30
0.0
 40
1.5
100
AcDbArc
 50
0.0
 51
90.0
  0
ARC
  5
6AB
100
AcDbEntity
  8
0
  6
PHANTOM
 62
       3
100
AcDbCircle
 10
-72.36683156
 20
165.28396737
 30
0.0
 40
1.5
100
AcDbArc
 50
90.0
 51
180.0
  0
LINE
  5
6AC
100
AcDbEntity
  8
SLD-0
  6
CONTINUOUS
 62
       3
100
AcDbLine
 10
-201.23900224
 20
-100.91310827
 30
0.0
 11
-198.73900224
 21
-98.41310827
 31
0.0
  0
LINE
  5
6AD
100
AcDbEntity
  8
SLD-0
  6
CONTINUOUS
 62
       3
100
AcDbLine
 10
276.26099776
 20
-193.41310827
 30
0.0
 11
-9.45899816
 21
-193.41310827
 31
0.0
  0
LINE
  5
6AE
100
AcDbEntity
  8
SLD-0
  6
CONTINUOUS
 62
       3
100
AcDbLine
 10
-193.73900224
 20
-174.41310827
 30
0.0
 11
-198.73900224
 21
-174.41310827
 31
0.0
  0
LINE
  5
6AF
100
AcDbEntity
  8
SLD-0
  6
CONTINUOUS
 62
       3
100
AcDbLine
 10
-193.73900224
 20
-167.41310827
 30
0.0
 11
-198.73900224
 21
-167.41310827
 31
0.0
  0
LINE
  5
6B0
100
AcDbEntity
  8
SLD-0
  6
CONTINUOUS
 62
       3
100
AcDbLine
 10
-201.23900224
 20
-164.91310827
 30
0.0
 11
-201.23900224
 21
-126.91310827
 31
0.0
  0
LINE
  5
6B1
100
AcDbEntity
  8
SLD-0
  6
CONTINUOUS
 62
       3
100
AcDbLine
 10
-198.73900224
 20
-174.41310827
 30
0.0
 11
-201.23900224
 21
-176.91310827
 31
0.0
  0
LINE
  5
6B2
100
AcDbEntity
  8
SLD-0
  6
CONTINUOUS
 62
       3
100
AcDbLine
 10
-198.73900224
 20
-167.41310827
 30
0.0
 11
-201.23900224
 21
-164.91310827
 31
0.0
  0
LINE
  5
6B3
100
AcDbEntity
  8
SLD-0
  6
CONTINUOUS
 62
       3
100
AcDbLine
 10
-201.23900224
 20
-114.91310827
 30
0.0
 11
-201.23900224
 21
-100.91310827
 31
0.0
  0
ARC
  5
6B4
100
AcDbEntity
  8
SLD-0
  6
CONTINUOUS
 62
       3
100
AcDbCircle
 10
-193.73900224
 20
-170.91310827
 30
0.0
 40
3.5
100
AcDbArc
 50
270.0
 51
450.0
  0
LINE
  5
6B5
100
AcDbEntity
  8
SLD-0
  6
CONTINUOUS
 62
       3
100
AcDbLine
 10
278.76099776
 20
-114.91310827
 30
0.0
 11
278.76099776
 21
-100.91310827
 31
0.0
  0
LINE
  5
6B6
100
AcDbEntity
  8
SLD-0
  6
CONTINUOUS
 62
       3
100
AcDbLine
 10
271.26099776
 20
-117.41310827
 30
0.0
 11
276.26099776
 21
-117.41310827
 31
0.0
  0
LINE
  5
6B7
100
AcDbEntity
  8
SLD-0
  6
CONTINUOUS
 62
       3
100
AcDbLine
 10
271.26099776
 20
-124.41310827
 30
0.0
 11
276.26099776
 21
-124.41310827
 31
0.0
  0
LINE
  5
6B8
100
AcDbEntity
  8
SLD-0
  6
CONTINUOUS
 62
       3
100
AcDbLine
 10
276.26099776
 20
-117.41310827
 30
0.0
 11
278.76099776
 21
-114.91310827
 31
0.0
  0
LINE
  5
6B9
100
AcDbEntity
  8
SLD-0
  6
CONTINUOUS
 62
       3
100
AcDbLine
 10
276.26099776
 20
-124.41310827
 30
0.0
 11
278.76099776
 21
-126.91310827
 31
0.0
  0
LINE
  5
6BA
100
AcDbEntity
  8
SLD-0
  6
CONTINUOUS
 62
       3
100
AcDbLine
 10
276.26099776
 20
-167.41310827
 30
0.0
 11
278.76099776
 21
-164.91310827
 31
0.0
  0
LINE
  5
6BB
100
AcDbEntity
  8
SLD-0
  6
CONTINUOUS
 62
       3
100
AcDbLine
 10
276.26099776
 20
-174.41310827
 30
0.0
 11
278.76099776
 21
-176.91310827
 31
0.0
  0
LINE
  5
6BC
100
AcDbEntity
  8
SLD-0
  6
CONTINUOUS
 62
       3
100
AcDbLine
 10
278.76099776
 20
-164.91310827
 30
0.0
 11
278.76099776
 21
-126.91310827
 31
0.0
  0
LINE
  5
6BD
100
AcDbEntity
  8
SLD-0
  6
CONTINUOUS
 62
       3
100
AcDbLine
 10
271.26099776
 20
-167.41310827
 30
0.0
 11
276.26099776
 21
-167.41310827
 31
0.0
  0
LINE
  5
6BE
100
AcDbEntity
  8
SLD-0
  6
CONTINUOUS
 62
       3
100
AcDbLine
 10
271.26099776
 20
-174.41310827
 30
0.0
 11
276.26099776
 21
-174.41310827
 31
0.0
  0
LINE
  5
6BF
100
AcDbEntity
  8
SLD-0
  6
CONTINUOUS
 62
       3
100
AcDbLine
 10
278.76099776
 20
-100.91310827
 30
0.0
 11
276.26099776
 21
-98.41310827
 31
0.0
  0
LINE
  5
6C0
100
AcDbEntity
  8
SLD-0
  6
CONTINUOUS
 62
       3
100
AcDbLine
 10
-198.73900224
 20
-124.41310827
 30
0.0
 11
-201.23900224
 21
-126.91310827
 31
0.0
  0
LINE
  5
6C1
100
AcDbEntity
  8
SLD-0
  6
CONTINUOUS
 62
       3
100
AcDbLine
 10
-198.73900224
 20
-117.41310827
 30
0.0
 11
-201.23900224
 21
-114.91310827
 31
0.0
  0
LINE
  5
6C2
100
AcDbEntity
  8
SLD-0
  6
CONTINUOUS
 62
       3
100
AcDbLine
 10
-193.73900224
 20
-124.41310827
 30
0.0
 11
-198.73900224
 21
-124.41310827
 31
0.0
  0
LINE
  5
6C3
100
AcDbEntity
  8
SLD-0
  6
CONTINUOUS
 62
       3
100
AcDbLine
 10
-193.73900224
 20
-117.41310827
 30
0.0
 11
-198.73900224
 21
-117.41310827
 31
0.0
  0
ARC
  5
6C4
100
AcDbEntity
  8
SLD-0
  6
CONTINUOUS
 62
       3
100
AcDbCircle
 10
-193.73900224
 20
-120.91310827
 30
0.0
 40
3.5
100
AcDbArc
 50
270.0
 51
450.0
  0
ARC
  5
6C5
100
AcDbEntity
  8
SLD-0
  6
CONTINUOUS
 62
       3
100
AcDbCircle
 10
271.26099776
 20
-120.91310827
 30
0.0
 40
3.5
100
AcDbArc
 50
90.0
 51
270.0
  0
ARC
  5
6C6
100
AcDbEntity
  8
SLD-0
  6
CONTINUOUS
 62
       3
100
AcDbCircle
 10
271.26099776
 20
-170.91310827
 30
0.0
 40
3.5
100
AcDbArc
 50
90.0
 51
270.0
  0
LINE
  5
6C7
100
AcDbEntity
  8
SLD-0
  6
CONTINUOUS
 62
       3
100
AcDbLine
 10
276.26099776
 20
-193.41310827
 30
0.0
 11
278.76099776
 21
-190.91310827
 31
0.0
  0
LINE
  5
6C8
100
AcDbEntity
  8
SLD-0
  6
CONTINUOUS
 62
       3
100
AcDbLine
 10
278.76099776
 20
-190.91310827
 30
0.0
 11
278.76099776
 21
-176.91310827
 31
0.0
  0
TEXT
  5
6C9
100
AcDbEntity
  8
SLD-0
 62
       3
100
AcDbText
 10
263.66190274
 20
-431.66919634
 30
0.0
 40
9.525
  1
000
 72
       5
 11
292.23690274
 21
-431.66919634
 31
0.0
100
AcDbText
  0
TEXT
  5
6CA
100
AcDbEntity
  8
SLD-0
 62
       3
100
AcDbText
 10
-278.76099776
 20
339.13057415
 30
0.0
 40
9.525
  1
-K
 72
       5
 11
-259.71099776
 21
339.13057415
 31
0.0
100
AcDbText
  0
TEXT
  5
6CB
100
AcDbEntity
  8
SLD-0
 62
       3
100
AcDbText
 10
-249.24876507
 20
-112.53398609
 30
0.0
 40
9.525
  1
-KK
 72
       5
 11
-220.67376507
 21
-112.53398609
 31
0.0
100
AcDbText
  0
ENDSEC
  0
SECTION
  2
OBJECTS
  0
DICTIONARY
  5
19
100
AcDbDictionary
  3
ACAD_GROUP
350
1A
  3
ACAD_MLINESTYLE
350
1B
  0
DICTIONARY
  5
1A
102
{ACAD_REACTORS
330
19
102
}
100
AcDbDictionary
  0
DICTIONARY
  5
1B
102
{ACAD_REACTORS
330
19
102
}
100
AcDbDictionary
  3
STANDARD
350
1C
  0
MLINESTYLE
  5
1C
102
{ACAD_REACTORS
330
1B
102
}
100
AcDbMlineStyle
  2
STANDARD
 70
       0
  3

 62
       0
 51
90.0
 52
90.0
 71
       2
 49
0.5
 62
     256
  6
BYLAYER
 49
-0.5
 62
     256
  6
BYLAYER
  0
ENDSEC
  0
EOF
