  0
SECTION
  2
HEADER
  9
$ACADVER
  1
AC1009
  9
$INSBASE
 10
0.0
 20
0.0
 30
0.0
  9
$EXTMIN
 10
-261.6881246199999964
 20
-399.0979633599999943
 30
0.0
  9
$EXTMAX
 10
267.22652961
 20
391.9542133599999829
 30
0.0
  9
$LIMMIN
 10
-289.1653777099999729
 20
-440.6282026399999268
  9
$LIMMAX
 10
289.1653777099999729
 20
433.4844526399999154
  9
$ORTHOMODE
 70
     0
  9
$REGENMODE
 70
     1
  9
$FILLMODE
 70
     1
  9
$QTEXTMODE
 70
     0
  9
$MIRRTEXT
 70
     1
  9
$DRAGMODE
 70
     2
  9
$LTSCALE
 40
0.2
  9
$OSMODE
 70
  1079
  9
$ATTMODE
 70
     1
  9
$TEXTSIZE
 40
6.87916667
  9
$TRACEWID
 40
0.05
  9
$TEXTSTYLE
  7
STANDARD
  9
$CLAYER
  8
0
  9
$CELTYPE
  6
CONTINUOUS
  9
$CECOLOR
 62
   256
  9
$DIMSCALE
 40
1.0
  9
$DIMASZ
 40
0.18
  9
$DIMEXO
 40
0.0625
  9
$DIMDLI
 40
0.38
  9
$DIMRND
 40
0.0
  9
$DIMDLE
 40
0.0
  9
$DIMEXE
 40
0.18
  9
$DIMTP
 40
0.0
  9
$DIMTM
 40
0.0
  9
$DIMTXT
 40
0.18
  9
$DIMCEN
 40
0.09
  9
$DIMTSZ
 40
0.0
  9
$DIMTOL
 70
     0
  9
$DIMLIM
 70
     0
  9
$DIMTIH
 70
     1
  9
$DIMTOH
 70
     1
  9
$DIMSE1
 70
     0
  9
$DIMSE2
 70
     0
  9
$DIMTAD
 70
     0
  9
$DIMZIN
 70
     0
  9
$DIMBLK
  1

  9
$DIMASO
 70
     1
  9
$DIMSHO
 70
     1
  9
$DIMPOST
  1

  9
$DIMAPOST
  1

  9
$DIMALT
 70
     0
  9
$DIMALTD
 70
     2
  9
$DIMALTF
 40
25.3999999999999986
  9
$DIMLFAC
 40
1.0
  9
$DIMTOFL
 70
     0
  9
$DIMTVP
 40
0.0
  9
$DIMTIX
 70
     0
  9
$DIMSOXD
 70
     0
  9
$DIMSAH
 70
     0
  9
$DIMBLK1
  1

  9
$DIMBLK2
  1

  9
$DIMSTYLE
  2
STANDARD
  9
$DIMCLRD
 70
     0
  9
$DIMCLRE
 70
     0
  9
$DIMCLRT
 70
     0
  9
$DIMTFAC
 40
1.0
  9
$DIMGAP
 40
0.09
  9
$LUNITS
 70
     2
  9
$LUPREC
 70
     4
  9
$SKETCHINC
 40
0.1
  9
$FILLETRAD
 40
0.0
  9
$AUNITS
 70
     0
  9
$AUPREC
 70
     0
  9
$MENU
  1
acad
  9
$ELEVATION
 40
0.0
  9
$PELEVATION
 40
0.0
  9
$THICKNESS
 40
0.0
  9
$LIMCHECK
 70
     0
  9
$BLIPMODE
 70
     0
  9
$CHAMFERA
 40
0.0
  9
$CHAMFERB
 40
0.0
  9
$SKPOLY
 70
     0
  9
$TDCREATE
 40
2440588.749988425988704
  9
$TDUPDATE
 40
2458753.5699999998323619
  9
$TDINDWG
 40
0.0071643519
  9
$TDUSRTIMER
 40
0.0071643519
  9
$USRTIMER
 70
     1
  9
$ANGBASE
 50
0.0
  9
$ANGDIR
 70
     0
  9
$PDMODE
 70
     0
  9
$PDSIZE
 40
1.0
  9
$PLINEWID
 40
0.0
  9
$COORDS
 70
     1
  9
$SPLFRAME
 70
     0
  9
$SPLINETYPE
 70
     6
  9
$SPLINESEGS
 70
     8
  9
$ATTDIA
 70
     1
  9
$ATTREQ
 70
     1
  9
$HANDLING
 70
     1
  9
$HANDSEED
  5
6FA
  9
$SURFTAB1
 70
     6
  9
$SURFTAB2
 70
     6
  9
$SURFTYPE
 70
     6
  9
$SURFU
 70
     6
  9
$SURFV
 70
     6
  9
$UCSNAME
  2

  9
$UCSORG
 10
0.0
 20
0.0
 30
0.0
  9
$UCSXDIR
 10
1.0
 20
0.0
 30
0.0
  9
$UCSYDIR
 10
0.0
 20
1.0
 30
0.0
  9
$PUCSNAME
  2

  9
$PUCSORG
 10
0.0
 20
0.0
 30
0.0
  9
$PUCSXDIR
 10
1.0
 20
0.0
 30
0.0
  9
$PUCSYDIR
 10
0.0
 20
1.0
 30
0.0
  9
$USERI1
 70
     0
  9
$USERI2
 70
     0
  9
$USERI3
 70
     0
  9
$USERI4
 70
     0
  9
$USERI5
 70
     0
  9
$USERR1
 40
0.0
  9
$USERR2
 40
0.0
  9
$USERR3
 40
0.0
  9
$USERR4
 40
0.0
  9
$USERR5
 40
0.0
  9
$WORLDVIEW
 70
     1
  9
$SHADEDGE
 70
     3
  9
$SHADEDIF
 70
    70
  9
$TILEMODE
 70
     1
  9
$MAXACTVP
 70
    16
  9
$PLIMCHECK
 70
     0
  9
$PEXTMIN
 10
1.0000000000000000E+20
 20
1.0000000000000000E+20
 30
1.0000000000000000E+20
  9
$PEXTMAX
 10
-1.0000000000000000E+20
 20
-1.0000000000000000E+20
 30
-1.0000000000000000E+20
  9
$PLIMMIN
 10
0.0
 20
0.0
  9
$PLIMMAX
 10
12.0
 20
9.0
  9
$UNITMODE
 70
     0
  9
$VISRETAIN
 70
     0
  9
$PLINEGEN
 70
     1
  9
$PSLTSCALE
 70
     0
  0
ENDSEC
  0
SECTION
  2
TABLES
  0
TABLE
  2
VPORT
 70
     1
  0
VPORT
  2
*ACTIVE
 70
     0
 10
0.0
 20
0.0
 11
1.0
 21
1.0
 12
32.1735587049929634
 22
14.4220567079136099
 13
0.0
 23
0.0
 14
1.0
 24
1.0
 15
0.0
 25
0.0
 16
0.0
 26
0.0
 36
1.0
 17
0.0
 27
0.0
 37
0.0
 40
962.5211727249718479
 41
2.2135355892648771
 42
50.0
 43
0.0
 44
0.0
 50
0.0
 51
0.0
 71
     0
 72
   100
 73
     1
 74
     1
 75
     0
 76
     0
 77
     0
 78
     0
  0
ENDTAB
  0
TABLE
  2
LTYPE
 70
    30
  0
LTYPE
  2
CONTINUOUS
 70
     0
  3
Solid line
 72
    65
 73
     0
 40
0.0
  0
LTYPE
  2
HIDDENX2
 70
     0
  3
CADPAC LINETYPE
 72
    65
 73
     2
 40
46.5403402000000028
 49
34.9052551500000021
 49
-11.6350850500000007
  0
LTYPE
  2
HIDDEN
 70
     0
  3
CADPAC LINETYPE
 72
    65
 73
     2
 40
34.9052551500000021
 49
23.2701701000000014
 49
-11.6350850500000007
  0
LTYPE
  2
HIDDEN2
 70
     0
  3
CADPAC LINETYPE
 72
    65
 73
     2
 40
29.0877126299999986
 49
17.4526275800000015
 49
-11.6350850500000007
  0
LTYPE
  2
DASHED
 70
     0
  3
CADPAC LINETYPE
 72
    65
 73
     2
 40
34.9052551500000021
 49
23.2701701000000014
 49
-11.6350850500000007
  0
LTYPE
  2
DASHED2
 70
     0
  3
CADPAC LINETYPE
 72
    65
 73
     2
 40
26.1789413700000004
 49
17.4526275800000015
 49
-8.7263137900000007
  0
LTYPE
  2
DASHEDX2
 70
     0
  3
CADPAC LINETYPE
 72
    65
 73
     2
 40
52.35788273
 49
34.9052551500000021
 49
-17.4526275800000015
  0
LTYPE
  2
DOTX2
 70
     0
  3
CADPAC LINETYPE
 72
    65
 73
     2
 40
14.5438563100000007
 49
0.0
 49
-14.5438563100000007
  0
LTYPE
  2
DOT
 70
     0
  3
CADPAC LINETYPE
 72
    65
 73
     2
 40
11.6350850500000007
 49
0.0
 49
-11.6350850500000007
  0
LTYPE
  2
DOT2
 70
     0
  3
CADPAC LINETYPE
 72
    65
 73
     2
 40
8.7263137900000007
 49
0.0
 49
-8.7263137900000007
  0
LTYPE
  2
CENTERX2
 70
     0
  3
CADPAC LINETYPE
 72
    65
 73
     4
 40
69.8105103099999837
 49
29.0877126299999986
 49
-14.5438563100000007
 49
11.6350850500000007
 49
-14.5438563100000007
  0
LTYPE
  2
CENTER
 70
     0
  3
CADPAC LINETYPE
 72
    65
 73
     4
 40
53.5213912399999998
 49
23.2701701000000014
 49
-11.6350850500000007
 49
6.9810510299999988
 49
-11.6350850500000007
  0
LTYPE
  2
CENTER2
 70
     0
  3
CADPAC LINETYPE
 72
    65
 73
     4
 40
37.2322721600000008
 49
17.4526275800000015
 49
-8.7263137900000007
 49
2.3270170100000001
 49
-8.7263137900000007
  0
LTYPE
  2
DASHDOTX2
 70
     0
  3
CADPAC LINETYPE
 72
    65
 73
     4
 40
58.1754252599999973
 49
29.0877126299999986
 49
-14.5438563100000007
 49
0.0
 49
-14.5438563100000007
  0
LTYPE
  2
DASHDOT
 70
     0
  3
CADPAC LINETYPE
 72
    65
 73
     4
 40
46.5403402000000028
 49
23.2701701000000014
 49
-11.6350850500000007
 49
0.0
 49
-11.6350850500000007
  0
LTYPE
  2
DASHDOT2
 70
     0
  3
CADPAC LINETYPE
 72
    65
 73
     4
 40
34.9052551500000021
 49
17.4526275800000015
 49
-8.7263137900000007
 49
0.0
 49
-8.7263137900000007
  0
LTYPE
  2
DIVIDEX2
 70
     0
  3
CADPAC LINETYPE
 72
    65
 73
     6
 40
72.7192815700000068
 49
29.0877126299999986
 49
-14.5438563100000007
 49
0.0
 49
-14.5438563100000007
 49
0.0
 49
-14.5438563100000007
  0
LTYPE
  2
DIVIDE
 70
     0
  3
CADPAC LINETYPE
 72
    65
 73
     6
 40
58.1754252599999973
 49
23.2701701000000014
 49
-11.6350850500000007
 49
0.0
 49
-11.6350850500000007
 49
0.0
 49
-11.6350850500000007
  0
LTYPE
  2
DIVIDE2
 70
     0
  3
CADPAC LINETYPE
 72
    65
 73
     6
 40
43.6315689400000011
 49
17.4526275800000015
 49
-8.7263137900000007
 49
0.0
 49
-8.7263137900000007
 49
0.0
 49
-8.7263137900000007
  0
LTYPE
  2
BORDERX2
 70
     0
  3
CADPAC LINETYPE
 72
    65
 73
     6
 40
101.8069942000000054
 49
29.0877126299999986
 49
-14.5438563100000007
 49
29.0877126299999986
 49
-14.5438563100000007
 49
0.0
 49
-14.5438563100000007
  0
LTYPE
  2
BORDER
 70
     0
  3
CADPAC LINETYPE
 72
    65
 73
     6
 40
81.4455953599999987
 49
23.2701701000000014
 49
-11.6350850500000007
 49
23.2701701000000014
 49
-11.6350850500000007
 49
0.0
 49
-11.6350850500000007
  0
LTYPE
  2
BORDER2
 70
     0
  3
CADPAC LINETYPE
 72
    65
 73
     6
 40
61.084196519999999
 49
17.4526275800000015
 49
-8.7263137900000007
 49
17.4526275800000015
 49
-8.7263137900000007
 49
0.0
 49
-8.7263137900000007
  0
LTYPE
  2
PHANTOMX2
 70
     0
  3
CADPAC LINETYPE
 72
    65
 73
     6
 40
87.2631378800000022
 49
29.0877126299999986
 49
-11.6350850500000007
 49
11.6350850500000007
 49
-11.6350850500000007
 49
11.6350850500000007
 49
-11.6350850500000007
  0
LTYPE
  2
PHANTOM
 70
     0
  3
CADPAC LINETYPE
 72
    65
 73
     6
 40
72.1375273200000038
 49
23.2701701000000014
 49
-11.6350850500000007
 49
6.9810510299999988
 49
-11.6350850500000007
 49
6.9810510299999988
 49
-11.6350850500000007
  0
LTYPE
  2
PHANTOM2
 70
     0
  3
CADPAC LINETYPE
 72
    65
 73
     6
 40
61.665950770000002
 49
17.4526275800000015
 49
-11.6350850500000007
 49
4.6540340200000001
 49
-11.6350850500000007
 49
4.6540340200000001
 49
-11.6350850500000007
  0
LTYPE
  2
ACAD_ISO06W100
 70
     0
  3
CADPAC LINETYPE
 72
    65
 73
     8
 40
78.5368240999999898
 49
29.0877126299999986
 49
-14.5438563100000007
 49
0.0
 49
-11.6350850500000007
 49
0.0
 49
-11.6350850500000007
 49
0.0
 49
-11.6350850500000007
  0
LTYPE
  2
ACAD_ISO13W100
 70
     0
  3
CADPAC LINETYPE
 72
    65
 73
     8
 40
93.0806804099999994
 49
23.2701701000000014
 49
-11.6350850500000007
 49
23.2701701000000014
 49
-11.6350850500000007
 49
0.0
 49
-11.6350850500000007
 49
0.0
 49
-11.6350850500000007
  0
LTYPE
  2
ACAD_ISO14W100
 70
     0
  3
CADPAC LINETYPE
 72
    65
 73
     8
 40
69.8105103099999837
 49
23.2701701000000014
 49
-11.6350850500000007
 49
0.0
 49
-11.6350850500000007
 49
0.0
 49
-11.6350850500000007
 49
0.0
 49
-11.6350850500000007
  0
ENDTAB
  0
TABLE
  2
LAYER
 70
     7
  0
LAYER
  2
0
 70
     0
 62
     7
  6
CONTINUOUS
  0
LAYER
  2
SLD-0_3
 70
     0
 62
     7
  6
CONTINUOUS
  0
LAYER
  2
SLD-0_1
 70
     0
 62
     7
  6
CONTINUOUS
  0
LAYER
  2
SLD-0_2
 70
     0
 62
     7
  6
CONTINUOUS
  0
LAYER
  2
SLD-0
 70
     0
 62
     7
  6
CONTINUOUS
  0
LAYER
  2
SLD-0_0
 70
     0
 62
     7
  6
CONTINUOUS
  0
LAYER
  2
レイヤー_1
 70
     0
 62
     7
  6
CONTINUOUS
  0
ENDTAB
  0
TABLE
  2
STYLE
 70
     2
  0
STYLE
  2
STANDARD
 70
     0
 40
0.0
 41
1.0
 50
0.0
 71
     0
 42
6.87916667
  3
txt.shx
  4
bigfont.shx
  0
STYLE
  2

 70
     1
 40
0.0
 41
1.0
 50
0.0
 71
     0
 42
0.2
  3
ltypeshp.shx
  4

  0
ENDTAB
  0
TABLE
  2
VIEW
 70
     1
  0
VIEW
  2
QQQQ
 70
     0
 40
874.1126552700000047
 10
0.0
 20
-3.571874999999999
 41
578.3307554100000516
 11
0.0
 21
0.0
 31
1.0
 12
100.0
 22
100.0
 32
0.0
 42
50.0
 43
0.0
 44
0.0
 50
0.0
 71
     0
  0
ENDTAB
  0
TABLE
  2
UCS
 70
     0
  0
ENDTAB
  0
TABLE
  2
APPID
 70
     4
  0
APPID
  2
ACAD
 70
     0
  0
APPID
  2
ACAD_EXEMPT_FROM_CAD_STANDARDS
 70
     0
  0
APPID
  2
ACAD_NAV_VCDISPLAY
 70
     0
  0
APPID
  2
ACAD_MLEADERVER
 70
     0
  0
ENDTAB
  0
TABLE
  2
DIMSTYLE
 70
     2
  0
DIMSTYLE
  2
STANDARD
 70
     0
  3

  4

  5

  6

  7

 40
1.0
 41
0.18
 42
0.0625
 43
0.38
 44
0.18
 45
0.0
 46
0.0
 47
0.0
 48
0.0
140
0.18
141
0.09
142
0.0
143
25.3999999999999986
144
1.0
145
0.0
146
1.0
147
0.09
 71
     0
 72
     0
 73
     1
 74
     1
 75
     0
 76
     0
 77
     0
 78
     0
170
     0
171
     2
172
     0
173
     0
174
     0
175
     0
176
     0
177
     0
178
     0
  0
ENDTAB
  0
ENDSEC
  0
SECTION
  2
BLOCKS
  0
BLOCK
  8
0
  2
$MODEL_SPACE
 70
     0
 10
0.0
 20
0.0
 30
0.0
  3
$MODEL_SPACE
  1

  0
ENDBLK
  5
E
  8
0
  0
BLOCK
 67
     1
  8
0
  2
$PAPER_SPACE
 70
     0
 10
0.0
 20
0.0
 30
0.0
  3
$PAPER_SPACE
  1

  0
ENDBLK
  5
10
 67
     1
  8
0
  0
ENDSEC
  0
SECTION
  2
ENTITIES
  0
LINE
  5
3F
  8
レイヤー_1
  6
CONTINUOUS
 62
     7
 10
-29.569814130000001
 20
-168.2597943099999895
 30
0.0
 11
-26.5318712999999988
 21
-168.2597943099999895
 31
0.0
  0
LINE
  5
40
  8
レイヤー_1
  6
CONTINUOUS
 62
     7
 10
-26.5318712999999988
 20
-168.2597943099999895
 30
0.0
 11
-26.5318712999999988
 21
-178.7172893299999998
 31
0.0
  0
LINE
  5
41
  8
レイヤー_1
  6
CONTINUOUS
 62
     7
 10
-26.5318712999999988
 20
-178.7172893299999998
 30
0.0
 11
-29.569814130000001
 21
-178.7172893299999998
 31
0.0
  0
LINE
  5
42
  8
レイヤー_1
  6
CONTINUOUS
 62
     7
 10
-93.026137090000006
 20
-157.615847830000007
 30
0.0
 11
-93.026137090000006
 21
-168.3651799200000028
 31
0.0
  0
LINE
  5
43
  8
レイヤー_1
  6
CONTINUOUS
 62
     7
 10
-93.026137090000006
 20
-168.3651799200000028
 30
0.0
 11
-97.3317471999999952
 21
-168.3651799200000028
 31
0.0
  0
LINE
  5
44
  8
レイヤー_1
  6
CONTINUOUS
 62
     7
 10
-97.3317471999999952
 20
-168.3651799200000028
 30
0.0
 11
-97.3317471999999952
 21
-157.615847830000007
 31
0.0
  0
LINE
  5
45
  8
レイヤー_1
  6
CONTINUOUS
 62
     7
 10
40.4133233100000027
 20
-146.8655024200000128
 30
0.0
 11
44.7179200899999998
 21
-146.8655024200000128
 31
0.0
  0
LINE
  5
46
  8
レイヤー_1
  6
CONTINUOUS
 62
     7
 10
44.7179200899999998
 20
-146.8655024200000128
 30
0.0
 11
44.7179200899999998
 21
-157.615847830000007
 31
0.0
  0
LINE
  5
47
  8
レイヤー_1
  6
CONTINUOUS
 62
     7
 10
40.4133233100000027
 20
-157.615847830000007
 30
0.0
 11
40.4133233100000027
 21
-146.8655024200000128
 31
0.0
  0
LINE
  5
48
  8
レイヤー_1
  6
CONTINUOUS
 62
     7
 10
59.0159098900000032
 20
-157.615847830000007
 30
0.0
 11
59.0159098900000032
 21
-168.3651799200000028
 31
0.0
  0
LINE
  5
49
  8
レイヤー_1
  6
CONTINUOUS
 62
     7
 10
54.7092864500000005
 20
-168.3651799200000028
 30
0.0
 11
54.7092864500000005
 21
-157.615847830000007
 31
0.0
  0
LINE
  5
4A
  8
レイヤー_1
  6
CONTINUOUS
 62
     7
 10
192.4563836099999889
 20
-146.8655024200000128
 30
0.0
 11
196.7609803899999861
 21
-146.8655024200000128
 31
0.0
  0
LINE
  5
4B
  8
レイヤー_1
  6
CONTINUOUS
 62
     7
 10
196.7609803899999861
 20
-146.8655024200000128
 30
0.0
 11
196.7609803899999861
 21
-157.615847830000007
 31
0.0
  0
LINE
  5
4C
  8
レイヤー_1
  6
CONTINUOUS
 62
     7
 10
196.7609803899999861
 20
-157.615847830000007
 30
0.0
 11
192.4563836099999889
 21
-157.615847830000007
 31
0.0
  0
LINE
  5
4D
  8
レイヤー_1
  6
CONTINUOUS
 62
     7
 10
192.4563836099999889
 20
-157.615847830000007
 30
0.0
 11
192.4563836099999889
 21
-146.8655024200000128
 31
0.0
  0
LINE
  5
4E
  8
レイヤー_1
  6
CONTINUOUS
 62
     7
 10
-87.3515273900000011
 20
-309.7839923700000213
 30
0.0
 11
-87.3515273900000011
 21
-322.0350693899999897
 31
0.0
  0
LINE
  5
4F
  8
レイヤー_1
  6
CONTINUOUS
 62
     7
 10
-88.5513020199999943
 20
-322.0350693899999897
 30
0.0
 11
-88.5513020199999943
 21
-309.7839923700000213
 31
0.0
  0
LINE
  5
50
  8
レイヤー_1
  6
CONTINUOUS
 62
     7
 10
-83.0996234100000066
 20
-322.0350693899999897
 30
0.0
 11
-83.0996234100000066
 21
-334.2841197500000021
 31
0.0
  0
LINE
  5
51
  8
レイヤー_1
  6
CONTINUOUS
 62
     7
 10
-84.2993980300000061
 20
-334.2841197500000021
 30
0.0
 11
-84.2993980300000061
 21
-322.0350693899999897
 31
0.0
  0
LINE
  5
52
  8
レイヤー_1
  6
CONTINUOUS
 62
     7
 10
-74.5988554200000067
 20
-322.0350693899999897
 30
0.0
 11
-74.5988554200000067
 21
-334.2841197500000021
 31
0.0
  0
LINE
  5
53
  8
レイヤー_1
  6
CONTINUOUS
 62
     7
 10
-75.8006566899999967
 20
-334.2841197500000021
 30
0.0
 11
-75.8006566899999967
 21
-322.0350693899999897
 31
0.0
  0
LINE
  5
54
  8
レイヤー_1
  6
CONTINUOUS
 62
     7
 10
-66.0991007500000052
 20
-322.0350693899999897
 30
0.0
 11
-66.0991007500000052
 21
-334.2841197500000021
 31
0.0
  0
LINE
  5
55
  8
レイヤー_1
  6
CONTINUOUS
 62
     7
 10
-67.3009020199999952
 20
-334.2841197500000021
 30
0.0
 11
-67.3009020199999952
 21
-322.0350693899999897
 31
0.0
  0
LINE
  5
56
  8
レイヤー_1
  6
CONTINUOUS
 62
     7
 10
-57.5983327499999973
 20
-322.0350693899999897
 30
0.0
 11
-57.5983327499999973
 21
-334.2841197500000021
 31
0.0
  0
LINE
  5
57
  8
レイヤー_1
  6
CONTINUOUS
 62
     7
 10
-58.8001340200000016
 20
-334.2841197500000021
 30
0.0
 11
-58.8001340200000016
 21
-322.0350693899999897
 31
0.0
  0
LINE
  5
58
  8
レイヤー_1
  6
CONTINUOUS
 62
     7
 10
-49.1006047300000006
 20
-322.0350693899999897
 30
0.0
 11
-49.1006047300000006
 21
-334.2841197500000021
 31
0.0
  0
LINE
  5
59
  8
レイヤー_1
  6
CONTINUOUS
 62
     7
 10
-50.2993660300000016
 20
-334.2841197500000021
 30
0.0
 11
-50.2993660300000016
 21
-322.0350693899999897
 31
0.0
  0
LINE
  5
5A
  8
レイヤー_1
  6
CONTINUOUS
 62
     7
 10
-40.5998367299999998
 20
-322.0350693899999897
 30
0.0
 11
-40.5998367299999998
 21
-334.2841197500000021
 31
0.0
  0
LINE
  5
5B
  8
レイヤー_1
  6
CONTINUOUS
 62
     7
 10
-41.7996113600000001
 20
-334.2841197500000021
 30
0.0
 11
-41.7996113600000001
 21
-322.0350693899999897
 31
0.0
  0
LINE
  5
5C
  8
レイヤー_1
  6
CONTINUOUS
 62
     7
 10
-32.1000820599999983
 20
-322.0350693899999897
 30
0.0
 11
-32.1000820599999983
 21
-334.2841197500000021
 31
0.0
  0
LINE
  5
5D
  8
レイヤー_1
  6
CONTINUOUS
 62
     7
 10
-33.2988433599999993
 20
-334.2841197500000021
 30
0.0
 11
-33.2988433599999993
 21
-322.0350693899999897
 31
0.0
  0
LINE
  5
5E
  8
レイヤー_1
  6
CONTINUOUS
 62
     7
 10
-23.5993140699999984
 20
-322.0350693899999897
 30
0.0
 11
-23.5993140699999984
 21
-334.2841197500000021
 31
0.0
  0
LINE
  5
5F
  8
レイヤー_1
  6
CONTINUOUS
 62
     7
 10
-24.8011153399999991
 20
-334.2841197500000021
 30
0.0
 11
-24.8011153399999991
 21
-322.0350693899999897
 31
0.0
  0
LINE
  5
60
  8
レイヤー_1
  6
CONTINUOUS
 62
     7
 10
-15.1005727200000006
 20
-322.0350693899999897
 30
0.0
 11
-15.1005727200000006
 21
-334.2841197500000021
 31
0.0
  0
LINE
  5
61
  8
レイヤー_1
  6
CONTINUOUS
 62
     7
 10
-16.3003473399999983
 20
-334.2841197500000021
 30
0.0
 11
-16.3003473399999983
 21
-322.0350693899999897
 31
0.0
  0
LINE
  5
62
  8
レイヤー_1
  6
CONTINUOUS
 62
     7
 10
-6.6008180499999991
 20
-322.0350693899999897
 30
0.0
 11
-6.6008180499999991
 21
-334.2841197500000021
 31
0.0
  0
LINE
  5
63
  8
レイヤー_1
  6
CONTINUOUS
 62
     7
 10
-7.8005926700000003
 20
-334.2841197500000021
 30
0.0
 11
-7.8005926700000003
 21
-322.0350693899999897
 31
0.0
  0
LINE
  5
64
  8
レイヤー_1
  6
CONTINUOUS
 62
     7
 10
1.8989366199999991
 20
-322.0350693899999897
 30
0.0
 11
1.8989366199999991
 21
-334.2841197500000021
 31
0.0
  0
LINE
  5
65
  8
レイヤー_1
  6
CONTINUOUS
 62
     7
 10
0.70118864
 20
-334.2841197500000021
 30
0.0
 11
0.70118864
 21
-322.0350693899999897
 31
0.0
  0
LINE
  5
66
  8
レイヤー_1
  6
CONTINUOUS
 62
     7
 10
10.4007179399999998
 20
-322.0350693899999897
 30
0.0
 11
10.4007179399999998
 21
-334.2841197500000021
 31
0.0
  0
LINE
  5
67
  8
レイヤー_1
  6
CONTINUOUS
 62
     7
 10
9.2009433099999995
 20
-334.2841197500000021
 30
0.0
 11
9.2009433099999995
 21
-322.0350693899999897
 31
0.0
  0
LINE
  5
68
  8
レイヤー_1
  6
CONTINUOUS
 62
     7
 10
18.9004726100000013
 20
-322.0350693899999897
 30
0.0
 11
18.9004726100000013
 21
-334.2841197500000021
 31
0.0
  0
LINE
  5
69
  8
レイヤー_1
  6
CONTINUOUS
 62
     7
 10
17.7006979800000011
 20
-334.2841197500000021
 30
0.0
 11
17.7006979800000011
 21
-322.0350693899999897
 31
0.0
  0
LINE
  5
6A
  8
レイヤー_1
  6
CONTINUOUS
 62
     7
 10
27.4002272799999993
 20
-322.0350693899999897
 30
0.0
 11
27.4002272799999993
 21
-334.2841197500000021
 31
0.0
  0
LINE
  5
6B
  8
レイヤー_1
  6
CONTINUOUS
 62
     7
 10
26.2004526599999998
 20
-334.2841197500000021
 30
0.0
 11
26.2004526599999998
 21
-322.0350693899999897
 31
0.0
  0
LINE
  5
6C
  8
レイヤー_1
  6
CONTINUOUS
 62
     7
 10
35.9020085900000012
 20
-322.0350693899999897
 30
0.0
 11
35.9020085900000012
 21
-334.2841197500000021
 31
0.0
  0
LINE
  5
6D
  8
レイヤー_1
  6
CONTINUOUS
 62
     7
 10
34.7002073299999978
 20
-334.2841197500000021
 30
0.0
 11
34.7002073299999978
 21
-322.0350693899999897
 31
0.0
  0
LINE
  5
6E
  8
レイヤー_1
  6
CONTINUOUS
 62
     7
 10
-78.8517727199999854
 20
-309.7839923700000213
 30
0.0
 11
-78.8517727199999854
 21
-322.0350693899999897
 31
0.0
  0
LINE
  5
6F
  8
レイヤー_1
  6
CONTINUOUS
 62
     7
 10
-80.0515473399999848
 20
-322.0350693899999897
 30
0.0
 11
-80.0515473399999848
 21
-309.7839923700000213
 31
0.0
  0
LINE
  5
70
  8
レイヤー_1
  6
CONTINUOUS
 62
     7
 10
-70.3510047299999854
 20
-309.7839923700000213
 30
0.0
 11
-70.3510047299999854
 21
-322.0350693899999897
 31
0.0
  0
LINE
  5
71
  8
レイヤー_1
  6
CONTINUOUS
 62
     7
 10
-71.5507793499999991
 20
-322.0350693899999897
 30
0.0
 11
-71.5507793499999991
 21
-309.7839923700000213
 31
0.0
  0
LINE
  5
72
  8
レイヤー_1
  6
CONTINUOUS
 62
     7
 10
-61.851250059999991
 20
-309.7839923700000213
 30
0.0
 11
-61.851250059999991
 21
-322.0350693899999897
 31
0.0
  0
LINE
  5
73
  8
レイヤー_1
  6
CONTINUOUS
 62
     7
 10
-63.0500113599999992
 20
-322.0350693899999897
 30
0.0
 11
-63.0500113599999992
 21
-309.7839923700000213
 31
0.0
  0
LINE
  5
74
  8
レイヤー_1
  6
CONTINUOUS
 62
     7
 10
-53.3504820599999903
 20
-309.7839923700000213
 30
0.0
 11
-53.3504820599999903
 21
-322.0350693899999897
 31
0.0
  0
LINE
  5
75
  8
レイヤー_1
  6
CONTINUOUS
 62
     7
 10
-54.5502566899999977
 20
-322.0350693899999897
 30
0.0
 11
-54.5502566899999977
 21
-309.7839923700000213
 31
0.0
  0
LINE
  5
76
  8
レイヤー_1
  6
CONTINUOUS
 62
     7
 10
-44.8497140699999903
 20
-309.7839923700000213
 30
0.0
 11
-44.8497140699999903
 21
-322.0350693899999897
 31
0.0
  0
LINE
  5
77
  8
レイヤー_1
  6
CONTINUOUS
 62
     7
 10
-46.0494886899999969
 20
-322.0350693899999897
 30
0.0
 11
-46.0494886899999969
 21
-309.7839923700000213
 31
0.0
  0
LINE
  5
78
  8
レイヤー_1
  6
CONTINUOUS
 62
     7
 10
-36.349959400000003
 20
-309.7839923700000213
 30
0.0
 11
-36.349959400000003
 21
-322.0350693899999897
 31
0.0
  0
LINE
  5
79
  8
レイヤー_1
  6
CONTINUOUS
 62
     7
 10
-37.5517606700000002
 20
-322.0350693899999897
 30
0.0
 11
-37.5517606700000002
 21
-309.7839923700000213
 31
0.0
  0
LINE
  5
7A
  8
レイヤー_1
  6
CONTINUOUS
 62
     7
 10
-27.8512180499999999
 20
-309.7839923700000213
 30
0.0
 11
-27.8512180499999999
 21
-322.0350693899999897
 31
0.0
  0
LINE
  5
7B
  8
レイヤー_1
  6
CONTINUOUS
 62
     7
 10
-29.0509926699999994
 20
-322.0350693899999897
 30
0.0
 11
-29.0509926699999994
 21
-309.7839923700000213
 31
0.0
  0
LINE
  5
7C
  8
レイヤー_1
  6
CONTINUOUS
 62
     7
 10
-19.3514633799999984
 20
-309.7839923700000213
 30
0.0
 11
-19.3514633799999984
 21
-322.0350693899999897
 31
0.0
  0
LINE
  5
7D
  8
レイヤー_1
  6
CONTINUOUS
 62
     7
 10
-20.5502246799999995
 20
-322.0350693899999897
 30
0.0
 11
-20.5502246799999995
 21
-309.7839923700000213
 31
0.0
  0
LINE
  5
7E
  8
レイヤー_1
  6
CONTINUOUS
 62
     7
 10
-10.8506953900000003
 20
-309.7839923700000213
 30
0.0
 11
-10.8506953900000003
 21
-322.0350693899999897
 31
0.0
  0
LINE
  5
7F
  8
レイヤー_1
  6
CONTINUOUS
 62
     7
 10
-12.0524966599999992
 20
-322.0350693899999897
 30
0.0
 11
-12.0524966599999992
 21
-309.7839923700000213
 31
0.0
  0
LINE
  5
80
  8
レイヤー_1
  6
CONTINUOUS
 62
     7
 10
-2.3509407200000001
 20
-309.7839923700000213
 30
0.0
 11
-2.3509407200000001
 21
-322.0350693899999897
 31
0.0
  0
LINE
  5
81
  8
レイヤー_1
  6
CONTINUOUS
 62
     7
 10
-3.5527419799999991
 20
-322.0350693899999897
 30
0.0
 11
-3.5527419799999991
 21
-309.7839923700000213
 31
0.0
  0
LINE
  5
82
  8
レイヤー_1
  6
CONTINUOUS
 62
     7
 10
6.1508405999999987
 20
-309.7839923700000213
 30
0.0
 11
6.1508405999999987
 21
-322.0350693899999897
 31
0.0
  0
LINE
  5
83
  8
レイヤー_1
  6
CONTINUOUS
 62
     7
 10
4.9490393299999988
 20
-322.0350693899999897
 30
0.0
 11
4.9490393299999988
 21
-309.7839923700000213
 31
0.0
  0
LINE
  5
84
  8
レイヤー_1
  6
CONTINUOUS
 62
     7
 10
14.6505952700000002
 20
-309.7839923700000213
 30
0.0
 11
14.6505952700000002
 21
-322.0350693899999897
 31
0.0
  0
LINE
  5
85
  8
レイヤー_1
  6
CONTINUOUS
 62
     7
 10
13.4487939999999995
 20
-322.0350693899999897
 30
0.0
 11
13.4487939999999995
 21
-309.7839923700000213
 31
0.0
  0
LINE
  5
86
  8
レイヤー_1
  6
CONTINUOUS
 62
     7
 10
23.1483233000000013
 20
-309.7839923700000213
 30
0.0
 11
23.1483233000000013
 21
-322.0350693899999897
 31
0.0
  0
LINE
  5
87
  8
レイヤー_1
  6
CONTINUOUS
 62
     7
 10
21.948548670000001
 20
-322.0350693899999897
 30
0.0
 11
21.948548670000001
 21
-309.7839923700000213
 31
0.0
  0
LINE
  5
88
  8
レイヤー_1
  6
CONTINUOUS
 62
     7
 10
31.6480779699999992
 20
-309.7839923700000213
 30
0.0
 11
31.6480779699999992
 21
-322.0350693899999897
 31
0.0
  0
LINE
  5
89
  8
レイヤー_1
  6
CONTINUOUS
 62
     7
 10
30.4503299900000002
 20
-322.0350693899999897
 30
0.0
 11
30.4503299900000002
 21
-309.7839923700000213
 31
0.0
  0
LINE
  5
8A
  8
レイヤー_1
  6
CONTINUOUS
 62
     7
 10
38.9500846600000017
 20
-309.7839923700000213
 30
0.0
 11
44.6976536299999907
 21
-309.7839923700000213
 31
0.0
  0
LINE
  5
8B
  8
レイヤー_1
  6
CONTINUOUS
 62
     7
 10
44.6976536299999907
 20
-309.7839923700000213
 30
0.0
 11
44.6976536299999907
 21
-322.0350693899999897
 31
0.0
  0
LINE
  5
8C
  8
レイヤー_1
  6
CONTINUOUS
 62
     7
 10
38.9500846600000017
 20
-322.0350693899999897
 30
0.0
 11
38.9500846600000017
 21
-309.7839923700000213
 31
0.0
  0
LINE
  5
8D
  8
レイヤー_1
  6
CONTINUOUS
 62
     7
 10
-91.6003914100000003
 20
-322.0350693899999897
 30
0.0
 11
-91.6003914100000003
 21
-334.2841197500000021
 31
0.0
  0
LINE
  5
8E
  8
レイヤー_1
  6
CONTINUOUS
 62
     7
 10
-91.6003914100000003
 20
-334.2841197500000021
 30
0.0
 11
-97.3489737000000019
 21
-334.2841197500000021
 31
0.0
  0
LINE
  5
8F
  8
レイヤー_1
  6
CONTINUOUS
 62
     7
 10
-97.3489737000000019
 20
-334.2841197500000021
 30
0.0
 11
-97.3489737000000019
 21
-322.0350693899999897
 31
0.0
  0
LINE
  5
90
  8
レイヤー_1
  6
CONTINUOUS
 62
     7
 10
43.1999619999999993
 20
-322.0350693899999897
 30
0.0
 11
43.1999619999999993
 21
-334.2841197500000021
 31
0.0
  0
LINE
  5
91
  8
レイヤー_1
  6
CONTINUOUS
 62
     7
 10
64.6763330600000046
 20
-309.7839923700000213
 30
0.0
 11
64.6763330600000046
 21
-322.0350693899999897
 31
0.0
  0
LINE
  5
92
  8
レイヤー_1
  6
CONTINUOUS
 62
     7
 10
63.4785850900000028
 20
-322.0350693899999897
 30
0.0
 11
63.4785850900000028
 21
-309.7839923700000213
 31
0.0
  0
LINE
  5
93
  8
レイヤー_1
  6
CONTINUOUS
 62
     7
 10
68.9282370399999991
 20
-322.0350693899999897
 30
0.0
 11
68.9282370399999991
 21
-334.2841197500000021
 31
0.0
  0
LINE
  5
94
  8
レイヤー_1
  6
CONTINUOUS
 62
     7
 10
67.7264357699999948
 20
-334.2841197500000021
 30
0.0
 11
67.7264357699999948
 21
-322.0350693899999897
 31
0.0
  0
LINE
  5
95
  8
レイヤー_1
  6
CONTINUOUS
 62
     7
 10
77.4259650700000037
 20
-322.0350693899999897
 30
0.0
 11
77.4259650700000037
 21
-334.2841197500000021
 31
0.0
  0
LINE
  5
96
  8
レイヤー_1
  6
CONTINUOUS
 62
     7
 10
76.2261904500000043
 20
-334.2841197500000021
 30
0.0
 11
76.2261904500000043
 21
-322.0350693899999897
 31
0.0
  0
LINE
  5
97
  8
レイヤー_1
  6
CONTINUOUS
 62
     7
 10
85.9257197400000052
 20
-322.0350693899999897
 30
0.0
 11
85.9257197400000052
 21
-334.2841197500000021
 31
0.0
  0
LINE
  5
98
  8
レイヤー_1
  6
CONTINUOUS
 62
     7
 10
84.7259451200000058
 20
-334.2841197500000021
 30
0.0
 11
84.7259451200000058
 21
-322.0350693899999897
 31
0.0
  0
LINE
  5
99
  8
レイヤー_1
  6
CONTINUOUS
 62
     7
 10
94.4254744100000067
 20
-322.0350693899999897
 30
0.0
 11
94.4254744100000067
 21
-334.2841197500000021
 31
0.0
  0
LINE
  5
9A
  8
レイヤー_1
  6
CONTINUOUS
 62
     7
 10
93.2277264300000041
 20
-334.2841197500000021
 30
0.0
 11
93.2277264300000041
 21
-322.0350693899999897
 31
0.0
  0
LINE
  5
9B
  8
レイヤー_1
  6
CONTINUOUS
 62
     7
 10
102.925229079999994
 20
-322.0350693899999897
 30
0.0
 11
102.925229079999994
 21
-334.2841197500000021
 31
0.0
  0
LINE
  5
9C
  8
レイヤー_1
  6
CONTINUOUS
 62
     7
 10
101.7254544599999946
 20
-334.2841197500000021
 30
0.0
 11
101.7254544599999946
 21
-322.0350693899999897
 31
0.0
  0
LINE
  5
9D
  8
レイヤー_1
  6
CONTINUOUS
 62
     7
 10
111.4249837499999956
 20
-322.0350693899999897
 30
0.0
 11
111.4249837499999956
 21
-334.2841197500000021
 31
0.0
  0
LINE
  5
9E
  8
レイヤー_1
  6
CONTINUOUS
 62
     7
 10
110.227235769999993
 20
-334.2841197500000021
 30
0.0
 11
110.227235769999993
 21
-322.0350693899999897
 31
0.0
  0
LINE
  5
9F
  8
レイヤー_1
  6
CONTINUOUS
 62
     7
 10
119.9267650700000019
 20
-322.0350693899999897
 30
0.0
 11
119.9267650700000019
 21
-334.2841197500000021
 31
0.0
  0
LINE
  5
A0
  8
レイヤー_1
  6
CONTINUOUS
 62
     7
 10
118.7269904500000024
 20
-334.2841197500000021
 30
0.0
 11
118.7269904500000024
 21
-322.0350693899999897
 31
0.0
  0
LINE
  5
A1
  8
レイヤー_1
  6
CONTINUOUS
 62
     7
 10
128.4265197400000034
 20
-322.0350693899999897
 30
0.0
 11
128.4265197400000034
 21
-334.2841197500000021
 31
0.0
  0
LINE
  5
A2
  8
レイヤー_1
  6
CONTINUOUS
 62
     7
 10
127.2267451200000039
 20
-334.2841197500000021
 30
0.0
 11
127.2267451200000039
 21
-322.0350693899999897
 31
0.0
  0
LINE
  5
A3
  8
レイヤー_1
  6
CONTINUOUS
 62
     7
 10
136.9262744099999907
 20
-322.0350693899999897
 30
0.0
 11
136.9262744099999907
 21
-334.2841197500000021
 31
0.0
  0
LINE
  5
A4
  8
レイヤー_1
  6
CONTINUOUS
 62
     7
 10
135.7264997899999912
 20
-334.2841197500000021
 30
0.0
 11
135.7264997899999912
 21
-322.0350693899999897
 31
0.0
  0
LINE
  5
A5
  8
レイヤー_1
  6
CONTINUOUS
 62
     7
 10
145.4260290800000064
 20
-322.0350693899999897
 30
0.0
 11
145.4260290800000064
 21
-334.2841197500000021
 31
0.0
  0
LINE
  5
A6
  8
レイヤー_1
  6
CONTINUOUS
 62
     7
 10
144.2262544600000069
 20
-334.2841197500000021
 30
0.0
 11
144.2262544600000069
 21
-322.0350693899999897
 31
0.0
  0
LINE
  5
A7
  8
レイヤー_1
  6
CONTINUOUS
 62
     7
 10
153.9278103999999985
 20
-322.0350693899999897
 30
0.0
 11
153.9278103999999985
 21
-334.2841197500000021
 31
0.0
  0
LINE
  5
A8
  8
レイヤー_1
  6
CONTINUOUS
 62
     7
 10
152.7260091299999942
 20
-334.2841197500000021
 30
0.0
 11
152.7260091299999942
 21
-322.0350693899999897
 31
0.0
  0
LINE
  5
A9
  8
レイヤー_1
  6
CONTINUOUS
 62
     7
 10
162.4255384200000094
 20
-322.0350693899999897
 30
0.0
 11
162.4255384200000094
 21
-334.2841197500000021
 31
0.0
  0
LINE
  5
AA
  8
レイヤー_1
  6
CONTINUOUS
 62
     7
 10
161.2277904499999863
 20
-334.2841197500000021
 30
0.0
 11
161.2277904499999863
 21
-322.0350693899999897
 31
0.0
  0
LINE
  5
AB
  8
レイヤー_1
  6
CONTINUOUS
 62
     7
 10
170.9273197400000015
 20
-322.0350693899999897
 30
0.0
 11
170.9273197400000015
 21
-334.2841197500000021
 31
0.0
  0
LINE
  5
AC
  8
レイヤー_1
  6
CONTINUOUS
 62
     7
 10
169.7255184699999973
 20
-334.2841197500000021
 30
0.0
 11
169.7255184699999973
 21
-322.0350693899999897
 31
0.0
  0
LINE
  5
AD
  8
レイヤー_1
  6
CONTINUOUS
 62
     7
 10
179.4250477600000124
 20
-322.0350693899999897
 30
0.0
 11
179.4250477600000124
 21
-334.2841197500000021
 31
0.0
  0
LINE
  5
AE
  8
レイヤー_1
  6
CONTINUOUS
 62
     7
 10
178.2272997899999893
 20
-334.2841197500000021
 30
0.0
 11
178.2272997899999893
 21
-322.0350693899999897
 31
0.0
  0
LINE
  5
AF
  8
レイヤー_1
  6
CONTINUOUS
 62
     7
 10
187.9288557300000093
 20
-322.0350693899999897
 30
0.0
 11
187.9288557300000093
 21
-334.2841197500000021
 31
0.0
  0
LINE
  5
B0
  8
レイヤー_1
  6
CONTINUOUS
 62
     7
 10
186.7270544600000051
 20
-334.2841197500000021
 30
0.0
 11
186.7270544600000051
 21
-322.0350693899999897
 31
0.0
  0
LINE
  5
B1
  8
レイヤー_1
  6
CONTINUOUS
 62
     7
 10
73.1781143799999967
 20
-309.7839923700000213
 30
0.0
 11
73.1781143799999967
 21
-322.0350693899999897
 31
0.0
  0
LINE
  5
B2
  8
レイヤー_1
  6
CONTINUOUS
 62
     7
 10
71.9763131100000066
 20
-322.0350693899999897
 30
0.0
 11
71.9763131100000066
 21
-309.7839923700000213
 31
0.0
  0
LINE
  5
B3
  8
レイヤー_1
  6
CONTINUOUS
 62
     7
 10
81.6758424000000076
 20
-309.7839923700000213
 30
0.0
 11
81.6758424000000076
 21
-322.0350693899999897
 31
0.0
  0
LINE
  5
B4
  8
レイヤー_1
  6
CONTINUOUS
 62
     7
 10
80.4780944299999987
 20
-322.0350693899999897
 30
0.0
 11
80.4780944299999987
 21
-309.7839923700000213
 31
0.0
  0
LINE
  5
B5
  8
レイヤー_1
  6
CONTINUOUS
 62
     7
 10
90.1776237199999855
 20
-309.7839923700000213
 30
0.0
 11
90.1776237199999855
 21
-322.0350693899999897
 31
0.0
  0
LINE
  5
B6
  8
レイヤー_1
  6
CONTINUOUS
 62
     7
 10
88.977849099999986
 20
-322.0350693899999897
 30
0.0
 11
88.977849099999986
 21
-309.7839923700000213
 31
0.0
  0
LINE
  5
B7
  8
レイヤー_1
  6
CONTINUOUS
 62
     7
 10
98.6773783900000012
 20
-309.7839923700000213
 30
0.0
 11
98.6773783900000012
 21
-322.0350693899999897
 31
0.0
  0
LINE
  5
B8
  8
レイヤー_1
  6
CONTINUOUS
 62
     7
 10
97.4776037700000018
 20
-322.0350693899999897
 30
0.0
 11
97.4776037700000018
 21
-309.7839923700000213
 31
0.0
  0
LINE
  5
B9
  8
レイヤー_1
  6
CONTINUOUS
 62
     7
 10
107.1751064200000059
 20
-309.7839923700000213
 30
0.0
 11
107.1751064200000059
 21
-322.0350693899999897
 31
0.0
  0
LINE
  5
BA
  8
レイヤー_1
  6
CONTINUOUS
 62
     7
 10
105.9773584400000033
 20
-322.0350693899999897
 30
0.0
 11
105.9773584400000033
 21
-309.7839923700000213
 31
0.0
  0
LINE
  5
BB
  8
レイヤー_1
  6
CONTINUOUS
 62
     7
 10
115.6768877300000042
 20
-309.7839923700000213
 30
0.0
 11
115.6768877300000042
 21
-322.0350693899999897
 31
0.0
  0
LINE
  5
BC
  8
レイヤー_1
  6
CONTINUOUS
 62
     7
 10
114.4771131100000048
 20
-322.0350693899999897
 30
0.0
 11
114.4771131100000048
 21
-309.7839923700000213
 31
0.0
  0
LINE
  5
BD
  8
レイヤー_1
  6
CONTINUOUS
 62
     7
 10
124.1786690499999963
 20
-309.7839923700000213
 30
0.0
 11
124.1786690499999963
 21
-322.0350693899999897
 31
0.0
  0
LINE
  5
BE
  8
レイヤー_1
  6
CONTINUOUS
 62
     7
 10
122.9788944299999969
 20
-322.0350693899999897
 30
0.0
 11
122.9788944299999969
 21
-309.7839923700000213
 31
0.0
  0
LINE
  5
BF
  8
レイヤー_1
  6
CONTINUOUS
 62
     7
 10
132.6743704300000104
 20
-309.7839923700000213
 30
0.0
 11
132.6743704300000104
 21
-322.0350693899999897
 31
0.0
  0
LINE
  5
C0
  8
レイヤー_1
  6
CONTINUOUS
 62
     7
 10
131.4766224500000078
 20
-322.0350693899999897
 30
0.0
 11
131.4766224500000078
 21
-309.7839923700000213
 31
0.0
  0
LINE
  5
C1
  8
レイヤー_1
  6
CONTINUOUS
 62
     7
 10
141.1781783899999994
 20
-309.7839923700000213
 30
0.0
 11
141.1781783899999994
 21
-322.0350693899999897
 31
0.0
  0
LINE
  5
C2
  8
レイヤー_1
  6
CONTINUOUS
 62
     7
 10
139.9763771199999951
 20
-322.0350693899999897
 30
0.0
 11
139.9763771199999951
 21
-309.7839923700000213
 31
0.0
  0
LINE
  5
C3
  8
レイヤー_1
  6
CONTINUOUS
 62
     7
 10
149.6759064199999898
 20
-309.7839923700000213
 30
0.0
 11
149.6759064199999898
 21
-322.0350693899999897
 31
0.0
  0
LINE
  5
C4
  8
レイヤー_1
  6
CONTINUOUS
 62
     7
 10
148.4761317900000108
 20
-322.0350693899999897
 30
0.0
 11
148.4761317900000108
 21
-309.7839923700000213
 31
0.0
  0
LINE
  5
C5
  8
レイヤー_1
  6
CONTINUOUS
 62
     7
 10
158.1756610900000055
 20
-309.7839923700000213
 30
0.0
 11
158.1756610900000055
 21
-322.0350693899999897
 31
0.0
  0
LINE
  5
C6
  8
レイヤー_1
  6
CONTINUOUS
 62
     7
 10
156.9758864599999981
 20
-322.0350693899999897
 30
0.0
 11
156.9758864599999981
 21
-309.7839923700000213
 31
0.0
  0
LINE
  5
C7
  8
レイヤー_1
  6
CONTINUOUS
 62
     7
 10
166.6794690499999945
 20
-309.7839923700000213
 30
0.0
 11
166.6794690499999945
 21
-322.0350693899999897
 31
0.0
  0
LINE
  5
C8
  8
レイヤー_1
  6
CONTINUOUS
 62
     7
 10
165.4756411300000138
 20
-322.0350693899999897
 30
0.0
 11
165.4756411300000138
 21
-309.7839923700000213
 31
0.0
  0
LINE
  5
C9
  8
レイヤー_1
  6
CONTINUOUS
 62
     7
 10
175.1771970700000054
 20
-309.7839923700000213
 30
0.0
 11
175.1771970700000054
 21
-322.0350693899999897
 31
0.0
  0
LINE
  5
CA
  8
レイヤー_1
  6
CONTINUOUS
 62
     7
 10
173.9753958100000091
 20
-322.0350693899999897
 30
0.0
 11
173.9753958100000091
 21
-309.7839923700000213
 31
0.0
  0
LINE
  5
CB
  8
レイヤー_1
  6
CONTINUOUS
 62
     7
 10
183.6749250999999958
 20
-309.7839923700000213
 30
0.0
 11
183.6749250999999958
 21
-322.0350693899999897
 31
0.0
  0
LINE
  5
CC
  8
レイヤー_1
  6
CONTINUOUS
 62
     7
 10
182.4751504799999964
 20
-322.0350693899999897
 30
0.0
 11
182.4751504799999964
 21
-309.7839923700000213
 31
0.0
  0
LINE
  5
CD
  8
レイヤー_1
  6
CONTINUOUS
 62
     7
 10
190.9749051500000121
 20
-309.7839923700000213
 30
0.0
 11
196.7265274099999885
 21
-309.7839923700000213
 31
0.0
  0
LINE
  5
CE
  8
レイヤー_1
  6
CONTINUOUS
 62
     7
 10
196.7265274099999885
 20
-309.7839923700000213
 30
0.0
 11
196.7265274099999885
 21
-322.0350693899999897
 31
0.0
  0
LINE
  5
CF
  8
レイヤー_1
  6
CONTINUOUS
 62
     7
 10
190.9749051500000121
 20
-322.0350693899999897
 30
0.0
 11
190.9749051500000121
 21
-309.7839923700000213
 31
0.0
  0
LINE
  5
D0
  8
レイヤー_1
  6
CONTINUOUS
 62
     7
 10
60.4264557300000007
 20
-322.0350693899999897
 30
0.0
 11
60.4264557300000007
 21
-334.2841197500000021
 31
0.0
  0
LINE
  5
D1
  8
レイヤー_1
  6
CONTINUOUS
 62
     7
 10
60.4264557300000007
 20
-334.2841197500000021
 30
0.0
 11
54.6788867599999975
 21
-334.2841197500000021
 31
0.0
  0
LINE
  5
D2
  8
レイヤー_1
  6
CONTINUOUS
 62
     7
 10
54.6788867599999975
 20
-334.2841197500000021
 30
0.0
 11
54.6788867599999975
 21
-322.0350693899999897
 31
0.0
  0
LINE
  5
D3
  8
レイヤー_1
  6
CONTINUOUS
 62
     7
 10
195.2247824799999876
 20
-322.0350693899999897
 30
0.0
 11
195.2247824799999876
 21
-334.2841197500000021
 31
0.0
  0
LINE
  5
D4
  8
レイヤー_1
  6
CONTINUOUS
 62
     7
 10
-31.0685190899999988
 20
-162.8658751300000063
 30
0.0
 11
-29.0672058399999997
 21
-157.8975516700000128
 31
0.0
  0
LINE
  5
D5
  8
レイヤー_1
  6
CONTINUOUS
 62
     7
 10
-29.0672058399999997
 20
-157.8975516700000128
 30
0.0
 11
-35.3183964199999991
 21
-157.8975516700000128
 31
0.0
  0
LINE
  5
D6
  8
レイヤー_1
  6
CONTINUOUS
 62
     7
 10
-35.3183964199999991
 20
-157.8975516700000128
 30
0.0
 11
-35.3183964199999991
 21
-162.8658751300000063
 31
0.0
  0
LINE
  5
D7
  8
レイヤー_1
  6
CONTINUOUS
 62
     7
 10
-43.0672786299999899
 20
-162.8658751300000063
 30
0.0
 11
-45.0685918699999917
 21
-157.8975516700000128
 31
0.0
  0
LINE
  5
D8
  8
レイヤー_1
  6
CONTINUOUS
 62
     7
 10
-45.0685918699999917
 20
-157.8975516700000128
 30
0.0
 11
-38.8194279399999971
 21
-157.8975516700000128
 31
0.0
  0
LINE
  5
D9
  8
レイヤー_1
  6
CONTINUOUS
 62
     7
 10
-38.8194279399999971
 20
-157.8975516700000128
 30
0.0
 11
-38.8194279399999971
 21
-162.8658751300000063
 31
0.0
  0
LINE
  5
DA
  8
レイヤー_1
  6
CONTINUOUS
 62
     7
 10
-44.5680102299999916
 20
-162.8658751300000063
 30
0.0
 11
-29.569814130000001
 21
-162.8658751300000063
 31
0.0
  0
LINE
  5
DB
  8
レイヤー_1
  6
CONTINUOUS
 62
     7
 10
-29.569814130000001
 20
-162.8658751300000063
 30
0.0
 11
-29.569814130000001
 21
-185.3474627699999928
 31
0.0
  0
LINE
  5
DC
  8
レイヤー_1
  6
CONTINUOUS
 62
     7
 10
-29.569814130000001
 20
-185.3474627699999928
 30
0.0
 11
-44.5680102299999916
 21
-185.3474627699999928
 31
0.0
  0
LINE
  5
DD
  8
レイヤー_1
  6
CONTINUOUS
 62
     7
 10
-44.5680102299999916
 20
-185.3474627699999928
 30
0.0
 11
-44.5680102299999916
 21
-162.8658751300000063
 31
0.0
  0
LINE
  5
DE
  8
レイヤー_1
  6
CONTINUOUS
 62
     7
 10
-106.37362976
 20
-337.3666488100000151
 30
0.0
 11
-106.37362976
 21
-334.365185600000018
 31
0.0
  0
LINE
  5
DF
  8
レイヤー_1
  6
CONTINUOUS
 62
     7
 10
-106.37362976
 20
-334.365185600000018
 30
0.0
 11
239.6731896000000006
 21
-334.365185600000018
 31
0.0
  0
LINE
  5
E0
  8
レイヤー_1
  6
CONTINUOUS
 62
     7
 10
239.6731896000000006
 20
-334.365185600000018
 30
0.0
 11
239.6731896000000006
 21
-337.3666488100000151
 31
0.0
  0
LINE
  5
E1
  8
レイヤー_1
  6
CONTINUOUS
 62
     7
 10
261.6881246199999964
 20
-350.3655583099999831
 30
0.0
 11
-218.3118753800000036
 21
-350.3655583099999831
 31
0.0
  0
LINE
  5
E2
  8
レイヤー_1
  6
CONTINUOUS
 62
     7
 10
-108.3729163600000049
 20
-337.3666488100000151
 30
0.0
 11
241.6881246199999964
 21
-337.3666488100000151
 31
0.0
  0
LINE
  5
E3
  8
レイヤー_1
  6
CONTINUOUS
 62
     7
 10
36.4106968199999983
 20
-80.3651566900000063
 30
0.0
 11
36.4106968199999983
 21
-92.6861530000000045
 31
0.0
  0
LINE
  5
E4
  8
レイヤー_1
  6
CONTINUOUS
 62
     7
 10
27.4265736800000006
 20
-80.3651566900000063
 30
0.0
 11
27.4265736800000006
 21
-92.6861530000000045
 31
0.0
  0
LINE
  5
E5
  8
レイヤー_1
  6
CONTINUOUS
 62
     7
 10
18.4444771799999998
 20
-80.3651566900000063
 30
0.0
 11
18.4444771799999998
 21
-92.6861530000000045
 31
0.0
  0
LINE
  5
E6
  8
レイヤー_1
  6
CONTINUOUS
 62
     7
 10
9.4603540400000004
 20
-80.3651566900000063
 30
0.0
 11
9.4603540400000004
 21
-92.6861530000000045
 31
0.0
  0
LINE
  5
E7
  8
レイヤー_1
  6
CONTINUOUS
 62
     7
 10
0.47825755
 20
-80.3651566900000063
 30
0.0
 11
0.47825755
 21
-92.6861530000000045
 31
0.0
  0
LINE
  5
E8
  8
レイヤー_1
  6
CONTINUOUS
 62
     7
 10
-8.5058655900000009
 20
-80.3651566900000063
 30
0.0
 11
-8.5058655900000009
 21
-92.6861530000000045
 31
0.0
  0
LINE
  5
E9
  8
レイヤー_1
  6
CONTINUOUS
 62
     7
 10
-17.4899887400000011
 20
-80.3651566900000063
 30
0.0
 11
-17.4899887400000011
 21
-92.6861530000000045
 31
0.0
  0
LINE
  5
EA
  8
レイヤー_1
  6
CONTINUOUS
 62
     7
 10
-26.4730985499999996
 20
-80.3651566900000063
 30
0.0
 11
-26.4730985499999996
 21
-92.6861530000000045
 31
0.0
  0
LINE
  5
EB
  8
レイヤー_1
  6
CONTINUOUS
 62
     7
 10
-35.4572216899999972
 20
-80.3651566900000063
 30
0.0
 11
-35.4572216899999972
 21
-92.6861530000000045
 31
0.0
  0
LINE
  5
EC
  8
レイヤー_1
  6
CONTINUOUS
 62
     7
 10
-44.4393181900000016
 20
-80.3651566900000063
 30
0.0
 11
-44.4393181900000016
 21
-92.6861530000000045
 31
0.0
  0
LINE
  5
ED
  8
レイヤー_1
  6
CONTINUOUS
 62
     7
 10
-53.4234413300000028
 20
-80.3651566900000063
 30
0.0
 11
-53.4234413300000028
 21
-92.6861530000000045
 31
0.0
  0
LINE
  5
EE
  8
レイヤー_1
  6
CONTINUOUS
 62
     7
 10
-62.4045245000000008
 20
-80.3651566900000063
 30
0.0
 11
-62.4045245000000008
 21
-92.6861530000000045
 31
0.0
  0
LINE
  5
EF
  8
レイヤー_1
  6
CONTINUOUS
 62
     7
 10
-71.3886476499999958
 20
-80.3651566900000063
 30
0.0
 11
-71.3886476499999958
 21
-92.6861530000000045
 31
0.0
  0
LINE
  5
F0
  8
レイヤー_1
  6
CONTINUOUS
 62
     7
 10
-80.3727707900000041
 20
-80.3651566900000063
 30
0.0
 11
-80.3727707900000041
 21
-92.6861530000000045
 31
0.0
  0
LINE
  5
F1
  8
レイヤー_1
  6
CONTINUOUS
 62
     7
 10
-89.3568939299999982
 20
-80.3651566900000063
 30
0.0
 11
-89.3568939299999982
 21
-92.6861530000000045
 31
0.0
  0
LINE
  5
F2
  8
レイヤー_1
  6
CONTINUOUS
 62
     7
 10
45.3927933200000027
 20
-80.3651566900000063
 30
0.0
 11
45.3927933200000027
 21
-92.6861530000000045
 31
0.0
  0
LINE
  5
F3
  8
レイヤー_1
  6
CONTINUOUS
 62
     7
 10
45.3927933200000027
 20
-92.6861530000000045
 30
0.0
 11
-98.3389904200000018
 21
-92.6861530000000045
 31
0.0
  0
LINE
  5
F4
  8
レイヤー_1
  6
CONTINUOUS
 62
     7
 10
-98.3389904200000018
 20
-92.6861530000000045
 30
0.0
 11
-98.3389904200000018
 21
-80.3651566900000063
 31
0.0
  0
LINE
  5
F5
  8
レイヤー_1
  6
CONTINUOUS
 62
     7
 10
36.1107531700000024
 20
-168.3651799200000028
 30
0.0
 11
36.1107531700000024
 21
-157.615847830000007
 31
0.0
  0
LINE
  5
F6
  8
レイヤー_1
  6
CONTINUOUS
 62
     7
 10
27.499532949999999
 20
-168.3651799200000028
 30
0.0
 11
27.499532949999999
 21
-157.615847830000007
 31
0.0
  0
LINE
  5
F7
  8
レイヤー_1
  6
CONTINUOUS
 62
     7
 10
18.8903393800000003
 20
-168.3651799200000028
 30
0.0
 11
18.8903393800000003
 21
-157.615847830000007
 31
0.0
  0
LINE
  5
F8
  8
レイヤー_1
  6
CONTINUOUS
 62
     7
 10
10.2811457999999991
 20
-168.3651799200000028
 30
0.0
 11
10.2811457999999991
 21
-157.615847830000007
 31
0.0
  0
LINE
  5
F9
  8
レイヤー_1
  6
CONTINUOUS
 62
     7
 10
1.6739788799999991
 20
-168.3651799200000028
 30
0.0
 11
1.6739788799999991
 21
-157.615847830000007
 31
0.0
  0
LINE
  5
FA
  8
レイヤー_1
  6
CONTINUOUS
 62
     7
 10
-6.937241339999999
 20
-168.3651799200000028
 30
0.0
 11
-6.937241339999999
 21
-157.615847830000007
 31
0.0
  0
LINE
  5
FB
  8
レイヤー_1
  6
CONTINUOUS
 62
     7
 10
-15.5454215900000001
 20
-168.3651799200000028
 30
0.0
 11
-15.5454215900000001
 21
-157.615847830000007
 31
0.0
  0
LINE
  5
FC
  8
レイヤー_1
  6
CONTINUOUS
 62
     7
 10
-24.1536018400000003
 20
-168.3651799200000028
 30
0.0
 11
-24.1536018400000003
 21
-157.615847830000007
 31
0.0
  0
LINE
  5
FD
  8
レイヤー_1
  6
CONTINUOUS
 62
     7
 10
-49.9801692300000013
 20
-168.3651799200000028
 30
0.0
 11
-49.9801692300000013
 21
-157.615847830000007
 31
0.0
  0
LINE
  5
FE
  8
レイヤー_1
  6
CONTINUOUS
 62
     7
 10
-58.5903761300000028
 20
-168.3651799200000028
 30
0.0
 11
-58.5903761300000028
 21
-157.615847830000007
 31
0.0
  0
LINE
  5
FF
  8
レイヤー_1
  6
CONTINUOUS
 62
     7
 10
-67.1985563799999994
 20
-168.3651799200000028
 30
0.0
 11
-67.1985563799999994
 21
-157.615847830000007
 31
0.0
  0
LINE
  5
100
  8
レイヤー_1
  6
CONTINUOUS
 62
     7
 10
-75.8067366300000032
 20
-168.3651799200000028
 30
0.0
 11
-75.8067366300000032
 21
-157.615847830000007
 31
0.0
  0
LINE
  5
101
  8
レイヤー_1
  6
CONTINUOUS
 62
     7
 10
-84.4179568400000022
 20
-168.3651799200000028
 30
0.0
 11
-84.4179568400000022
 21
-157.615847830000007
 31
0.0
  0
LINE
  5
102
  8
レイヤー_1
  6
CONTINUOUS
 62
     7
 10
44.7179200899999998
 20
-168.3651799200000028
 30
0.0
 11
44.7179200899999998
 21
-157.615847830000007
 31
0.0
  0
LINE
  5
103
  8
レイヤー_1
  6
CONTINUOUS
 62
     7
 10
44.7179200899999998
 20
-157.615847830000007
 30
0.0
 11
-93.026137090000006
 21
-157.615847830000007
 31
0.0
  0
LINE
  5
104
  8
レイヤー_1
  6
CONTINUOUS
 62
     7
 10
31.8041297299999997
 20
-157.615847830000007
 30
0.0
 11
31.8041297299999997
 21
-146.8655024200000128
 31
0.0
  0
LINE
  5
105
  8
レイヤー_1
  6
CONTINUOUS
 62
     7
 10
23.194936160000001
 20
-157.615847830000007
 30
0.0
 11
23.194936160000001
 21
-146.8655024200000128
 31
0.0
  0
LINE
  5
106
  8
レイヤー_1
  6
CONTINUOUS
 62
     7
 10
14.5857425900000006
 20
-157.615847830000007
 30
0.0
 11
14.5857425900000006
 21
-146.8655024200000128
 31
0.0
  0
LINE
  5
107
  8
レイヤー_1
  6
CONTINUOUS
 62
     7
 10
5.9785756599999988
 20
-157.615847830000007
 30
0.0
 11
5.9785756599999988
 21
-146.8655024200000128
 31
0.0
  0
LINE
  5
108
  8
レイヤー_1
  6
CONTINUOUS
 62
     7
 10
-2.6326445600000001
 20
-157.615847830000007
 30
0.0
 11
-2.6326445600000001
 21
-146.8655024200000128
 31
0.0
  0
LINE
  5
109
  8
レイヤー_1
  6
CONTINUOUS
 62
     7
 10
-11.2428514499999999
 20
-157.615847830000007
 30
0.0
 11
-11.2428514499999999
 21
-146.8655024200000128
 31
0.0
  0
LINE
  5
10A
  8
レイヤー_1
  6
CONTINUOUS
 62
     7
 10
-19.8490050499999988
 20
-157.615847830000007
 30
0.0
 11
-19.8490050499999988
 21
-146.8655024200000128
 31
0.0
  0
LINE
  5
10B
  8
レイヤー_1
  6
CONTINUOUS
 62
     7
 10
-28.4592119500000003
 20
-157.615847830000007
 30
0.0
 11
-28.4592119500000003
 21
-146.8655024200000128
 31
0.0
  0
LINE
  5
10C
  8
レイヤー_1
  6
CONTINUOUS
 62
     7
 10
-37.0694188399999973
 20
-157.615847830000007
 30
0.0
 11
-37.0694188399999973
 21
-146.8655024200000128
 31
0.0
  0
LINE
  5
10D
  8
レイヤー_1
  6
CONTINUOUS
 62
     7
 10
-45.6765857700000026
 20
-157.615847830000007
 30
0.0
 11
-45.6765857700000026
 21
-146.8655024200000128
 31
0.0
  0
LINE
  5
10E
  8
レイヤー_1
  6
CONTINUOUS
 62
     7
 10
-54.2867926600000033
 20
-157.615847830000007
 30
0.0
 11
-54.2867926600000033
 21
-146.8655024200000128
 31
0.0
  0
LINE
  5
10F
  8
レイヤー_1
  6
CONTINUOUS
 62
     7
 10
-62.8949729099999928
 20
-157.615847830000007
 30
0.0
 11
-62.8949729099999928
 21
-146.8655024200000128
 31
0.0
  0
LINE
  5
110
  8
レイヤー_1
  6
CONTINUOUS
 62
     7
 10
-71.5051798100000013
 20
-157.615847830000007
 30
0.0
 11
-71.5051798100000013
 21
-146.8655024200000128
 31
0.0
  0
LINE
  5
111
  8
レイヤー_1
  6
CONTINUOUS
 62
     7
 10
-80.1113334100000003
 20
-157.615847830000007
 30
0.0
 11
-80.1113334100000003
 21
-146.8655024200000128
 31
0.0
  0
LINE
  5
112
  8
レイヤー_1
  6
CONTINUOUS
 62
     7
 10
-88.7215403099999946
 20
-157.615847830000007
 30
0.0
 11
-88.7215403099999946
 21
-146.8655024200000128
 31
0.0
  0
LINE
  5
113
  8
レイヤー_1
  6
CONTINUOUS
 62
     7
 10
-97.3317471999999952
 20
-157.615847830000007
 30
0.0
 11
40.4133233100000027
 21
-157.615847830000007
 31
0.0
  0
LINE
  5
114
  8
レイヤー_1
  6
CONTINUOUS
 62
     7
 10
40.4133233100000027
 20
-146.8655024200000128
 30
0.0
 11
-97.3317471999999952
 21
-146.8655024200000128
 31
0.0
  0
LINE
  5
115
  8
レイヤー_1
  6
CONTINUOUS
 62
     7
 10
-97.3317471999999952
 20
-146.8655024200000128
 30
0.0
 11
-97.3317471999999952
 21
-157.615847830000007
 31
0.0
  0
LINE
  5
116
  8
レイヤー_1
  6
CONTINUOUS
 62
     7
 10
188.1497601700000075
 20
-168.3651799200000028
 30
0.0
 11
188.1497601700000075
 21
-157.615847830000007
 31
0.0
  0
LINE
  5
117
  8
レイヤー_1
  6
CONTINUOUS
 62
     7
 10
179.5425932500000101
 20
-168.3651799200000028
 30
0.0
 11
179.5425932500000101
 21
-157.615847830000007
 31
0.0
  0
LINE
  5
118
  8
レイヤー_1
  6
CONTINUOUS
 62
     7
 10
170.9333996800000079
 20
-168.3651799200000028
 30
0.0
 11
170.9333996800000079
 21
-157.615847830000007
 31
0.0
  0
LINE
  5
119
  8
レイヤー_1
  6
CONTINUOUS
 62
     7
 10
162.3242061100000058
 20
-168.3651799200000028
 30
0.0
 11
162.3242061100000058
 21
-157.615847830000007
 31
0.0
  0
LINE
  5
11A
  8
レイヤー_1
  6
CONTINUOUS
 62
     7
 10
153.7150125299999956
 20
-168.3651799200000028
 30
0.0
 11
153.7150125299999956
 21
-157.615847830000007
 31
0.0
  0
LINE
  5
11B
  8
レイヤー_1
  6
CONTINUOUS
 62
     7
 10
145.1058189599999935
 20
-168.3651799200000028
 30
0.0
 11
145.1058189599999935
 21
-157.615847830000007
 31
0.0
  0
LINE
  5
11C
  8
レイヤー_1
  6
CONTINUOUS
 62
     7
 10
136.4966253899999913
 20
-168.3651799200000028
 30
0.0
 11
136.4966253899999913
 21
-157.615847830000007
 31
0.0
  0
LINE
  5
11D
  8
レイヤー_1
  6
CONTINUOUS
 62
     7
 10
127.8874318200000033
 20
-168.3651799200000028
 30
0.0
 11
127.8874318200000033
 21
-157.615847830000007
 31
0.0
  0
LINE
  5
11E
  8
レイヤー_1
  6
CONTINUOUS
 62
     7
 10
119.2782382399999932
 20
-168.3651799200000028
 30
0.0
 11
119.2782382399999932
 21
-157.615847830000007
 31
0.0
  0
LINE
  5
11F
  8
レイヤー_1
  6
CONTINUOUS
 62
     7
 10
110.6690446700000052
 20
-168.3651799200000028
 30
0.0
 11
110.6690446700000052
 21
-157.615847830000007
 31
0.0
  0
LINE
  5
120
  8
レイヤー_1
  6
CONTINUOUS
 62
     7
 10
102.0618777499999936
 20
-168.3651799200000028
 30
0.0
 11
102.0618777499999936
 21
-157.615847830000007
 31
0.0
  0
LINE
  5
121
  8
レイヤー_1
  6
CONTINUOUS
 62
     7
 10
93.4506575300000009
 20
-168.3651799200000028
 30
0.0
 11
93.4506575300000009
 21
-157.615847830000007
 31
0.0
  0
LINE
  5
122
  8
レイヤー_1
  6
CONTINUOUS
 62
     7
 10
84.8414639599999845
 20
-168.3651799200000028
 30
0.0
 11
84.8414639599999845
 21
-157.615847830000007
 31
0.0
  0
LINE
  5
123
  8
レイヤー_1
  6
CONTINUOUS
 62
     7
 10
76.2342970299999934
 20
-168.3651799200000028
 30
0.0
 11
76.2342970299999934
 21
-157.615847830000007
 31
0.0
  0
LINE
  5
124
  8
レイヤー_1
  6
CONTINUOUS
 62
     7
 10
67.6230768100000006
 20
-168.3651799200000028
 30
0.0
 11
67.6230768100000006
 21
-157.615847830000007
 31
0.0
  0
LINE
  5
125
  8
レイヤー_1
  6
CONTINUOUS
 62
     7
 10
196.7589537499999892
 20
-168.3651799200000028
 30
0.0
 11
196.7589537499999892
 21
-157.615847830000007
 31
0.0
  0
LINE
  5
126
  8
レイヤー_1
  6
CONTINUOUS
 62
     7
 10
196.7589537499999892
 20
-157.615847830000007
 30
0.0
 11
59.0159098900000032
 21
-157.615847830000007
 31
0.0
  0
LINE
  5
127
  8
レイヤー_1
  6
CONTINUOUS
 62
     7
 10
188.7861271200000033
 20
-80.3651566900000063
 30
0.0
 11
188.7861271200000033
 21
-92.6861530000000045
 31
0.0
  0
LINE
  5
128
  8
レイヤー_1
  6
CONTINUOUS
 62
     7
 10
179.802003979999995
 20
-80.3651566900000063
 30
0.0
 11
179.802003979999995
 21
-92.6861530000000045
 31
0.0
  0
LINE
  5
129
  8
レイヤー_1
  6
CONTINUOUS
 62
     7
 10
170.8178808399999866
 20
-80.3651566900000063
 30
0.0
 11
170.8178808399999866
 21
-92.6861530000000045
 31
0.0
  0
LINE
  5
12A
  8
レイヤー_1
  6
CONTINUOUS
 62
     7
 10
161.8357843400000036
 20
-80.3651566900000063
 30
0.0
 11
161.8357843400000036
 21
-92.6861530000000045
 31
0.0
  0
LINE
  5
12B
  8
レイヤー_1
  6
CONTINUOUS
 62
     7
 10
152.8516611999999952
 20
-80.3651566900000063
 30
0.0
 11
152.8516611999999952
 21
-92.6861530000000045
 31
0.0
  0
LINE
  5
12C
  8
レイヤー_1
  6
CONTINUOUS
 62
     7
 10
143.8675380599999869
 20
-80.3651566900000063
 30
0.0
 11
143.8675380599999869
 21
-92.6861530000000045
 31
0.0
  0
LINE
  5
12D
  8
レイヤー_1
  6
CONTINUOUS
 62
     7
 10
134.8854415600000038
 20
-80.3651566900000063
 30
0.0
 11
134.8854415600000038
 21
-92.6861530000000045
 31
0.0
  0
LINE
  5
12E
  8
レイヤー_1
  6
CONTINUOUS
 62
     7
 10
125.9013184199999955
 20
-80.3651566900000063
 30
0.0
 11
125.9013184199999955
 21
-92.6861530000000045
 31
0.0
  0
LINE
  5
12F
  8
レイヤー_1
  6
CONTINUOUS
 62
     7
 10
116.9192219300000062
 20
-80.3651566900000063
 30
0.0
 11
116.9192219300000062
 21
-92.6861530000000045
 31
0.0
  0
LINE
  5
130
  8
レイヤー_1
  6
CONTINUOUS
 62
     7
 10
107.9350987899999978
 20
-80.3651566900000063
 30
0.0
 11
107.9350987899999978
 21
-92.6861530000000045
 31
0.0
  0
LINE
  5
131
  8
レイヤー_1
  6
CONTINUOUS
 62
     7
 10
98.9530022900000006
 20
-80.3651566900000063
 30
0.0
 11
98.9530022900000006
 21
-92.6861530000000045
 31
0.0
  0
LINE
  5
132
  8
レイヤー_1
  6
CONTINUOUS
 62
     7
 10
89.9688791500000065
 20
-80.3651566900000063
 30
0.0
 11
89.9688791500000065
 21
-92.6861530000000045
 31
0.0
  0
LINE
  5
133
  8
レイヤー_1
  6
CONTINUOUS
 62
     7
 10
80.9847560099999981
 20
-80.3651566900000063
 30
0.0
 11
80.9847560099999981
 21
-92.6861530000000045
 31
0.0
  0
LINE
  5
134
  8
レイヤー_1
  6
CONTINUOUS
 62
     7
 10
72.0026595100000009
 20
-80.3651566900000063
 30
0.0
 11
72.0026595100000009
 21
-92.6861530000000045
 31
0.0
  0
LINE
  5
135
  8
レイヤー_1
  6
CONTINUOUS
 62
     7
 10
63.0205630199999973
 20
-80.3651566900000063
 30
0.0
 11
63.0205630199999973
 21
-92.6861530000000045
 31
0.0
  0
LINE
  5
136
  8
レイヤー_1
  6
CONTINUOUS
 62
     7
 10
197.7702502600000116
 20
-80.3651566900000063
 30
0.0
 11
197.7702502600000116
 21
-92.6861530000000045
 31
0.0
  0
LINE
  5
137
  8
レイヤー_1
  6
CONTINUOUS
 62
     7
 10
197.7702502600000116
 20
-92.6861530000000045
 30
0.0
 11
54.0344132299999984
 21
-92.6861530000000045
 31
0.0
  0
LINE
  5
138
  8
レイヤー_1
  6
CONTINUOUS
 62
     7
 10
54.0344132299999984
 20
-92.6861530000000045
 30
0.0
 11
54.0344132299999984
 21
-80.3651566900000063
 31
0.0
  0
LINE
  5
139
  8
レイヤー_1
  6
CONTINUOUS
 62
     7
 10
183.8471900399999868
 20
-157.615847830000007
 30
0.0
 11
183.8471900399999868
 21
-146.8655024200000128
 31
0.0
  0
LINE
  5
13A
  8
レイヤー_1
  6
CONTINUOUS
 62
     7
 10
175.2359698200000082
 20
-157.615847830000007
 30
0.0
 11
175.2359698200000082
 21
-146.8655024200000128
 31
0.0
  0
LINE
  5
13B
  8
レイヤー_1
  6
CONTINUOUS
 62
     7
 10
166.6267762399999981
 20
-157.615847830000007
 30
0.0
 11
166.6267762399999981
 21
-146.8655024200000128
 31
0.0
  0
LINE
  5
13C
  8
レイヤー_1
  6
CONTINUOUS
 62
     7
 10
158.0196093200000007
 20
-157.615847830000007
 30
0.0
 11
158.0196093200000007
 21
-146.8655024200000128
 31
0.0
  0
LINE
  5
13D
  8
レイヤー_1
  6
CONTINUOUS
 62
     7
 10
149.4104157499999985
 20
-157.615847830000007
 30
0.0
 11
149.4104157499999985
 21
-146.8655024200000128
 31
0.0
  0
LINE
  5
13E
  8
レイヤー_1
  6
CONTINUOUS
 62
     7
 10
140.8012221699999884
 20
-157.615847830000007
 30
0.0
 11
140.8012221699999884
 21
-146.8655024200000128
 31
0.0
  0
LINE
  5
13F
  8
レイヤー_1
  6
CONTINUOUS
 62
     7
 10
132.1920285999999862
 20
-157.615847830000007
 30
0.0
 11
132.1920285999999862
 21
-146.8655024200000128
 31
0.0
  0
LINE
  5
140
  8
レイヤー_1
  6
CONTINUOUS
 62
     7
 10
123.5828350299999983
 20
-157.615847830000007
 30
0.0
 11
123.5828350299999983
 21
-146.8655024200000128
 31
0.0
  0
LINE
  5
141
  8
レイヤー_1
  6
CONTINUOUS
 62
     7
 10
114.9736414599999961
 20
-157.615847830000007
 30
0.0
 11
114.9736414599999961
 21
-146.8655024200000128
 31
0.0
  0
LINE
  5
142
  8
レイヤー_1
  6
CONTINUOUS
 62
     7
 10
106.366474530000005
 20
-157.615847830000007
 30
0.0
 11
106.366474530000005
 21
-146.8655024200000128
 31
0.0
  0
LINE
  5
143
  8
レイヤー_1
  6
CONTINUOUS
 62
     7
 10
97.755254309999998
 20
-157.615847830000007
 30
0.0
 11
97.755254309999998
 21
-146.8655024200000128
 31
0.0
  0
LINE
  5
144
  8
レイヤー_1
  6
CONTINUOUS
 62
     7
 10
89.1460607399999958
 20
-157.615847830000007
 30
0.0
 11
89.1460607399999958
 21
-146.8655024200000128
 31
0.0
  0
LINE
  5
145
  8
レイヤー_1
  6
CONTINUOUS
 62
     7
 10
80.5368671699999936
 20
-157.615847830000007
 30
0.0
 11
80.5368671699999936
 21
-146.8655024200000128
 31
0.0
  0
LINE
  5
146
  8
レイヤー_1
  6
CONTINUOUS
 62
     7
 10
71.9297002400000025
 20
-157.615847830000007
 30
0.0
 11
71.9297002400000025
 21
-146.8655024200000128
 31
0.0
  0
LINE
  5
147
  8
レイヤー_1
  6
CONTINUOUS
 62
     7
 10
63.3205066700000003
 20
-157.615847830000007
 30
0.0
 11
63.3205066700000003
 21
-146.8655024200000128
 31
0.0
  0
LINE
  5
148
  8
レイヤー_1
  6
CONTINUOUS
 62
     7
 10
54.7092864500000005
 20
-157.615847830000007
 30
0.0
 11
192.4543569600000126
 21
-157.615847830000007
 31
0.0
  0
LINE
  5
149
  8
レイヤー_1
  6
CONTINUOUS
 62
     7
 10
192.4543569600000126
 20
-157.615847830000007
 30
0.0
 11
192.4543569600000126
 21
-146.8655024200000128
 31
0.0
  0
LINE
  5
14A
  8
レイヤー_1
  6
CONTINUOUS
 62
     7
 10
192.4543569600000126
 20
-146.8655024200000128
 30
0.0
 11
54.7092864500000005
 21
-146.8655024200000128
 31
0.0
  0
LINE
  5
14B
  8
レイヤー_1
  6
CONTINUOUS
 62
     7
 10
54.7092864500000005
 20
-146.8655024200000128
 30
0.0
 11
54.7092864500000005
 21
-157.615847830000007
 31
0.0
  0
LINE
  5
14C
  8
レイヤー_1
  6
CONTINUOUS
 62
     7
 10
-91.6003914100000003
 20
-334.2841197500000021
 30
0.0
 11
44.6976536299999907
 21
-334.2841197500000021
 31
0.0
  0
LINE
  5
14D
  8
レイヤー_1
  6
CONTINUOUS
 62
     7
 10
44.6976536299999907
 20
-334.2841197500000021
 30
0.0
 11
44.6976536299999907
 21
-322.0350693899999897
 31
0.0
  0
LINE
  5
14E
  8
レイヤー_1
  6
CONTINUOUS
 62
     7
 10
44.6976536299999907
 20
-322.0350693899999897
 30
0.0
 11
-91.6003914100000003
 21
-322.0350693899999897
 31
0.0
  0
LINE
  5
14F
  8
レイヤー_1
  6
CONTINUOUS
 62
     7
 10
-95.8522953899999948
 20
-316.0909157300000061
 30
0.0
 11
38.90752509
 21
-316.0909157300000061
 31
0.0
  0
LINE
  5
150
  8
レイヤー_1
  6
CONTINUOUS
 62
     7
 10
-95.8522953899999948
 20
-318.0182563800000253
 30
0.0
 11
38.90752509
 21
-318.0182563800000253
 31
0.0
  0
LINE
  5
151
  8
レイヤー_1
  6
CONTINUOUS
 62
     7
 10
-95.8502687400000042
 20
-309.7839923700000213
 30
0.0
 11
-95.8502687400000042
 21
-322.0350693899999897
 31
0.0
  0
LINE
  5
152
  8
レイヤー_1
  6
CONTINUOUS
 62
     7
 10
-91.6003914100000003
 20
-328.3419927400000233
 30
0.0
 11
43.1614557199999922
 21
-328.3419927400000233
 31
0.0
  0
LINE
  5
153
  8
レイヤー_1
  6
CONTINUOUS
 62
     7
 10
-91.6003914100000003
 20
-330.0180292499999837
 30
0.0
 11
43.1614557199999922
 21
-330.0180292499999837
 31
0.0
  0
LINE
  5
154
  8
レイヤー_1
  6
CONTINUOUS
 62
     7
 10
27.3982006300000016
 20
-334.2841197500000021
 30
0.0
 11
27.3982006300000016
 21
-322.0350693899999897
 31
0.0
  0
LINE
  5
155
  8
レイヤー_1
  6
CONTINUOUS
 62
     7
 10
35.8999819499999973
 20
-334.2841197500000021
 30
0.0
 11
35.8999819499999973
 21
-322.0350693899999897
 31
0.0
  0
LINE
  5
156
  8
レイヤー_1
  6
CONTINUOUS
 62
     7
 10
-97.3489737000000019
 20
-322.0350693899999897
 30
0.0
 11
38.9500846600000017
 21
-322.0350693899999897
 31
0.0
  0
LINE
  5
157
  8
レイヤー_1
  6
CONTINUOUS
 62
     7
 10
38.9500846600000017
 20
-309.7839923700000213
 30
0.0
 11
-97.3489737000000019
 21
-309.7839923700000213
 31
0.0
  0
LINE
  5
158
  8
レイヤー_1
  6
CONTINUOUS
 62
     7
 10
-97.3489737000000019
 20
-309.7839923700000213
 30
0.0
 11
-97.3489737000000019
 21
-322.0350693899999897
 31
0.0
  0
LINE
  5
159
  8
レイヤー_1
  6
CONTINUOUS
 62
     7
 10
60.4264557300000007
 20
-334.2841197500000021
 30
0.0
 11
196.7265274099999885
 21
-334.2841197500000021
 31
0.0
  0
LINE
  5
15A
  8
レイヤー_1
  6
CONTINUOUS
 62
     7
 10
196.7265274099999885
 20
-334.2841197500000021
 30
0.0
 11
196.7265274099999885
 21
-322.0350693899999897
 31
0.0
  0
LINE
  5
15B
  8
レイヤー_1
  6
CONTINUOUS
 62
     7
 10
196.7265274099999885
 20
-322.0350693899999897
 30
0.0
 11
60.4264557300000007
 21
-322.0350693899999897
 31
0.0
  0
LINE
  5
15C
  8
レイヤー_1
  6
CONTINUOUS
 62
     7
 10
56.1765783900000031
 20
-309.7839923700000213
 30
0.0
 11
56.1765783900000031
 21
-322.0350693899999897
 31
0.0
  0
LINE
  5
15D
  8
レイヤー_1
  6
CONTINUOUS
 62
     7
 10
107.1771330600000027
 20
-322.0350693899999897
 30
0.0
 11
107.1771330600000027
 21
-309.7839923700000213
 31
0.0
  0
LINE
  5
15E
  8
レイヤー_1
  6
CONTINUOUS
 62
     7
 10
124.1746157599999947
 20
-322.0350693899999897
 30
0.0
 11
124.1746157599999947
 21
-309.7839923700000213
 31
0.0
  0
LINE
  5
15F
  8
レイヤー_1
  6
CONTINUOUS
 62
     7
 10
132.6763970700000073
 20
-322.0350693899999897
 30
0.0
 11
132.6763970700000073
 21
-309.7839923700000213
 31
0.0
  0
LINE
  5
160
  8
レイヤー_1
  6
CONTINUOUS
 62
     7
 10
141.1761517399999946
 20
-322.0350693899999897
 30
0.0
 11
141.1761517399999946
 21
-309.7839923700000213
 31
0.0
  0
LINE
  5
161
  8
レイヤー_1
  6
CONTINUOUS
 62
     7
 10
149.6738797700000134
 20
-322.0350693899999897
 30
0.0
 11
149.6738797700000134
 21
-309.7839923700000213
 31
0.0
  0
LINE
  5
162
  8
レイヤー_1
  6
CONTINUOUS
 62
     7
 10
166.6774423999999897
 20
-322.0350693899999897
 30
0.0
 11
166.6774423999999897
 21
-309.7839923700000213
 31
0.0
  0
LINE
  5
163
  8
レイヤー_1
  6
CONTINUOUS
 62
     7
 10
175.1751704300000085
 20
-322.0350693899999897
 30
0.0
 11
175.1751704300000085
 21
-309.7839923700000213
 31
0.0
  0
LINE
  5
164
  8
レイヤー_1
  6
CONTINUOUS
 62
     7
 10
54.6788867599999975
 20
-322.0350693899999897
 30
0.0
 11
190.9749051500000121
 21
-322.0350693899999897
 31
0.0
  0
LINE
  5
165
  8
レイヤー_1
  6
CONTINUOUS
 62
     7
 10
190.9749051500000121
 20
-309.7839923700000213
 30
0.0
 11
54.6788867599999975
 21
-309.7839923700000213
 31
0.0
  0
LINE
  5
166
  8
レイヤー_1
  6
CONTINUOUS
 62
     7
 10
54.6788867599999975
 20
-309.7839923700000213
 30
0.0
 11
54.6788867599999975
 21
-322.0350693899999897
 31
0.0
  0
LINE
  5
167
  8
レイヤー_1
  6
CONTINUOUS
 62
     7
 10
220.0451199800000097
 20
-334.365185600000018
 30
0.0
 11
220.0451199800000097
 21
-329.363422479999997
 31
0.0
  0
LINE
  5
168
  8
レイヤー_1
  6
CONTINUOUS
 62
     7
 10
220.0451199800000097
 20
-329.363422479999997
 30
0.0
 11
212.8809252300000026
 21
-329.363422479999997
 31
0.0
  0
LINE
  5
169
  8
レイヤー_1
  6
CONTINUOUS
 62
     7
 10
212.8809252300000026
 20
-329.363422479999997
 30
0.0
 11
212.8809252300000026
 21
-334.365185600000018
 31
0.0
  0
LINE
  5
16A
  8
レイヤー_1
  6
CONTINUOUS
 62
     7
 10
-28.2960669200000012
 20
-178.9533936200000142
 30
0.0
 11
-28.2920179800000007
 21
-178.9961529999999925
 31
0.0
  0
LINE
  5
16B
  8
レイヤー_1
  6
CONTINUOUS
 62
     7
 10
-28.2920179800000007
 20
-178.9961529999999925
 30
0.0
 11
-28.2810267700000004
 21
-179.1183414099999993
 31
0.0
  0
LINE
  5
16C
  8
レイヤー_1
  6
CONTINUOUS
 62
     7
 10
-28.2810267700000004
 20
-179.1183414099999993
 30
0.0
 11
-28.2648267400000002
 21
-179.3108242700000119
 31
0.0
  0
LINE
  5
16D
  8
レイヤー_1
  6
CONTINUOUS
 62
     7
 10
-28.2648267400000002
 20
-179.3108242700000119
 30
0.0
 11
-28.2451513200000015
 21
-179.5644669799999917
 31
0.0
  0
LINE
  5
16E
  8
レイヤー_1
  6
CONTINUOUS
 62
     7
 10
-28.2451513200000015
 20
-179.5644669799999917
 30
0.0
 11
-28.2237339600000006
 21
-179.8701349700000094
 31
0.0
  0
LINE
  5
16F
  8
レイヤー_1
  6
CONTINUOUS
 62
     7
 10
-28.2237339600000006
 20
-179.8701349700000094
 30
0.0
 11
-28.2023080899999989
 21
-180.2186936600000138
 31
0.0
  0
LINE
  5
170
  8
レイヤー_1
  6
CONTINUOUS
 62
     7
 10
-28.2023080899999989
 20
-180.2186936600000138
 30
0.0
 11
-28.1826071499999991
 21
-180.6010084399999869
 31
0.0
  0
LINE
  5
171
  8
レイヤー_1
  6
CONTINUOUS
 62
     7
 10
-28.1826071499999991
 20
-180.6010084399999869
 30
0.0
 11
-28.1663645799999998
 21
-181.0079447500000072
 31
0.0
  0
LINE
  5
172
  8
レイヤー_1
  6
CONTINUOUS
 62
     7
 10
-28.1663645799999998
 20
-181.0079447500000072
 30
0.0
 11
-28.1553138199999999
 21
-181.4303679900000077
 31
0.0
  0
LINE
  5
173
  8
レイヤー_1
  6
CONTINUOUS
 62
     7
 10
-28.1553138199999999
 20
-181.4303679900000077
 30
0.0
 11
-28.1511883000000083
 21
-181.8591435799999942
 31
0.0
  0
LINE
  5
174
  8
レイヤー_1
  6
CONTINUOUS
 62
     7
 10
-28.1511883000000083
 20
-181.8591435799999942
 30
0.0
 11
-28.1557214599999988
 21
-182.2851369299999931
 31
0.0
  0
LINE
  5
175
  8
レイヤー_1
  6
CONTINUOUS
 62
     7
 10
-28.1557214599999988
 20
-182.2851369299999931
 30
0.0
 11
-28.1706467499999995
 21
-182.6992134600000099
 31
0.0
  0
LINE
  5
176
  8
レイヤー_1
  6
CONTINUOUS
 62
     7
 10
-28.1706467499999995
 20
-182.6992134600000099
 30
0.0
 11
-28.1976976000000015
 21
-183.0922385799999859
 31
0.0
  0
LINE
  5
177
  8
レイヤー_1
  6
CONTINUOUS
 62
     7
 10
-28.1976976000000015
 20
-183.0922385799999859
 30
0.0
 11
-28.2386074399999991
 21
-183.4550777100000118
 31
0.0
  0
LINE
  5
178
  8
レイヤー_1
  6
CONTINUOUS
 62
     7
 10
-28.2386074399999991
 20
-183.4550777100000118
 30
0.0
 11
-28.2951097300000001
 21
-183.7785962600000005
 31
0.0
  0
LINE
  5
179
  8
レイヤー_1
  6
CONTINUOUS
 62
     7
 10
-28.2951097300000001
 20
-183.7785962600000005
 30
0.0
 11
-28.3689378900000015
 21
-184.0536596499999007
 31
0.0
  0
LINE
  5
17A
  8
レイヤー_1
  6
CONTINUOUS
 62
     7
 10
-28.3689378900000015
 20
-184.0536596499999007
 30
0.0
 11
-28.4618253599999989
 21
-184.2711332899999945
 31
0.0
  0
LINE
  5
17B
  8
レイヤー_1
  6
CONTINUOUS
 62
     7
 10
-28.4618253599999989
 20
-184.2711332899999945
 30
0.0
 11
-28.571333039999999
 21
-184.4273431199999891
 31
0.0
  0
LINE
  5
17C
  8
レイヤー_1
  6
CONTINUOUS
 62
     7
 10
-28.571333039999999
 20
-184.4273431199999891
 30
0.0
 11
-28.6742160599999991
 21
-184.5497473599999978
 31
0.0
  0
LINE
  5
17D
  8
レイヤー_1
  6
CONTINUOUS
 62
     7
 10
-28.6742160599999991
 20
-184.5497473599999978
 30
0.0
 11
-28.7670228899999998
 21
-184.6456168299999945
 31
0.0
  0
LINE
  5
17E
  8
レイヤー_1
  6
CONTINUOUS
 62
     7
 10
-28.7670228899999998
 20
-184.6456168299999945
 30
0.0
 11
-28.8502493000000015
 21
-184.7174189600000034
 31
0.0
  0
LINE
  5
17F
  8
レイヤー_1
  6
CONTINUOUS
 62
     7
 10
-28.8502493000000015
 20
-184.7174189600000034
 30
0.0
 11
-28.9243910399999997
 21
-184.7676211700000124
 31
0.0
  0
LINE
  5
180
  8
レイヤー_1
  6
CONTINUOUS
 62
     7
 10
-28.9243910399999997
 20
-184.7676211700000124
 30
0.0
 11
-28.9899438700000012
 21
-184.7986908999999969
 31
0.0
  0
LINE
  5
181
  8
レイヤー_1
  6
CONTINUOUS
 62
     7
 10
-28.9899438700000012
 20
-184.7986908999999969
 30
0.0
 11
-29.0474035400000012
 21
-184.8130955700000015
 31
0.0
  0
LINE
  5
182
  8
レイヤー_1
  6
CONTINUOUS
 62
     7
 10
-29.0474035400000012
 20
-184.8130955700000015
 30
0.0
 11
-29.0972657999999988
 21
-184.8133026099999938
 31
0.0
  0
LINE
  5
183
  8
レイヤー_1
  6
CONTINUOUS
 62
     7
 10
-29.0972657999999988
 20
-184.8133026099999938
 30
0.0
 11
-29.1400263999999893
 21
-184.80177943999999
 31
0.0
  0
LINE
  5
184
  8
レイヤー_1
  6
CONTINUOUS
 62
     7
 10
-29.1400263999999893
 20
-184.80177943999999
 30
0.0
 11
-29.1761811100000017
 21
-184.7809934999999939
 31
0.0
  0
LINE
  5
185
  8
レイヤー_1
  6
CONTINUOUS
 62
     7
 10
-29.1761811100000017
 20
-184.7809934999999939
 30
0.0
 11
-29.2062256799999993
 21
-184.7534122000000139
 31
0.0
  0
LINE
  5
186
  8
レイヤー_1
  6
CONTINUOUS
 62
     7
 10
-29.2062256799999993
 20
-184.7534122000000139
 30
0.0
 11
-29.2306558500000015
 21
-184.7215029799999968
 31
0.0
  0
LINE
  5
187
  8
レイヤー_1
  6
CONTINUOUS
 62
     7
 10
-29.2306558500000015
 20
-184.7215029799999968
 30
0.0
 11
-29.2499673899999983
 21
-184.6877332599999875
 31
0.0
  0
LINE
  5
188
  8
レイヤー_1
  6
CONTINUOUS
 62
     7
 10
-29.2499673899999983
 20
-184.6877332599999875
 30
0.0
 11
-29.2646560499999993
 21
-184.6545704700000101
 31
0.0
  0
LINE
  5
189
  8
レイヤー_1
  6
CONTINUOUS
 62
     7
 10
-29.2646560499999993
 20
-184.6545704700000101
 30
0.0
 11
-29.2752175900000005
 21
-184.6244820400000037
 31
0.0
  0
LINE
  5
18A
  8
レイヤー_1
  6
CONTINUOUS
 62
     7
 10
-29.2752175900000005
 20
-184.6244820400000037
 30
0.0
 11
-29.28214775
 21
-184.5999353900000131
 31
0.0
  0
LINE
  5
18B
  8
レイヤー_1
  6
CONTINUOUS
 62
     7
 10
-29.28214775
 20
-184.5999353900000131
 30
0.0
 11
-29.2859422900000013
 21
-184.5833979600000134
 31
0.0
  0
LINE
  5
18C
  8
レイヤー_1
  6
CONTINUOUS
 62
     7
 10
-29.2859422900000013
 20
-184.5833979600000134
 30
0.0
 11
-29.2870969700000003
 21
-184.5773371699999927
 31
0.0
  0
LINE
  5
18D
  8
レイヤー_1
  6
CONTINUOUS
 62
     7
 10
205.2708682999999894
 20
-90.187298080000005
 30
0.0
 11
205.5228461499999923
 21
-90.1747878000000043
 31
0.0
  0
LINE
  5
18E
  8
レイヤー_1
  6
CONTINUOUS
 62
     7
 10
205.5228461499999923
 20
-90.1747878000000043
 30
0.0
 11
205.7676417300000082
 21
-90.1380541999999991
 31
0.0
  0
LINE
  5
18F
  8
レイヤー_1
  6
CONTINUOUS
 62
     7
 10
205.7676417300000082
 20
-90.1380541999999991
 30
0.0
 11
206.0040591899999924
 21
-90.0782931499999933
 31
0.0
  0
LINE
  5
190
  8
レイヤー_1
  6
CONTINUOUS
 62
     7
 10
206.0040591899999924
 20
-90.0782931499999933
 30
0.0
 11
206.2309026499999902
 21
-89.9967005099999966
 31
0.0
  0
LINE
  5
191
  8
レイヤー_1
  6
CONTINUOUS
 62
     7
 10
206.2309026499999902
 20
-89.9967005099999966
 30
0.0
 11
206.4469762600000138
 21
-89.8944721299999969
 31
0.0
  0
LINE
  5
192
  8
レイヤー_1
  6
CONTINUOUS
 62
     7
 10
206.4469762600000138
 20
-89.8944721299999969
 30
0.0
 11
206.6510841600000106
 21
-89.7728039000000138
 31
0.0
  0
LINE
  5
193
  8
レイヤー_1
  6
CONTINUOUS
 62
     7
 10
206.6510841600000106
 20
-89.7728039000000138
 30
0.0
 11
206.8420304699999974
 21
-89.6328916599999985
 31
0.0
  0
LINE
  5
194
  8
レイヤー_1
  6
CONTINUOUS
 62
     7
 10
206.8420304699999974
 20
-89.6328916599999985
 30
0.0
 11
207.018619330000007
 21
-89.4759312799999833
 31
0.0
  0
LINE
  5
195
  8
レイヤー_1
  6
CONTINUOUS
 62
     7
 10
207.018619330000007
 20
-89.4759312799999833
 30
0.0
 11
207.1796548899999948
 21
-89.3031186300000002
 31
0.0
  0
LINE
  5
196
  8
レイヤー_1
  6
CONTINUOUS
 62
     7
 10
207.1796548899999948
 20
-89.3031186300000002
 30
0.0
 11
207.3239412700000059
 21
-89.1156495700000164
 31
0.0
  0
LINE
  5
197
  8
レイヤー_1
  6
CONTINUOUS
 62
     7
 10
207.3239412700000059
 20
-89.1156495700000164
 30
0.0
 11
207.4502826199999959
 21
-88.9147199599999851
 31
0.0
  0
LINE
  5
198
  8
レイヤー_1
  6
CONTINUOUS
 62
     7
 10
207.4502826199999959
 20
-88.9147199599999851
 30
0.0
 11
207.5574830699999893
 21
-88.7015256699999952
 31
0.0
  0
LINE
  5
199
  8
レイヤー_1
  6
CONTINUOUS
 62
     7
 10
207.5574830699999893
 20
-88.7015256699999952
 30
0.0
 11
207.6443467599999906
 21
-88.4772625599999856
 31
0.0
  0
LINE
  5
19A
  8
レイヤー_1
  6
CONTINUOUS
 62
     7
 10
207.6443467599999906
 20
-88.4772625599999856
 30
0.0
 11
207.709677819999996
 21
-88.2431264899999945
 31
0.0
  0
LINE
  5
19B
  8
レイヤー_1
  6
CONTINUOUS
 62
     7
 10
207.709677819999996
 20
-88.2431264899999945
 30
0.0
 11
207.7522803999999894
 21
-88.0003133200000036
 31
0.0
  0
LINE
  5
19C
  8
レイヤー_1
  6
CONTINUOUS
 62
     7
 10
207.7522803999999894
 20
-88.0003133200000036
 30
0.0
 11
207.7709586199999876
 21
-87.7500189200000023
 31
0.0
  0
LINE
  5
19D
  8
レイヤー_1
  6
CONTINUOUS
 62
     7
 10
207.7709586199999876
 20
-87.7500189200000023
 30
0.0
 11
207.7646847999999977
 21
-87.4970743700000071
 31
0.0
  0
LINE
  5
19E
  8
レイヤー_1
  6
CONTINUOUS
 62
     7
 10
207.7646847999999977
 20
-87.4970743700000071
 30
0.0
 11
207.7338949100000036
 21
-87.250690029999987
 31
0.0
  0
LINE
  5
19F
  8
レイヤー_1
  6
CONTINUOUS
 62
     7
 10
207.7338949100000036
 20
-87.250690029999987
 30
0.0
 11
207.6797786099999996
 21
-87.0123437599999932
 31
0.0
  0
LINE
  5
1A0
  8
レイヤー_1
  6
CONTINUOUS
 62
     7
 10
207.6797786099999996
 20
-87.0123437599999932
 30
0.0
 11
207.6035317500000019
 21
-86.7832342600000004
 31
0.0
  0
LINE
  5
1A1
  8
レイヤー_1
  6
CONTINUOUS
 62
     7
 10
207.6035317500000019
 20
-86.7832342600000004
 30
0.0
 11
207.5063502000000142
 21
-86.5645602200000042
 31
0.0
  0
LINE
  5
1A2
  8
レイヤー_1
  6
CONTINUOUS
 62
     7
 10
207.5063502000000142
 20
-86.5645602200000042
 30
0.0
 11
207.3894298200000037
 21
-86.3575203500000157
 31
0.0
  0
LINE
  5
1A3
  8
レイヤー_1
  6
CONTINUOUS
 62
     7
 10
207.3894298200000037
 20
-86.3575203500000157
 30
0.0
 11
207.2539664699999946
 21
-86.1633133399999878
 31
0.0
  0
LINE
  5
1A4
  8
レイヤー_1
  6
CONTINUOUS
 62
     7
 10
207.2539664699999946
 20
-86.1633133399999878
 30
0.0
 11
207.1011560199999906
 21
-85.9831378899999947
 31
0.0
  0
LINE
  5
1A5
  8
レイヤー_1
  6
CONTINUOUS
 62
     7
 10
207.1011560199999906
 20
-85.9831378899999947
 30
0.0
 11
206.9321943200000078
 21
-85.8181926900000036
 31
0.0
  0
LINE
  5
1A6
  8
レイヤー_1
  6
CONTINUOUS
 62
     7
 10
206.9321943200000078
 20
-85.8181926900000036
 30
0.0
 11
206.748277250000001
 21
-85.6696764499999972
 31
0.0
  0
LINE
  5
1A7
  8
レイヤー_1
  6
CONTINUOUS
 62
     7
 10
206.748277250000001
 20
-85.6696764499999972
 30
0.0
 11
206.5506006699999944
 21
-85.5387878500000056
 31
0.0
  0
LINE
  5
1A8
  8
レイヤー_1
  6
CONTINUOUS
 62
     7
 10
206.5506006699999944
 20
-85.5387878500000056
 30
0.0
 11
206.340360430000004
 21
-85.4267256100000054
 31
0.0
  0
LINE
  5
1A9
  8
レイヤー_1
  6
CONTINUOUS
 62
     7
 10
206.340360430000004
 20
-85.4267256100000054
 30
0.0
 11
206.1187524100000132
 21
-85.3346884099999841
 31
0.0
  0
LINE
  5
1AA
  8
レイヤー_1
  6
CONTINUOUS
 62
     7
 10
206.1187524100000132
 20
-85.3346884099999841
 30
0.0
 11
205.8869724699999892
 21
-85.2638749399999938
 31
0.0
  0
LINE
  5
1AB
  8
レイヤー_1
  6
CONTINUOUS
 62
     7
 10
205.8869724699999892
 20
-85.2638749399999938
 30
0.0
 11
205.6462164600000051
 21
-85.2154839199999969
 31
0.0
  0
LINE
  5
1AC
  8
レイヤー_1
  6
CONTINUOUS
 62
     7
 10
205.6462164600000051
 20
-85.2154839199999969
 30
0.0
 11
205.3976802599999871
 21
-85.1907140299999952
 31
0.0
  0
LINE
  5
1AD
  8
レイヤー_1
  6
CONTINUOUS
 62
     7
 10
205.3976802599999871
 20
-85.1907140299999952
 30
0.0
 11
205.1442377099999987
 21
-85.1907140299999952
 31
0.0
  0
LINE
  5
1AE
  8
レイヤー_1
  6
CONTINUOUS
 62
     7
 10
205.1442377099999987
 20
-85.1907140299999952
 30
0.0
 11
204.896031139999991
 21
-85.2154839199999969
 31
0.0
  0
LINE
  5
1AF
  8
レイヤー_1
  6
CONTINUOUS
 62
     7
 10
204.896031139999991
 20
-85.2154839199999969
 30
0.0
 11
204.6555629800000133
 21
-85.2638749399999938
 31
0.0
  0
LINE
  5
1B0
  8
レイヤー_1
  6
CONTINUOUS
 62
     7
 10
204.6555629800000133
 20
-85.2638749399999938
 30
0.0
 11
204.4240318999999886
 21
-85.3346884099999841
 31
0.0
  0
LINE
  5
1B1
  8
レイヤー_1
  6
CONTINUOUS
 62
     7
 10
204.4240318999999886
 20
-85.3346884099999841
 30
0.0
 11
204.2026366199999927
 21
-85.4267256100000054
 31
0.0
  0
LINE
  5
1B2
  8
レイヤー_1
  6
CONTINUOUS
 62
     7
 10
204.2026366199999927
 20
-85.4267256100000054
 30
0.0
 11
203.9925758299999927
 21
-85.5387878500000056
 31
0.0
  0
LINE
  5
1B3
  8
レイヤー_1
  6
CONTINUOUS
 62
     7
 10
203.9925758299999927
 20
-85.5387878500000056
 30
0.0
 11
203.7950482299999919
 21
-85.6696764499999972
 31
0.0
  0
LINE
  5
1B4
  8
レイヤー_1
  6
CONTINUOUS
 62
     7
 10
203.7950482299999919
 20
-85.6696764499999972
 30
0.0
 11
203.6112525100000141
 21
-85.8181926900000036
 31
0.0
  0
LINE
  5
1B5
  8
レイヤー_1
  6
CONTINUOUS
 62
     7
 10
203.6112525100000141
 20
-85.8181926900000036
 30
0.0
 11
203.4423873700000058
 21
-85.9831378899999947
 31
0.0
  0
LINE
  5
1B6
  8
レイヤー_1
  6
CONTINUOUS
 62
     7
 10
203.4423873700000058
 20
-85.9831378899999947
 30
0.0
 11
203.2896515099999988
 21
-86.1633133399999878
 31
0.0
  0
LINE
  5
1B7
  8
レイヤー_1
  6
CONTINUOUS
 62
     7
 10
203.2896515099999988
 20
-86.1633133399999878
 30
0.0
 11
203.1542436299999963
 21
-86.3575203500000157
 31
0.0
  0
LINE
  5
1B8
  8
レイヤー_1
  6
CONTINUOUS
 62
     7
 10
203.1542436299999963
 20
-86.3575203500000157
 30
0.0
 11
203.0373624199999938
 21
-86.5645602200000042
 31
0.0
  0
LINE
  5
1B9
  8
レイヤー_1
  6
CONTINUOUS
 62
     7
 10
203.0373624199999938
 20
-86.5645602200000042
 30
0.0
 11
202.9402065799999946
 21
-86.7832342600000004
 31
0.0
  0
LINE
  5
1BA
  8
レイヤー_1
  6
CONTINUOUS
 62
     7
 10
202.9402065799999946
 20
-86.7832342600000004
 30
0.0
 11
202.863974799999994
 21
-87.0123437599999932
 31
0.0
  0
LINE
  5
1BB
  8
レイヤー_1
  6
CONTINUOUS
 62
     7
 10
202.863974799999994
 20
-87.0123437599999932
 30
0.0
 11
202.8098657900000035
 21
-87.250690029999987
 31
0.0
  0
LINE
  5
1BC
  8
レイヤー_1
  6
CONTINUOUS
 62
     7
 10
202.8098657900000035
 20
-87.250690029999987
 30
0.0
 11
202.7790782399999898
 21
-87.4970743700000071
 31
0.0
  0
LINE
  5
1BD
  8
レイヤー_1
  6
CONTINUOUS
 62
     7
 10
202.7790782399999898
 20
-87.4970743700000071
 30
0.0
 11
202.7728046100000086
 21
-87.7500189200000023
 31
0.0
  0
LINE
  5
1BE
  8
レイヤー_1
  6
CONTINUOUS
 62
     7
 10
202.7728046100000086
 20
-87.7500189200000023
 30
0.0
 11
202.7914819199999954
 21
-88.0003133200000036
 31
0.0
  0
LINE
  5
1BF
  8
レイヤー_1
  6
CONTINUOUS
 62
     7
 10
202.7914819199999954
 20
-88.0003133200000036
 30
0.0
 11
202.8340800299999955
 21
-88.2431264899999945
 31
0.0
  0
LINE
  5
1C0
  8
レイヤー_1
  6
CONTINUOUS
 62
     7
 10
202.8340800299999955
 20
-88.2431264899999945
 30
0.0
 11
202.8994002599999931
 21
-88.4772625599999856
 31
0.0
  0
LINE
  5
1C1
  8
レイヤー_1
  6
CONTINUOUS
 62
     7
 10
202.8994002599999931
 20
-88.4772625599999856
 30
0.0
 11
202.9862439100000131
 21
-88.7015256699999952
 31
0.0
  0
LINE
  5
1C2
  8
レイヤー_1
  6
CONTINUOUS
 62
     7
 10
202.9862439100000131
 20
-88.7015256699999952
 30
0.0
 11
203.0934122699999875
 21
-88.9147199599999851
 31
0.0
  0
LINE
  5
1C3
  8
レイヤー_1
  6
CONTINUOUS
 62
     7
 10
203.0934122699999875
 20
-88.9147199599999851
 30
0.0
 11
203.2197066600000142
 21
-89.1156495700000164
 31
0.0
  0
LINE
  5
1C4
  8
レイヤー_1
  6
CONTINUOUS
 62
     7
 10
203.2197066600000142
 20
-89.1156495700000164
 30
0.0
 11
203.3639283699999964
 21
-89.3031186300000002
 31
0.0
  0
LINE
  5
1C5
  8
レイヤー_1
  6
CONTINUOUS
 62
     7
 10
203.3639283699999964
 20
-89.3031186300000002
 30
0.0
 11
203.5248786999999879
 21
-89.4759312799999833
 31
0.0
  0
LINE
  5
1C6
  8
レイヤー_1
  6
CONTINUOUS
 62
     7
 10
203.5248786999999879
 20
-89.4759312799999833
 30
0.0
 11
203.7013589700000011
 21
-89.6328916599999985
 31
0.0
  0
LINE
  5
1C7
  8
レイヤー_1
  6
CONTINUOUS
 62
     7
 10
203.7013589700000011
 20
-89.6328916599999985
 30
0.0
 11
203.8921704699999964
 21
-89.7728039000000138
 31
0.0
  0
LINE
  5
1C8
  8
レイヤー_1
  6
CONTINUOUS
 62
     7
 10
203.8921704699999964
 20
-89.7728039000000138
 30
0.0
 11
204.0961144999999988
 21
-89.8944721299999969
 31
0.0
  0
LINE
  5
1C9
  8
レイヤー_1
  6
CONTINUOUS
 62
     7
 10
204.0961144999999988
 20
-89.8944721299999969
 30
0.0
 11
204.3119923700000129
 21
-89.9967005099999966
 31
0.0
  0
LINE
  5
1CA
  8
レイヤー_1
  6
CONTINUOUS
 62
     7
 10
204.3119923700000129
 20
-89.9967005099999966
 30
0.0
 11
204.538605380000007
 21
-90.0782931499999933
 31
0.0
  0
LINE
  5
1CB
  8
レイヤー_1
  6
CONTINUOUS
 62
     7
 10
204.538605380000007
 20
-90.0782931499999933
 30
0.0
 11
204.7747548400000142
 21
-90.1380541999999991
 31
0.0
  0
LINE
  5
1CC
  8
レイヤー_1
  6
CONTINUOUS
 62
     7
 10
204.7747548400000142
 20
-90.1380541999999991
 30
0.0
 11
205.0192420399999946
 21
-90.1747878000000043
 31
0.0
  0
LINE
  5
1CD
  8
レイヤー_1
  6
CONTINUOUS
 62
     7
 10
205.0192420399999946
 20
-90.1747878000000043
 30
0.0
 11
205.2708682999999894
 21
-90.187298080000005
 31
0.0
  0
LINE
  5
1CE
  8
レイヤー_1
  6
CONTINUOUS
 62
     7
 10
-108.3729163600000049
 20
-348.3655583099999831
 30
0.0
 11
-218.3118753800000036
 21
-348.3655583099999831
 31
0.0
  0
LINE
  5
1CF
  8
レイヤー_1
  6
CONTINUOUS
 62
     7
 10
261.6881246199999964
 20
-348.3655583099999831
 30
0.0
 11
241.6881246199999964
 21
-348.3655583099999831
 31
0.0
  0
LINE
  5
1D0
  8
レイヤー_1
  6
CONTINUOUS
 62
     7
 10
261.6881246199999964
 20
-348.3655583099999831
 30
0.0
 11
261.6881246199999964
 21
-350.3655583099999831
 31
0.0
  0
LINE
  5
1D1
  8
レイヤー_1
  6
CONTINUOUS
 62
     7
 10
241.6881246199999964
 20
-337.3666488100000151
 30
0.0
 11
241.6881246199999964
 21
-350.3655583099999831
 31
0.0
  0
LINE
  5
1D2
  8
レイヤー_1
  6
CONTINUOUS
 62
     7
 10
-218.3118753800000036
 20
-348.3655583099999831
 30
0.0
 11
-218.3118753800000036
 21
-350.3655583099999831
 31
0.0
  0
LINE
  5
1D3
  8
レイヤー_1
  6
CONTINUOUS
 62
     7
 10
259.1881246199999964
 20
-80.3651683100000014
 30
0.0
 11
-215.8118753800000036
 21
-80.3651683100000014
 31
0.0
  0
LINE
  5
1D4
  8
レイヤー_1
  6
CONTINUOUS
 62
     7
 10
259.1881246199999964
 20
-168.3651683100000014
 30
0.0
 11
-29.569814130000001
 21
-168.3651683100000014
 31
0.0
  0
LINE
  5
1D5
  8
レイヤー_1
  6
CONTINUOUS
 62
     7
 10
241.6881246199999964
 20
-168.3651683100000014
 30
0.0
 11
241.6881246199999964
 21
-80.3651683100000014
 31
0.0
  0
LINE
  5
1D6
  8
レイヤー_1
  6
CONTINUOUS
 62
     7
 10
56.1755650699999904
 20
-316.0909157300000061
 30
0.0
 11
190.9353855500000066
 21
-316.0909157300000061
 31
0.0
  0
LINE
  5
1D7
  8
レイヤー_1
  6
CONTINUOUS
 62
     7
 10
56.1755650699999904
 20
-318.0182563800000253
 30
0.0
 11
190.9353855500000066
 21
-318.0182563800000253
 31
0.0
  0
LINE
  5
1D8
  8
レイヤー_1
  6
CONTINUOUS
 62
     7
 10
60.4274690499999991
 20
-328.3419927400000233
 30
0.0
 11
195.1893161799999916
 21
-328.3419927400000233
 31
0.0
  0
LINE
  5
1D9
  8
レイヤー_1
  6
CONTINUOUS
 62
     7
 10
60.4274690499999991
 20
-330.0180292499999837
 30
0.0
 11
195.1893161799999916
 21
-330.0180292499999837
 31
0.0
  0
LINE
  5
1DA
  8
レイヤー_1
  6
PHANTOM
 62
     7
 10
212.990364129999989
 20
-155.9509578800000043
 30
0.0
 11
220.1525322299999914
 21
-155.9509578800000043
 31
0.0
  0
LINE
  5
1DB
  8
レイヤー_1
  6
PHANTOM
 62
     7
 10
220.1525322299999914
 20
-155.9509578800000043
 30
0.0
 11
220.1525322299999914
 21
-94.7421856899999852
 31
0.0
  0
LINE
  5
1DC
  8
レイヤー_1
  6
PHANTOM
 62
     7
 10
220.1525322299999914
 20
-94.7421856899999852
 30
0.0
 11
212.990364129999989
 21
-94.7421856899999852
 31
0.0
  0
LINE
  5
1DD
  8
レイヤー_1
  6
PHANTOM
 62
     7
 10
212.990364129999989
 20
-94.7421856899999852
 30
0.0
 11
212.990364129999989
 21
-155.9509578800000043
 31
0.0
  0
LINE
  5
1DE
  8
レイヤー_1
  6
PHANTOM
 62
     7
 10
222.4021096499999999
 20
-158.4518394399999863
 30
0.0
 11
222.4021096499999999
 21
-92.244344099999978
 31
0.0
  0
LINE
  5
1DF
  8
レイヤー_1
  6
PHANTOM
 62
     7
 10
222.4021096499999999
 20
-92.244344099999978
 30
0.0
 11
210.4894825700000069
 21
-92.244344099999978
 31
0.0
  0
LINE
  5
1E0
  8
レイヤー_1
  6
PHANTOM
 62
     7
 10
210.4894825700000069
 20
-92.244344099999978
 30
0.0
 11
210.4894825700000069
 21
-158.4518394399999863
 31
0.0
  0
LINE
  5
1E1
  8
レイヤー_1
  6
PHANTOM
 62
     7
 10
210.4894825700000069
 20
-158.4518394399999863
 30
0.0
 11
222.4021096499999999
 21
-158.4518394399999863
 31
0.0
  0
LINE
  5
1E2
  8
レイヤー_1
  6
PHANTOM
 62
     7
 10
-84.3118753800000036
 20
-96.3651683100000156
 30
0.0
 11
-102.3118753800000036
 21
-96.3651683100000156
 31
0.0
  0
LINE
  5
1E3
  8
レイヤー_1
  6
PHANTOM
 62
     7
 10
-83.3118753800000036
 20
-144.3651683100000014
 30
0.0
 11
-83.3118753800000036
 21
-96.3651683100000156
 31
0.0
  0
LINE
  5
1E4
  8
レイヤー_1
  6
PHANTOM
 62
     7
 10
-65.3118753800000036
 20
-144.3651683100000014
 30
0.0
 11
-83.3118753800000036
 21
-144.3651683100000014
 31
0.0
  0
LINE
  5
1E5
  8
レイヤー_1
  6
PHANTOM
 62
     7
 10
-65.3118753800000036
 20
-144.3651683100000014
 30
0.0
 11
-65.3118753800000036
 21
-96.3651683100000156
 31
0.0
  0
LINE
  5
1E6
  8
レイヤー_1
  6
PHANTOM
 62
     7
 10
-65.3118753800000036
 20
-96.3651683100000156
 30
0.0
 11
-83.3118753800000036
 21
-96.3651683100000156
 31
0.0
  0
LINE
  5
1E7
  8
レイヤー_1
  6
PHANTOM
 62
     7
 10
-64.3118753800000036
 20
-144.3651683100000014
 30
0.0
 11
-64.3118753800000036
 21
-96.3651683100000156
 31
0.0
  0
LINE
  5
1E8
  8
レイヤー_1
  6
PHANTOM
 62
     7
 10
-46.3118753799999894
 20
-144.3651683100000014
 30
0.0
 11
-64.3118753800000036
 21
-144.3651683100000014
 31
0.0
  0
LINE
  5
1E9
  8
レイヤー_1
  6
PHANTOM
 62
     7
 10
-46.3118753799999894
 20
-144.3651683100000014
 30
0.0
 11
-46.3118753799999894
 21
-96.3651683100000156
 31
0.0
  0
LINE
  5
1EA
  8
レイヤー_1
  6
PHANTOM
 62
     7
 10
-46.3118753799999894
 20
-96.3651683100000156
 30
0.0
 11
-64.3118753800000036
 21
-96.3651683100000156
 31
0.0
  0
LINE
  5
1EB
  8
レイヤー_1
  6
PHANTOM
 62
     7
 10
-45.3118753799999965
 20
-144.3651683100000014
 30
0.0
 11
-45.3118753799999965
 21
-96.3651683100000156
 31
0.0
  0
LINE
  5
1EC
  8
レイヤー_1
  6
PHANTOM
 62
     7
 10
-27.31187538
 20
-144.3651683100000014
 30
0.0
 11
-45.3118753799999965
 21
-144.3651683100000014
 31
0.0
  0
LINE
  5
1ED
  8
レイヤー_1
  6
PHANTOM
 62
     7
 10
-27.31187538
 20
-144.3651683100000014
 30
0.0
 11
-27.31187538
 21
-96.3651683100000156
 31
0.0
  0
LINE
  5
1EE
  8
レイヤー_1
  6
PHANTOM
 62
     7
 10
-27.31187538
 20
-96.3651683100000156
 30
0.0
 11
-45.3118753799999965
 21
-96.3651683100000156
 31
0.0
  0
LINE
  5
1EF
  8
レイヤー_1
  6
PHANTOM
 62
     7
 10
-26.31187538
 20
-144.3651683100000014
 30
0.0
 11
-26.31187538
 21
-96.3651683100000156
 31
0.0
  0
LINE
  5
1F0
  8
レイヤー_1
  6
PHANTOM
 62
     7
 10
-8.31187538
 20
-144.3651683100000014
 30
0.0
 11
-26.31187538
 21
-144.3651683100000014
 31
0.0
  0
LINE
  5
1F1
  8
レイヤー_1
  6
PHANTOM
 62
     7
 10
-8.31187538
 20
-144.3651683100000014
 30
0.0
 11
-8.31187538
 21
-96.3651683100000156
 31
0.0
  0
LINE
  5
1F2
  8
レイヤー_1
  6
PHANTOM
 62
     7
 10
-8.31187538
 20
-96.3651683100000156
 30
0.0
 11
-26.31187538
 21
-96.3651683100000156
 31
0.0
  0
LINE
  5
1F3
  8
レイヤー_1
  6
PHANTOM
 62
     7
 10
-7.31187538
 20
-144.3651683100000014
 30
0.0
 11
-7.31187538
 21
-96.3651683100000156
 31
0.0
  0
LINE
  5
1F4
  8
レイヤー_1
  6
PHANTOM
 62
     7
 10
10.68812462
 20
-144.3651683100000014
 30
0.0
 11
-7.31187538
 21
-144.3651683100000014
 31
0.0
  0
LINE
  5
1F5
  8
レイヤー_1
  6
PHANTOM
 62
     7
 10
10.68812462
 20
-144.3651683100000014
 30
0.0
 11
10.68812462
 21
-96.3651683100000156
 31
0.0
  0
LINE
  5
1F6
  8
レイヤー_1
  6
PHANTOM
 62
     7
 10
10.68812462
 20
-96.3651683100000156
 30
0.0
 11
-7.31187538
 21
-96.3651683100000156
 31
0.0
  0
LINE
  5
1F7
  8
レイヤー_1
  6
PHANTOM
 62
     7
 10
11.68812462
 20
-144.3651683100000014
 30
0.0
 11
11.68812462
 21
-96.3651683100000156
 31
0.0
  0
LINE
  5
1F8
  8
レイヤー_1
  6
PHANTOM
 62
     7
 10
29.68812462
 20
-144.3651683100000014
 30
0.0
 11
11.68812462
 21
-144.3651683100000014
 31
0.0
  0
LINE
  5
1F9
  8
レイヤー_1
  6
PHANTOM
 62
     7
 10
29.68812462
 20
-144.3651683100000014
 30
0.0
 11
29.68812462
 21
-96.3651683100000156
 31
0.0
  0
LINE
  5
1FA
  8
レイヤー_1
  6
PHANTOM
 62
     7
 10
29.68812462
 20
-96.3651683100000156
 30
0.0
 11
11.68812462
 21
-96.3651683100000156
 31
0.0
  0
LINE
  5
1FB
  8
レイヤー_1
  6
PHANTOM
 62
     7
 10
30.68812462
 20
-144.3651683100000014
 30
0.0
 11
30.68812462
 21
-96.3651683100000156
 31
0.0
  0
LINE
  5
1FC
  8
レイヤー_1
  6
PHANTOM
 62
     7
 10
48.6881246200000106
 20
-144.3651683100000014
 30
0.0
 11
30.68812462
 21
-144.3651683100000014
 31
0.0
  0
LINE
  5
1FD
  8
レイヤー_1
  6
PHANTOM
 62
     7
 10
48.6881246200000106
 20
-144.3651683100000014
 30
0.0
 11
48.6881246200000106
 21
-96.3651683100000156
 31
0.0
  0
LINE
  5
1FE
  8
レイヤー_1
  6
PHANTOM
 62
     7
 10
48.6881246200000106
 20
-96.3651683100000156
 30
0.0
 11
30.68812462
 21
-96.3651683100000156
 31
0.0
  0
LINE
  5
1FF
  8
レイヤー_1
  6
PHANTOM
 62
     7
 10
68.6881246199999964
 20
-96.3651683100000156
 30
0.0
 11
50.6881246200000035
 21
-96.3651683100000156
 31
0.0
  0
LINE
  5
200
  8
レイヤー_1
  6
PHANTOM
 62
     7
 10
69.6881246199999964
 20
-144.3651683100000014
 30
0.0
 11
69.6881246199999964
 21
-96.3651683100000156
 31
0.0
  0
LINE
  5
201
  8
レイヤー_1
  6
PHANTOM
 62
     7
 10
87.6881246199999964
 20
-144.3651683100000014
 30
0.0
 11
69.6881246199999964
 21
-144.3651683100000014
 31
0.0
  0
LINE
  5
202
  8
レイヤー_1
  6
PHANTOM
 62
     7
 10
87.6881246199999964
 20
-144.3651683100000014
 30
0.0
 11
87.6881246199999964
 21
-96.3651683100000156
 31
0.0
  0
LINE
  5
203
  8
レイヤー_1
  6
PHANTOM
 62
     7
 10
87.6881246199999964
 20
-96.3651683100000156
 30
0.0
 11
69.6881246199999964
 21
-96.3651683100000156
 31
0.0
  0
LINE
  5
204
  8
レイヤー_1
  6
PHANTOM
 62
     7
 10
88.6881246199999964
 20
-144.3651683100000014
 30
0.0
 11
88.6881246199999964
 21
-96.3651683100000156
 31
0.0
  0
LINE
  5
205
  8
レイヤー_1
  6
PHANTOM
 62
     7
 10
106.6881246199999964
 20
-144.3651683100000014
 30
0.0
 11
88.6881246199999964
 21
-144.3651683100000014
 31
0.0
  0
LINE
  5
206
  8
レイヤー_1
  6
PHANTOM
 62
     7
 10
106.6881246199999964
 20
-144.3651683100000014
 30
0.0
 11
106.6881246199999964
 21
-96.3651683100000156
 31
0.0
  0
LINE
  5
207
  8
レイヤー_1
  6
PHANTOM
 62
     7
 10
106.6881246199999964
 20
-96.3651683100000156
 30
0.0
 11
88.6881246199999964
 21
-96.3651683100000156
 31
0.0
  0
LINE
  5
208
  8
レイヤー_1
  6
PHANTOM
 62
     7
 10
107.6881246199999964
 20
-144.3651683100000014
 30
0.0
 11
107.6881246199999964
 21
-96.3651683100000156
 31
0.0
  0
LINE
  5
209
  8
レイヤー_1
  6
PHANTOM
 62
     7
 10
125.6881246199999964
 20
-144.3651683100000014
 30
0.0
 11
107.6881246199999964
 21
-144.3651683100000014
 31
0.0
  0
LINE
  5
20A
  8
レイヤー_1
  6
PHANTOM
 62
     7
 10
125.6881246199999964
 20
-144.3651683100000014
 30
0.0
 11
125.6881246199999964
 21
-96.3651683100000156
 31
0.0
  0
LINE
  5
20B
  8
レイヤー_1
  6
PHANTOM
 62
     7
 10
125.6881246199999964
 20
-96.3651683100000156
 30
0.0
 11
107.6881246199999964
 21
-96.3651683100000156
 31
0.0
  0
LINE
  5
20C
  8
レイヤー_1
  6
PHANTOM
 62
     7
 10
126.6881246199999964
 20
-144.3651683100000014
 30
0.0
 11
126.6881246199999964
 21
-96.3651683100000156
 31
0.0
  0
LINE
  5
20D
  8
レイヤー_1
  6
PHANTOM
 62
     7
 10
144.6881246199999964
 20
-144.3651683100000014
 30
0.0
 11
126.6881246199999964
 21
-144.3651683100000014
 31
0.0
  0
LINE
  5
20E
  8
レイヤー_1
  6
PHANTOM
 62
     7
 10
144.6881246199999964
 20
-144.3651683100000014
 30
0.0
 11
144.6881246199999964
 21
-96.3651683100000156
 31
0.0
  0
LINE
  5
20F
  8
レイヤー_1
  6
PHANTOM
 62
     7
 10
144.6881246199999964
 20
-96.3651683100000156
 30
0.0
 11
126.6881246199999964
 21
-96.3651683100000156
 31
0.0
  0
LINE
  5
210
  8
レイヤー_1
  6
PHANTOM
 62
     7
 10
145.6881246199999964
 20
-144.3651683100000014
 30
0.0
 11
145.6881246199999964
 21
-96.3651683100000156
 31
0.0
  0
LINE
  5
211
  8
レイヤー_1
  6
PHANTOM
 62
     7
 10
163.6881246199999964
 20
-144.3651683100000014
 30
0.0
 11
145.6881246199999964
 21
-144.3651683100000014
 31
0.0
  0
LINE
  5
212
  8
レイヤー_1
  6
PHANTOM
 62
     7
 10
163.6881246199999964
 20
-144.3651683100000014
 30
0.0
 11
163.6881246199999964
 21
-96.3651683100000156
 31
0.0
  0
LINE
  5
213
  8
レイヤー_1
  6
PHANTOM
 62
     7
 10
163.6881246199999964
 20
-96.3651683100000156
 30
0.0
 11
145.6881246199999964
 21
-96.3651683100000156
 31
0.0
  0
LINE
  5
214
  8
レイヤー_1
  6
PHANTOM
 62
     7
 10
164.6881246199999964
 20
-144.3651683100000014
 30
0.0
 11
164.6881246199999964
 21
-96.3651683100000156
 31
0.0
  0
LINE
  5
215
  8
レイヤー_1
  6
PHANTOM
 62
     7
 10
182.6881246199999964
 20
-144.3651683100000014
 30
0.0
 11
164.6881246199999964
 21
-144.3651683100000014
 31
0.0
  0
LINE
  5
216
  8
レイヤー_1
  6
PHANTOM
 62
     7
 10
182.6881246199999964
 20
-144.3651683100000014
 30
0.0
 11
182.6881246199999964
 21
-96.3651683100000156
 31
0.0
  0
LINE
  5
217
  8
レイヤー_1
  6
PHANTOM
 62
     7
 10
182.6881246199999964
 20
-96.3651683100000156
 30
0.0
 11
164.6881246199999964
 21
-96.3651683100000156
 31
0.0
  0
LINE
  5
218
  8
レイヤー_1
  6
PHANTOM
 62
     7
 10
183.6881246199999964
 20
-144.3651683100000014
 30
0.0
 11
183.6881246199999964
 21
-96.3651683100000156
 31
0.0
  0
LINE
  5
219
  8
レイヤー_1
  6
PHANTOM
 62
     7
 10
201.6881246199999964
 20
-144.3651683100000014
 30
0.0
 11
183.6881246199999964
 21
-144.3651683100000014
 31
0.0
  0
LINE
  5
21A
  8
レイヤー_1
  6
PHANTOM
 62
     7
 10
201.6881246199999964
 20
-144.3651683100000014
 30
0.0
 11
201.6881246199999964
 21
-96.3651683100000156
 31
0.0
  0
LINE
  5
21B
  8
レイヤー_1
  6
PHANTOM
 62
     7
 10
201.6881246199999964
 20
-96.3651683100000156
 30
0.0
 11
183.6881246199999964
 21
-96.3651683100000156
 31
0.0
  0
LINE
  5
21C
  8
レイヤー_1
  6
PHANTOM
 62
     7
 10
68.6881246199999964
 20
-144.3651683100000014
 30
0.0
 11
50.6881246200000035
 21
-144.3651683100000014
 31
0.0
  0
LINE
  5
21D
  8
レイヤー_1
  6
PHANTOM
 62
     7
 10
50.6881246200000035
 20
-144.3651683100000014
 30
0.0
 11
50.6881246200000035
 21
-96.3651683100000156
 31
0.0
  0
LINE
  5
21E
  8
レイヤー_1
  6
PHANTOM
 62
     7
 10
68.6881246199999964
 20
-144.3651683100000014
 30
0.0
 11
68.6881246199999964
 21
-96.3651683100000156
 31
0.0
  0
LINE
  5
21F
  8
レイヤー_1
  6
PHANTOM
 62
     7
 10
-84.3118753800000036
 20
-144.3651683100000014
 30
0.0
 11
-102.3118753800000036
 21
-144.3651683100000014
 31
0.0
  0
LINE
  5
220
  8
レイヤー_1
  6
PHANTOM
 62
     7
 10
-102.3118753800000036
 20
-144.3651683100000014
 30
0.0
 11
-102.3118753800000036
 21
-96.3651683100000156
 31
0.0
  0
LINE
  5
221
  8
レイヤー_1
  6
PHANTOM
 62
     7
 10
-84.3118753800000036
 20
-144.3651683100000014
 30
0.0
 11
-84.3118753800000036
 21
-96.3651683100000156
 31
0.0
  0
LINE
  5
222
  8
SLD-0_3
  6
PHANTOM
 62
     7
 10
-130.3225093400000105
 20
-92.3953292500000032
 30
0.0
 11
-129.4196383999999966
 21
-92.3953292500000032
 31
0.0
  0
LINE
  5
223
  8
SLD-0_3
  6
PHANTOM
 62
     7
 10
-129.4196383999999966
 20
-92.3953292500000032
 30
0.0
 11
-129.4196383999999966
 21
-81.568984599999979
 31
0.0
  0
LINE
  5
224
  8
SLD-0_3
  6
PHANTOM
 62
     7
 10
-159.9804516000000092
 20
-93.288066950000001
 30
0.0
 11
-159.9804516000000092
 21
-92.3953292500000032
 31
0.0
  0
LINE
  5
225
  8
SLD-0_3
  6
PHANTOM
 62
     7
 10
-156.4095007900000098
 20
-81.568984599999979
 30
0.0
 11
-157.3012251700000093
 21
-81.568984599999979
 31
0.0
  0
LINE
  5
226
  8
SLD-0_3
  6
PHANTOM
 62
     7
 10
210.4894825700000069
 20
377.755655900000022
 30
0.0
 11
210.4894825700000069
 21
311.5481605599999853
 31
0.0
  0
LINE
  5
227
  8
SLD-0_3
  6
PHANTOM
 62
     7
 10
220.1525322299999914
 20
375.2578143100000148
 30
0.0
 11
212.990364129999989
 21
375.2578143100000148
 31
0.0
  0
LINE
  5
228
  8
SLD-0_3
  6
PHANTOM
 62
     7
 10
222.4021096499999999
 20
377.755655900000022
 30
0.0
 11
210.4894825700000069
 21
377.755655900000022
 31
0.0
  0
LINE
  5
229
  8
SLD-0_3
  6
PHANTOM
 62
     7
 10
220.1525322299999914
 20
314.0490421200000242
 30
0.0
 11
220.1525322299999914
 21
375.2578143100000148
 31
0.0
  0
LINE
  5
22A
  8
SLD-0_3
  6
PHANTOM
 62
     7
 10
210.4894825700000069
 20
311.5481605599999853
 30
0.0
 11
222.4021096499999999
 21
311.5481605599999853
 31
0.0
  0
LINE
  5
22B
  8
SLD-0_3
  6
PHANTOM
 62
     7
 10
222.4021096499999999
 20
311.5481605599999853
 30
0.0
 11
222.4021096499999999
 21
377.755655900000022
 31
0.0
  0
LINE
  5
22C
  8
SLD-0_3
  6
PHANTOM
 62
     7
 10
212.990364129999989
 20
314.0490421200000242
 30
0.0
 11
220.1525322299999914
 21
314.0490421200000242
 31
0.0
  0
LINE
  5
22D
  8
SLD-0_3
  6
PHANTOM
 62
     7
 10
212.990364129999989
 20
375.2578143100000148
 30
0.0
 11
212.990364129999989
 21
314.0490421200000242
 31
0.0
  0
LINE
  5
22E
  8
SLD-0_3
  6
PHANTOM
 62
     7
 10
-131.3791320100000064
 20
-89.3801533799999959
 30
0.0
 11
-131.1552965699999902
 21
-89.1714548599999972
 31
0.0
  0
LINE
  5
22F
  8
SLD-0_3
  6
PHANTOM
 62
     7
 10
-146.2873512399999925
 20
-85.5236207399999842
 30
0.0
 11
-146.406691219999999
 21
-85.8106171299999971
 31
0.0
  0
LINE
  5
230
  8
SLD-0_3
  6
PHANTOM
 62
     7
 10
-146.5934037099999898
 20
-86.7440814499999959
 30
0.0
 11
-146.5934037099999898
 21
-87.0722872200000069
 31
0.0
  0
LINE
  5
231
  8
SLD-0_3
  6
PHANTOM
 62
     7
 10
-146.5612774600000137
 20
-87.3939640100000048
 30
0.0
 11
-146.4985199600000101
 21
-87.7056378399999943
 31
0.0
  0
LINE
  5
232
  8
SLD-0_3
  6
PHANTOM
 62
     7
 10
-141.5073679099999993
 20
-89.5671701400000018
 30
0.0
 11
-141.2643720199999962
 21
-89.3801533799999959
 31
0.0
  0
LINE
  5
233
  8
SLD-0_3
  6
PHANTOM
 62
     7
 10
-140.4978637300000059
 20
-88.4308405200000038
 30
0.0
 11
-140.3653559200000132
 21
-88.1509867200000059
 31
0.0
  0
LINE
  5
234
  8
SLD-0_3
  6
PHANTOM
 62
     7
 10
-155.8585853600000064
 20
-84.995208550000001
 30
0.0
 11
-156.0282318799999928
 21
-85.2512988199999882
 31
0.0
  0
LINE
  5
235
  8
SLD-0_3
  6
PHANTOM
 62
     7
 10
-156.4793872299999862
 20
-87.0722872200000069
 30
0.0
 11
-156.4472809300000051
 21
-87.3939640100000048
 31
0.0
  0
LINE
  5
236
  8
SLD-0_3
  6
PHANTOM
 62
     7
 10
-155.6660937999999987
 20
-89.0594615600000026
 30
0.0
 11
-155.4523115499999903
 21
-89.2784170200000062
 31
0.0
  0
LINE
  5
237
  8
SLD-0_3
  6
PHANTOM
 62
     7
 10
-154.698764060000002
 20
-89.8036356700000056
 30
0.0
 11
-154.4153624399999956
 21
-89.9296354199999968
 31
0.0
  0
LINE
  5
238
  8
SLD-0_3
  6
PHANTOM
 62
     7
 10
-161.0353919400000109
 20
-84.4362152900000069
 30
0.0
 11
-161.2782865700000059
 21
-84.249198530000001
 31
0.0
  0
LINE
  5
239
  8
SLD-0_3
  6
PHANTOM
 62
     7
 10
-164.584262410000008
 20
-84.012732999999983
 30
0.0
 11
-164.8526846299999988
 21
-84.1643074299999938
 31
0.0
  0
LINE
  5
23A
  8
SLD-0_3
  6
PHANTOM
 62
     7
 10
-166.1779511100000093
 20
-88.0057515400000057
 30
0.0
 11
-166.0587620899999877
 21
-88.2927479300000044
 31
0.0
  0
LINE
  5
23B
  8
SLD-0_3
  6
PHANTOM
 62
     7
 10
-164.8526846299999988
 20
-89.6520612399999948
 30
0.0
 11
-164.584262410000008
 21
-89.8036356700000056
 31
0.0
  0
LINE
  5
23C
  8
SLD-0_3
  6
PHANTOM
 62
     7
 10
-163.374604330000011
 20
-90.1386147999999991
 30
0.0
 11
-163.0465434500000015
 21
-90.1467521799999787
 31
0.0
  0
LINE
  5
23D
  8
SLD-0_3
  6
PHANTOM
 62
     7
 10
-175.6287471999999923
 20
-84.995208550000001
 30
0.0
 11
-175.7983578399999942
 21
-85.2512988199999882
 31
0.0
  0
LINE
  5
23E
  8
SLD-0_3
  6
PHANTOM
 62
     7
 10
-176.2172385099999872
 20
-86.422404659999998
 30
0.0
 11
-176.2493248499999936
 21
-86.7440814499999959
 31
0.0
  0
LINE
  5
23F
  8
SLD-0_3
  6
PHANTOM
 62
     7
 10
-174.9889569199999926
 20
-89.4764692999999909
 30
0.0
 11
-174.7372029400000031
 21
-89.6520612399999948
 31
0.0
  0
LINE
  5
240
  8
SLD-0_3
  6
PHANTOM
 62
     7
 10
-130.3225093400000105
 20
-93.288066950000001
 30
0.0
 11
-130.3225093400000105
 21
-92.3953292500000032
 31
0.0
  0
LINE
  5
241
  8
SLD-0_3
  6
PHANTOM
 62
     7
 10
-150.0964974899999902
 20
-92.3953292500000032
 30
0.0
 11
-149.1915999100000079
 21
-92.3953292500000032
 31
0.0
  0
LINE
  5
242
  8
SLD-0_3
  6
PHANTOM
 62
     7
 10
-159.9804516000000092
 20
-81.568984599999979
 30
0.0
 11
-159.9804516000000092
 21
-80.2881441300000063
 31
0.0
  0
LINE
  5
243
  8
SLD-0_3
  6
PHANTOM
 62
     7
 10
-166.2934548899999925
 20
-80.2881441300000063
 30
0.0
 11
-166.2934548899999925
 21
-81.568984599999979
 31
0.0
  0
LINE
  5
244
  8
SLD-0_3
  6
PHANTOM
 62
     7
 10
-135.1953240400000027
 20
-84.1643074299999938
 30
0.0
 11
-135.4472373600000026
 21
-84.3398993699999835
 31
0.0
  0
LINE
  5
245
  8
SLD-0_3
  6
PHANTOM
 62
     7
 10
-136.0874426100000107
 20
-84.995208550000001
 30
0.0
 11
-136.257165829999991
 21
-85.2512988199999882
 31
0.0
  0
LINE
  5
246
  8
SLD-0_3
  6
PHANTOM
 62
     7
 10
-136.4024662999999862
 20
-88.2927479300000044
 30
0.0
 11
-136.257165829999991
 21
-88.5650698500000146
 31
0.0
  0
LINE
  5
247
  8
SLD-0_3
  6
PHANTOM
 62
     7
 10
-132.751077070000008
 20
-90.0672761799999932
 30
0.0
 11
-132.44818570999999
 21
-89.9825581599999964
 31
0.0
  0
LINE
  5
248
  8
SLD-0_3
  6
PHANTOM
 62
     7
 10
-140.2595959800000003
 20
-85.9591316399999954
 30
0.0
 11
-140.3653559200000132
 21
-85.6653819499999969
 31
0.0
  0
LINE
  5
249
  8
SLD-0_3
  6
PHANTOM
 62
     7
 10
-140.8369226499999911
 20
-84.8737369000000115
 30
0.0
 11
-141.0403735700000141
 21
-84.6449138100000056
 31
0.0
  0
LINE
  5
24A
  8
SLD-0_3
  6
PHANTOM
 62
     7
 10
-141.2643720199999962
 20
-84.4362152900000069
 30
0.0
 11
-141.5073679099999993
 21
-84.249198530000001
 31
0.0
  0
LINE
  5
24B
  8
SLD-0_3
  6
PHANTOM
 62
     7
 10
-146.2873512399999925
 20
-88.2927479300000044
 30
0.0
 11
-146.1420600399999898
 21
-88.5650698500000146
 31
0.0
  0
LINE
  5
24C
  8
SLD-0_3
  6
PHANTOM
 62
     7
 10
-145.7798639799999876
 20
-89.0594615600000026
 30
0.0
 11
-145.5660791299999914
 21
-89.2784170200000062
 31
0.0
  0
LINE
  5
24D
  8
SLD-0_3
  6
PHANTOM
 62
     7
 10
-142.9530558099999951
 20
-90.1225265799999846
 30
0.0
 11
-142.6383240600000022
 21
-90.0672761799999932
 31
0.0
  0
LINE
  5
24E
  8
SLD-0_3
  6
PHANTOM
 62
     7
 10
-150.1447323799999936
 20
-85.9591316399999954
 30
0.0
 11
-150.2506010600000081
 21
-85.6653819499999969
 31
0.0
  0
LINE
  5
24F
  8
SLD-0_3
  6
PHANTOM
 62
     7
 10
-156.0282318799999928
 20
-85.2512988199999882
 30
0.0
 11
-156.1734790499999974
 21
-85.5236207399999842
 31
0.0
  0
LINE
  5
250
  8
SLD-0_3
  6
PHANTOM
 62
     7
 10
-154.4153624399999956
 20
-89.9296354199999968
 30
0.0
 11
-154.1184418299999948
 21
-90.028503299999997
 31
0.0
  0
LINE
  5
251
  8
SLD-0_3
  6
PHANTOM
 62
     7
 10
-152.5239163500000075
 20
-90.0672761799999932
 30
0.0
 11
-152.2205849700000044
 21
-89.9825581599999964
 31
0.0
  0
LINE
  5
252
  8
SLD-0_3
  6
PHANTOM
 62
     7
 10
-151.3932208999999887
 20
-89.5671701400000018
 30
0.0
 11
-151.1501715199999865
 21
-89.3801533799999959
 31
0.0
  0
LINE
  5
253
  8
SLD-0_3
  6
PHANTOM
 62
     7
 10
-160.6080299399999944
 20
-84.8737369000000115
 30
0.0
 11
-160.8114539999999977
 21
-84.6449138100000056
 31
0.0
  0
LINE
  5
254
  8
SLD-0_3
  6
PHANTOM
 62
     7
 10
-161.2782865700000059
 20
-89.5671701400000018
 30
0.0
 11
-161.0353919400000109
 21
-89.3801533799999959
 31
0.0
  0
LINE
  5
255
  8
SLD-0_3
  6
PHANTOM
 62
     7
 10
-173.579032159999997
 20
-83.7176865200000009
 30
0.0
 11
-173.8881507399999862
 21
-83.7878653700000058
 31
0.0
  0
LINE
  5
256
  8
SLD-0_3
  6
PHANTOM
 62
     7
 10
-173.579032159999997
 20
-90.0986821500000019
 30
0.0
 11
-173.2594440999999961
 21
-90.1386147999999991
 31
0.0
  0
LINE
  5
257
  8
SLD-0_3
  6
PHANTOM
 62
     7
 10
-126.7515585200000032
 20
-80.2881441300000063
 30
0.0
 11
-126.7515585200000032
 21
-81.568984599999979
 31
0.0
  0
LINE
  5
258
  8
SLD-0_3
  6
PHANTOM
 62
     7
 10
-140.2095034200000043
 20
-93.288066950000001
 30
0.0
 11
-140.2095034200000043
 21
-92.3953292500000032
 31
0.0
  0
LINE
  5
259
  8
SLD-0_3
  6
PHANTOM
 62
     7
 10
-159.0775806700000032
 20
-92.3953292500000032
 30
0.0
 11
-159.0775806700000032
 21
-81.568984599999979
 31
0.0
  0
LINE
  5
25A
  8
SLD-0_3
  6
PHANTOM
 62
     7
 10
-146.5225067099999876
 20
-80.2881441300000063
 30
0.0
 11
-146.5225067099999876
 21
-81.568984599999979
 31
0.0
  0
LINE
  5
25B
  8
SLD-0_3
  6
PHANTOM
 62
     7
 10
-167.1882192399999951
 20
-92.3953292500000032
 30
0.0
 11
-166.2934548899999925
 21
-92.3953292500000032
 31
0.0
  0
LINE
  5
25C
  8
SLD-0_3
  6
PHANTOM
 62
     7
 10
-130.3746875299999886
 20
-85.9591316399999954
 30
0.0
 11
-130.4804668900000024
 21
-85.6653819499999969
 31
0.0
  0
LINE
  5
25D
  8
SLD-0_3
  6
PHANTOM
 62
     7
 10
-130.6129774800000121
 20
-85.385528149999999
 30
0.0
 11
-130.7706592899999976
 21
-85.1211274100000139
 31
0.0
  0
LINE
  5
25E
  8
SLD-0_3
  6
PHANTOM
 62
     7
 10
-131.8820364899999902
 20
-84.0854207000000144
 30
0.0
 11
-132.1579855100000032
 21
-83.9464389699999884
 31
0.0
  0
LINE
  5
25F
  8
SLD-0_3
  6
PHANTOM
 62
     7
 10
-135.4472373600000026
 20
-89.4764692999999909
 30
0.0
 11
-135.1953240400000027
 21
-89.6520612399999948
 31
0.0
  0
LINE
  5
260
  8
SLD-0_3
  6
PHANTOM
 62
     7
 10
-140.1183043300000008
 20
-86.9081843400000054
 30
0.0
 11
-140.1345200999998895
 21
-86.5820900100000159
 31
0.0
  0
LINE
  5
261
  8
SLD-0_3
  6
PHANTOM
 62
     7
 10
-146.406691219999999
 20
-85.8106171299999971
 30
0.0
 11
-146.4985199600000101
 21
-86.1107308299999943
 31
0.0
  0
LINE
  5
262
  8
SLD-0_3
  6
PHANTOM
 62
     7
 10
-156.1734790499999974
 20
-85.5236207399999842
 30
0.0
 11
-156.2927725000000123
 21
-85.8106171299999971
 31
0.0
  0
LINE
  5
263
  8
SLD-0_3
  6
PHANTOM
 62
     7
 10
-150.1447323799999936
 20
-87.8572370299999932
 30
0.0
 11
-150.0671822099999986
 21
-87.5511486200000064
 31
0.0
  0
LINE
  5
264
  8
SLD-0_3
  6
PHANTOM
 62
     7
 10
-159.8892525200000136
 20
-86.9081843400000054
 30
0.0
 11
-159.9054786199999967
 21
-86.5820900100000159
 31
0.0
  0
LINE
  5
265
  8
SLD-0_3
  6
PHANTOM
 62
     7
 10
-160.1364127299999893
 20
-85.6653819499999969
 30
0.0
 11
-160.2689521300000024
 21
-85.385528149999999
 31
0.0
  0
LINE
  5
266
  8
SLD-0_3
  6
PHANTOM
 62
     7
 10
-164.3006988600000113
 20
-89.9296354199999968
 30
0.0
 11
-164.0035383800000091
 21
-90.028503299999997
 31
0.0
  0
LINE
  5
267
  8
SLD-0_3
  6
PHANTOM
 62
     7
 10
-163.6943253899999888
 20
-90.0986821500000019
 30
0.0
 11
-163.374604330000011
 21
-90.1386147999999991
 31
0.0
  0
LINE
  5
268
  8
SLD-0_3
  6
PHANTOM
 62
     7
 10
-160.4266769300000135
 20
-88.6952412599999889
 30
0.0
 11
-160.2689521300000024
 21
-88.4308405200000038
 31
0.0
  0
LINE
  5
269
  8
SLD-0_3
  6
PHANTOM
 62
     7
 10
-169.7762466000000074
 20
-86.9081843400000054
 30
0.0
 11
-169.7924398099999905
 21
-86.5820900100000159
 31
0.0
  0
LINE
  5
26A
  8
SLD-0_3
  6
PHANTOM
 62
     7
 10
-171.9899280500000032
 20
-83.8338105100000064
 30
0.0
 11
-172.2930494899999871
 21
-83.7490924899999953
 31
0.0
  0
LINE
  5
26B
  8
SLD-0_3
  6
PHANTOM
 62
     7
 10
-170.1552894200000026
 20
-88.4308405200000038
 30
0.0
 11
-170.0229600099999914
 21
-88.1509867200000059
 31
0.0
  0
LINE
  5
26C
  8
SLD-0_3
  6
PHANTOM
 62
     7
 10
-126.7515585200000032
 20
-92.3953292500000032
 30
0.0
 11
-126.7515585200000032
 21
-93.288066950000001
 31
0.0
  0
LINE
  5
26D
  8
SLD-0_3
  6
PHANTOM
 62
     7
 10
-131.1552965699999902
 20
-84.6449138100000056
 30
0.0
 11
-131.3791320100000064
 21
-84.4362152900000069
 31
0.0
  0
LINE
  5
26E
  8
SLD-0_3
  6
PHANTOM
 62
     7
 10
-134.0364485800000125
 20
-83.7176865200000009
 30
0.0
 11
-134.3457505899999944
 21
-83.7878653700000058
 31
0.0
  0
LINE
  5
26F
  8
SLD-0_3
  6
PHANTOM
 62
     7
 10
-134.9267384100000129
 20
-89.8036356700000056
 30
0.0
 11
-134.6430305700000076
 21
-89.9296354199999968
 31
0.0
  0
LINE
  5
270
  8
SLD-0_3
  6
PHANTOM
 62
     7
 10
-130.9519523200000037
 20
-88.9426317700000055
 30
0.0
 11
-130.7706592899999976
 21
-88.6952412599999889
 31
0.0
  0
LINE
  5
271
  8
SLD-0_3
  6
PHANTOM
 62
     7
 10
-146.1420600399999898
 20
-85.2512988199999882
 30
0.0
 11
-146.2873512399999925
 21
-85.5236207399999842
 31
0.0
  0
LINE
  5
272
  8
SLD-0_3
  6
PHANTOM
 62
     7
 10
-146.406691219999999
 20
-88.0057515400000057
 30
0.0
 11
-146.2873512399999925
 21
-88.2927479300000044
 31
0.0
  0
LINE
  5
273
  8
SLD-0_3
  6
PHANTOM
 62
     7
 10
-143.2774844699999903
 20
-90.1467521799999787
 30
0.0
 11
-142.9530558099999951
 21
-90.1225265799999846
 31
0.0
  0
LINE
  5
274
  8
SLD-0_3
  6
PHANTOM
 62
     7
 10
-141.2643720199999962
 20
-89.3801533799999959
 30
0.0
 11
-141.0403735700000141
 21
-89.1714548599999972
 31
0.0
  0
LINE
  5
275
  8
SLD-0_3
  6
PHANTOM
 62
     7
 10
-140.6555693399999996
 20
-88.6952412599999889
 30
0.0
 11
-140.4978637300000059
 21
-88.4308405200000038
 31
0.0
  0
LINE
  5
276
  8
SLD-0_3
  6
PHANTOM
 62
     7
 10
-150.7225322900000037
 20
-84.8737369000000115
 30
0.0
 11
-150.9260891200000003
 21
-84.6449138100000056
 31
0.0
  0
LINE
  5
277
  8
SLD-0_3
  6
PHANTOM
 62
     7
 10
-155.2187929499999939
 20
-84.3398993699999835
 30
0.0
 11
-155.4523115499999903
 21
-84.5379516499999966
 31
0.0
  0
LINE
  5
278
  8
SLD-0_3
  6
PHANTOM
 62
     7
 10
-159.9054786199999967
 20
-86.5820900100000159
 30
0.0
 11
-159.9531187999999986
 21
-86.2652200499999964
 31
0.0
  0
LINE
  5
279
  8
SLD-0_3
  6
PHANTOM
 62
     7
 10
-162.1051389700000129
 20
-83.8338105100000064
 30
0.0
 11
-162.4082886799999983
 21
-83.7490924899999953
 31
0.0
  0
LINE
  5
27A
  8
SLD-0_3
  6
PHANTOM
 62
     7
 10
-162.722609239999997
 20
-83.693842090000004
 30
0.0
 11
-163.0465434500000015
 21
-83.6696164899999957
 31
0.0
  0
LINE
  5
27B
  8
SLD-0_3
  6
PHANTOM
 62
     7
 10
-163.6943253899999888
 20
-83.7176865200000009
 30
0.0
 11
-164.0035383800000091
 21
-83.7878653700000058
 31
0.0
  0
LINE
  5
27C
  8
SLD-0_3
  6
PHANTOM
 62
     7
 10
-164.8526846299999988
 20
-84.1643074299999938
 30
0.0
 11
-165.1044210700000008
 21
-84.3398993699999835
 31
0.0
  0
LINE
  5
27D
  8
SLD-0_3
  6
PHANTOM
 62
     7
 10
-166.364360210000001
 20
-86.7440814499999959
 30
0.0
 11
-166.364360210000001
 21
-87.0722872200000069
 31
0.0
  0
LINE
  5
27E
  8
SLD-0_3
  6
PHANTOM
 62
     7
 10
-165.1044210700000008
 20
-89.4764692999999909
 30
0.0
 11
-164.8526846299999988
 21
-89.6520612399999948
 31
0.0
  0
LINE
  5
27F
  8
SLD-0_3
  6
PHANTOM
 62
     7
 10
-169.9173437800000102
 20
-85.9591316399999954
 30
0.0
 11
-170.0229600099999914
 21
-85.6653819499999969
 31
0.0
  0
LINE
  5
280
  8
SLD-0_3
  6
PHANTOM
 62
     7
 10
-172.9314669700000024
 20
-83.6696164899999957
 30
0.0
 11
-173.2594440999999961
 21
-83.6777538700000036
 31
0.0
  0
LINE
  5
281
  8
SLD-0_3
  6
PHANTOM
 62
     7
 10
-174.4687848099999883
 20
-84.012732999999983
 30
0.0
 11
-174.7372029400000031
 21
-84.1643074299999938
 31
0.0
  0
LINE
  5
282
  8
SLD-0_3
  6
PHANTOM
 62
     7
 10
-176.2493248499999936
 20
-87.0722872200000069
 30
0.0
 11
-176.2172385099999872
 21
-87.3939640100000048
 31
0.0
  0
LINE
  5
283
  8
SLD-0_3
  6
PHANTOM
 62
     7
 10
-172.2930494899999871
 20
-90.0672761799999932
 30
0.0
 11
-171.9899280500000032
 21
-89.9825581599999964
 31
0.0
  0
LINE
  5
284
  8
SLD-0_3
  6
PHANTOM
 62
     7
 10
-170.3127847300000042
 20
-88.6952412599999889
 30
0.0
 11
-170.1552894200000026
 21
-88.4308405200000038
 31
0.0
  0
LINE
  5
285
  8
SLD-0_3
  6
PHANTOM
 62
     7
 10
-170.0229600099999914
 20
-88.1509867200000059
 30
0.0
 11
-169.9173437800000102
 21
-87.8572370299999932
 31
0.0
  0
LINE
  5
286
  8
SLD-0_3
  6
PHANTOM
 62
     7
 10
-169.839987960000002
 20
-87.5511486200000064
 30
0.0
 11
-169.7924398099999905
 21
-87.2342786599999869
 31
0.0
  0
LINE
  5
287
  8
SLD-0_3
  6
PHANTOM
 62
     7
 10
-139.3066324799999904
 20
-81.568984599999979
 30
0.0
 11
-140.2095034200000043
 21
-81.568984599999979
 31
0.0
  0
LINE
  5
288
  8
SLD-0_3
  6
PHANTOM
 62
     7
 10
-169.8654190299999982
 20
-81.568984599999979
 30
0.0
 11
-169.8654190299999982
 21
-80.2881441300000063
 31
0.0
  0
LINE
  5
289
  8
SLD-0_3
  6
PHANTOM
 62
     7
 10
-176.1784223200000099
 20
-81.568984599999979
 30
0.0
 11
-177.0731866799999921
 21
-81.568984599999979
 31
0.0
  0
LINE
  5
28A
  8
SLD-0_3
  6
PHANTOM
 62
     7
 10
-130.7706592899999976
 20
-85.1211274100000139
 30
0.0
 11
-130.9519523200000037
 21
-84.8737369000000115
 31
0.0
  0
LINE
  5
28B
  8
SLD-0_3
  6
PHANTOM
 62
     7
 10
-132.1579855100000032
 20
-83.9464389699999884
 30
0.0
 11
-132.44818570999999
 21
-83.8338105100000064
 31
0.0
  0
LINE
  5
28C
  8
SLD-0_3
  6
PHANTOM
 62
     7
 10
-132.44818570999999
 20
-83.8338105100000064
 30
0.0
 11
-132.751077070000008
 21
-83.7490924899999953
 31
0.0
  0
LINE
  5
28D
  8
SLD-0_3
  6
PHANTOM
 62
     7
 10
-133.0650996100000043
 20
-83.693842090000004
 30
0.0
 11
-133.3886932999999999
 21
-83.6696164899999957
 31
0.0
  0
LINE
  5
28E
  8
SLD-0_3
  6
PHANTOM
 62
     7
 10
-134.6430305700000076
 20
-83.886733250000006
 30
0.0
 11
-134.9267384100000129
 21
-84.012732999999983
 31
0.0
  0
LINE
  5
28F
  8
SLD-0_3
  6
PHANTOM
 62
     7
 10
-136.5217939400000091
 20
-88.0057515400000057
 30
0.0
 11
-136.4024662999999862
 21
-88.2927479300000044
 31
0.0
  0
LINE
  5
290
  8
SLD-0_3
  6
PHANTOM
 62
     7
 10
-130.4804668900000024
 20
-88.1509867200000059
 30
0.0
 11
-130.3746875299999886
 21
-87.8572370299999932
 31
0.0
  0
LINE
  5
291
  8
SLD-0_3
  6
PHANTOM
 62
     7
 10
-143.9240350800000101
 20
-83.7176865200000009
 30
0.0
 11
-144.2326870299999939
 21
-83.7878653700000058
 31
0.0
  0
LINE
  5
292
  8
SLD-0_3
  6
PHANTOM
 62
     7
 10
-146.5612774600000137
 20
-86.422404659999998
 30
0.0
 11
-146.5934037099999898
 21
-86.7440814499999959
 31
0.0
  0
LINE
  5
293
  8
SLD-0_3
  6
PHANTOM
 62
     7
 10
-141.0403735700000141
 20
-89.1714548599999972
 30
0.0
 11
-140.8369226499999911
 21
-88.9426317700000055
 31
0.0
  0
LINE
  5
294
  8
SLD-0_3
  6
PHANTOM
 62
     7
 10
-152.2205849700000044
 20
-83.8338105100000064
 30
0.0
 11
-152.5239163500000075
 21
-83.7490924899999953
 31
0.0
  0
LINE
  5
295
  8
SLD-0_3
  6
PHANTOM
 62
     7
 10
-153.1625425800000073
 20
-83.6696164899999957
 30
0.0
 11
-153.490260979999988
 21
-83.6777538700000036
 31
0.0
  0
LINE
  5
296
  8
SLD-0_3
  6
PHANTOM
 62
     7
 10
-156.4793872299999862
 20
-86.7440814499999959
 30
0.0
 11
-156.4793872299999862
 21
-87.0722872200000069
 31
0.0
  0
LINE
  5
297
  8
SLD-0_3
  6
PHANTOM
 62
     7
 10
-156.1734790499999974
 20
-88.2927479300000044
 30
0.0
 11
-156.0282318799999928
 21
-88.5650698500000146
 31
0.0
  0
LINE
  5
298
  8
SLD-0_3
  6
PHANTOM
 62
     7
 10
-150.0671822099999986
 20
-87.5511486200000064
 30
0.0
 11
-150.0195091399999967
 21
-87.2342786599999869
 31
0.0
  0
LINE
  5
299
  8
SLD-0_3
  6
PHANTOM
 62
     7
 10
-162.722609239999997
 20
-90.1225265799999846
 30
0.0
 11
-162.4082886799999983
 21
-90.0672761799999932
 31
0.0
  0
LINE
  5
29A
  8
SLD-0_3
  6
PHANTOM
 62
     7
 10
-160.8114539999999977
 20
-89.1714548599999972
 30
0.0
 11
-160.6080299399999944
 21
-88.9426317700000055
 31
0.0
  0
LINE
  5
29B
  8
SLD-0_3
  6
PHANTOM
 62
     7
 10
-159.9054786199999967
 20
-87.2342786599999869
 30
0.0
 11
-159.8892525200000136
 21
-86.9081843400000054
 31
0.0
  0
LINE
  5
29C
  8
SLD-0_3
  6
PHANTOM
 62
     7
 10
-169.839987960000002
 20
-86.2652200499999964
 30
0.0
 11
-169.9173437800000102
 21
-85.9591316399999954
 31
0.0
  0
LINE
  5
29D
  8
SLD-0_3
  6
PHANTOM
 62
     7
 10
-175.2224980800000083
 20
-84.5379516499999966
 30
0.0
 11
-175.4362777199999925
 21
-84.7569071100000002
 31
0.0
  0
LINE
  5
29E
  8
SLD-0_3
  6
PHANTOM
 62
     7
 10
-171.1634800100000007
 20
-89.5671701400000018
 30
0.0
 11
-170.9207935899999882
 21
-89.3801533799999959
 31
0.0
  0
LINE
  5
29F
  8
SLD-0_3
  6
PHANTOM
 62
     7
 10
-126.7515585200000032
 20
-81.568984599999979
 30
0.0
 11
-127.6432829000000027
 21
-81.568984599999979
 31
0.0
  0
LINE
  5
2A0
  8
SLD-0_3
  6
PHANTOM
 62
     7
 10
-157.3012251700000093
 20
-81.568984599999979
 30
0.0
 11
-157.3012251700000093
 21
-92.3953292500000032
 31
0.0
  0
LINE
  5
2A1
  8
SLD-0_3
  6
PHANTOM
 62
     7
 10
-136.6763303500000006
 20
-86.422404659999998
 30
0.0
 11
-136.7084389499999872
 21
-86.7440814499999959
 31
0.0
  0
LINE
  5
2A2
  8
SLD-0_3
  6
PHANTOM
 62
     7
 10
-136.7084389499999872
 20
-86.7440814499999959
 30
0.0
 11
-136.7084389499999872
 21
-87.0722872200000069
 31
0.0
  0
LINE
  5
2A3
  8
SLD-0_3
  6
PHANTOM
 62
     7
 10
-135.8948467399999913
 20
-89.0594615600000026
 30
0.0
 11
-135.6809282899999971
 21
-89.2784170200000062
 31
0.0
  0
LINE
  5
2A4
  8
SLD-0_3
  6
PHANTOM
 62
     7
 10
-134.3457505899999944
 20
-90.028503299999997
 30
0.0
 11
-134.0364485800000125
 21
-90.0986821500000019
 31
0.0
  0
LINE
  5
2A5
  8
SLD-0_3
  6
PHANTOM
 62
     7
 10
-141.5073679099999993
 20
-84.249198530000001
 30
0.0
 11
-141.7678111399999921
 21
-84.0854207000000144
 31
0.0
  0
LINE
  5
2A6
  8
SLD-0_3
  6
PHANTOM
 62
     7
 10
-144.8126974200000063
 20
-84.012732999999983
 30
0.0
 11
-145.080935850000003
 21
-84.1643074299999938
 31
0.0
  0
LINE
  5
2A7
  8
SLD-0_3
  6
PHANTOM
 62
     7
 10
-145.5660791299999914
 20
-84.5379516499999966
 30
0.0
 11
-145.7798639799999876
 21
-84.7569071100000002
 31
0.0
  0
LINE
  5
2A8
  8
SLD-0_3
  6
PHANTOM
 62
     7
 10
-146.5934037099999898
 20
-87.0722872200000069
 30
0.0
 11
-146.5612774600000137
 21
-87.3939640100000048
 31
0.0
  0
LINE
  5
2A9
  8
SLD-0_3
  6
PHANTOM
 62
     7
 10
-146.1420600399999898
 20
-88.5650698500000146
 30
0.0
 11
-145.9723776200000032
 21
-88.8211601200000018
 31
0.0
  0
LINE
  5
2AA
  8
SLD-0_3
  6
PHANTOM
 62
     7
 10
-150.0671822099999986
 20
-86.2652200499999964
 30
0.0
 11
-150.1447323799999936
 21
-85.9591316399999954
 31
0.0
  0
LINE
  5
2AB
  8
SLD-0_3
  6
PHANTOM
 62
     7
 10
-151.1501715199999865
 20
-84.4362152900000069
 30
0.0
 11
-151.3932208999999887
 21
-84.249198530000001
 31
0.0
  0
LINE
  5
2AC
  8
SLD-0_3
  6
PHANTOM
 62
     7
 10
-155.4523115499999903
 20
-84.5379516499999966
 30
0.0
 11
-155.6660937999999987
 21
-84.7569071100000002
 31
0.0
  0
LINE
  5
2AD
  8
SLD-0_3
  6
PHANTOM
 62
     7
 10
-160.2689521300000024
 20
-85.385528149999999
 30
0.0
 11
-160.4266769300000135
 21
-85.1211274100000139
 31
0.0
  0
LINE
  5
2AE
  8
SLD-0_3
  6
PHANTOM
 62
     7
 10
-161.5385807399999862
 20
-84.0854207000000144
 30
0.0
 11
-161.814717260000009
 21
-83.9464389699999884
 31
0.0
  0
LINE
  5
2AF
  8
SLD-0_3
  6
PHANTOM
 62
     7
 10
-165.9136207800000022
 20
-88.5650698500000146
 30
0.0
 11
-165.7440716099999918
 21
-88.8211601200000018
 31
0.0
  0
LINE
  5
2B0
  8
SLD-0_3
  6
PHANTOM
 62
     7
 10
-164.584262410000008
 20
-89.8036356700000056
 30
0.0
 11
-164.3006988600000113
 21
-89.9296354199999968
 31
0.0
  0
LINE
  5
2B1
  8
SLD-0_3
  6
PHANTOM
 62
     7
 10
-164.0035383800000091
 20
-90.028503299999997
 30
0.0
 11
-163.6943253899999888
 21
-90.0986821500000019
 31
0.0
  0
LINE
  5
2B2
  8
SLD-0_3
  6
PHANTOM
 62
     7
 10
-159.9531187999999986
 20
-87.5511486200000064
 30
0.0
 11
-159.9054786199999967
 21
-87.2342786599999869
 31
0.0
  0
LINE
  5
2B3
  8
SLD-0_3
  6
PHANTOM
 62
     7
 10
-174.1852511799999945
 20
-89.9296354199999968
 30
0.0
 11
-173.8881507399999862
 21
-90.028503299999997
 31
0.0
  0
LINE
  5
2B4
  8
SLD-0_3
  6
PHANTOM
 62
     7
 10
-178.849542179999986
 20
-81.568984599999979
 30
0.0
 11
-179.752413109999992
 21
-81.568984599999979
 31
0.0
  0
LINE
  5
2B5
  8
SLD-0_3
  6
PHANTOM
 62
     7
 10
-140.2095034200000043
 20
-92.3953292500000032
 30
0.0
 11
-139.3066324799999904
 21
-92.3953292500000032
 31
0.0
  0
LINE
  5
2B6
  8
SLD-0_3
  6
PHANTOM
 62
     7
 10
-169.8654190299999982
 20
-92.3953292500000032
 30
0.0
 11
-168.9645747399999891
 21
-92.3953292500000032
 31
0.0
  0
LINE
  5
2B7
  8
SLD-0_3
  6
PHANTOM
 62
     7
 10
-157.3012251700000093
 20
-92.3953292500000032
 30
0.0
 11
-156.4095007900000098
 21
-92.3953292500000032
 31
0.0
  0
LINE
  5
2B8
  8
SLD-0_3
  6
PHANTOM
 62
     7
 10
-176.1784223200000099
 20
-92.3953292500000032
 30
0.0
 11
-176.1784223200000099
 21
-93.288066950000001
 31
0.0
  0
LINE
  5
2B9
  8
SLD-0_3
  6
PHANTOM
 62
     7
 10
-130.2495625299999915
 20
-86.5820900100000159
 30
0.0
 11
-130.2971994099999904
 21
-86.2652200499999964
 31
0.0
  0
LINE
  5
2BA
  8
SLD-0_3
  6
PHANTOM
 62
     7
 10
-131.3791320100000064
 20
-84.4362152900000069
 30
0.0
 11
-131.6218986599999994
 21
-84.249198530000001
 31
0.0
  0
LINE
  5
2BB
  8
SLD-0_3
  6
PHANTOM
 62
     7
 10
-136.257165829999991
 20
-85.2512988199999882
 30
0.0
 11
-136.4024662999999862
 21
-85.5236207399999842
 31
0.0
  0
LINE
  5
2BC
  8
SLD-0_3
  6
PHANTOM
 62
     7
 10
-136.6135986500000001
 20
-87.7056378399999943
 30
0.0
 11
-136.5217939400000091
 21
-88.0057515400000057
 31
0.0
  0
LINE
  5
2BD
  8
SLD-0_3
  6
PHANTOM
 62
     7
 10
-135.6809282899999971
 20
-89.2784170200000062
 30
0.0
 11
-135.4472373600000026
 21
-89.4764692999999909
 31
0.0
  0
LINE
  5
2BE
  8
SLD-0_3
  6
PHANTOM
 62
     7
 10
-140.1345200999998895
 20
-86.5820900100000159
 30
0.0
 11
-140.1821340099999986
 21
-86.2652200499999964
 31
0.0
  0
LINE
  5
2BF
  8
SLD-0_3
  6
PHANTOM
 62
     7
 10
-143.2774844699999903
 20
-83.6696164899999957
 30
0.0
 11
-143.6050319699999989
 21
-83.6777538700000036
 31
0.0
  0
LINE
  5
2C0
  8
SLD-0_3
  6
PHANTOM
 62
     7
 10
-145.7798639799999876
 20
-84.7569071100000002
 30
0.0
 11
-145.9723776200000032
 21
-84.995208550000001
 31
0.0
  0
LINE
  5
2C1
  8
SLD-0_3
  6
PHANTOM
 62
     7
 10
-140.1821340099999986
 20
-87.5511486200000064
 30
0.0
 11
-140.1345200999998895
 21
-87.2342786599999869
 31
0.0
  0
LINE
  5
2C2
  8
SLD-0_3
  6
PHANTOM
 62
     7
 10
-150.2506010600000081
 20
-85.6653819499999969
 30
0.0
 11
-150.3832296699999915
 21
-85.385528149999999
 31
0.0
  0
LINE
  5
2C3
  8
SLD-0_3
  6
PHANTOM
 62
     7
 10
-151.6536786599999971
 20
-84.0854207000000144
 30
0.0
 11
-151.9299862100000098
 21
-83.9464389699999884
 31
0.0
  0
LINE
  5
2C4
  8
SLD-0_3
  6
PHANTOM
 62
     7
 10
-154.4153624399999956
 20
-83.886733250000006
 30
0.0
 11
-154.698764060000002
 21
-84.012732999999983
 31
0.0
  0
LINE
  5
2C5
  8
SLD-0_3
  6
PHANTOM
 62
     7
 10
-155.6660937999999987
 20
-84.7569071100000002
 30
0.0
 11
-155.8585853600000064
 21
-84.995208550000001
 31
0.0
  0
LINE
  5
2C6
  8
SLD-0_3
  6
PHANTOM
 62
     7
 10
-156.2927725000000123
 20
-88.0057515400000057
 30
0.0
 11
-156.1734790499999974
 21
-88.2927479300000044
 31
0.0
  0
LINE
  5
2C7
  8
SLD-0_3
  6
PHANTOM
 62
     7
 10
-150.7225322900000037
 20
-88.9426317700000055
 30
0.0
 11
-150.5410596099999907
 21
-88.6952412599999889
 31
0.0
  0
LINE
  5
2C8
  8
SLD-0_3
  6
PHANTOM
 62
     7
 10
-162.1051389700000129
 20
-89.9825581599999964
 30
0.0
 11
-161.814717260000009
 21
-89.8699297000000143
 31
0.0
  0
LINE
  5
2C9
  8
SLD-0_3
  6
PHANTOM
 62
     7
 10
-170.6970840799999962
 20
-84.6449138100000056
 30
0.0
 11
-170.9207935899999882
 21
-84.4362152900000069
 31
0.0
  0
LINE
  5
2CA
  8
SLD-0_3
  6
PHANTOM
 62
     7
 10
-129.4196383999999966
 20
-81.568984599999979
 30
0.0
 11
-130.3225093400000105
 21
-81.568984599999979
 31
0.0
  0
LINE
  5
2CB
  8
SLD-0_3
  6
PHANTOM
 62
     7
 10
-136.6355126299999938
 20
-80.2881441300000063
 30
0.0
 11
-136.6355126299999938
 21
-81.568984599999979
 31
0.0
  0
LINE
  5
2CC
  8
SLD-0_3
  6
PHANTOM
 62
     7
 10
-166.2934548899999925
 20
-81.568984599999979
 30
0.0
 11
-167.1882192399999951
 21
-81.568984599999979
 31
0.0
  0
LINE
  5
2CD
  8
SLD-0_3
  6
PHANTOM
 62
     7
 10
-135.6809282899999971
 20
-84.5379516499999966
 30
0.0
 11
-135.8948467399999913
 21
-84.7569071100000002
 31
0.0
  0
LINE
  5
2CE
  8
SLD-0_3
  6
PHANTOM
 62
     7
 10
-136.6135986500000001
 20
-86.1107308299999943
 30
0.0
 11
-136.6763303500000006
 21
-86.422404659999998
 31
0.0
  0
LINE
  5
2CF
  8
SLD-0_3
  6
PHANTOM
 62
     7
 10
-136.257165829999991
 20
-88.5650698500000146
 30
0.0
 11
-136.0874426100000107
 21
-88.8211601200000018
 31
0.0
  0
LINE
  5
2D0
  8
SLD-0_3
  6
PHANTOM
 62
     7
 10
-132.1579855100000032
 20
-89.8699297000000143
 30
0.0
 11
-131.8820364899999902
 21
-89.7309479699999883
 31
0.0
  0
LINE
  5
2D1
  8
SLD-0_3
  6
PHANTOM
 62
     7
 10
-145.080935850000003
 20
-84.1643074299999938
 30
0.0
 11
-145.3325830900000142
 21
-84.3398993699999835
 31
0.0
  0
LINE
  5
2D2
  8
SLD-0_3
  6
PHANTOM
 62
     7
 10
-146.4985199600000101
 20
-86.1107308299999943
 30
0.0
 11
-146.5612774600000137
 21
-86.422404659999998
 31
0.0
  0
LINE
  5
2D3
  8
SLD-0_3
  6
PHANTOM
 62
     7
 10
-153.8095565600000043
 20
-83.7176865200000009
 30
0.0
 11
-154.1184418299999948
 21
-83.7878653700000058
 31
0.0
  0
LINE
  5
2D4
  8
SLD-0_3
  6
PHANTOM
 62
     7
 10
-153.8095565600000043
 20
-90.0986821500000019
 30
0.0
 11
-153.490260979999988
 21
-90.1386147999999991
 31
0.0
  0
LINE
  5
2D5
  8
SLD-0_3
  6
PHANTOM
 62
     7
 10
-150.9260891200000003
 20
-89.1714548599999972
 30
0.0
 11
-150.7225322900000037
 21
-88.9426317700000055
 31
0.0
  0
LINE
  5
2D6
  8
SLD-0_3
  6
PHANTOM
 62
     7
 10
-160.0306158999999866
 20
-85.9591316399999954
 30
0.0
 11
-160.1364127299999893
 21
-85.6653819499999969
 31
0.0
  0
LINE
  5
2D7
  8
SLD-0_3
  6
PHANTOM
 62
     7
 10
-164.0035383800000091
 20
-83.7878653700000058
 30
0.0
 11
-164.3006988600000113
 21
-83.886733250000006
 31
0.0
  0
LINE
  5
2D8
  8
SLD-0_3
  6
PHANTOM
 62
     7
 10
-165.1044210700000008
 20
-84.3398993699999835
 30
0.0
 11
-165.3379273300000136
 21
-84.5379516499999966
 31
0.0
  0
LINE
  5
2D9
  8
SLD-0_3
  6
PHANTOM
 62
     7
 10
-166.2696434099999863
 20
-86.1107308299999943
 30
0.0
 11
-166.3322945900000036
 21
-86.422404659999998
 31
0.0
  0
LINE
  5
2DA
  8
SLD-0_3
  6
PHANTOM
 62
     7
 10
-165.7440716099999918
 20
-88.8211601200000018
 30
0.0
 11
-165.5516589800000133
 21
-89.0594615600000026
 31
0.0
  0
LINE
  5
2DB
  8
SLD-0_3
  6
PHANTOM
 62
     7
 10
-162.4082886799999983
 20
-90.0672761799999932
 30
0.0
 11
-162.1051389700000129
 21
-89.9825581599999964
 31
0.0
  0
LINE
  5
2DC
  8
SLD-0_3
  6
PHANTOM
 62
     7
 10
-160.6080299399999944
 20
-88.9426317700000055
 30
0.0
 11
-160.4266769300000135
 21
-88.6952412599999889
 31
0.0
  0
LINE
  5
2DD
  8
SLD-0_3
  6
PHANTOM
 62
     7
 10
-160.1364127299999893
 20
-88.1509867200000059
 30
0.0
 11
-160.0306158999999866
 21
-87.8572370299999932
 31
0.0
  0
LINE
  5
2DE
  8
SLD-0_3
  6
PHANTOM
 62
     7
 10
-171.6995944900000097
 20
-83.9464389699999884
 30
0.0
 11
-171.9899280500000032
 21
-83.8338105100000064
 31
0.0
  0
LINE
  5
2DF
  8
SLD-0_3
  6
PHANTOM
 62
     7
 10
-173.2594440999999961
 20
-83.6777538700000036
 30
0.0
 11
-173.579032159999997
 21
-83.7176865200000009
 31
0.0
  0
LINE
  5
2E0
  8
SLD-0_3
  6
PHANTOM
 62
     7
 10
-175.4362777199999925
 20
-84.7569071100000002
 30
0.0
 11
-175.6287471999999923
 21
-84.995208550000001
 31
0.0
  0
LINE
  5
2E1
  8
SLD-0_3
  6
PHANTOM
 62
     7
 10
-175.2224980800000083
 20
-89.2784170200000062
 30
0.0
 11
-174.9889569199999926
 21
-89.4764692999999909
 31
0.0
  0
LINE
  5
2E2
  8
SLD-0_3
  6
PHANTOM
 62
     7
 10
-179.752413109999992
 20
-93.288066950000001
 30
0.0
 11
-179.752413109999992
 21
-92.3953292500000032
 31
0.0
  0
LINE
  5
2E3
  8
SLD-0_3
  6
PHANTOM
 62
     7
 10
-179.752413109999992
 20
-92.3953292500000032
 30
0.0
 11
-178.849542179999986
 21
-92.3953292500000032
 31
0.0
  0
LINE
  5
2E4
  8
SLD-0_3
  6
PHANTOM
 62
     7
 10
-127.6432829000000027
 20
-92.3953292500000032
 30
0.0
 11
-126.7515585200000032
 21
-92.3953292500000032
 31
0.0
  0
LINE
  5
2E5
  8
SLD-0_3
  6
PHANTOM
 62
     7
 10
-169.8654190299999982
 20
-93.288066950000001
 30
0.0
 11
-169.8654190299999982
 21
-92.3953292500000032
 31
0.0
  0
LINE
  5
2E6
  8
SLD-0_3
  6
PHANTOM
 62
     7
 10
-146.5225067099999876
 20
-81.568984599999979
 30
0.0
 11
-147.4152444100000139
 21
-81.568984599999979
 31
0.0
  0
LINE
  5
2E7
  8
SLD-0_3
  6
PHANTOM
 62
     7
 10
-146.5225067099999876
 20
-92.3953292500000032
 30
0.0
 11
-146.5225067099999876
 21
-93.288066950000001
 31
0.0
  0
LINE
  5
2E8
  8
SLD-0_3
  6
PHANTOM
 62
     7
 10
-166.2934548899999925
 20
-92.3953292500000032
 30
0.0
 11
-166.2934548899999925
 21
-93.288066950000001
 31
0.0
  0
LINE
  5
2E9
  8
SLD-0_3
  6
PHANTOM
 62
     7
 10
-130.2333369000000118
 20
-86.9081843400000054
 30
0.0
 11
-130.2495625299999915
 21
-86.5820900100000159
 31
0.0
  0
LINE
  5
2EA
  8
SLD-0_3
  6
PHANTOM
 62
     7
 10
-134.3457505899999944
 20
-83.7878653700000058
 30
0.0
 11
-134.6430305700000076
 21
-83.886733250000006
 31
0.0
  0
LINE
  5
2EB
  8
SLD-0_3
  6
PHANTOM
 62
     7
 10
-136.0874426100000107
 20
-88.8211601200000018
 30
0.0
 11
-135.8948467399999913
 21
-89.0594615600000026
 31
0.0
  0
LINE
  5
2EC
  8
SLD-0_3
  6
PHANTOM
 62
     7
 10
-133.716674619999992
 20
-90.1386147999999991
 30
0.0
 11
-133.3886932999999999
 21
-90.1467521799999787
 31
0.0
  0
LINE
  5
2ED
  8
SLD-0_3
  6
PHANTOM
 62
     7
 10
-140.1821340099999986
 20
-86.2652200499999964
 30
0.0
 11
-140.2595959800000003
 21
-85.9591316399999954
 31
0.0
  0
LINE
  5
2EE
  8
SLD-0_3
  6
PHANTOM
 62
     7
 10
-140.3653559200000132
 20
-85.6653819499999969
 30
0.0
 11
-140.4978637300000059
 21
-85.385528149999999
 31
0.0
  0
LINE
  5
2EF
  8
SLD-0_3
  6
PHANTOM
 62
     7
 10
-140.4978637300000059
 20
-85.385528149999999
 30
0.0
 11
-140.6555693399999996
 21
-85.1211274100000139
 31
0.0
  0
LINE
  5
2F0
  8
SLD-0_3
  6
PHANTOM
 62
     7
 10
-141.0403735700000141
 20
-84.6449138100000056
 30
0.0
 11
-141.2643720199999962
 21
-84.4362152900000069
 31
0.0
  0
LINE
  5
2F1
  8
SLD-0_3
  6
PHANTOM
 62
     7
 10
-142.9530558099999951
 20
-83.693842090000004
 30
0.0
 11
-143.2774844699999903
 21
-83.6696164899999957
 31
0.0
  0
LINE
  5
2F2
  8
SLD-0_3
  6
PHANTOM
 62
     7
 10
-145.080935850000003
 20
-89.6520612399999948
 30
0.0
 11
-144.8126974200000063
 21
-89.8036356700000056
 31
0.0
  0
LINE
  5
2F3
  8
SLD-0_3
  6
PHANTOM
 62
     7
 10
-144.5294278099999872
 20
-89.9296354199999968
 30
0.0
 11
-144.2326870299999939
 21
-90.028503299999997
 31
0.0
  0
LINE
  5
2F4
  8
SLD-0_3
  6
PHANTOM
 62
     7
 10
-140.3653559200000132
 20
-88.1509867200000059
 30
0.0
 11
-140.2595959800000003
 21
-87.8572370299999932
 31
0.0
  0
LINE
  5
2F5
  8
SLD-0_3
  6
PHANTOM
 62
     7
 10
-140.1345200999998895
 20
-87.2342786599999869
 30
0.0
 11
-140.1183043300000008
 21
-86.9081843400000054
 31
0.0
  0
LINE
  5
2F6
  8
SLD-0_3
  6
PHANTOM
 62
     7
 10
-152.8384217500000091
 20
-83.693842090000004
 30
0.0
 11
-153.1625425800000073
 21
-83.6696164899999957
 31
0.0
  0
LINE
  5
2F7
  8
SLD-0_3
  6
PHANTOM
 62
     7
 10
-156.0282318799999928
 20
-88.5650698500000146
 30
0.0
 11
-155.8585853600000064
 21
-88.8211601200000018
 31
0.0
  0
LINE
  5
2F8
  8
SLD-0_3
  6
PHANTOM
 62
     7
 10
-153.1625425800000073
 20
-90.1467521799999787
 30
0.0
 11
-152.8384217500000091
 21
-90.1225265799999846
 31
0.0
  0
LINE
  5
2F9
  8
SLD-0_3
  6
PHANTOM
 62
     7
 10
-152.2205849700000044
 20
-89.9825581599999964
 30
0.0
 11
-151.9299862100000098
 21
-89.8699297000000143
 31
0.0
  0
LINE
  5
2FA
  8
SLD-0_3
  6
PHANTOM
 62
     7
 10
-150.5410596099999907
 20
-88.6952412599999889
 30
0.0
 11
-150.3832296699999915
 21
-88.4308405200000038
 31
0.0
  0
LINE
  5
2FB
  8
SLD-0_3
  6
PHANTOM
 62
     7
 10
-160.4266769300000135
 20
-85.1211274100000139
 30
0.0
 11
-160.6080299399999944
 21
-84.8737369000000115
 31
0.0
  0
LINE
  5
2FC
  8
SLD-0_3
  6
PHANTOM
 62
     7
 10
-166.1779511100000093
 20
-85.8106171299999971
 30
0.0
 11
-166.2696434099999863
 21
-86.1107308299999943
 31
0.0
  0
LINE
  5
2FD
  8
SLD-0_3
  6
PHANTOM
 62
     7
 10
-170.9207935899999882
 20
-84.4362152900000069
 30
0.0
 11
-171.1634800100000007
 21
-84.249198530000001
 31
0.0
  0
LINE
  5
2FE
  8
SLD-0_3
  6
PHANTOM
 62
     7
 10
-174.7372029400000031
 20
-84.1643074299999938
 30
0.0
 11
-174.9889569199999926
 21
-84.3398993699999835
 31
0.0
  0
LINE
  5
2FF
  8
SLD-0_3
  6
PHANTOM
 62
     7
 10
-175.9435609600000134
 20
-88.2927479300000044
 30
0.0
 11
-175.7983578399999942
 21
-88.5650698500000146
 31
0.0
  0
LINE
  5
300
  8
SLD-0_3
  6
PHANTOM
 62
     7
 10
-173.2594440999999961
 20
-90.1386147999999991
 30
0.0
 11
-172.9314669700000024
 21
-90.1467521799999787
 31
0.0
  0
LINE
  5
301
  8
SLD-0_3
  6
PHANTOM
 62
     7
 10
-169.9173437800000102
 20
-87.8572370299999932
 30
0.0
 11
-169.839987960000002
 21
-87.5511486200000064
 31
0.0
  0
LINE
  5
302
  8
SLD-0_3
  6
PHANTOM
 62
     7
 10
-150.0964974899999902
 20
-81.568984599999979
 30
0.0
 11
-150.0964974899999902
 21
-80.2881441300000063
 31
0.0
  0
LINE
  5
303
  8
SLD-0_3
  6
PHANTOM
 62
     7
 10
-130.7706592899999976
 20
-88.6952412599999889
 30
0.0
 11
-130.6129774800000121
 21
-88.4308405200000038
 31
0.0
  0
LINE
  5
304
  8
SLD-0_3
  6
PHANTOM
 62
     7
 10
-130.3746875299999886
 20
-87.8572370299999932
 30
0.0
 11
-130.2971994099999904
 21
-87.5511486200000064
 31
0.0
  0
LINE
  5
305
  8
SLD-0_3
  6
PHANTOM
 62
     7
 10
-144.5294278099999872
 20
-83.886733250000006
 30
0.0
 11
-144.8126974200000063
 21
-84.012732999999983
 31
0.0
  0
LINE
  5
306
  8
SLD-0_3
  6
PHANTOM
 62
     7
 10
-152.5239163500000075
 20
-83.7490924899999953
 30
0.0
 11
-152.8384217500000091
 21
-83.693842090000004
 31
0.0
  0
LINE
  5
307
  8
SLD-0_3
  6
PHANTOM
 62
     7
 10
-156.4472809300000051
 20
-87.3939640100000048
 30
0.0
 11
-156.3845579100000123
 21
-87.7056378399999943
 31
0.0
  0
LINE
  5
308
  8
SLD-0_3
  6
PHANTOM
 62
     7
 10
-166.0587620899999877
 20
-88.2927479300000044
 30
0.0
 11
-165.9136207800000022
 21
-88.5650698500000146
 31
0.0
  0
LINE
  5
309
  8
SLD-0_3
  6
PHANTOM
 62
     7
 10
-160.0306158999999866
 20
-87.8572370299999932
 30
0.0
 11
-159.9531187999999986
 21
-87.5511486200000064
 31
0.0
  0
LINE
  5
30A
  8
SLD-0_3
  6
PHANTOM
 62
     7
 10
-173.8881507399999862
 20
-83.7878653700000058
 30
0.0
 11
-174.1852511799999945
 21
-83.886733250000006
 31
0.0
  0
LINE
  5
30B
  8
SLD-0_3
  6
PHANTOM
 62
     7
 10
-176.2172385099999872
 20
-87.3939640100000048
 30
0.0
 11
-176.1545499599999971
 21
-87.7056378399999943
 31
0.0
  0
LINE
  5
30C
  8
SLD-0_3
  6
PHANTOM
 62
     7
 10
-175.6287471999999923
 20
-88.8211601200000018
 30
0.0
 11
-175.4362777199999925
 21
-89.0594615600000026
 31
0.0
  0
LINE
  5
30D
  8
SLD-0_3
  6
PHANTOM
 62
     7
 10
-170.9207935899999882
 20
-89.3801533799999959
 30
0.0
 11
-170.6970840799999962
 21
-89.1714548599999972
 31
0.0
  0
LINE
  5
30E
  8
SLD-0_3
  6
PHANTOM
 62
     7
 10
-178.849542179999986
 20
-92.3953292500000032
 30
0.0
 11
-178.849542179999986
 21
-81.568984599999979
 31
0.0
  0
LINE
  5
30F
  8
SLD-0_3
  6
PHANTOM
 62
     7
 10
-179.752413109999992
 20
-81.568984599999979
 30
0.0
 11
-179.752413109999992
 21
-80.2881441300000063
 31
0.0
  0
LINE
  5
310
  8
SLD-0_3
  6
PHANTOM
 62
     7
 10
-130.3225093400000105
 20
-81.568984599999979
 30
0.0
 11
-130.3225093400000105
 21
-80.2881441300000063
 31
0.0
  0
LINE
  5
311
  8
SLD-0_3
  6
PHANTOM
 62
     7
 10
-149.1915999100000079
 20
-92.3953292500000032
 30
0.0
 11
-149.1915999100000079
 21
-81.568984599999979
 31
0.0
  0
LINE
  5
312
  8
SLD-0_3
  6
PHANTOM
 62
     7
 10
-159.0775806700000032
 20
-81.568984599999979
 30
0.0
 11
-159.9804516000000092
 21
-81.568984599999979
 31
0.0
  0
LINE
  5
313
  8
SLD-0_3
  6
PHANTOM
 62
     7
 10
-168.9645747399999891
 20
-92.3953292500000032
 30
0.0
 11
-168.9645747399999891
 21
-81.568984599999979
 31
0.0
  0
LINE
  5
314
  8
SLD-0_3
  6
PHANTOM
 62
     7
 10
-156.4095007900000098
 20
-80.2881441300000063
 30
0.0
 11
-156.4095007900000098
 21
-81.568984599999979
 31
0.0
  0
LINE
  5
315
  8
SLD-0_3
  6
PHANTOM
 62
     7
 10
-133.3886932999999999
 20
-83.6696164899999957
 30
0.0
 11
-133.716674619999992
 21
-83.6777538700000036
 31
0.0
  0
LINE
  5
316
  8
SLD-0_3
  6
PHANTOM
 62
     7
 10
-135.4472373600000026
 20
-84.3398993699999835
 30
0.0
 11
-135.6809282899999971
 21
-84.5379516499999966
 31
0.0
  0
LINE
  5
317
  8
SLD-0_3
  6
PHANTOM
 62
     7
 10
-136.4024662999999862
 20
-85.5236207399999842
 30
0.0
 11
-136.5217939400000091
 21
-85.8106171299999971
 31
0.0
  0
LINE
  5
318
  8
SLD-0_3
  6
PHANTOM
 62
     7
 10
-136.5217939400000091
 20
-85.8106171299999971
 30
0.0
 11
-136.6135986500000001
 21
-86.1107308299999943
 31
0.0
  0
LINE
  5
319
  8
SLD-0_3
  6
PHANTOM
 62
     7
 10
-131.8820364899999902
 20
-89.7309479699999883
 30
0.0
 11
-131.6218986599999994
 21
-89.5671701400000018
 31
0.0
  0
LINE
  5
31A
  8
SLD-0_3
  6
PHANTOM
 62
     7
 10
-130.2971994099999904
 20
-87.5511486200000064
 30
0.0
 11
-130.2495625299999915
 21
-87.2342786599999869
 31
0.0
  0
LINE
  5
31B
  8
SLD-0_3
  6
PHANTOM
 62
     7
 10
-141.7678111399999921
 20
-84.0854207000000144
 30
0.0
 11
-142.0441516399999955
 21
-83.9464389699999884
 31
0.0
  0
LINE
  5
31C
  8
SLD-0_3
  6
PHANTOM
 62
     7
 10
-142.6383240600000022
 20
-90.0672761799999932
 30
0.0
 11
-142.3348393100000067
 21
-89.9825581599999964
 31
0.0
  0
LINE
  5
31D
  8
SLD-0_3
  6
PHANTOM
 62
     7
 10
-142.3348393100000067
 20
-89.9825581599999964
 30
0.0
 11
-142.0441516399999955
 21
-89.8699297000000143
 31
0.0
  0
LINE
  5
31E
  8
SLD-0_3
  6
PHANTOM
 62
     7
 10
-140.8369226499999911
 20
-88.9426317700000055
 30
0.0
 11
-140.6555693399999996
 21
-88.6952412599999889
 31
0.0
  0
LINE
  5
31F
  8
SLD-0_3
  6
PHANTOM
 62
     7
 10
-150.0032717599999899
 20
-86.9081843400000054
 30
0.0
 11
-150.0195091399999967
 21
-86.5820900100000159
 31
0.0
  0
LINE
  5
320
  8
SLD-0_3
  6
PHANTOM
 62
     7
 10
-150.9260891200000003
 20
-84.6449138100000056
 30
0.0
 11
-151.1501715199999865
 21
-84.4362152900000069
 31
0.0
  0
LINE
  5
321
  8
SLD-0_3
  6
PHANTOM
 62
     7
 10
-151.3932208999999887
 20
-84.249198530000001
 30
0.0
 11
-151.6536786599999971
 21
-84.0854207000000144
 31
0.0
  0
LINE
  5
322
  8
SLD-0_3
  6
PHANTOM
 62
     7
 10
-151.9299862100000098
 20
-83.9464389699999884
 30
0.0
 11
-152.2205849700000044
 21
-83.8338105100000064
 31
0.0
  0
LINE
  5
323
  8
SLD-0_3
  6
PHANTOM
 62
     7
 10
-156.2927725000000123
 20
-85.8106171299999971
 30
0.0
 11
-156.3845579100000123
 21
-86.1107308299999943
 31
0.0
  0
LINE
  5
324
  8
SLD-0_3
  6
PHANTOM
 62
     7
 10
-155.4523115499999903
 20
-89.2784170200000062
 30
0.0
 11
-155.2187929499999939
 21
-89.4764692999999909
 31
0.0
  0
LINE
  5
325
  8
SLD-0_3
  6
PHANTOM
 62
     7
 10
-153.490260979999988
 20
-90.1386147999999991
 30
0.0
 11
-153.1625425800000073
 21
-90.1467521799999787
 31
0.0
  0
LINE
  5
326
  8
SLD-0_3
  6
PHANTOM
 62
     7
 10
-151.1501715199999865
 20
-89.3801533799999959
 30
0.0
 11
-150.9260891200000003
 21
-89.1714548599999972
 31
0.0
  0
LINE
  5
327
  8
SLD-0_3
  6
PHANTOM
 62
     7
 10
-161.2782865700000059
 20
-84.249198530000001
 30
0.0
 11
-161.5385807399999862
 21
-84.0854207000000144
 31
0.0
  0
LINE
  5
328
  8
SLD-0_3
  6
PHANTOM
 62
     7
 10
-165.7440716099999918
 20
-84.995208550000001
 30
0.0
 11
-165.9136207800000022
 21
-85.2512988199999882
 31
0.0
  0
LINE
  5
329
  8
SLD-0_3
  6
PHANTOM
 62
     7
 10
-166.0587620899999877
 20
-85.5236207399999842
 30
0.0
 11
-166.1779511100000093
 21
-85.8106171299999971
 31
0.0
  0
LINE
  5
32A
  8
SLD-0_3
  6
PHANTOM
 62
     7
 10
-166.3322945900000036
 20
-87.3939640100000048
 30
0.0
 11
-166.2696434099999863
 21
-87.7056378399999943
 31
0.0
  0
LINE
  5
32B
  8
SLD-0_3
  6
PHANTOM
 62
     7
 10
-169.7924398099999905
 20
-86.5820900100000159
 30
0.0
 11
-169.839987960000002
 21
-86.2652200499999964
 31
0.0
  0
LINE
  5
32C
  8
SLD-0_3
  6
PHANTOM
 62
     7
 10
-174.4687848099999883
 20
-89.8036356700000056
 30
0.0
 11
-174.1852511799999945
 21
-89.9296354199999968
 31
0.0
  0
LINE
  5
32D
  8
SLD-0_3
  6
PHANTOM
 62
     7
 10
-172.9314669700000024
 20
-90.1467521799999787
 30
0.0
 11
-172.6074115499999948
 21
-90.1225265799999846
 31
0.0
  0
LINE
  5
32E
  8
SLD-0_3
  6
PHANTOM
 62
     7
 10
-126.7515585200000032
 20
-93.288066950000001
 30
0.0
 11
-179.752413109999992
 21
-93.288066950000001
 31
0.0
  0
LINE
  5
32F
  8
SLD-0_3
  6
PHANTOM
 62
     7
 10
-140.2095034200000043
 20
-81.568984599999979
 30
0.0
 11
-140.2095034200000043
 21
-80.2881441300000063
 31
0.0
  0
LINE
  5
330
  8
SLD-0_3
  6
PHANTOM
 62
     7
 10
-136.6355126299999938
 20
-81.568984599999979
 30
0.0
 11
-137.5302769799999965
 21
-81.568984599999979
 31
0.0
  0
LINE
  5
331
  8
SLD-0_3
  6
PHANTOM
 62
     7
 10
-147.4152444100000139
 20
-81.568984599999979
 30
0.0
 11
-147.4152444100000139
 21
-92.3953292500000032
 31
0.0
  0
LINE
  5
332
  8
SLD-0_3
  6
PHANTOM
 62
     7
 10
-177.0731866799999921
 20
-92.3953292500000032
 30
0.0
 11
-176.1784223200000099
 21
-92.3953292500000032
 31
0.0
  0
LINE
  5
333
  8
SLD-0_3
  6
PHANTOM
 62
     7
 10
-136.6763303500000006
 20
-87.3939640100000048
 30
0.0
 11
-136.6135986500000001
 21
-87.7056378399999943
 31
0.0
  0
LINE
  5
334
  8
SLD-0_3
  6
PHANTOM
 62
     7
 10
-134.0364485800000125
 20
-90.0986821500000019
 30
0.0
 11
-133.716674619999992
 21
-90.1386147999999991
 31
0.0
  0
LINE
  5
335
  8
SLD-0_3
  6
PHANTOM
 62
     7
 10
-133.3886932999999999
 20
-90.1467521799999787
 30
0.0
 11
-133.0650996100000043
 21
-90.1225265799999846
 31
0.0
  0
LINE
  5
336
  8
SLD-0_3
  6
PHANTOM
 62
     7
 10
-142.6383240600000022
 20
-83.7490924899999953
 30
0.0
 11
-142.9530558099999951
 21
-83.693842090000004
 31
0.0
  0
LINE
  5
337
  8
SLD-0_3
  6
PHANTOM
 62
     7
 10
-145.3325830900000142
 20
-84.3398993699999835
 30
0.0
 11
-145.5660791299999914
 21
-84.5379516499999966
 31
0.0
  0
LINE
  5
338
  8
SLD-0_3
  6
PHANTOM
 62
     7
 10
-143.6050319699999989
 20
-90.1386147999999991
 30
0.0
 11
-143.2774844699999903
 21
-90.1467521799999787
 31
0.0
  0
LINE
  5
339
  8
SLD-0_3
  6
PHANTOM
 62
     7
 10
-154.698764060000002
 20
-84.012732999999983
 30
0.0
 11
-154.9670923399999936
 21
-84.1643074299999938
 31
0.0
  0
LINE
  5
33A
  8
SLD-0_3
  6
PHANTOM
 62
     7
 10
-150.0195091399999967
 20
-87.2342786599999869
 30
0.0
 11
-150.0032717599999899
 21
-86.9081843400000054
 31
0.0
  0
LINE
  5
33B
  8
SLD-0_3
  6
PHANTOM
 62
     7
 10
-163.0465434500000015
 20
-83.6696164899999957
 30
0.0
 11
-163.374604330000011
 21
-83.6777538700000036
 31
0.0
  0
LINE
  5
33C
  8
SLD-0_3
  6
PHANTOM
 62
     7
 10
-165.5516589800000133
 20
-84.7569071100000002
 30
0.0
 11
-165.7440716099999918
 21
-84.995208550000001
 31
0.0
  0
LINE
  5
33D
  8
SLD-0_3
  6
PHANTOM
 62
     7
 10
-166.3322945900000036
 20
-86.422404659999998
 30
0.0
 11
-166.364360210000001
 21
-86.7440814499999959
 31
0.0
  0
LINE
  5
33E
  8
SLD-0_3
  6
PHANTOM
 62
     7
 10
-165.5516589800000133
 20
-89.0594615600000026
 30
0.0
 11
-165.3379273300000136
 21
-89.2784170200000062
 31
0.0
  0
LINE
  5
33F
  8
SLD-0_3
  6
PHANTOM
 62
     7
 10
-170.0229600099999914
 20
-85.6653819499999969
 30
0.0
 11
-170.1552894200000026
 21
-85.385528149999999
 31
0.0
  0
LINE
  5
340
  8
SLD-0_3
  6
PHANTOM
 62
     7
 10
-174.9889569199999926
 20
-84.3398993699999835
 30
0.0
 11
-175.2224980800000083
 21
-84.5379516499999966
 31
0.0
  0
LINE
  5
341
  8
SLD-0_3
  6
PHANTOM
 62
     7
 10
-175.7983578399999942
 20
-85.2512988199999882
 30
0.0
 11
-175.9435609600000134
 21
-85.5236207399999842
 31
0.0
  0
LINE
  5
342
  8
SLD-0_3
  6
PHANTOM
 62
     7
 10
-176.0628078899999878
 20
-88.0057515400000057
 30
0.0
 11
-175.9435609600000134
 21
-88.2927479300000044
 31
0.0
  0
LINE
  5
343
  8
SLD-0_3
  6
PHANTOM
 62
     7
 10
-175.4362777199999925
 20
-89.0594615600000026
 30
0.0
 11
-175.2224980800000083
 21
-89.2784170200000062
 31
0.0
  0
LINE
  5
344
  8
SLD-0_3
  6
PHANTOM
 62
     7
 10
-150.0964974899999902
 20
-93.288066950000001
 30
0.0
 11
-150.0964974899999902
 21
-92.3953292500000032
 31
0.0
  0
LINE
  5
345
  8
SLD-0_3
  6
PHANTOM
 62
     7
 10
-137.5302769799999965
 20
-92.3953292500000032
 30
0.0
 11
-136.6355126299999938
 21
-92.3953292500000032
 31
0.0
  0
LINE
  5
346
  8
SLD-0_3
  6
PHANTOM
 62
     7
 10
-156.4095007900000098
 20
-92.3953292500000032
 30
0.0
 11
-156.4095007900000098
 21
-93.288066950000001
 31
0.0
  0
LINE
  5
347
  8
SLD-0_3
  6
PHANTOM
 62
     7
 10
-177.0731866799999921
 20
-81.568984599999979
 30
0.0
 11
-177.0731866799999921
 21
-92.3953292500000032
 31
0.0
  0
LINE
  5
348
  8
SLD-0_3
  6
PHANTOM
 62
     7
 10
-130.2971994099999904
 20
-86.2652200499999964
 30
0.0
 11
-130.3746875299999886
 21
-85.9591316399999954
 31
0.0
  0
LINE
  5
349
  8
SLD-0_3
  6
PHANTOM
 62
     7
 10
-134.9267384100000129
 20
-84.012732999999983
 30
0.0
 11
-135.1953240400000027
 21
-84.1643074299999938
 31
0.0
  0
LINE
  5
34A
  8
SLD-0_3
  6
PHANTOM
 62
     7
 10
-136.7084389499999872
 20
-87.0722872200000069
 30
0.0
 11
-136.6763303500000006
 21
-87.3939640100000048
 31
0.0
  0
LINE
  5
34B
  8
SLD-0_3
  6
PHANTOM
 62
     7
 10
-131.6218986599999994
 20
-89.5671701400000018
 30
0.0
 11
-131.3791320100000064
 21
-89.3801533799999959
 31
0.0
  0
LINE
  5
34C
  8
SLD-0_3
  6
PHANTOM
 62
     7
 10
-145.9723776200000032
 20
-84.995208550000001
 30
0.0
 11
-146.1420600399999898
 21
-85.2512988199999882
 31
0.0
  0
LINE
  5
34D
  8
SLD-0_3
  6
PHANTOM
 62
     7
 10
-153.490260979999988
 20
-83.6777538700000036
 30
0.0
 11
-153.8095565600000043
 21
-83.7176865200000009
 31
0.0
  0
LINE
  5
34E
  8
SLD-0_3
  6
PHANTOM
 62
     7
 10
-160.8114539999999977
 20
-84.6449138100000056
 30
0.0
 11
-161.0353919400000109
 21
-84.4362152900000069
 31
0.0
  0
LINE
  5
34F
  8
SLD-0_3
  6
PHANTOM
 62
     7
 10
-161.0353919400000109
 20
-89.3801533799999959
 30
0.0
 11
-160.8114539999999977
 21
-89.1714548599999972
 31
0.0
  0
LINE
  5
350
  8
SLD-0_3
  6
PHANTOM
 62
     7
 10
-171.4235960599999942
 20
-84.0854207000000144
 30
0.0
 11
-171.6995944900000097
 21
-83.9464389699999884
 31
0.0
  0
LINE
  5
351
  8
SLD-0_3
  6
PHANTOM
 62
     7
 10
-175.9435609600000134
 20
-85.5236207399999842
 30
0.0
 11
-176.0628078899999878
 21
-85.8106171299999971
 31
0.0
  0
LINE
  5
352
  8
SLD-0_3
  6
PHANTOM
 62
     7
 10
-176.2493248499999936
 20
-86.7440814499999959
 30
0.0
 11
-176.2493248499999936
 21
-87.0722872200000069
 31
0.0
  0
LINE
  5
353
  8
SLD-0_3
  6
PHANTOM
 62
     7
 10
-173.8881507399999862
 20
-90.028503299999997
 30
0.0
 11
-173.579032159999997
 21
-90.0986821500000019
 31
0.0
  0
LINE
  5
354
  8
SLD-0_3
  6
PHANTOM
 62
     7
 10
-171.9899280500000032
 20
-89.9825581599999964
 30
0.0
 11
-171.6995944900000097
 21
-89.8699297000000143
 31
0.0
  0
LINE
  5
355
  8
SLD-0_3
  6
PHANTOM
 62
     7
 10
-137.5302769799999965
 20
-81.568984599999979
 30
0.0
 11
-137.5302769799999965
 21
-92.3953292500000032
 31
0.0
  0
LINE
  5
356
  8
SLD-0_3
  6
PHANTOM
 62
     7
 10
-167.1882192399999951
 20
-81.568984599999979
 30
0.0
 11
-167.1882192399999951
 21
-92.3953292500000032
 31
0.0
  0
LINE
  5
357
  8
SLD-0_3
  6
PHANTOM
 62
     7
 10
-130.4804668900000024
 20
-85.6653819499999969
 30
0.0
 11
-130.6129774800000121
 21
-85.385528149999999
 31
0.0
  0
LINE
  5
358
  8
SLD-0_3
  6
PHANTOM
 62
     7
 10
-135.8948467399999913
 20
-84.7569071100000002
 30
0.0
 11
-136.0874426100000107
 21
-84.995208550000001
 31
0.0
  0
LINE
  5
359
  8
SLD-0_3
  6
PHANTOM
 62
     7
 10
-131.1552965699999902
 20
-89.1714548599999972
 30
0.0
 11
-130.9519523200000037
 21
-88.9426317700000055
 31
0.0
  0
LINE
  5
35A
  8
SLD-0_3
  6
PHANTOM
 62
     7
 10
-140.6555693399999996
 20
-85.1211274100000139
 30
0.0
 11
-140.8369226499999911
 21
-84.8737369000000115
 31
0.0
  0
LINE
  5
35B
  8
SLD-0_3
  6
PHANTOM
 62
     7
 10
-143.6050319699999989
 20
-83.6777538700000036
 30
0.0
 11
-143.9240350800000101
 21
-83.7176865200000009
 31
0.0
  0
LINE
  5
35C
  8
SLD-0_3
  6
PHANTOM
 62
     7
 10
-146.4985199600000101
 20
-87.7056378399999943
 30
0.0
 11
-146.406691219999999
 21
-88.0057515400000057
 31
0.0
  0
LINE
  5
35D
  8
SLD-0_3
  6
PHANTOM
 62
     7
 10
-145.5660791299999914
 20
-89.2784170200000062
 30
0.0
 11
-145.3325830900000142
 21
-89.4764692999999909
 31
0.0
  0
LINE
  5
35E
  8
SLD-0_3
  6
PHANTOM
 62
     7
 10
-141.7678111399999921
 20
-89.7309479699999883
 30
0.0
 11
-141.5073679099999993
 21
-89.5671701400000018
 31
0.0
  0
LINE
  5
35F
  8
SLD-0_3
  6
PHANTOM
 62
     7
 10
-140.2595959800000003
 20
-87.8572370299999932
 30
0.0
 11
-140.1821340099999986
 21
-87.5511486200000064
 31
0.0
  0
LINE
  5
360
  8
SLD-0_3
  6
PHANTOM
 62
     7
 10
-154.1184418299999948
 20
-83.7878653700000058
 30
0.0
 11
-154.4153624399999956
 21
-83.886733250000006
 31
0.0
  0
LINE
  5
361
  8
SLD-0_3
  6
PHANTOM
 62
     7
 10
-155.8585853600000064
 20
-88.8211601200000018
 30
0.0
 11
-155.6660937999999987
 21
-89.0594615600000026
 31
0.0
  0
LINE
  5
362
  8
SLD-0_3
  6
PHANTOM
 62
     7
 10
-154.9670923399999936
 20
-89.6520612399999948
 30
0.0
 11
-154.698764060000002
 21
-89.8036356700000056
 31
0.0
  0
LINE
  5
363
  8
SLD-0_3
  6
PHANTOM
 62
     7
 10
-151.9299862100000098
 20
-89.8699297000000143
 30
0.0
 11
-151.6536786599999971
 21
-89.7309479699999883
 31
0.0
  0
LINE
  5
364
  8
SLD-0_3
  6
PHANTOM
 62
     7
 10
-151.6536786599999971
 20
-89.7309479699999883
 30
0.0
 11
-151.3932208999999887
 21
-89.5671701400000018
 31
0.0
  0
LINE
  5
365
  8
SLD-0_3
  6
PHANTOM
 62
     7
 10
-150.3832296699999915
 20
-88.4308405200000038
 30
0.0
 11
-150.2506010600000081
 21
-88.1509867200000059
 31
0.0
  0
LINE
  5
366
  8
SLD-0_3
  6
PHANTOM
 62
     7
 10
-164.3006988600000113
 20
-83.886733250000006
 30
0.0
 11
-164.584262410000008
 21
-84.012732999999983
 31
0.0
  0
LINE
  5
367
  8
SLD-0_3
  6
PHANTOM
 62
     7
 10
-161.814717260000009
 20
-89.8699297000000143
 30
0.0
 11
-161.5385807399999862
 21
-89.7309479699999883
 31
0.0
  0
LINE
  5
368
  8
SLD-0_3
  6
PHANTOM
 62
     7
 10
-160.2689521300000024
 20
-88.4308405200000038
 30
0.0
 11
-160.1364127299999893
 21
-88.1509867200000059
 31
0.0
  0
LINE
  5
369
  8
SLD-0_3
  6
PHANTOM
 62
     7
 10
-172.2930494899999871
 20
-83.7490924899999953
 30
0.0
 11
-172.6074115499999948
 21
-83.693842090000004
 31
0.0
  0
LINE
  5
36A
  8
SLD-0_3
  6
PHANTOM
 62
     7
 10
-174.1852511799999945
 20
-83.886733250000006
 30
0.0
 11
-174.4687848099999883
 21
-84.012732999999983
 31
0.0
  0
LINE
  5
36B
  8
SLD-0_3
  6
PHANTOM
 62
     7
 10
-176.0628078899999878
 20
-85.8106171299999971
 30
0.0
 11
-176.1545499599999971
 21
-86.1107308299999943
 31
0.0
  0
LINE
  5
36C
  8
SLD-0_3
  6
PHANTOM
 62
     7
 10
-176.1545499599999971
 20
-86.1107308299999943
 30
0.0
 11
-176.2172385099999872
 21
-86.422404659999998
 31
0.0
  0
LINE
  5
36D
  8
SLD-0_3
  6
PHANTOM
 62
     7
 10
-170.6970840799999962
 20
-89.1714548599999972
 30
0.0
 11
-170.4938986999999884
 21
-88.9426317700000055
 31
0.0
  0
LINE
  5
36E
  8
SLD-0_3
  6
PHANTOM
 62
     7
 10
-170.4938986999999884
 20
-88.9426317700000055
 30
0.0
 11
-170.3127847300000042
 21
-88.6952412599999889
 31
0.0
  0
LINE
  5
36F
  8
SLD-0_3
  6
PHANTOM
 62
     7
 10
-139.3066324799999904
 20
-92.3953292500000032
 30
0.0
 11
-139.3066324799999904
 21
-81.568984599999979
 31
0.0
  0
LINE
  5
370
  8
SLD-0_3
  6
PHANTOM
 62
     7
 10
-149.1915999100000079
 20
-81.568984599999979
 30
0.0
 11
-150.0964974899999902
 21
-81.568984599999979
 31
0.0
  0
LINE
  5
371
  8
SLD-0_3
  6
PHANTOM
 62
     7
 10
-159.9804516000000092
 20
-92.3953292500000032
 30
0.0
 11
-159.0775806700000032
 21
-92.3953292500000032
 31
0.0
  0
LINE
  5
372
  8
SLD-0_3
  6
PHANTOM
 62
     7
 10
-136.6355126299999938
 20
-92.3953292500000032
 30
0.0
 11
-136.6355126299999938
 21
-93.288066950000001
 31
0.0
  0
LINE
  5
373
  8
SLD-0_3
  6
PHANTOM
 62
     7
 10
-133.0650996100000043
 20
-90.1225265799999846
 30
0.0
 11
-132.751077070000008
 21
-90.0672761799999932
 31
0.0
  0
LINE
  5
374
  8
SLD-0_3
  6
PHANTOM
 62
     7
 10
-132.44818570999999
 20
-89.9825581599999964
 30
0.0
 11
-132.1579855100000032
 21
-89.8699297000000143
 31
0.0
  0
LINE
  5
375
  8
SLD-0_3
  6
PHANTOM
 62
     7
 10
-130.6129774800000121
 20
-88.4308405200000038
 30
0.0
 11
-130.4804668900000024
 21
-88.1509867200000059
 31
0.0
  0
LINE
  5
376
  8
SLD-0_3
  6
PHANTOM
 62
     7
 10
-144.2326870299999939
 20
-83.7878653700000058
 30
0.0
 11
-144.5294278099999872
 21
-83.886733250000006
 31
0.0
  0
LINE
  5
377
  8
SLD-0_3
  6
PHANTOM
 62
     7
 10
-145.9723776200000032
 20
-88.8211601200000018
 30
0.0
 11
-145.7798639799999876
 21
-89.0594615600000026
 31
0.0
  0
LINE
  5
378
  8
SLD-0_3
  6
PHANTOM
 62
     7
 10
-145.3325830900000142
 20
-89.4764692999999909
 30
0.0
 11
-145.080935850000003
 21
-89.6520612399999948
 31
0.0
  0
LINE
  5
379
  8
SLD-0_3
  6
PHANTOM
 62
     7
 10
-142.0441516399999955
 20
-89.8699297000000143
 30
0.0
 11
-141.7678111399999921
 21
-89.7309479699999883
 31
0.0
  0
LINE
  5
37A
  8
SLD-0_3
  6
PHANTOM
 62
     7
 10
-150.0195091399999967
 20
-86.5820900100000159
 30
0.0
 11
-150.0671822099999986
 21
-86.2652200499999964
 31
0.0
  0
LINE
  5
37B
  8
SLD-0_3
  6
PHANTOM
 62
     7
 10
-150.3832296699999915
 20
-85.385528149999999
 30
0.0
 11
-150.5410596099999907
 21
-85.1211274100000139
 31
0.0
  0
LINE
  5
37C
  8
SLD-0_3
  6
PHANTOM
 62
     7
 10
-155.2187929499999939
 20
-89.4764692999999909
 30
0.0
 11
-154.9670923399999936
 21
-89.6520612399999948
 31
0.0
  0
LINE
  5
37D
  8
SLD-0_3
  6
PHANTOM
 62
     7
 10
-162.4082886799999983
 20
-83.7490924899999953
 30
0.0
 11
-162.722609239999997
 21
-83.693842090000004
 31
0.0
  0
LINE
  5
37E
  8
SLD-0_3
  6
PHANTOM
 62
     7
 10
-166.364360210000001
 20
-87.0722872200000069
 30
0.0
 11
-166.3322945900000036
 21
-87.3939640100000048
 31
0.0
  0
LINE
  5
37F
  8
SLD-0_3
  6
PHANTOM
 62
     7
 10
-170.3127847300000042
 20
-85.1211274100000139
 30
0.0
 11
-170.4938986999999884
 21
-84.8737369000000115
 31
0.0
  0
LINE
  5
380
  8
SLD-0_3
  6
PHANTOM
 62
     7
 10
-170.4938986999999884
 20
-84.8737369000000115
 30
0.0
 11
-170.6970840799999962
 21
-84.6449138100000056
 31
0.0
  0
LINE
  5
381
  8
SLD-0_3
  6
PHANTOM
 62
     7
 10
-171.1634800100000007
 20
-84.249198530000001
 30
0.0
 11
-171.4235960599999942
 21
-84.0854207000000144
 31
0.0
  0
LINE
  5
382
  8
SLD-0_3
  6
PHANTOM
 62
     7
 10
-175.7983578399999942
 20
-88.5650698500000146
 30
0.0
 11
-175.6287471999999923
 21
-88.8211601200000018
 31
0.0
  0
LINE
  5
383
  8
SLD-0_3
  6
PHANTOM
 62
     7
 10
-174.7372029400000031
 20
-89.6520612399999948
 30
0.0
 11
-174.4687848099999883
 21
-89.8036356700000056
 31
0.0
  0
LINE
  5
384
  8
SLD-0_3
  6
PHANTOM
 62
     7
 10
-169.7924398099999905
 20
-87.2342786599999869
 30
0.0
 11
-169.7762466000000074
 21
-86.9081843400000054
 31
0.0
  0
LINE
  5
385
  8
SLD-0_3
  6
PHANTOM
 62
     7
 10
-179.752413109999992
 20
-80.2881441300000063
 30
0.0
 11
-126.7515585200000032
 21
-80.2881441300000063
 31
0.0
  0
LINE
  5
386
  8
SLD-0_3
  6
PHANTOM
 62
     7
 10
-176.1784223200000099
 20
-80.2881441300000063
 30
0.0
 11
-176.1784223200000099
 21
-81.568984599999979
 31
0.0
  0
LINE
  5
387
  8
SLD-0_3
  6
PHANTOM
 62
     7
 10
-130.9519523200000037
 20
-84.8737369000000115
 30
0.0
 11
-131.1552965699999902
 21
-84.6449138100000056
 31
0.0
  0
LINE
  5
388
  8
SLD-0_3
  6
PHANTOM
 62
     7
 10
-132.751077070000008
 20
-83.7490924899999953
 30
0.0
 11
-133.0650996100000043
 21
-83.693842090000004
 31
0.0
  0
LINE
  5
389
  8
SLD-0_3
  6
PHANTOM
 62
     7
 10
-133.716674619999992
 20
-83.6777538700000036
 30
0.0
 11
-134.0364485800000125
 21
-83.7176865200000009
 31
0.0
  0
LINE
  5
38A
  8
SLD-0_3
  6
PHANTOM
 62
     7
 10
-135.1953240400000027
 20
-89.6520612399999948
 30
0.0
 11
-134.9267384100000129
 21
-89.8036356700000056
 31
0.0
  0
LINE
  5
38B
  8
SLD-0_3
  6
PHANTOM
 62
     7
 10
-134.6430305700000076
 20
-89.9296354199999968
 30
0.0
 11
-134.3457505899999944
 21
-90.028503299999997
 31
0.0
  0
LINE
  5
38C
  8
SLD-0_3
  6
PHANTOM
 62
     7
 10
-130.2495625299999915
 20
-87.2342786599999869
 30
0.0
 11
-130.2333369000000118
 21
-86.9081843400000054
 31
0.0
  0
LINE
  5
38D
  8
SLD-0_3
  6
PHANTOM
 62
     7
 10
-142.0441516399999955
 20
-83.9464389699999884
 30
0.0
 11
-142.3348393100000067
 21
-83.8338105100000064
 31
0.0
  0
LINE
  5
38E
  8
SLD-0_3
  6
PHANTOM
 62
     7
 10
-144.2326870299999939
 20
-90.028503299999997
 30
0.0
 11
-143.9240350800000101
 21
-90.0986821500000019
 31
0.0
  0
LINE
  5
38F
  8
SLD-0_3
  6
PHANTOM
 62
     7
 10
-150.5410596099999907
 20
-85.1211274100000139
 30
0.0
 11
-150.7225322900000037
 21
-84.8737369000000115
 31
0.0
  0
LINE
  5
390
  8
SLD-0_3
  6
PHANTOM
 62
     7
 10
-156.3845579100000123
 20
-86.1107308299999943
 30
0.0
 11
-156.4472809300000051
 21
-86.422404659999998
 31
0.0
  0
LINE
  5
391
  8
SLD-0_3
  6
PHANTOM
 62
     7
 10
-152.8384217500000091
 20
-90.1225265799999846
 30
0.0
 11
-152.5239163500000075
 21
-90.0672761799999932
 31
0.0
  0
LINE
  5
392
  8
SLD-0_3
  6
PHANTOM
 62
     7
 10
-150.2506010600000081
 20
-88.1509867200000059
 30
0.0
 11
-150.1447323799999936
 21
-87.8572370299999932
 31
0.0
  0
LINE
  5
393
  8
SLD-0_3
  6
PHANTOM
 62
     7
 10
-163.374604330000011
 20
-83.6777538700000036
 30
0.0
 11
-163.6943253899999888
 21
-83.7176865200000009
 31
0.0
  0
LINE
  5
394
  8
SLD-0_3
  6
PHANTOM
 62
     7
 10
-165.9136207800000022
 20
-85.2512988199999882
 30
0.0
 11
-166.0587620899999877
 21
-85.5236207399999842
 31
0.0
  0
LINE
  5
395
  8
SLD-0_3
  6
PHANTOM
 62
     7
 10
-166.2696434099999863
 20
-87.7056378399999943
 30
0.0
 11
-166.1779511100000093
 21
-88.0057515400000057
 31
0.0
  0
LINE
  5
396
  8
SLD-0_3
  6
PHANTOM
 62
     7
 10
-165.3379273300000136
 20
-89.2784170200000062
 30
0.0
 11
-165.1044210700000008
 21
-89.4764692999999909
 31
0.0
  0
LINE
  5
397
  8
SLD-0_3
  6
PHANTOM
 62
     7
 10
-163.0465434500000015
 20
-90.1467521799999787
 30
0.0
 11
-162.722609239999997
 21
-90.1225265799999846
 31
0.0
  0
LINE
  5
398
  8
SLD-0_3
  6
PHANTOM
 62
     7
 10
-161.5385807399999862
 20
-89.7309479699999883
 30
0.0
 11
-161.2782865700000059
 21
-89.5671701400000018
 31
0.0
  0
LINE
  5
399
  8
SLD-0_3
  6
PHANTOM
 62
     7
 10
-170.1552894200000026
 20
-85.385528149999999
 30
0.0
 11
-170.3127847300000042
 21
-85.1211274100000139
 31
0.0
  0
LINE
  5
39A
  8
SLD-0_3
  6
PHANTOM
 62
     7
 10
-176.1545499599999971
 20
-87.7056378399999943
 30
0.0
 11
-176.0628078899999878
 21
-88.0057515400000057
 31
0.0
  0
LINE
  5
39B
  8
SLD-0_3
  6
PHANTOM
 62
     7
 10
-171.6995944900000097
 20
-89.8699297000000143
 30
0.0
 11
-171.4235960599999942
 21
-89.7309479699999883
 31
0.0
  0
LINE
  5
39C
  8
SLD-0_3
  6
PHANTOM
 62
     7
 10
-127.6432829000000027
 20
-81.568984599999979
 30
0.0
 11
-127.6432829000000027
 21
-92.3953292500000032
 31
0.0
  0
LINE
  5
39D
  8
SLD-0_3
  6
PHANTOM
 62
     7
 10
-168.9645747399999891
 20
-81.568984599999979
 30
0.0
 11
-169.8654190299999982
 21
-81.568984599999979
 31
0.0
  0
LINE
  5
39E
  8
SLD-0_3
  6
PHANTOM
 62
     7
 10
-147.4152444100000139
 20
-92.3953292500000032
 30
0.0
 11
-146.5225067099999876
 21
-92.3953292500000032
 31
0.0
  0
LINE
  5
39F
  8
SLD-0_3
  6
PHANTOM
 62
     7
 10
-131.6218986599999994
 20
-84.249198530000001
 30
0.0
 11
-131.8820364899999902
 21
-84.0854207000000144
 31
0.0
  0
LINE
  5
3A0
  8
SLD-0_3
  6
PHANTOM
 62
     7
 10
-142.3348393100000067
 20
-83.8338105100000064
 30
0.0
 11
-142.6383240600000022
 21
-83.7490924899999953
 31
0.0
  0
LINE
  5
3A1
  8
SLD-0_3
  6
PHANTOM
 62
     7
 10
-144.8126974200000063
 20
-89.8036356700000056
 30
0.0
 11
-144.5294278099999872
 21
-89.9296354199999968
 31
0.0
  0
LINE
  5
3A2
  8
SLD-0_3
  6
PHANTOM
 62
     7
 10
-143.9240350800000101
 20
-90.0986821500000019
 30
0.0
 11
-143.6050319699999989
 21
-90.1386147999999991
 31
0.0
  0
LINE
  5
3A3
  8
SLD-0_3
  6
PHANTOM
 62
     7
 10
-154.9670923399999936
 20
-84.1643074299999938
 30
0.0
 11
-155.2187929499999939
 21
-84.3398993699999835
 31
0.0
  0
LINE
  5
3A4
  8
SLD-0_3
  6
PHANTOM
 62
     7
 10
-156.4472809300000051
 20
-86.422404659999998
 30
0.0
 11
-156.4793872299999862
 21
-86.7440814499999959
 31
0.0
  0
LINE
  5
3A5
  8
SLD-0_3
  6
PHANTOM
 62
     7
 10
-156.3845579100000123
 20
-87.7056378399999943
 30
0.0
 11
-156.2927725000000123
 21
-88.0057515400000057
 31
0.0
  0
LINE
  5
3A6
  8
SLD-0_3
  6
PHANTOM
 62
     7
 10
-154.1184418299999948
 20
-90.028503299999997
 30
0.0
 11
-153.8095565600000043
 21
-90.0986821500000019
 31
0.0
  0
LINE
  5
3A7
  8
SLD-0_3
  6
PHANTOM
 62
     7
 10
-159.9531187999999986
 20
-86.2652200499999964
 30
0.0
 11
-160.0306158999999866
 21
-85.9591316399999954
 31
0.0
  0
LINE
  5
3A8
  8
SLD-0_3
  6
PHANTOM
 62
     7
 10
-161.814717260000009
 20
-83.9464389699999884
 30
0.0
 11
-162.1051389700000129
 21
-83.8338105100000064
 31
0.0
  0
LINE
  5
3A9
  8
SLD-0_3
  6
PHANTOM
 62
     7
 10
-165.3379273300000136
 20
-84.5379516499999966
 30
0.0
 11
-165.5516589800000133
 21
-84.7569071100000002
 31
0.0
  0
LINE
  5
3AA
  8
SLD-0_3
  6
PHANTOM
 62
     7
 10
-172.6074115499999948
 20
-83.693842090000004
 30
0.0
 11
-172.9314669700000024
 21
-83.6696164899999957
 31
0.0
  0
LINE
  5
3AB
  8
SLD-0_3
  6
PHANTOM
 62
     7
 10
-172.6074115499999948
 20
-90.1225265799999846
 30
0.0
 11
-172.2930494899999871
 21
-90.0672761799999932
 31
0.0
  0
LINE
  5
3AC
  8
SLD-0_3
  6
PHANTOM
 62
     7
 10
-171.4235960599999942
 20
-89.7309479699999883
 30
0.0
 11
-171.1634800100000007
 21
-89.5671701400000018
 31
0.0
  0
LINE
  5
3AD
  8
SLD-0_3
  6
PHANTOM
 62
     7
 10
-126.8133712300000013
 20
-310.3655583099999831
 30
0.0
 11
-126.8133712300000013
 21
-327.3655583099999831
 31
0.0
  0
LINE
  5
3AE
  8
SLD-0_3
  6
PHANTOM
 62
     7
 10
-108.3729163600000049
 20
-327.3655583099999831
 30
0.0
 11
-198.3297113300000092
 21
-327.3655583099999831
 31
0.0
  0
LINE
  5
3AF
  8
SLD-0_3
  6
PHANTOM
 62
     7
 10
-108.3729163600000049
 20
-327.3655583099999831
 30
0.0
 11
-108.3729163600000049
 21
-337.3666488100000151
 31
0.0
  0
LINE
  5
3B0
  8
SLD-0_3
  6
PHANTOM
 62
     7
 10
-126.8133712300000013
 20
-310.3655583099999831
 30
0.0
 11
-179.8121991799999932
 21
-310.3655583099999831
 31
0.0
  0
LINE
  5
3B1
  8
SLD-0_3
  6
PHANTOM
 62
     7
 10
-198.3297113300000092
 20
-327.3655583099999831
 30
0.0
 11
-198.3316930999999954
 21
-348.3655583099999831
 31
0.0
  0
LINE
  5
3B2
  8
SLD-0_3
  6
PHANTOM
 62
     7
 10
-179.8121991799999932
 20
-327.3655583099999831
 30
0.0
 11
-179.8121991799999932
 21
-310.3655583099999831
 31
0.0
  0
LINE
  5
3B3
  8
SLD-0_3
  6
PHANTOM
 62
     7
 10
-162.8178395799999976
 20
331.5519996200000037
 30
0.0
 11
-166.5240878200000054
 21
331.5519996200000037
 31
0.0
  0
LINE
  5
3B4
  8
SLD-0_3
  6
PHANTOM
 62
     7
 10
-175.4161823999999967
 20
324.2455772800000204
 30
0.0
 11
-179.1206173999999862
 21
324.2455772800000204
 31
0.0
  0
LINE
  5
3B5
  8
SLD-0_3
  6
PHANTOM
 62
     7
 10
-186.5285807900000066
 20
387.0741004199999793
 30
0.0
 11
-186.5285807900000066
 21
304.0905859700000065
 31
0.0
  0
LINE
  5
3B6
  8
SLD-0_3
  6
PHANTOM
 62
     7
 10
-152.9402528599999869
 20
304.0905859700000065
 30
0.0
 11
-152.9402528599999869
 21
387.0741004199999793
 31
0.0
  0
LINE
  5
3B7
  8
SLD-0_3
  6
PHANTOM
 62
     7
 10
-162.8178395799999976
 20
357.4349939499999778
 30
0.0
 11
-162.8178395799999976
 21
314.960011129999998
 31
0.0
  0
LINE
  5
3B8
  8
SLD-0_3
  6
PHANTOM
 62
     7
 10
-175.4161823999999967
 20
340.841192239999998
 30
0.0
 11
-179.1206173999999862
 21
340.841192239999998
 31
0.0
  0
LINE
  5
3B9
  8
SLD-0_3
  6
PHANTOM
 62
     7
 10
-179.1206173999999862
 20
348.1494278000000122
 30
0.0
 11
-175.4161823999999967
 21
348.1494278000000122
 31
0.0
  0
LINE
  5
3BA
  8
SLD-0_3
  6
PHANTOM
 62
     7
 10
-162.8178395799999976
 20
348.1494278000000122
 30
0.0
 11
-166.5240878200000054
 21
348.1494278000000122
 31
0.0
  0
LINE
  5
3BB
  8
SLD-0_3
  6
PHANTOM
 62
     7
 10
-179.1206173999999862
 20
356.4495018200000231
 30
0.0
 11
-175.4161823999999967
 21
356.4495018200000231
 31
0.0
  0
LINE
  5
3BC
  8
SLD-0_3
  6
PHANTOM
 62
     7
 10
-166.5240878200000054
 20
340.841192239999998
 30
0.0
 11
-162.8178395799999976
 21
340.841192239999998
 31
0.0
  0
LINE
  5
3BD
  8
SLD-0_3
  6
PHANTOM
 62
     7
 10
-162.8178395799999976
 20
339.8520736300000067
 30
0.0
 11
-166.5240878200000054
 21
339.8520736300000067
 31
0.0
  0
LINE
  5
3BE
  8
SLD-0_3
  6
PHANTOM
 62
     7
 10
-179.1206173999999862
 20
331.5519996200000037
 30
0.0
 11
-175.4161823999999967
 21
331.5519996200000037
 31
0.0
  0
LINE
  5
3BF
  8
SLD-0_3
  6
PHANTOM
 62
     7
 10
-179.1206173999999862
 20
323.2555520700000216
 30
0.0
 11
-175.4161823999999967
 21
323.2555520700000216
 31
0.0
  0
LINE
  5
3C0
  8
SLD-0_3
  6
PHANTOM
 62
     7
 10
-152.9402528599999869
 20
387.0741004199999793
 30
0.0
 11
-186.5285807900000066
 21
387.0741004199999793
 31
0.0
  0
LINE
  5
3C1
  8
SLD-0_3
  6
PHANTOM
 62
     7
 10
-179.1206173999999862
 20
357.4349939499999778
 30
0.0
 11
-179.1206173999999862
 21
314.960011129999998
 31
0.0
  0
LINE
  5
3C2
  8
SLD-0_3
  6
PHANTOM
 62
     7
 10
-186.5285807900000066
 20
304.0905859700000065
 30
0.0
 11
-152.9402528599999869
 21
304.0905859700000065
 31
0.0
  0
LINE
  5
3C4
  8
SLD-0_3
  6
PHANTOM
 62
     7
 10
-175.4161823999999967
 20
349.1376397799999722
 30
0.0
 11
-179.1206173999999862
 21
349.1376397799999722
 31
0.0
  0
LINE
  5
3C5
  8
SLD-0_3
  6
PHANTOM
 62
     7
 10
-162.8178395799999976
 20
323.2555520700000216
 30
0.0
 11
-166.5240878200000054
 21
323.2555520700000216
 31
0.0
  0
LINE
  5
3C6
  8
SLD-0_3
  6
PHANTOM
 62
     7
 10
-175.4161823999999967
 20
332.5438380599999846
 30
0.0
 11
-179.1206173999999862
 21
332.5438380599999846
 31
0.0
  0
LINE
  5
3C7
  8
SLD-0_3
  6
PHANTOM
 62
     7
 10
-166.5240878200000054
 20
324.2455772800000204
 30
0.0
 11
-162.8178395799999976
 21
324.2455772800000204
 31
0.0
  0
LINE
  5
3C8
  8
SLD-0_3
  6
PHANTOM
 62
     7
 10
-166.5240878200000054
 20
349.1376397799999722
 30
0.0
 11
-162.8178395799999976
 21
349.1376397799999722
 31
0.0
  0
LINE
  5
3C9
  8
SLD-0_3
  6
PHANTOM
 62
     7
 10
-162.8178395799999976
 20
357.4349939499999778
 30
0.0
 11
-179.1206173999999862
 21
357.4349939499999778
 31
0.0
  0
LINE
  5
3CA
  8
SLD-0_3
  6
PHANTOM
 62
     7
 10
-162.8178395799999976
 20
356.4495018200000231
 30
0.0
 11
-166.5240878200000054
 21
356.4495018200000231
 31
0.0
  0
LINE
  5
3CB
  8
SLD-0_3
  6
PHANTOM
 62
     7
 10
-175.4161823999999967
 20
357.4349939499999778
 30
0.0
 11
-175.4161823999999967
 21
314.960011129999998
 31
0.0
  0
LINE
  5
3CC
  8
SLD-0_3
  6
PHANTOM
 62
     7
 10
-166.5240878200000054
 20
357.4349939499999778
 30
0.0
 11
-166.5240878200000054
 21
314.960011129999998
 31
0.0
  0
LINE
  5
3CE
  8
SLD-0_3
  6
PHANTOM
 62
     7
 10
-166.5240878200000054
 20
332.5438380599999846
 30
0.0
 11
-162.8178395799999976
 21
332.5438380599999846
 31
0.0
  0
LINE
  5
3CF
  8
SLD-0_3
  6
PHANTOM
 62
     7
 10
-175.4161823999999967
 20
315.9482231100000149
 30
0.0
 11
-179.1206173999999862
 21
315.9482231100000149
 31
0.0
  0
LINE
  5
3D0
  8
SLD-0_3
  6
PHANTOM
 62
     7
 10
-166.5240878200000054
 20
315.9482231100000149
 30
0.0
 11
-162.8178395799999976
 21
315.9482231100000149
 31
0.0
  0
LINE
  5
3D1
  8
SLD-0_3
  6
PHANTOM
 62
     7
 10
-179.1206173999999862
 20
339.8520736300000067
 30
0.0
 11
-175.4161823999999967
 21
339.8520736300000067
 31
0.0
  0
CIRCLE
  5
3D8
  8
SLD-0_3
  6
PHANTOM
 62
     7
 10
-170.9667679099999873
 20
327.8948756600000252
 30
0.0
 40
3.360515739999999
  0
CIRCLE
  5
3D9
  8
SLD-0_3
  6
PHANTOM
 62
     7
 10
-170.9667679099999873
 20
352.786938159999977
 30
0.0
 40
3.360515739999999
  0
CIRCLE
  5
3DA
  8
SLD-0_3
  6
PHANTOM
 62
     7
 10
-170.9667679099999873
 20
319.5975214900000196
 30
0.0
 40
3.360515739999999
  0
CIRCLE
  5
3DB
  8
SLD-0_3
  6
PHANTOM
 62
     7
 10
-170.9667679099999873
 20
336.1931364499999972
 30
0.0
 40
3.360515739999999
  0
CIRCLE
  5
3DC
  8
SLD-0_3
  6
PHANTOM
 62
     7
 10
-170.9667679099999873
 20
344.4904906200000028
 30
0.0
 40
3.360515739999999
  0
LINE
  5
3DD
  8
SLD-0_2
  6
CONTINUOUS
 62
     7
 10
259.1881246199999964
 20
-95.8651683100000014
 30
0.0
 11
261.6881246199999964
 21
-93.3651683100000014
 31
0.0
  0
LINE
  5
3DE
  8
SLD-0_2
  6
CONTINUOUS
 62
     7
 10
-218.3118753800000036
 20
-143.3651683100000014
 30
0.0
 11
-218.3118753800000036
 21
-105.3651683100000014
 31
0.0
  0
LINE
  5
3DF
  8
SLD-0_2
  6
CONTINUOUS
 62
     7
 10
-208.3118753800000036
 20
-102.8651683100000014
 30
0.0
 11
-215.8118753800000036
 21
-102.8651683100000014
 31
0.0
  0
LINE
  5
3E0
  8
SLD-0_2
  6
CONTINUOUS
 62
     7
 10
-215.8118753800000036
 20
-102.8651683100000014
 30
0.0
 11
-218.3118753800000036
 21
-105.3651683100000014
 31
0.0
  0
LINE
  5
3E1
  8
SLD-0_2
  6
CONTINUOUS
 62
     7
 10
-215.8118753800000036
 20
-152.8651683100000014
 30
0.0
 11
-218.3118753800000036
 21
-155.3651683100000014
 31
0.0
  0
LINE
  5
3E2
  8
SLD-0_2
  6
CONTINUOUS
 62
     7
 10
-218.3118753800000036
 20
-165.8651683100000014
 30
0.0
 11
-218.3118753800000036
 21
-155.3651683100000014
 31
0.0
  0
LINE
  5
3E3
  8
SLD-0_2
  6
CONTINUOUS
 62
     7
 10
-208.3118753800000036
 20
-95.8651683100000014
 30
0.0
 11
-215.8118753800000036
 21
-95.8651683100000014
 31
0.0
  0
LINE
  5
3E4
  8
SLD-0_2
  6
CONTINUOUS
 62
     7
 10
-215.8118753800000036
 20
-95.8651683100000014
 30
0.0
 11
-218.3118753800000036
 21
-93.3651683100000014
 31
0.0
  0
LINE
  5
3E5
  8
SLD-0_2
  6
CONTINUOUS
 62
     7
 10
261.6881246199999964
 20
-165.8651683100000014
 30
0.0
 11
261.6881246199999964
 21
-155.3651683100000014
 31
0.0
  0
LINE
  5
3E6
  8
SLD-0_2
  6
CONTINUOUS
 62
     7
 10
251.6881246199999964
 20
-152.8651683100000014
 30
0.0
 11
259.1881246199999964
 21
-152.8651683100000014
 31
0.0
  0
LINE
  5
3E7
  8
SLD-0_2
  6
CONTINUOUS
 62
     7
 10
251.6881246199999964
 20
-145.8651683100000014
 30
0.0
 11
259.1881246199999964
 21
-145.8651683100000014
 31
0.0
  0
LINE
  5
3E8
  8
SLD-0_2
  6
CONTINUOUS
 62
     7
 10
259.1881246199999964
 20
-168.3651683100000014
 30
0.0
 11
261.6881246199999964
 21
-165.8651683100000014
 31
0.0
  0
LINE
  5
3E9
  8
SLD-0_2
  6
CONTINUOUS
 62
     7
 10
251.6881246199999964
 20
-102.8651683100000014
 30
0.0
 11
259.1881246199999964
 21
-102.8651683100000014
 31
0.0
  0
LINE
  5
3EA
  8
SLD-0_2
  6
CONTINUOUS
 62
     7
 10
261.6881246199999964
 20
-93.3651683100000014
 30
0.0
 11
261.6881246199999964
 21
-82.8651683100000014
 31
0.0
  0
LINE
  5
3EB
  8
SLD-0_2
  6
CONTINUOUS
 62
     7
 10
-215.8118753800000036
 20
-145.8651683100000014
 30
0.0
 11
-218.3118753800000036
 21
-143.3651683100000014
 31
0.0
  0
LINE
  5
3EC
  8
SLD-0_2
  6
CONTINUOUS
 62
     7
 10
-208.3118753800000036
 20
-152.8651683100000014
 30
0.0
 11
-215.8118753800000036
 21
-152.8651683100000014
 31
0.0
  0
LINE
  5
3ED
  8
SLD-0_2
  6
CONTINUOUS
 62
     7
 10
-218.3118753800000036
 20
-82.8651683100000014
 30
0.0
 11
-215.8118753800000036
 21
-80.3651683100000014
 31
0.0
  0
LINE
  5
3EE
  8
SLD-0_2
  6
CONTINUOUS
 62
     7
 10
-208.3118753800000036
 20
-145.8651683100000014
 30
0.0
 11
-215.8118753800000036
 21
-145.8651683100000014
 31
0.0
  0
LINE
  5
3EF
  8
SLD-0_2
  6
CONTINUOUS
 62
     7
 10
261.6881246199999964
 20
-143.3651683100000014
 30
0.0
 11
261.6881246199999964
 21
-105.3651683100000014
 31
0.0
  0
LINE
  5
3F0
  8
SLD-0_2
  6
CONTINUOUS
 62
     7
 10
259.1881246199999964
 20
-145.8651683100000014
 30
0.0
 11
261.6881246199999964
 21
-143.3651683100000014
 31
0.0
  0
LINE
  5
3F1
  8
SLD-0_2
  6
CONTINUOUS
 62
     7
 10
259.1881246199999964
 20
-102.8651683100000014
 30
0.0
 11
261.6881246199999964
 21
-105.3651683100000014
 31
0.0
  0
LINE
  5
3F2
  8
SLD-0_2
  6
CONTINUOUS
 62
     7
 10
261.6881246199999964
 20
-82.8651683100000014
 30
0.0
 11
259.1881246199999964
 21
-80.3651683100000014
 31
0.0
  0
LINE
  5
3F3
  8
SLD-0_2
  6
CONTINUOUS
 62
     7
 10
259.1881246199999964
 20
-152.8651683100000014
 30
0.0
 11
261.6881246199999964
 21
-155.3651683100000014
 31
0.0
  0
LINE
  5
3F4
  8
SLD-0_2
  6
CONTINUOUS
 62
     7
 10
251.6881246199999964
 20
-95.8651683100000014
 30
0.0
 11
259.1881246199999964
 21
-95.8651683100000014
 31
0.0
  0
LINE
  5
3F5
  8
SLD-0_2
  6
CONTINUOUS
 62
     7
 10
-218.3118753800000036
 20
-93.3651683100000014
 30
0.0
 11
-218.3118753800000036
 21
-82.8651683100000014
 31
0.0
  0
LINE
  5
3F6
  8
SLD-0_2
  6
CONTINUOUS
 62
     7
 10
-215.8118753800000036
 20
-168.3651683100000014
 30
0.0
 11
-218.3118753800000036
 21
-165.8651683100000014
 31
0.0
  0
LINE
  5
3F7
  8
SLD-0_2
  6
CONTINUOUS
 62
     7
 10
192.4563836099999889
 20
323.1344975800000157
 30
0.0
 11
196.7609803899999861
 21
323.1344975800000157
 31
0.0
  0
LINE
  5
3F8
  8
SLD-0_2
  6
CONTINUOUS
 62
     7
 10
-84.2993980300000061
 20
135.7158802499999979
 30
0.0
 11
-84.2993980300000061
 21
147.9649306100000103
 31
0.0
  0
LINE
  5
3F9
  8
SLD-0_2
  6
CONTINUOUS
 62
     7
 10
-75.8006566899999967
 20
135.7158802499999979
 30
0.0
 11
-75.8006566899999967
 21
147.9649306100000103
 31
0.0
  0
LINE
  5
3FA
  8
SLD-0_2
  6
CONTINUOUS
 62
     7
 10
-6.6008180499999991
 20
147.9649306100000103
 30
0.0
 11
-6.6008180499999991
 21
135.7158802499999979
 31
0.0
  0
LINE
  5
3FB
  8
SLD-0_2
  6
CONTINUOUS
 62
     7
 10
-7.8005926700000003
 20
135.7158802499999979
 30
0.0
 11
-7.8005926700000003
 21
147.9649306100000103
 31
0.0
  0
LINE
  5
3FC
  8
SLD-0_2
  6
CONTINUOUS
 62
     7
 10
34.7002073299999978
 20
135.7158802499999979
 30
0.0
 11
34.7002073299999978
 21
147.9649306100000103
 31
0.0
  0
LINE
  5
3FD
  8
SLD-0_2
  6
CONTINUOUS
 62
     7
 10
-63.0500113599999992
 20
147.9649306100000103
 30
0.0
 11
-63.0500113599999992
 21
160.2160076300000071
 31
0.0
  0
LINE
  5
3FE
  8
SLD-0_2
  6
CONTINUOUS
 62
     7
 10
38.9500846600000017
 20
147.9649306100000103
 30
0.0
 11
38.9500846600000017
 21
160.2160076300000071
 31
0.0
  0
LINE
  5
3FF
  8
SLD-0_2
  6
CONTINUOUS
 62
     7
 10
67.7264357699999948
 20
135.7158802499999979
 30
0.0
 11
67.7264357699999948
 21
147.9649306100000103
 31
0.0
  0
LINE
  5
400
  8
SLD-0_2
  6
CONTINUOUS
 62
     7
 10
111.4249837499999956
 20
147.9649306100000103
 30
0.0
 11
111.4249837499999956
 21
135.7158802499999979
 31
0.0
  0
LINE
  5
401
  8
SLD-0_2
  6
CONTINUOUS
 62
     7
 10
131.4766224500000078
 20
147.9649306100000103
 30
0.0
 11
131.4766224500000078
 21
160.2160076300000071
 31
0.0
  0
LINE
  5
402
  8
SLD-0_2
  6
CONTINUOUS
 62
     7
 10
182.4751504799999964
 20
147.9649306100000103
 30
0.0
 11
182.4751504799999964
 21
160.2160076300000071
 31
0.0
  0
LINE
  5
403
  8
SLD-0_2
  6
CONTINUOUS
 62
     7
 10
-29.569814130000001
 20
284.6525372300000072
 30
0.0
 11
-44.5680102299999916
 21
284.6525372300000072
 31
0.0
  0
LINE
  5
404
  8
SLD-0_2
  6
CONTINUOUS
 62
     7
 10
-106.37362976
 20
135.6348144000000104
 30
0.0
 11
239.6731896000000006
 21
135.6348144000000104
 31
0.0
  0
LINE
  5
405
  8
SLD-0_2
  6
CONTINUOUS
 62
     7
 10
23.194936160000001
 20
312.384152169999993
 30
0.0
 11
23.194936160000001
 21
323.1344975800000157
 31
0.0
  0
LINE
  5
406
  8
SLD-0_2
  6
CONTINUOUS
 62
     7
 10
-11.2428514499999999
 20
312.384152169999993
 30
0.0
 11
-11.2428514499999999
 21
323.1344975800000157
 31
0.0
  0
LINE
  5
407
  8
SLD-0_2
  6
CONTINUOUS
 62
     7
 10
-97.3317471999999952
 20
312.384152169999993
 30
0.0
 11
40.4133233100000027
 21
312.384152169999993
 31
0.0
  0
LINE
  5
408
  8
SLD-0_2
  6
CONTINUOUS
 62
     7
 10
-97.3317471999999952
 20
323.1344975800000157
 30
0.0
 11
-97.3317471999999952
 21
312.384152169999993
 31
0.0
  0
LINE
  5
409
  8
SLD-0_2
  6
CONTINUOUS
 62
     7
 10
93.4506575300000009
 20
301.6348200799999972
 30
0.0
 11
93.4506575300000009
 21
312.384152169999993
 31
0.0
  0
LINE
  5
40A
  8
SLD-0_2
  6
CONTINUOUS
 62
     7
 10
152.8516611999999952
 20
389.6348433100000079
 30
0.0
 11
152.8516611999999952
 21
377.3138470000000098
 31
0.0
  0
LINE
  5
40B
  8
SLD-0_2
  6
CONTINUOUS
 62
     7
 10
107.9350987899999978
 20
389.6348433100000079
 30
0.0
 11
107.9350987899999978
 21
377.3138470000000098
 31
0.0
  0
LINE
  5
40C
  8
SLD-0_2
  6
CONTINUOUS
 62
     7
 10
140.8012221699999884
 20
312.384152169999993
 30
0.0
 11
140.8012221699999884
 21
323.1344975800000157
 31
0.0
  0
LINE
  5
40D
  8
SLD-0_2
  6
CONTINUOUS
 62
     7
 10
-95.8522953899999948
 20
153.9090842699999939
 30
0.0
 11
38.90752509
 21
153.9090842699999939
 31
0.0
  0
LINE
  5
40E
  8
SLD-0_2
  6
CONTINUOUS
 62
     7
 10
60.4264557300000007
 20
135.7158802499999979
 30
0.0
 11
196.7265274099999885
 21
135.7158802499999979
 31
0.0
  0
LINE
  5
40F
  8
SLD-0_2
  6
CONTINUOUS
 62
     7
 10
175.1751704300000085
 20
147.9649306100000103
 30
0.0
 11
175.1751704300000085
 21
160.2160076300000071
 31
0.0
  0
LINE
  5
410
  8
SLD-0_2
  6
CONTINUOUS
 62
     7
 10
54.6788867599999975
 20
147.9649306100000103
 30
0.0
 11
190.9749051500000121
 21
147.9649306100000103
 31
0.0
  0
LINE
  5
411
  8
SLD-0_2
  6
CONTINUOUS
 62
     7
 10
-28.2451513200000015
 20
290.4355330199999798
 30
0.0
 11
-28.2237339600000006
 21
290.129865030000019
 31
0.0
  0
LINE
  5
412
  8
SLD-0_2
  6
CONTINUOUS
 62
     7
 10
-29.2499673899999983
 20
285.3122667399999841
 30
0.0
 11
-29.2646560499999993
 21
285.3454295299999899
 31
0.0
  0
LINE
  5
413
  8
SLD-0_2
  6
CONTINUOUS
 62
     7
 10
259.1881246199999964
 20
389.6348316899999986
 30
0.0
 11
-215.8118753800000036
 21
389.6348316899999986
 31
0.0
  0
LINE
  5
414
  8
SLD-0_2
  6
CONTINUOUS
 62
     7
 10
251.6881246199999964
 20
367.1348316899999986
 30
0.0
 11
259.1881246199999964
 21
367.1348316899999986
 31
0.0
  0
LINE
  5
415
  8
SLD-0_2
  6
CONTINUOUS
 62
     7
 10
-218.3118753800000036
 20
387.1348316899999986
 30
0.0
 11
-215.8118753800000036
 21
389.6348316899999986
 31
0.0
  0
LINE
  5
416
  8
SLD-0_2
  6
CONTINUOUS
 62
     7
 10
-208.3118753800000036
 20
324.1348316899999986
 30
0.0
 11
-215.8118753800000036
 21
324.1348316899999986
 31
0.0
  0
LINE
  5
417
  8
SLD-0_2
  6
CONTINUOUS
 62
     7
 10
-93.026137090000006
 20
312.384152169999993
 30
0.0
 11
-93.026137090000006
 21
301.6348200799999972
 31
0.0
  0
LINE
  5
418
  8
SLD-0_2
  6
CONTINUOUS
 62
     7
 10
-66.0991007500000052
 20
147.9649306100000103
 30
0.0
 11
-66.0991007500000052
 21
135.7158802499999979
 31
0.0
  0
LINE
  5
419
  8
SLD-0_2
  6
CONTINUOUS
 62
     7
 10
1.8989366199999991
 20
147.9649306100000103
 30
0.0
 11
1.8989366199999991
 21
135.7158802499999979
 31
0.0
  0
LINE
  5
41A
  8
SLD-0_2
  6
CONTINUOUS
 62
     7
 10
-2.3509407200000001
 20
160.2160076300000071
 30
0.0
 11
-2.3509407200000001
 21
147.9649306100000103
 31
0.0
  0
LINE
  5
41B
  8
SLD-0_2
  6
CONTINUOUS
 62
     7
 10
30.4503299900000002
 20
147.9649306100000103
 30
0.0
 11
30.4503299900000002
 21
160.2160076300000071
 31
0.0
  0
LINE
  5
41C
  8
SLD-0_2
  6
CONTINUOUS
 62
     7
 10
85.9257197400000052
 20
147.9649306100000103
 30
0.0
 11
85.9257197400000052
 21
135.7158802499999979
 31
0.0
  0
LINE
  5
41D
  8
SLD-0_2
  6
CONTINUOUS
 62
     7
 10
93.2277264300000041
 20
135.7158802499999979
 30
0.0
 11
93.2277264300000041
 21
147.9649306100000103
 31
0.0
  0
LINE
  5
41E
  8
SLD-0_2
  6
CONTINUOUS
 62
     7
 10
145.4260290800000064
 20
147.9649306100000103
 30
0.0
 11
145.4260290800000064
 21
135.7158802499999979
 31
0.0
  0
LINE
  5
41F
  8
SLD-0_2
  6
CONTINUOUS
 62
     7
 10
80.4780944299999987
 20
147.9649306100000103
 30
0.0
 11
80.4780944299999987
 21
160.2160076300000071
 31
0.0
  0
LINE
  5
420
  8
SLD-0_2
  6
CONTINUOUS
 62
     7
 10
90.1776237199999855
 20
160.2160076300000071
 30
0.0
 11
90.1776237199999855
 21
147.9649306100000103
 31
0.0
  0
LINE
  5
421
  8
SLD-0_2
  6
CONTINUOUS
 62
     7
 10
239.6731896000000006
 20
135.6348144000000104
 30
0.0
 11
239.6731896000000006
 21
132.6333511900000133
 31
0.0
  0
LINE
  5
422
  8
SLD-0_2
  6
CONTINUOUS
 62
     7
 10
-62.4045245000000008
 20
389.6348433100000079
 30
0.0
 11
-62.4045245000000008
 21
377.3138470000000098
 31
0.0
  0
LINE
  5
423
  8
SLD-0_2
  6
CONTINUOUS
 62
     7
 10
-71.3886476499999958
 20
389.6348433100000079
 30
0.0
 11
-71.3886476499999958
 21
377.3138470000000098
 31
0.0
  0
LINE
  5
424
  8
SLD-0_2
  6
CONTINUOUS
 62
     7
 10
110.6690446700000052
 20
301.6348200799999972
 30
0.0
 11
110.6690446700000052
 21
312.384152169999993
 31
0.0
  0
LINE
  5
425
  8
SLD-0_2
  6
CONTINUOUS
 62
     7
 10
161.8357843400000036
 20
389.6348433100000079
 30
0.0
 11
161.8357843400000036
 21
377.3138470000000098
 31
0.0
  0
LINE
  5
426
  8
SLD-0_2
  6
CONTINUOUS
 62
     7
 10
89.1460607399999958
 20
312.384152169999993
 30
0.0
 11
89.1460607399999958
 21
323.1344975800000157
 31
0.0
  0
LINE
  5
427
  8
SLD-0_2
  6
CONTINUOUS
 62
     7
 10
54.7092864500000005
 20
323.1344975800000157
 30
0.0
 11
54.7092864500000005
 21
312.384152169999993
 31
0.0
  0
LINE
  5
428
  8
SLD-0_2
  6
CONTINUOUS
 62
     7
 10
54.6788867599999975
 20
160.2160076300000071
 30
0.0
 11
54.6788867599999975
 21
147.9649306100000103
 31
0.0
  0
LINE
  5
429
  8
SLD-0_2
  6
CONTINUOUS
 62
     7
 10
-28.571333039999999
 20
285.5726568800000109
 30
0.0
 11
-28.6742160599999991
 21
285.4502526399999738
 31
0.0
  0
LINE
  5
42A
  8
SLD-0_2
  6
CONTINUOUS
 62
     7
 10
-218.3118753800000036
 20
326.6348316899999986
 30
0.0
 11
-218.3118753800000036
 21
364.6348316899999986
 31
0.0
  0
LINE
  5
42B
  8
SLD-0_2
  6
CONTINUOUS
 62
     7
 10
-26.5318712999999988
 20
301.740205689999982
 30
0.0
 11
-26.5318712999999988
 21
291.2827106699999717
 31
0.0
  0
LINE
  5
42C
  8
SLD-0_2
  6
CONTINUOUS
 62
     7
 10
-88.5513020199999943
 20
147.9649306100000103
 30
0.0
 11
-88.5513020199999943
 21
160.2160076300000071
 31
0.0
  0
LINE
  5
42D
  8
SLD-0_2
  6
CONTINUOUS
 62
     7
 10
110.227235769999993
 20
135.7158802499999979
 30
0.0
 11
110.227235769999993
 21
147.9649306100000103
 31
0.0
  0
LINE
  5
42E
  8
SLD-0_2
  6
CONTINUOUS
 62
     7
 10
118.7269904500000024
 20
135.7158802499999979
 30
0.0
 11
118.7269904500000024
 21
147.9649306100000103
 31
0.0
  0
LINE
  5
42F
  8
SLD-0_2
  6
CONTINUOUS
 62
     7
 10
173.9753958100000091
 20
147.9649306100000103
 30
0.0
 11
173.9753958100000091
 21
160.2160076300000071
 31
0.0
  0
LINE
  5
430
  8
SLD-0_2
  6
CONTINUOUS
 62
     7
 10
195.2247824799999876
 20
147.9649306100000103
 30
0.0
 11
195.2247824799999876
 21
135.7158802499999979
 31
0.0
  0
LINE
  5
431
  8
SLD-0_2
  6
CONTINUOUS
 62
     7
 10
-53.4234413300000028
 20
389.6348433100000079
 30
0.0
 11
-53.4234413300000028
 21
377.3138470000000098
 31
0.0
  0
LINE
  5
432
  8
SLD-0_2
  6
CONTINUOUS
 62
     7
 10
-58.5903761300000028
 20
301.6348200799999972
 30
0.0
 11
-58.5903761300000028
 21
312.384152169999993
 31
0.0
  0
LINE
  5
433
  8
SLD-0_2
  6
CONTINUOUS
 62
     7
 10
127.8874318200000033
 20
301.6348200799999972
 30
0.0
 11
127.8874318200000033
 21
312.384152169999993
 31
0.0
  0
LINE
  5
434
  8
SLD-0_2
  6
CONTINUOUS
 62
     7
 10
67.6230768100000006
 20
301.6348200799999972
 30
0.0
 11
67.6230768100000006
 21
312.384152169999993
 31
0.0
  0
LINE
  5
435
  8
SLD-0_2
  6
CONTINUOUS
 62
     7
 10
183.8471900399999868
 20
312.384152169999993
 30
0.0
 11
183.8471900399999868
 21
323.1344975800000157
 31
0.0
  0
LINE
  5
436
  8
SLD-0_2
  6
CONTINUOUS
 62
     7
 10
166.6267762399999981
 20
312.384152169999993
 30
0.0
 11
166.6267762399999981
 21
323.1344975800000157
 31
0.0
  0
LINE
  5
437
  8
SLD-0_2
  6
CONTINUOUS
 62
     7
 10
192.4543569600000126
 20
323.1344975800000157
 30
0.0
 11
54.7092864500000005
 21
323.1344975800000157
 31
0.0
  0
LINE
  5
438
  8
SLD-0_2
  6
CONTINUOUS
 62
     7
 10
-97.3489737000000019
 20
147.9649306100000103
 30
0.0
 11
38.9500846600000017
 21
147.9649306100000103
 31
0.0
  0
LINE
  5
439
  8
SLD-0_2
  6
CONTINUOUS
 62
     7
 10
141.1761517399999946
 20
147.9649306100000103
 30
0.0
 11
141.1761517399999946
 21
160.2160076300000071
 31
0.0
  0
LINE
  5
43A
  8
SLD-0_2
  6
CONTINUOUS
 62
     7
 10
212.8809252300000026
 20
140.636577520000003
 30
0.0
 11
212.8809252300000026
 21
135.6348144000000104
 31
0.0
  0
LINE
  5
43B
  8
SLD-0_2
  6
CONTINUOUS
 62
     7
 10
-29.2306558500000015
 20
285.2784970199999748
 30
0.0
 11
-29.2499673899999983
 21
285.3122667399999841
 31
0.0
  0
LINE
  5
43C
  8
SLD-0_2
  6
CONTINUOUS
 62
     7
 10
261.6881246199999964
 20
304.1348316899999986
 30
0.0
 11
261.6881246199999964
 21
314.6348316899999986
 31
0.0
  0
LINE
  5
43D
  8
SLD-0_2
  6
CONTINUOUS
 62
     7
 10
40.4133233100000027
 20
312.384152169999993
 30
0.0
 11
40.4133233100000027
 21
323.1344975800000157
 31
0.0
  0
LINE
  5
43E
  8
SLD-0_2
  6
CONTINUOUS
 62
     7
 10
-58.8001340200000016
 20
135.7158802499999979
 30
0.0
 11
-58.8001340200000016
 21
147.9649306100000103
 31
0.0
  0
LINE
  5
43F
  8
SLD-0_2
  6
CONTINUOUS
 62
     7
 10
-49.1006047300000006
 20
147.9649306100000103
 30
0.0
 11
-49.1006047300000006
 21
135.7158802499999979
 31
0.0
  0
LINE
  5
440
  8
SLD-0_2
  6
CONTINUOUS
 62
     7
 10
9.2009433099999995
 20
135.7158802499999979
 30
0.0
 11
9.2009433099999995
 21
147.9649306100000103
 31
0.0
  0
LINE
  5
441
  8
SLD-0_2
  6
CONTINUOUS
 62
     7
 10
27.4002272799999993
 20
147.9649306100000103
 30
0.0
 11
27.4002272799999993
 21
135.7158802499999979
 31
0.0
  0
LINE
  5
442
  8
SLD-0_2
  6
CONTINUOUS
 62
     7
 10
-44.8497140699999903
 20
160.2160076300000071
 30
0.0
 11
-44.8497140699999903
 21
147.9649306100000103
 31
0.0
  0
LINE
  5
443
  8
SLD-0_2
  6
CONTINUOUS
 62
     7
 10
-46.0494886899999969
 20
147.9649306100000103
 30
0.0
 11
-46.0494886899999969
 21
160.2160076300000071
 31
0.0
  0
LINE
  5
444
  8
SLD-0_2
  6
CONTINUOUS
 62
     7
 10
-29.0509926699999994
 20
147.9649306100000103
 30
0.0
 11
-29.0509926699999994
 21
160.2160076300000071
 31
0.0
  0
LINE
  5
445
  8
SLD-0_2
  6
CONTINUOUS
 62
     7
 10
14.6505952700000002
 20
160.2160076300000071
 30
0.0
 11
14.6505952700000002
 21
147.9649306100000103
 31
0.0
  0
LINE
  5
446
  8
SLD-0_2
  6
CONTINUOUS
 62
     7
 10
43.1999619999999993
 20
147.9649306100000103
 30
0.0
 11
43.1999619999999993
 21
135.7158802499999979
 31
0.0
  0
LINE
  5
447
  8
SLD-0_2
  6
CONTINUOUS
 62
     7
 10
94.4254744100000067
 20
147.9649306100000103
 30
0.0
 11
94.4254744100000067
 21
135.7158802499999979
 31
0.0
  0
LINE
  5
448
  8
SLD-0_2
  6
CONTINUOUS
 62
     7
 10
141.1781783899999994
 20
160.2160076300000071
 30
0.0
 11
141.1781783899999994
 21
147.9649306100000103
 31
0.0
  0
LINE
  5
449
  8
SLD-0_2
  6
CONTINUOUS
 62
     7
 10
-17.4899887400000011
 20
389.6348433100000079
 30
0.0
 11
-17.4899887400000011
 21
377.3138470000000098
 31
0.0
  0
LINE
  5
44A
  8
SLD-0_2
  6
CONTINUOUS
 62
     7
 10
125.9013184199999955
 20
389.6348433100000079
 30
0.0
 11
125.9013184199999955
 21
377.3138470000000098
 31
0.0
  0
LINE
  5
44B
  8
SLD-0_2
  6
CONTINUOUS
 62
     7
 10
72.0026595100000009
 20
389.6348433100000079
 30
0.0
 11
72.0026595100000009
 21
377.3138470000000098
 31
0.0
  0
LINE
  5
44C
  8
SLD-0_2
  6
CONTINUOUS
 62
     7
 10
132.1920285999999862
 20
312.384152169999993
 30
0.0
 11
132.1920285999999862
 21
323.1344975800000157
 31
0.0
  0
LINE
  5
44D
  8
SLD-0_2
  6
CONTINUOUS
 62
     7
 10
71.9297002400000025
 20
312.384152169999993
 30
0.0
 11
71.9297002400000025
 21
323.1344975800000157
 31
0.0
  0
LINE
  5
44E
  8
SLD-0_2
  6
CONTINUOUS
 62
     7
 10
-91.6003914100000003
 20
135.7158802499999979
 30
0.0
 11
44.6976536299999907
 21
135.7158802499999979
 31
0.0
  0
LINE
  5
44F
  8
SLD-0_2
  6
CONTINUOUS
 62
     7
 10
196.7265274099999885
 20
135.7158802499999979
 30
0.0
 11
196.7265274099999885
 21
147.9649306100000103
 31
0.0
  0
LINE
  5
450
  8
SLD-0_2
  6
CONTINUOUS
 62
     7
 10
149.6738797700000134
 20
147.9649306100000103
 30
0.0
 11
149.6738797700000134
 21
160.2160076300000071
 31
0.0
  0
LINE
  5
451
  8
SLD-0_2
  6
CONTINUOUS
 62
     7
 10
-28.2920179800000007
 20
291.0038470000000075
 30
0.0
 11
-28.2810267700000004
 21
290.8816585899999723
 31
0.0
  0
LINE
  5
452
  8
SLD-0_2
  6
CONTINUOUS
 62
     7
 10
-28.1553138199999999
 20
288.5696320100000207
 30
0.0
 11
-28.1511883000000083
 21
288.1408564199999773
 31
0.0
  0
LINE
  5
453
  8
SLD-0_2
  6
CONTINUOUS
 62
     7
 10
-28.1511883000000083
 20
288.1408564199999773
 30
0.0
 11
-28.1557214599999988
 21
287.7148630699999785
 31
0.0
  0
LINE
  5
454
  8
SLD-0_2
  6
CONTINUOUS
 62
     7
 10
-208.3118753800000036
 20
374.1348316899999986
 30
0.0
 11
-215.8118753800000036
 21
374.1348316899999986
 31
0.0
  0
LINE
  5
455
  8
SLD-0_2
  6
CONTINUOUS
 62
     7
 10
251.6881246199999964
 20
324.1348316899999986
 30
0.0
 11
259.1881246199999964
 21
324.1348316899999986
 31
0.0
  0
LINE
  5
456
  8
SLD-0_2
  6
CONTINUOUS
 62
     7
 10
261.6881246199999964
 20
387.1348316899999986
 30
0.0
 11
259.1881246199999964
 21
389.6348316899999986
 31
0.0
  0
LINE
  5
457
  8
SLD-0_2
  6
CONTINUOUS
 62
     7
 10
-218.3118753800000036
 20
376.6348316899999986
 30
0.0
 11
-218.3118753800000036
 21
387.1348316899999986
 31
0.0
  0
LINE
  5
458
  8
SLD-0_2
  6
CONTINUOUS
 62
     7
 10
60.4274690499999991
 20
139.9819707499999879
 30
0.0
 11
195.1893161799999916
 21
139.9819707499999879
 31
0.0
  0
LINE
  5
459
  8
SLD-0_2
  6
CONTINUOUS
 62
     7
 10
-33.2988433599999993
 20
135.7158802499999979
 30
0.0
 11
-33.2988433599999993
 21
147.9649306100000103
 31
0.0
  0
LINE
  5
45A
  8
SLD-0_2
  6
CONTINUOUS
 62
     7
 10
10.4007179399999998
 20
147.9649306100000103
 30
0.0
 11
10.4007179399999998
 21
135.7158802499999979
 31
0.0
  0
LINE
  5
45B
  8
SLD-0_2
  6
CONTINUOUS
 62
     7
 10
-78.8517727199999854
 20
160.2160076300000071
 30
0.0
 11
-78.8517727199999854
 21
147.9649306100000103
 31
0.0
  0
LINE
  5
45C
  8
SLD-0_2
  6
CONTINUOUS
 62
     7
 10
-27.8512180499999999
 20
160.2160076300000071
 30
0.0
 11
-27.8512180499999999
 21
147.9649306100000103
 31
0.0
  0
LINE
  5
45D
  8
SLD-0_2
  6
CONTINUOUS
 62
     7
 10
-3.5527419799999991
 20
147.9649306100000103
 30
0.0
 11
-3.5527419799999991
 21
160.2160076300000071
 31
0.0
  0
LINE
  5
45E
  8
SLD-0_2
  6
CONTINUOUS
 62
     7
 10
64.6763330600000046
 20
160.2160076300000071
 30
0.0
 11
64.6763330600000046
 21
147.9649306100000103
 31
0.0
  0
LINE
  5
45F
  8
SLD-0_2
  6
CONTINUOUS
 62
     7
 10
187.9288557300000093
 20
147.9649306100000103
 30
0.0
 11
187.9288557300000093
 21
135.7158802499999979
 31
0.0
  0
LINE
  5
460
  8
SLD-0_2
  6
CONTINUOUS
 62
     7
 10
114.4771131100000048
 20
147.9649306100000103
 30
0.0
 11
114.4771131100000048
 21
160.2160076300000071
 31
0.0
  0
LINE
  5
461
  8
SLD-0_2
  6
CONTINUOUS
 62
     7
 10
190.9749051500000121
 20
147.9649306100000103
 30
0.0
 11
190.9749051500000121
 21
160.2160076300000071
 31
0.0
  0
LINE
  5
462
  8
SLD-0_2
  6
CONTINUOUS
 62
     7
 10
60.4264557300000007
 20
135.7158802499999979
 30
0.0
 11
54.6788867599999975
 21
135.7158802499999979
 31
0.0
  0
LINE
  5
463
  8
SLD-0_2
  6
CONTINUOUS
 62
     7
 10
-106.37362976
 20
132.6333511900000133
 30
0.0
 11
-106.37362976
 21
135.6348144000000104
 31
0.0
  0
LINE
  5
464
  8
SLD-0_2
  6
CONTINUOUS
 62
     7
 10
36.4106968199999983
 20
389.6348433100000079
 30
0.0
 11
36.4106968199999983
 21
377.3138470000000098
 31
0.0
  0
LINE
  5
465
  8
SLD-0_2
  6
CONTINUOUS
 62
     7
 10
36.1107531700000024
 20
301.6348200799999972
 30
0.0
 11
36.1107531700000024
 21
312.384152169999993
 31
0.0
  0
LINE
  5
466
  8
SLD-0_2
  6
CONTINUOUS
 62
     7
 10
-84.4179568400000022
 20
301.6348200799999972
 30
0.0
 11
-84.4179568400000022
 21
312.384152169999993
 31
0.0
  0
LINE
  5
467
  8
SLD-0_2
  6
CONTINUOUS
 62
     7
 10
63.3205066700000003
 20
312.384152169999993
 30
0.0
 11
63.3205066700000003
 21
323.1344975800000157
 31
0.0
  0
LINE
  5
468
  8
SLD-0_2
  6
CONTINUOUS
 62
     7
 10
192.4543569600000126
 20
312.384152169999993
 30
0.0
 11
192.4543569600000126
 21
323.1344975800000157
 31
0.0
  0
LINE
  5
469
  8
SLD-0_2
  6
CONTINUOUS
 62
     7
 10
35.8999819499999973
 20
135.7158802499999979
 30
0.0
 11
35.8999819499999973
 21
147.9649306100000103
 31
0.0
  0
LINE
  5
46A
  8
SLD-0_2
  6
CONTINUOUS
 62
     7
 10
220.0451199800000097
 20
140.636577520000003
 30
0.0
 11
212.8809252300000026
 21
140.636577520000003
 31
0.0
  0
LINE
  5
46B
  8
SLD-0_2
  6
CONTINUOUS
 62
     7
 10
-28.9243910399999997
 20
285.232378830000016
 30
0.0
 11
-28.9899438700000012
 21
285.2013091000000031
 31
0.0
  0
LINE
  5
46C
  8
SLD-0_2
  6
CONTINUOUS
 62
     7
 10
-218.3118753800000036
 20
121.6344416900000027
 30
0.0
 11
-218.3118753800000036
 21
119.6344416900000027
 31
0.0
  0
LINE
  5
46D
  8
SLD-0_2
  6
CONTINUOUS
 62
     7
 10
259.1881246199999964
 20
301.6348316899999986
 30
0.0
 11
-29.569814130000001
 21
301.6348316899999986
 31
0.0
  0
LINE
  5
46E
  8
SLD-0_2
  6
CONTINUOUS
 62
     7
 10
259.1881246199999964
 20
374.1348316899999986
 30
0.0
 11
261.6881246199999964
 21
376.6348316899999986
 31
0.0
  0
LINE
  5
46F
  8
SLD-0_2
  6
CONTINUOUS
 62
     7
 10
261.6881246199999964
 20
326.6348316899999986
 30
0.0
 11
261.6881246199999964
 21
364.6348316899999986
 31
0.0
  0
LINE
  5
470
  8
SLD-0_2
  6
CONTINUOUS
 62
     7
 10
40.4133233100000027
 20
323.1344975800000157
 30
0.0
 11
44.7179200899999998
 21
323.1344975800000157
 31
0.0
  0
LINE
  5
471
  8
SLD-0_2
  6
CONTINUOUS
 62
     7
 10
-15.1005727200000006
 20
147.9649306100000103
 30
0.0
 11
-15.1005727200000006
 21
135.7158802499999979
 31
0.0
  0
LINE
  5
472
  8
SLD-0_2
  6
CONTINUOUS
 62
     7
 10
-19.3514633799999984
 20
160.2160076300000071
 30
0.0
 11
-19.3514633799999984
 21
147.9649306100000103
 31
0.0
  0
LINE
  5
473
  8
SLD-0_2
  6
CONTINUOUS
 62
     7
 10
-20.5502246799999995
 20
147.9649306100000103
 30
0.0
 11
-20.5502246799999995
 21
160.2160076300000071
 31
0.0
  0
LINE
  5
474
  8
SLD-0_2
  6
CONTINUOUS
 62
     7
 10
-91.6003914100000003
 20
135.7158802499999979
 30
0.0
 11
-97.3489737000000019
 21
135.7158802499999979
 31
0.0
  0
LINE
  5
475
  8
SLD-0_2
  6
CONTINUOUS
 62
     7
 10
127.2267451200000039
 20
135.7158802499999979
 30
0.0
 11
127.2267451200000039
 21
147.9649306100000103
 31
0.0
  0
LINE
  5
476
  8
SLD-0_2
  6
CONTINUOUS
 62
     7
 10
135.7264997899999912
 20
135.7158802499999979
 30
0.0
 11
135.7264997899999912
 21
147.9649306100000103
 31
0.0
  0
LINE
  5
477
  8
SLD-0_2
  6
CONTINUOUS
 62
     7
 10
-31.0685190899999988
 20
307.1341248699999937
 30
0.0
 11
-29.0672058399999997
 21
312.1024483300000156
 31
0.0
  0
LINE
  5
478
  8
SLD-0_2
  6
CONTINUOUS
 62
     7
 10
-8.5058655900000009
 20
389.6348433100000079
 30
0.0
 11
-8.5058655900000009
 21
377.3138470000000098
 31
0.0
  0
LINE
  5
479
  8
SLD-0_2
  6
CONTINUOUS
 62
     7
 10
27.499532949999999
 20
301.6348200799999972
 30
0.0
 11
27.499532949999999
 21
312.384152169999993
 31
0.0
  0
LINE
  5
47A
  8
SLD-0_2
  6
CONTINUOUS
 62
     7
 10
18.8903393800000003
 20
301.6348200799999972
 30
0.0
 11
18.8903393800000003
 21
312.384152169999993
 31
0.0
  0
LINE
  5
47B
  8
SLD-0_2
  6
CONTINUOUS
 62
     7
 10
170.9333996800000079
 20
301.6348200799999972
 30
0.0
 11
170.9333996800000079
 21
312.384152169999993
 31
0.0
  0
LINE
  5
47C
  8
SLD-0_2
  6
CONTINUOUS
 62
     7
 10
145.1058189599999935
 20
301.6348200799999972
 30
0.0
 11
145.1058189599999935
 21
312.384152169999993
 31
0.0
  0
LINE
  5
47D
  8
SLD-0_2
  6
CONTINUOUS
 62
     7
 10
102.0618777499999936
 20
301.6348200799999972
 30
0.0
 11
102.0618777499999936
 21
312.384152169999993
 31
0.0
  0
LINE
  5
47E
  8
SLD-0_2
  6
CONTINUOUS
 62
     7
 10
114.9736414599999961
 20
312.384152169999993
 30
0.0
 11
114.9736414599999961
 21
323.1344975800000157
 31
0.0
  0
LINE
  5
47F
  8
SLD-0_2
  6
CONTINUOUS
 62
     7
 10
44.6976536299999907
 20
147.9649306100000103
 30
0.0
 11
-91.6003914100000003
 21
147.9649306100000103
 31
0.0
  0
LINE
  5
480
  8
SLD-0_2
  6
CONTINUOUS
 62
     7
 10
-91.6003914100000003
 20
139.9819707499999879
 30
0.0
 11
43.1614557199999922
 21
139.9819707499999879
 31
0.0
  0
LINE
  5
481
  8
SLD-0_2
  6
CONTINUOUS
 62
     7
 10
-29.1400263999999893
 20
285.1982205599999816
 30
0.0
 11
-29.1761811100000017
 21
285.2190064999999777
 31
0.0
  0
LINE
  5
482
  8
SLD-0_2
  6
CONTINUOUS
 62
     7
 10
60.4274690499999991
 20
141.6580072600000051
 30
0.0
 11
195.1893161799999916
 21
141.6580072600000051
 31
0.0
  0
LINE
  5
483
  8
SLD-0_2
  6
CONTINUOUS
 62
     7
 10
196.7609803899999861
 20
323.1344975800000157
 30
0.0
 11
196.7609803899999861
 21
312.384152169999993
 31
0.0
  0
LINE
  5
484
  8
SLD-0_2
  6
CONTINUOUS
 62
     7
 10
-87.3515273900000011
 20
160.2160076300000071
 30
0.0
 11
-87.3515273900000011
 21
147.9649306100000103
 31
0.0
  0
LINE
  5
485
  8
SLD-0_2
  6
CONTINUOUS
 62
     7
 10
26.2004526599999998
 20
135.7158802499999979
 30
0.0
 11
26.2004526599999998
 21
147.9649306100000103
 31
0.0
  0
LINE
  5
486
  8
SLD-0_2
  6
CONTINUOUS
 62
     7
 10
44.6976536299999907
 20
160.2160076300000071
 30
0.0
 11
44.6976536299999907
 21
147.9649306100000103
 31
0.0
  0
LINE
  5
487
  8
SLD-0_2
  6
CONTINUOUS
 62
     7
 10
119.9267650700000019
 20
147.9649306100000103
 30
0.0
 11
119.9267650700000019
 21
135.7158802499999979
 31
0.0
  0
LINE
  5
488
  8
SLD-0_2
  6
CONTINUOUS
 62
     7
 10
186.7270544600000051
 20
135.7158802499999979
 30
0.0
 11
186.7270544600000051
 21
147.9649306100000103
 31
0.0
  0
LINE
  5
489
  8
SLD-0_2
  6
CONTINUOUS
 62
     7
 10
71.9763131100000066
 20
147.9649306100000103
 30
0.0
 11
71.9763131100000066
 21
160.2160076300000071
 31
0.0
  0
LINE
  5
48A
  8
SLD-0_2
  6
CONTINUOUS
 62
     7
 10
97.4776037700000018
 20
147.9649306100000103
 30
0.0
 11
97.4776037700000018
 21
160.2160076300000071
 31
0.0
  0
LINE
  5
48B
  8
SLD-0_2
  6
CONTINUOUS
 62
     7
 10
18.4444771799999998
 20
389.6348433100000079
 30
0.0
 11
18.4444771799999998
 21
377.3138470000000098
 31
0.0
  0
LINE
  5
48C
  8
SLD-0_2
  6
CONTINUOUS
 62
     7
 10
-80.3727707900000041
 20
389.6348433100000079
 30
0.0
 11
-80.3727707900000041
 21
377.3138470000000098
 31
0.0
  0
LINE
  5
48D
  8
SLD-0_2
  6
CONTINUOUS
 62
     7
 10
-15.5454215900000001
 20
301.6348200799999972
 30
0.0
 11
-15.5454215900000001
 21
312.384152169999993
 31
0.0
  0
LINE
  5
48E
  8
SLD-0_2
  6
CONTINUOUS
 62
     7
 10
5.9785756599999988
 20
312.384152169999993
 30
0.0
 11
5.9785756599999988
 21
323.1344975800000157
 31
0.0
  0
LINE
  5
48F
  8
SLD-0_2
  6
CONTINUOUS
 62
     7
 10
-80.1113334100000003
 20
312.384152169999993
 30
0.0
 11
-80.1113334100000003
 21
323.1344975800000157
 31
0.0
  0
LINE
  5
490
  8
SLD-0_2
  6
CONTINUOUS
 62
     7
 10
98.9530022900000006
 20
389.6348433100000079
 30
0.0
 11
98.9530022900000006
 21
377.3138470000000098
 31
0.0
  0
LINE
  5
491
  8
SLD-0_2
  6
CONTINUOUS
 62
     7
 10
197.7702502600000116
 20
377.3138470000000098
 30
0.0
 11
54.0344132299999984
 21
377.3138470000000098
 31
0.0
  0
LINE
  5
492
  8
SLD-0_2
  6
CONTINUOUS
 62
     7
 10
106.366474530000005
 20
312.384152169999993
 30
0.0
 11
106.366474530000005
 21
323.1344975800000157
 31
0.0
  0
LINE
  5
493
  8
SLD-0_2
  6
CONTINUOUS
 62
     7
 10
-95.8522953899999948
 20
151.9817436200000031
 30
0.0
 11
38.90752509
 21
151.9817436200000031
 31
0.0
  0
LINE
  5
494
  8
SLD-0_2
  6
CONTINUOUS
 62
     7
 10
196.7265274099999885
 20
147.9649306100000103
 30
0.0
 11
60.4264557300000007
 21
147.9649306100000103
 31
0.0
  0
LINE
  5
495
  8
SLD-0_2
  6
CONTINUOUS
 62
     7
 10
-28.2648267400000002
 20
290.6891757299999881
 30
0.0
 11
-28.2451513200000015
 21
290.4355330199999798
 31
0.0
  0
LINE
  5
496
  8
SLD-0_2
  6
CONTINUOUS
 62
     7
 10
-28.3689378900000015
 20
285.946340350000014
 30
0.0
 11
-28.4618253599999989
 21
285.728866709999977
 31
0.0
  0
LINE
  5
497
  8
SLD-0_2
  6
CONTINUOUS
 62
     7
 10
-108.3729163600000049
 20
121.6344416900000027
 30
0.0
 11
-218.3118753800000036
 21
121.6344416900000027
 31
0.0
  0
LINE
  5
498
  8
SLD-0_2
  6
CONTINUOUS
 62
     7
 10
-208.3118753800000036
 20
317.1348316899999986
 30
0.0
 11
-215.8118753800000036
 21
317.1348316899999986
 31
0.0
  0
LINE
  5
499
  8
SLD-0_2
  6
CONTINUOUS
 62
     7
 10
56.1755650699999904
 20
151.9817436200000031
 30
0.0
 11
190.9353855500000066
 21
151.9817436200000031
 31
0.0
  0
LINE
  5
49A
  8
SLD-0_2
  6
CONTINUOUS
 62
     7
 10
-50.2993660300000016
 20
135.7158802499999979
 30
0.0
 11
-50.2993660300000016
 21
147.9649306100000103
 31
0.0
  0
LINE
  5
49B
  8
SLD-0_2
  6
CONTINUOUS
 62
     7
 10
21.948548670000001
 20
147.9649306100000103
 30
0.0
 11
21.948548670000001
 21
160.2160076300000071
 31
0.0
  0
LINE
  5
49C
  8
SLD-0_2
  6
CONTINUOUS
 62
     7
 10
158.1756610900000055
 20
160.2160076300000071
 30
0.0
 11
158.1756610900000055
 21
147.9649306100000103
 31
0.0
  0
LINE
  5
49D
  8
SLD-0_2
  6
CONTINUOUS
 62
     7
 10
196.7265274099999885
 20
160.2160076300000071
 30
0.0
 11
196.7265274099999885
 21
147.9649306100000103
 31
0.0
  0
LINE
  5
49E
  8
SLD-0_2
  6
CONTINUOUS
 62
     7
 10
-35.3183964199999991
 20
312.1024483300000156
 30
0.0
 11
-35.3183964199999991
 21
307.1341248699999937
 31
0.0
  0
LINE
  5
49F
  8
SLD-0_2
  6
CONTINUOUS
 62
     7
 10
-98.3389904200000018
 20
377.3138470000000098
 30
0.0
 11
-98.3389904200000018
 21
389.6348433100000079
 31
0.0
  0
LINE
  5
4A0
  8
SLD-0_2
  6
CONTINUOUS
 62
     7
 10
-19.8490050499999988
 20
312.384152169999993
 30
0.0
 11
-19.8490050499999988
 21
323.1344975800000157
 31
0.0
  0
LINE
  5
4A1
  8
SLD-0_2
  6
CONTINUOUS
 62
     7
 10
-54.2867926600000033
 20
312.384152169999993
 30
0.0
 11
-54.2867926600000033
 21
323.1344975800000157
 31
0.0
  0
LINE
  5
4A2
  8
SLD-0_2
  6
CONTINUOUS
 62
     7
 10
-88.7215403099999946
 20
312.384152169999993
 30
0.0
 11
-88.7215403099999946
 21
323.1344975800000157
 31
0.0
  0
LINE
  5
4A3
  8
SLD-0_2
  6
CONTINUOUS
 62
     7
 10
54.0344132299999984
 20
377.3138470000000098
 30
0.0
 11
54.0344132299999984
 21
389.6348433100000079
 31
0.0
  0
LINE
  5
4A4
  8
SLD-0_2
  6
CONTINUOUS
 62
     7
 10
175.2359698200000082
 20
312.384152169999993
 30
0.0
 11
175.2359698200000082
 21
323.1344975800000157
 31
0.0
  0
LINE
  5
4A5
  8
SLD-0_2
  6
CONTINUOUS
 62
     7
 10
-28.7670228899999998
 20
285.3543831700000055
 30
0.0
 11
-28.8502493000000015
 21
285.282581040000025
 31
0.0
  0
LINE
  5
4A6
  8
SLD-0_2
  6
CONTINUOUS
 62
     7
 10
-29.2859422900000013
 20
285.4166020399999866
 30
0.0
 11
-29.2870969700000003
 21
285.4226628299999788
 31
0.0
  0
LINE
  5
4A7
  8
SLD-0_2
  6
CONTINUOUS
 62
     7
 10
261.6881246199999964
 20
121.6344416900000027
 30
0.0
 11
261.6881246199999964
 21
119.6344416900000027
 31
0.0
  0
LINE
  5
4A8
  8
SLD-0_2
  6
CONTINUOUS
 62
     7
 10
259.1881246199999964
 20
301.6348316899999986
 30
0.0
 11
261.6881246199999964
 21
304.1348316899999986
 31
0.0
  0
LINE
  5
4A9
  8
SLD-0_2
  6
CONTINUOUS
 62
     7
 10
196.7609803899999861
 20
312.384152169999993
 30
0.0
 11
192.4563836099999889
 21
312.384152169999993
 31
0.0
  0
LINE
  5
4AA
  8
SLD-0_2
  6
CONTINUOUS
 62
     7
 10
-83.0996234100000066
 20
147.9649306100000103
 30
0.0
 11
-83.0996234100000066
 21
135.7158802499999979
 31
0.0
  0
LINE
  5
4AB
  8
SLD-0_2
  6
CONTINUOUS
 62
     7
 10
-74.5988554200000067
 20
147.9649306100000103
 30
0.0
 11
-74.5988554200000067
 21
135.7158802499999979
 31
0.0
  0
LINE
  5
4AC
  8
SLD-0_2
  6
CONTINUOUS
 62
     7
 10
17.7006979800000011
 20
135.7158802499999979
 30
0.0
 11
17.7006979800000011
 21
147.9649306100000103
 31
0.0
  0
LINE
  5
4AD
  8
SLD-0_2
  6
CONTINUOUS
 62
     7
 10
-36.349959400000003
 20
160.2160076300000071
 30
0.0
 11
-36.349959400000003
 21
147.9649306100000103
 31
0.0
  0
LINE
  5
4AE
  8
SLD-0_2
  6
CONTINUOUS
 62
     7
 10
-97.3489737000000019
 20
135.7158802499999979
 30
0.0
 11
-97.3489737000000019
 21
147.9649306100000103
 31
0.0
  0
LINE
  5
4AF
  8
SLD-0_2
  6
CONTINUOUS
 62
     7
 10
63.4785850900000028
 20
147.9649306100000103
 30
0.0
 11
63.4785850900000028
 21
160.2160076300000071
 31
0.0
  0
LINE
  5
4B0
  8
SLD-0_2
  6
CONTINUOUS
 62
     7
 10
77.4259650700000037
 20
147.9649306100000103
 30
0.0
 11
77.4259650700000037
 21
135.7158802499999979
 31
0.0
  0
LINE
  5
4B1
  8
SLD-0_2
  6
CONTINUOUS
 62
     7
 10
261.6881246199999964
 20
119.6344416900000027
 30
0.0
 11
-218.3118753800000036
 21
119.6344416900000027
 31
0.0
  0
LINE
  5
4B2
  8
SLD-0_2
  6
CONTINUOUS
 62
     7
 10
-108.3729163600000049
 20
132.6333511900000133
 30
0.0
 11
241.6881246199999964
 21
132.6333511900000133
 31
0.0
  0
LINE
  5
4B3
  8
SLD-0_2
  6
CONTINUOUS
 62
     7
 10
9.4603540400000004
 20
389.6348433100000079
 30
0.0
 11
9.4603540400000004
 21
377.3138470000000098
 31
0.0
  0
LINE
  5
4B4
  8
SLD-0_2
  6
CONTINUOUS
 62
     7
 10
-67.1985563799999994
 20
301.6348200799999972
 30
0.0
 11
-67.1985563799999994
 21
312.384152169999993
 31
0.0
  0
LINE
  5
4B5
  8
SLD-0_2
  6
CONTINUOUS
 62
     7
 10
44.7179200899999998
 20
312.384152169999993
 30
0.0
 11
-93.026137090000006
 21
312.384152169999993
 31
0.0
  0
LINE
  5
4B6
  8
SLD-0_2
  6
CONTINUOUS
 62
     7
 10
-45.6765857700000026
 20
312.384152169999993
 30
0.0
 11
-45.6765857700000026
 21
323.1344975800000157
 31
0.0
  0
LINE
  5
4B7
  8
SLD-0_2
  6
CONTINUOUS
 62
     7
 10
136.4966253899999913
 20
301.6348200799999972
 30
0.0
 11
136.4966253899999913
 21
312.384152169999993
 31
0.0
  0
LINE
  5
4B8
  8
SLD-0_2
  6
CONTINUOUS
 62
     7
 10
196.7589537499999892
 20
312.384152169999993
 30
0.0
 11
59.0159098900000032
 21
312.384152169999993
 31
0.0
  0
LINE
  5
4B9
  8
SLD-0_2
  6
CONTINUOUS
 62
     7
 10
143.8675380599999869
 20
389.6348433100000079
 30
0.0
 11
143.8675380599999869
 21
377.3138470000000098
 31
0.0
  0
LINE
  5
4BA
  8
SLD-0_2
  6
CONTINUOUS
 62
     7
 10
80.9847560099999981
 20
389.6348433100000079
 30
0.0
 11
80.9847560099999981
 21
377.3138470000000098
 31
0.0
  0
LINE
  5
4BB
  8
SLD-0_2
  6
CONTINUOUS
 62
     7
 10
-91.6003914100000003
 20
141.6580072600000051
 30
0.0
 11
43.1614557199999922
 21
141.6580072600000051
 31
0.0
  0
LINE
  5
4BC
  8
SLD-0_2
  6
CONTINUOUS
 62
     7
 10
38.9500846600000017
 20
160.2160076300000071
 30
0.0
 11
-97.3489737000000019
 21
160.2160076300000071
 31
0.0
  0
LINE
  5
4BD
  8
SLD-0_2
  6
CONTINUOUS
 62
     7
 10
-97.3489737000000019
 20
160.2160076300000071
 30
0.0
 11
-97.3489737000000019
 21
147.9649306100000103
 31
0.0
  0
LINE
  5
4BE
  8
SLD-0_2
  6
CONTINUOUS
 62
     7
 10
220.0451199800000097
 20
135.6348144000000104
 30
0.0
 11
220.0451199800000097
 21
140.636577520000003
 31
0.0
  0
LINE
  5
4BF
  8
SLD-0_2
  6
CONTINUOUS
 62
     7
 10
-28.2810267700000004
 20
290.8816585899999723
 30
0.0
 11
-28.2648267400000002
 21
290.6891757299999881
 31
0.0
  0
LINE
  5
4C0
  8
SLD-0_2
  6
CONTINUOUS
 62
     7
 10
-29.2752175900000005
 20
285.3755179600000247
 30
0.0
 11
-29.28214775
 21
285.4000646100000154
 31
0.0
  0
LINE
  5
4C1
  8
SLD-0_2
  6
CONTINUOUS
 62
     7
 10
59.0159098900000032
 20
312.384152169999993
 30
0.0
 11
59.0159098900000032
 21
301.6348200799999972
 31
0.0
  0
LINE
  5
4C2
  8
SLD-0_2
  6
CONTINUOUS
 62
     7
 10
-57.5983327499999973
 20
147.9649306100000103
 30
0.0
 11
-57.5983327499999973
 21
135.7158802499999979
 31
0.0
  0
LINE
  5
4C3
  8
SLD-0_2
  6
CONTINUOUS
 62
     7
 10
-80.0515473399999848
 20
147.9649306100000103
 30
0.0
 11
-80.0515473399999848
 21
160.2160076300000071
 31
0.0
  0
LINE
  5
4C4
  8
SLD-0_2
  6
CONTINUOUS
 62
     7
 10
-54.5502566899999977
 20
147.9649306100000103
 30
0.0
 11
-54.5502566899999977
 21
160.2160076300000071
 31
0.0
  0
LINE
  5
4C5
  8
SLD-0_2
  6
CONTINUOUS
 62
     7
 10
128.4265197400000034
 20
147.9649306100000103
 30
0.0
 11
128.4265197400000034
 21
135.7158802499999979
 31
0.0
  0
LINE
  5
4C6
  8
SLD-0_2
  6
CONTINUOUS
 62
     7
 10
136.9262744099999907
 20
147.9649306100000103
 30
0.0
 11
136.9262744099999907
 21
135.7158802499999979
 31
0.0
  0
LINE
  5
4C7
  8
SLD-0_2
  6
CONTINUOUS
 62
     7
 10
162.4255384200000094
 20
147.9649306100000103
 30
0.0
 11
162.4255384200000094
 21
135.7158802499999979
 31
0.0
  0
LINE
  5
4C8
  8
SLD-0_2
  6
CONTINUOUS
 62
     7
 10
88.977849099999986
 20
147.9649306100000103
 30
0.0
 11
88.977849099999986
 21
160.2160076300000071
 31
0.0
  0
LINE
  5
4C9
  8
SLD-0_2
  6
CONTINUOUS
 62
     7
 10
54.6788867599999975
 20
135.7158802499999979
 30
0.0
 11
54.6788867599999975
 21
147.9649306100000103
 31
0.0
  0
LINE
  5
4CA
  8
SLD-0_2
  6
CONTINUOUS
 62
     7
 10
-29.0672058399999997
 20
312.1024483300000156
 30
0.0
 11
-35.3183964199999991
 21
312.1024483300000156
 31
0.0
  0
LINE
  5
4CB
  8
SLD-0_2
  6
CONTINUOUS
 62
     7
 10
27.4265736800000006
 20
389.6348433100000079
 30
0.0
 11
27.4265736800000006
 21
377.3138470000000098
 31
0.0
  0
LINE
  5
4CC
  8
SLD-0_2
  6
CONTINUOUS
 62
     7
 10
-35.4572216899999972
 20
389.6348433100000079
 30
0.0
 11
-35.4572216899999972
 21
377.3138470000000098
 31
0.0
  0
LINE
  5
4CD
  8
SLD-0_2
  6
CONTINUOUS
 62
     7
 10
-49.9801692300000013
 20
301.6348200799999972
 30
0.0
 11
-49.9801692300000013
 21
312.384152169999993
 31
0.0
  0
LINE
  5
4CE
  8
SLD-0_2
  6
CONTINUOUS
 62
     7
 10
-28.1826071499999991
 20
289.3989915600000131
 30
0.0
 11
-28.1663645799999998
 21
288.9920552500000213
 31
0.0
  0
LINE
  5
4CF
  8
SLD-0_2
  6
CONTINUOUS
 62
     7
 10
-28.9899438700000012
 20
285.2013091000000031
 30
0.0
 11
-29.0474035400000012
 21
285.1869044300000269
 31
0.0
  0
LINE
  5
4D0
  8
SLD-0_2
  6
CONTINUOUS
 62
     7
 10
261.6881246199999964
 20
376.6348316899999986
 30
0.0
 11
261.6881246199999964
 21
387.1348316899999986
 31
0.0
  0
LINE
  5
4D1
  8
SLD-0_2
  6
CONTINUOUS
 62
     7
 10
54.7092864500000005
 20
301.6348200799999972
 30
0.0
 11
54.7092864500000005
 21
312.384152169999993
 31
0.0
  0
LINE
  5
4D2
  8
SLD-0_2
  6
CONTINUOUS
 62
     7
 10
-23.5993140699999984
 20
147.9649306100000103
 30
0.0
 11
-23.5993140699999984
 21
135.7158802499999979
 31
0.0
  0
LINE
  5
4D3
  8
SLD-0_2
  6
CONTINUOUS
 62
     7
 10
-61.851250059999991
 20
160.2160076300000071
 30
0.0
 11
-61.851250059999991
 21
147.9649306100000103
 31
0.0
  0
LINE
  5
4D4
  8
SLD-0_2
  6
CONTINUOUS
 62
     7
 10
6.1508405999999987
 20
160.2160076300000071
 30
0.0
 11
6.1508405999999987
 21
147.9649306100000103
 31
0.0
  0
LINE
  5
4D5
  8
SLD-0_2
  6
CONTINUOUS
 62
     7
 10
122.9788944299999969
 20
147.9649306100000103
 30
0.0
 11
122.9788944299999969
 21
160.2160076300000071
 31
0.0
  0
LINE
  5
4D6
  8
SLD-0_2
  6
CONTINUOUS
 62
     7
 10
149.6759064199999898
 20
160.2160076300000071
 30
0.0
 11
149.6759064199999898
 21
147.9649306100000103
 31
0.0
  0
LINE
  5
4D7
  8
SLD-0_2
  6
CONTINUOUS
 62
     7
 10
148.4761317900000108
 20
147.9649306100000103
 30
0.0
 11
148.4761317900000108
 21
160.2160076300000071
 31
0.0
  0
LINE
  5
4D8
  8
SLD-0_2
  6
CONTINUOUS
 62
     7
 10
156.9758864599999981
 20
147.9649306100000103
 30
0.0
 11
156.9758864599999981
 21
160.2160076300000071
 31
0.0
  0
LINE
  5
4D9
  8
SLD-0_2
  6
CONTINUOUS
 62
     7
 10
-44.5680102299999916
 20
307.1341248699999937
 30
0.0
 11
-29.569814130000001
 21
307.1341248699999937
 31
0.0
  0
LINE
  5
4DA
  8
SLD-0_2
  6
CONTINUOUS
 62
     7
 10
-44.5680102299999916
 20
284.6525372300000072
 30
0.0
 11
-44.5680102299999916
 21
307.1341248699999937
 31
0.0
  0
LINE
  5
4DB
  8
SLD-0_2
  6
CONTINUOUS
 62
     7
 10
-44.4393181900000016
 20
389.6348433100000079
 30
0.0
 11
-44.4393181900000016
 21
377.3138470000000098
 31
0.0
  0
LINE
  5
4DC
  8
SLD-0_2
  6
CONTINUOUS
 62
     7
 10
-89.3568939299999982
 20
389.6348433100000079
 30
0.0
 11
-89.3568939299999982
 21
377.3138470000000098
 31
0.0
  0
LINE
  5
4DD
  8
SLD-0_2
  6
CONTINUOUS
 62
     7
 10
10.2811457999999991
 20
301.6348200799999972
 30
0.0
 11
10.2811457999999991
 21
312.384152169999993
 31
0.0
  0
LINE
  5
4DE
  8
SLD-0_2
  6
CONTINUOUS
 62
     7
 10
-24.1536018400000003
 20
301.6348200799999972
 30
0.0
 11
-24.1536018400000003
 21
312.384152169999993
 31
0.0
  0
LINE
  5
4DF
  8
SLD-0_2
  6
CONTINUOUS
 62
     7
 10
-75.8067366300000032
 20
301.6348200799999972
 30
0.0
 11
-75.8067366300000032
 21
312.384152169999993
 31
0.0
  0
LINE
  5
4E0
  8
SLD-0_2
  6
CONTINUOUS
 62
     7
 10
-2.6326445600000001
 20
312.384152169999993
 30
0.0
 11
-2.6326445600000001
 21
323.1344975800000157
 31
0.0
  0
LINE
  5
4E1
  8
SLD-0_2
  6
CONTINUOUS
 62
     7
 10
153.7150125299999956
 20
301.6348200799999972
 30
0.0
 11
153.7150125299999956
 21
312.384152169999993
 31
0.0
  0
LINE
  5
4E2
  8
SLD-0_2
  6
CONTINUOUS
 62
     7
 10
97.755254309999998
 20
312.384152169999993
 30
0.0
 11
97.755254309999998
 21
323.1344975800000157
 31
0.0
  0
LINE
  5
4E3
  8
SLD-0_2
  6
CONTINUOUS
 62
     7
 10
27.3982006300000016
 20
135.7158802499999979
 30
0.0
 11
27.3982006300000016
 21
147.9649306100000103
 31
0.0
  0
LINE
  5
4E4
  8
SLD-0_2
  6
CONTINUOUS
 62
     7
 10
56.1765783900000031
 20
160.2160076300000071
 30
0.0
 11
56.1765783900000031
 21
147.9649306100000103
 31
0.0
  0
LINE
  5
4E5
  8
SLD-0_2
  6
CONTINUOUS
 62
     7
 10
-28.1706467499999995
 20
287.3007865399999901
 30
0.0
 11
-28.1976976000000015
 21
286.9077614199999857
 31
0.0
  0
LINE
  5
4E6
  8
SLD-0_2
  6
CONTINUOUS
 62
     7
 10
-215.8118753800000036
 20
374.1348316899999986
 30
0.0
 11
-218.3118753800000036
 21
376.6348316899999986
 31
0.0
  0
LINE
  5
4E7
  8
SLD-0_2
  6
CONTINUOUS
 62
     7
 10
251.6881246199999964
 20
317.1348316899999986
 30
0.0
 11
259.1881246199999964
 21
317.1348316899999986
 31
0.0
  0
LINE
  5
4E8
  8
SLD-0_2
  6
CONTINUOUS
 62
     7
 10
-29.569814130000001
 20
301.740205689999982
 30
0.0
 11
-26.5318712999999988
 21
301.740205689999982
 31
0.0
  0
LINE
  5
4E9
  8
SLD-0_2
  6
CONTINUOUS
 62
     7
 10
-67.3009020199999952
 20
135.7158802499999979
 30
0.0
 11
-67.3009020199999952
 21
147.9649306100000103
 31
0.0
  0
LINE
  5
4EA
  8
SLD-0_2
  6
CONTINUOUS
 62
     7
 10
-53.3504820599999903
 20
160.2160076300000071
 30
0.0
 11
-53.3504820599999903
 21
147.9649306100000103
 31
0.0
  0
LINE
  5
4EB
  8
SLD-0_2
  6
CONTINUOUS
 62
     7
 10
-91.6003914100000003
 20
147.9649306100000103
 30
0.0
 11
-91.6003914100000003
 21
135.7158802499999979
 31
0.0
  0
LINE
  5
4EC
  8
SLD-0_2
  6
CONTINUOUS
 62
     7
 10
102.925229079999994
 20
147.9649306100000103
 30
0.0
 11
102.925229079999994
 21
135.7158802499999979
 31
0.0
  0
LINE
  5
4ED
  8
SLD-0_2
  6
CONTINUOUS
 62
     7
 10
1.6739788799999991
 20
301.6348200799999972
 30
0.0
 11
1.6739788799999991
 21
312.384152169999993
 31
0.0
  0
LINE
  5
4EE
  8
SLD-0_2
  6
CONTINUOUS
 62
     7
 10
188.1497601700000075
 20
301.6348200799999972
 30
0.0
 11
188.1497601700000075
 21
312.384152169999993
 31
0.0
  0
LINE
  5
4EF
  8
SLD-0_2
  6
CONTINUOUS
 62
     7
 10
134.8854415600000038
 20
389.6348433100000079
 30
0.0
 11
134.8854415600000038
 21
377.3138470000000098
 31
0.0
  0
LINE
  5
4F0
  8
SLD-0_2
  6
CONTINUOUS
 62
     7
 10
89.9688791500000065
 20
389.6348433100000079
 30
0.0
 11
89.9688791500000065
 21
377.3138470000000098
 31
0.0
  0
LINE
  5
4F1
  8
SLD-0_2
  6
CONTINUOUS
 62
     7
 10
-28.1557214599999988
 20
287.7148630699999785
 30
0.0
 11
-28.1706467499999995
 21
287.3007865399999901
 31
0.0
  0
LINE
  5
4F2
  8
SLD-0_2
  6
CONTINUOUS
 62
     7
 10
-28.1976976000000015
 20
286.9077614199999857
 30
0.0
 11
-28.2386074399999991
 21
286.5449222899999882
 31
0.0
  0
LINE
  5
4F3
  8
SLD-0_2
  6
CONTINUOUS
 62
     7
 10
-29.2646560499999993
 20
285.3454295299999899
 30
0.0
 11
-29.2752175900000005
 21
285.3755179600000247
 31
0.0
  0
LINE
  5
4F4
  8
SLD-0_2
  6
CONTINUOUS
 62
     7
 10
-215.8118753800000036
 20
367.1348316899999986
 30
0.0
 11
-218.3118753800000036
 21
364.6348316899999986
 31
0.0
  0
LINE
  5
4F5
  8
SLD-0_2
  6
CONTINUOUS
 62
     7
 10
56.1755650699999904
 20
153.9090842699999939
 30
0.0
 11
190.9353855500000066
 21
153.9090842699999939
 31
0.0
  0
LINE
  5
4F6
  8
SLD-0_2
  6
CONTINUOUS
 62
     7
 10
-40.5998367299999998
 20
147.9649306100000103
 30
0.0
 11
-40.5998367299999998
 21
135.7158802499999979
 31
0.0
  0
LINE
  5
4F7
  8
SLD-0_2
  6
CONTINUOUS
 62
     7
 10
-71.5507793499999991
 20
147.9649306100000103
 30
0.0
 11
-71.5507793499999991
 21
160.2160076300000071
 31
0.0
  0
LINE
  5
4F8
  8
SLD-0_2
  6
CONTINUOUS
 62
     7
 10
-10.8506953900000003
 20
160.2160076300000071
 30
0.0
 11
-10.8506953900000003
 21
147.9649306100000103
 31
0.0
  0
LINE
  5
4F9
  8
SLD-0_2
  6
CONTINUOUS
 62
     7
 10
13.4487939999999995
 20
147.9649306100000103
 30
0.0
 11
13.4487939999999995
 21
160.2160076300000071
 31
0.0
  0
LINE
  5
4FA
  8
SLD-0_2
  6
CONTINUOUS
 62
     7
 10
76.2261904500000043
 20
135.7158802499999979
 30
0.0
 11
76.2261904500000043
 21
147.9649306100000103
 31
0.0
  0
LINE
  5
4FB
  8
SLD-0_2
  6
CONTINUOUS
 62
     7
 10
161.2277904499999863
 20
135.7158802499999979
 30
0.0
 11
161.2277904499999863
 21
147.9649306100000103
 31
0.0
  0
LINE
  5
4FC
  8
SLD-0_2
  6
CONTINUOUS
 62
     7
 10
73.1781143799999967
 20
160.2160076300000071
 30
0.0
 11
73.1781143799999967
 21
147.9649306100000103
 31
0.0
  0
LINE
  5
4FD
  8
SLD-0_2
  6
CONTINUOUS
 62
     7
 10
132.6743704300000104
 20
160.2160076300000071
 30
0.0
 11
132.6743704300000104
 21
147.9649306100000103
 31
0.0
  0
LINE
  5
4FE
  8
SLD-0_2
  6
CONTINUOUS
 62
     7
 10
165.4756411300000138
 20
147.9649306100000103
 30
0.0
 11
165.4756411300000138
 21
160.2160076300000071
 31
0.0
  0
LINE
  5
4FF
  8
SLD-0_2
  6
CONTINUOUS
 62
     7
 10
-43.0672786299999899
 20
307.1341248699999937
 30
0.0
 11
-45.0685918699999917
 21
312.1024483300000156
 31
0.0
  0
LINE
  5
500
  8
SLD-0_2
  6
CONTINUOUS
 62
     7
 10
-26.4730985499999996
 20
389.6348433100000079
 30
0.0
 11
-26.4730985499999996
 21
377.3138470000000098
 31
0.0
  0
LINE
  5
501
  8
SLD-0_2
  6
CONTINUOUS
 62
     7
 10
-28.4592119500000003
 20
312.384152169999993
 30
0.0
 11
-28.4592119500000003
 21
323.1344975800000157
 31
0.0
  0
LINE
  5
502
  8
SLD-0_2
  6
CONTINUOUS
 62
     7
 10
-62.8949729099999928
 20
312.384152169999993
 30
0.0
 11
-62.8949729099999928
 21
323.1344975800000157
 31
0.0
  0
LINE
  5
503
  8
SLD-0_2
  6
CONTINUOUS
 62
     7
 10
-71.5051798100000013
 20
312.384152169999993
 30
0.0
 11
-71.5051798100000013
 21
323.1344975800000157
 31
0.0
  0
LINE
  5
504
  8
SLD-0_2
  6
CONTINUOUS
 62
     7
 10
179.5425932500000101
 20
301.6348200799999972
 30
0.0
 11
179.5425932500000101
 21
312.384152169999993
 31
0.0
  0
LINE
  5
505
  8
SLD-0_2
  6
CONTINUOUS
 62
     7
 10
162.3242061100000058
 20
301.6348200799999972
 30
0.0
 11
162.3242061100000058
 21
312.384152169999993
 31
0.0
  0
LINE
  5
506
  8
SLD-0_2
  6
CONTINUOUS
 62
     7
 10
84.8414639599999845
 20
301.6348200799999972
 30
0.0
 11
84.8414639599999845
 21
312.384152169999993
 31
0.0
  0
LINE
  5
507
  8
SLD-0_2
  6
CONTINUOUS
 62
     7
 10
179.802003979999995
 20
389.6348433100000079
 30
0.0
 11
179.802003979999995
 21
377.3138470000000098
 31
0.0
  0
LINE
  5
508
  8
SLD-0_2
  6
CONTINUOUS
 62
     7
 10
170.8178808399999866
 20
389.6348433100000079
 30
0.0
 11
170.8178808399999866
 21
377.3138470000000098
 31
0.0
  0
LINE
  5
509
  8
SLD-0_2
  6
CONTINUOUS
 62
     7
 10
123.5828350299999983
 20
312.384152169999993
 30
0.0
 11
123.5828350299999983
 21
323.1344975800000157
 31
0.0
  0
LINE
  5
50A
  8
SLD-0_2
  6
CONTINUOUS
 62
     7
 10
-95.8502687400000042
 20
160.2160076300000071
 30
0.0
 11
-95.8502687400000042
 21
147.9649306100000103
 31
0.0
  0
LINE
  5
50B
  8
SLD-0_2
  6
CONTINUOUS
 62
     7
 10
166.6774423999999897
 20
147.9649306100000103
 30
0.0
 11
166.6774423999999897
 21
160.2160076300000071
 31
0.0
  0
LINE
  5
50C
  8
SLD-0_2
  6
CONTINUOUS
 62
     7
 10
-28.2951097300000001
 20
286.2214037400000279
 30
0.0
 11
-28.3689378900000015
 21
285.946340350000014
 31
0.0
  0
LINE
  5
50D
  8
SLD-0_2
  6
CONTINUOUS
 62
     7
 10
241.6881246199999964
 20
301.6348316899999986
 30
0.0
 11
241.6881246199999964
 21
389.6348316899999986
 31
0.0
  0
LINE
  5
50E
  8
SLD-0_2
  6
CONTINUOUS
 62
     7
 10
-208.3118753800000036
 20
367.1348316899999986
 30
0.0
 11
-215.8118753800000036
 21
367.1348316899999986
 31
0.0
  0
LINE
  5
50F
  8
SLD-0_2
  6
CONTINUOUS
 62
     7
 10
-215.8118753800000036
 20
317.1348316899999986
 30
0.0
 11
-218.3118753800000036
 21
314.6348316899999986
 31
0.0
  0
LINE
  5
510
  8
SLD-0_2
  6
CONTINUOUS
 62
     7
 10
259.1881246199999964
 20
367.1348316899999986
 30
0.0
 11
261.6881246199999964
 21
364.6348316899999986
 31
0.0
  0
LINE
  5
511
  8
SLD-0_2
  6
CONTINUOUS
 62
     7
 10
-26.5318712999999988
 20
291.2827106699999717
 30
0.0
 11
-29.569814130000001
 21
291.2827106699999717
 31
0.0
  0
LINE
  5
512
  8
SLD-0_2
  6
CONTINUOUS
 62
     7
 10
-70.3510047299999854
 20
160.2160076300000071
 30
0.0
 11
-70.3510047299999854
 21
147.9649306100000103
 31
0.0
  0
LINE
  5
513
  8
SLD-0_2
  6
CONTINUOUS
 62
     7
 10
-37.5517606700000002
 20
147.9649306100000103
 30
0.0
 11
-37.5517606700000002
 21
160.2160076300000071
 31
0.0
  0
LINE
  5
514
  8
SLD-0_2
  6
CONTINUOUS
 62
     7
 10
31.6480779699999992
 20
160.2160076300000071
 30
0.0
 11
31.6480779699999992
 21
147.9649306100000103
 31
0.0
  0
LINE
  5
515
  8
SLD-0_2
  6
CONTINUOUS
 62
     7
 10
38.9500846600000017
 20
160.2160076300000071
 30
0.0
 11
44.6976536299999907
 21
160.2160076300000071
 31
0.0
  0
LINE
  5
516
  8
SLD-0_2
  6
CONTINUOUS
 62
     7
 10
68.9282370399999991
 20
147.9649306100000103
 30
0.0
 11
68.9282370399999991
 21
135.7158802499999979
 31
0.0
  0
LINE
  5
517
  8
SLD-0_2
  6
CONTINUOUS
 62
     7
 10
152.7260091299999942
 20
135.7158802499999979
 30
0.0
 11
152.7260091299999942
 21
147.9649306100000103
 31
0.0
  0
LINE
  5
518
  8
SLD-0_2
  6
CONTINUOUS
 62
     7
 10
98.6773783900000012
 20
160.2160076300000071
 30
0.0
 11
98.6773783900000012
 21
147.9649306100000103
 31
0.0
  0
LINE
  5
519
  8
SLD-0_2
  6
CONTINUOUS
 62
     7
 10
124.1786690499999963
 20
160.2160076300000071
 30
0.0
 11
124.1786690499999963
 21
147.9649306100000103
 31
0.0
  0
LINE
  5
51A
  8
SLD-0_2
  6
CONTINUOUS
 62
     7
 10
190.9749051500000121
 20
160.2160076300000071
 30
0.0
 11
196.7265274099999885
 21
160.2160076300000071
 31
0.0
  0
LINE
  5
51B
  8
SLD-0_2
  6
CONTINUOUS
 62
     7
 10
0.47825755
 20
389.6348433100000079
 30
0.0
 11
0.47825755
 21
377.3138470000000098
 31
0.0
  0
LINE
  5
51C
  8
SLD-0_2
  6
CONTINUOUS
 62
     7
 10
45.3927933200000027
 20
389.6348433100000079
 30
0.0
 11
45.3927933200000027
 21
377.3138470000000098
 31
0.0
  0
LINE
  5
51D
  8
SLD-0_2
  6
CONTINUOUS
 62
     7
 10
45.3927933200000027
 20
377.3138470000000098
 30
0.0
 11
-98.3389904200000018
 21
377.3138470000000098
 31
0.0
  0
LINE
  5
51E
  8
SLD-0_2
  6
CONTINUOUS
 62
     7
 10
40.4133233100000027
 20
323.1344975800000157
 30
0.0
 11
-97.3317471999999952
 21
323.1344975800000157
 31
0.0
  0
LINE
  5
51F
  8
SLD-0_2
  6
CONTINUOUS
 62
     7
 10
116.9192219300000062
 20
389.6348433100000079
 30
0.0
 11
116.9192219300000062
 21
377.3138470000000098
 31
0.0
  0
LINE
  5
520
  8
SLD-0_2
  6
CONTINUOUS
 62
     7
 10
158.0196093200000007
 20
312.384152169999993
 30
0.0
 11
158.0196093200000007
 21
323.1344975800000157
 31
0.0
  0
LINE
  5
521
  8
SLD-0_2
  6
CONTINUOUS
 62
     7
 10
132.6763970700000073
 20
147.9649306100000103
 30
0.0
 11
132.6763970700000073
 21
160.2160076300000071
 31
0.0
  0
LINE
  5
522
  8
SLD-0_2
  6
CONTINUOUS
 62
     7
 10
190.9749051500000121
 20
160.2160076300000071
 30
0.0
 11
54.6788867599999975
 21
160.2160076300000071
 31
0.0
  0
LINE
  5
523
  8
SLD-0_2
  6
CONTINUOUS
 62
     7
 10
-28.2023080899999989
 20
289.7813063400000146
 30
0.0
 11
-28.1826071499999991
 21
289.3989915600000131
 31
0.0
  0
LINE
  5
524
  8
SLD-0_2
  6
CONTINUOUS
 62
     7
 10
-29.2062256799999993
 20
285.2465877999999861
 30
0.0
 11
-29.2306558500000015
 21
285.2784970199999748
 31
0.0
  0
LINE
  5
525
  8
SLD-0_2
  6
CONTINUOUS
 62
     7
 10
-29.28214775
 20
285.4000646100000154
 30
0.0
 11
-29.2859422900000013
 21
285.4166020399999866
 31
0.0
  0
LINE
  5
526
  8
SLD-0_2
  6
CONTINUOUS
 62
     7
 10
-218.3118753800000036
 20
304.1348316899999986
 30
0.0
 11
-218.3118753800000036
 21
314.6348316899999986
 31
0.0
  0
LINE
  5
527
  8
SLD-0_2
  6
CONTINUOUS
 62
     7
 10
251.6881246199999964
 20
374.1348316899999986
 30
0.0
 11
259.1881246199999964
 21
374.1348316899999986
 31
0.0
  0
LINE
  5
528
  8
SLD-0_2
  6
CONTINUOUS
 62
     7
 10
-215.8118753800000036
 20
301.6348316899999986
 30
0.0
 11
-218.3118753800000036
 21
304.1348316899999986
 31
0.0
  0
LINE
  5
529
  8
SLD-0_2
  6
CONTINUOUS
 62
     7
 10
44.7179200899999998
 20
323.1344975800000157
 30
0.0
 11
44.7179200899999998
 21
312.384152169999993
 31
0.0
  0
LINE
  5
52A
  8
SLD-0_2
  6
CONTINUOUS
 62
     7
 10
18.9004726100000013
 20
147.9649306100000103
 30
0.0
 11
18.9004726100000013
 21
135.7158802499999979
 31
0.0
  0
LINE
  5
52B
  8
SLD-0_2
  6
CONTINUOUS
 62
     7
 10
23.1483233000000013
 20
160.2160076300000071
 30
0.0
 11
23.1483233000000013
 21
147.9649306100000103
 31
0.0
  0
LINE
  5
52C
  8
SLD-0_2
  6
CONTINUOUS
 62
     7
 10
84.7259451200000058
 20
135.7158802499999979
 30
0.0
 11
84.7259451200000058
 21
147.9649306100000103
 31
0.0
  0
LINE
  5
52D
  8
SLD-0_2
  6
CONTINUOUS
 62
     7
 10
144.2262544600000069
 20
135.7158802499999979
 30
0.0
 11
144.2262544600000069
 21
147.9649306100000103
 31
0.0
  0
LINE
  5
52E
  8
SLD-0_2
  6
CONTINUOUS
 62
     7
 10
153.9278103999999985
 20
147.9649306100000103
 30
0.0
 11
153.9278103999999985
 21
135.7158802499999979
 31
0.0
  0
LINE
  5
52F
  8
SLD-0_2
  6
CONTINUOUS
 62
     7
 10
105.9773584400000033
 20
147.9649306100000103
 30
0.0
 11
105.9773584400000033
 21
160.2160076300000071
 31
0.0
  0
LINE
  5
530
  8
SLD-0_2
  6
CONTINUOUS
 62
     7
 10
115.6768877300000042
 20
160.2160076300000071
 30
0.0
 11
115.6768877300000042
 21
147.9649306100000103
 31
0.0
  0
LINE
  5
531
  8
SLD-0_2
  6
CONTINUOUS
 62
     7
 10
183.6749250999999958
 20
160.2160076300000071
 30
0.0
 11
183.6749250999999958
 21
147.9649306100000103
 31
0.0
  0
LINE
  5
532
  8
SLD-0_2
  6
CONTINUOUS
 62
     7
 10
60.4264557300000007
 20
147.9649306100000103
 30
0.0
 11
60.4264557300000007
 21
135.7158802499999979
 31
0.0
  0
LINE
  5
533
  8
SLD-0_2
  6
CONTINUOUS
 62
     7
 10
-29.569814130000001
 20
307.1341248699999937
 30
0.0
 11
-29.569814130000001
 21
284.6525372300000072
 31
0.0
  0
LINE
  5
534
  8
SLD-0_2
  6
CONTINUOUS
 62
     7
 10
31.8041297299999997
 20
312.384152169999993
 30
0.0
 11
31.8041297299999997
 21
323.1344975800000157
 31
0.0
  0
LINE
  5
535
  8
SLD-0_2
  6
CONTINUOUS
 62
     7
 10
-37.0694188399999973
 20
312.384152169999993
 30
0.0
 11
-37.0694188399999973
 21
323.1344975800000157
 31
0.0
  0
LINE
  5
536
  8
SLD-0_2
  6
CONTINUOUS
 62
     7
 10
63.0205630199999973
 20
389.6348433100000079
 30
0.0
 11
63.0205630199999973
 21
377.3138470000000098
 31
0.0
  0
LINE
  5
537
  8
SLD-0_2
  6
CONTINUOUS
 62
     7
 10
107.1771330600000027
 20
147.9649306100000103
 30
0.0
 11
107.1771330600000027
 21
160.2160076300000071
 31
0.0
  0
LINE
  5
538
  8
SLD-0_2
  6
CONTINUOUS
 62
     7
 10
-28.2960669200000012
 20
291.0466063800000143
 30
0.0
 11
-28.2920179800000007
 21
291.0038470000000075
 31
0.0
  0
LINE
  5
539
  8
SLD-0_2
  6
CONTINUOUS
 62
     7
 10
-28.2237339600000006
 20
290.129865030000019
 30
0.0
 11
-28.2023080899999989
 21
289.7813063400000146
 31
0.0
  0
LINE
  5
53A
  8
SLD-0_2
  6
CONTINUOUS
 62
     7
 10
-28.1663645799999998
 20
288.9920552500000213
 30
0.0
 11
-28.1553138199999999
 21
288.5696320100000207
 31
0.0
  0
LINE
  5
53B
  8
SLD-0_2
  6
CONTINUOUS
 62
     7
 10
-28.2386074399999991
 20
286.5449222899999882
 30
0.0
 11
-28.2951097300000001
 21
286.2214037400000279
 31
0.0
  0
LINE
  5
53C
  8
SLD-0_2
  6
CONTINUOUS
 62
     7
 10
-28.6742160599999991
 20
285.4502526399999738
 30
0.0
 11
-28.7670228899999998
 21
285.3543831700000055
 31
0.0
  0
LINE
  5
53D
  8
SLD-0_2
  6
CONTINUOUS
 62
     7
 10
-28.8502493000000015
 20
285.282581040000025
 30
0.0
 11
-28.9243910399999997
 21
285.232378830000016
 31
0.0
  0
LINE
  5
53E
  8
SLD-0_2
  6
CONTINUOUS
 62
     7
 10
-29.0474035400000012
 20
285.1869044300000269
 30
0.0
 11
-29.0972657999999988
 21
285.1866973900000062
 31
0.0
  0
LINE
  5
53F
  8
SLD-0_2
  6
CONTINUOUS
 62
     7
 10
-29.0972657999999988
 20
285.1866973900000062
 30
0.0
 11
-29.1400263999999893
 21
285.1982205599999816
 31
0.0
  0
LINE
  5
540
  8
SLD-0_2
  6
CONTINUOUS
 62
     7
 10
259.1881246199999964
 20
317.1348316899999986
 30
0.0
 11
261.6881246199999964
 21
314.6348316899999986
 31
0.0
  0
LINE
  5
541
  8
SLD-0_2
  6
CONTINUOUS
 62
     7
 10
-108.3729163600000049
 20
132.6333511900000133
 30
0.0
 11
-108.3729163600000049
 21
119.6344416900000027
 31
0.0
  0
LINE
  5
542
  8
SLD-0_2
  6
CONTINUOUS
 62
     7
 10
192.4563836099999889
 20
312.384152169999993
 30
0.0
 11
192.4563836099999889
 21
323.1344975800000157
 31
0.0
  0
LINE
  5
543
  8
SLD-0_2
  6
CONTINUOUS
 62
     7
 10
0.70118864
 20
135.7158802499999979
 30
0.0
 11
0.70118864
 21
147.9649306100000103
 31
0.0
  0
LINE
  5
544
  8
SLD-0_2
  6
CONTINUOUS
 62
     7
 10
35.9020085900000012
 20
147.9649306100000103
 30
0.0
 11
35.9020085900000012
 21
135.7158802499999979
 31
0.0
  0
LINE
  5
545
  8
SLD-0_2
  6
CONTINUOUS
 62
     7
 10
4.9490393299999988
 20
147.9649306100000103
 30
0.0
 11
4.9490393299999988
 21
160.2160076300000071
 31
0.0
  0
LINE
  5
546
  8
SLD-0_2
  6
CONTINUOUS
 62
     7
 10
101.7254544599999946
 20
135.7158802499999979
 30
0.0
 11
101.7254544599999946
 21
147.9649306100000103
 31
0.0
  0
LINE
  5
547
  8
SLD-0_2
  6
CONTINUOUS
 62
     7
 10
169.7255184699999973
 20
135.7158802499999979
 30
0.0
 11
169.7255184699999973
 21
147.9649306100000103
 31
0.0
  0
LINE
  5
548
  8
SLD-0_2
  6
CONTINUOUS
 62
     7
 10
179.4250477600000124
 20
147.9649306100000103
 30
0.0
 11
179.4250477600000124
 21
135.7158802499999979
 31
0.0
  0
LINE
  5
549
  8
SLD-0_2
  6
CONTINUOUS
 62
     7
 10
81.6758424000000076
 20
160.2160076300000071
 30
0.0
 11
81.6758424000000076
 21
147.9649306100000103
 31
0.0
  0
LINE
  5
54A
  8
SLD-0_2
  6
CONTINUOUS
 62
     7
 10
107.1751064200000059
 20
160.2160076300000071
 30
0.0
 11
107.1751064200000059
 21
147.9649306100000103
 31
0.0
  0
LINE
  5
54B
  8
SLD-0_2
  6
CONTINUOUS
 62
     7
 10
175.1771970700000054
 20
160.2160076300000071
 30
0.0
 11
175.1771970700000054
 21
147.9649306100000103
 31
0.0
  0
LINE
  5
54C
  8
SLD-0_2
  6
CONTINUOUS
 62
     7
 10
-38.8194279399999971
 20
312.1024483300000156
 30
0.0
 11
-38.8194279399999971
 21
307.1341248699999937
 31
0.0
  0
LINE
  5
54D
  8
SLD-0_2
  6
CONTINUOUS
 62
     7
 10
-6.937241339999999
 20
301.6348200799999972
 30
0.0
 11
-6.937241339999999
 21
312.384152169999993
 31
0.0
  0
LINE
  5
54E
  8
SLD-0_2
  6
CONTINUOUS
 62
     7
 10
119.2782382399999932
 20
301.6348200799999972
 30
0.0
 11
119.2782382399999932
 21
312.384152169999993
 31
0.0
  0
LINE
  5
54F
  8
SLD-0_2
  6
CONTINUOUS
 62
     7
 10
196.7589537499999892
 20
301.6348200799999972
 30
0.0
 11
196.7589537499999892
 21
312.384152169999993
 31
0.0
  0
LINE
  5
550
  8
SLD-0_2
  6
CONTINUOUS
 62
     7
 10
188.7861271200000033
 20
389.6348433100000079
 30
0.0
 11
188.7861271200000033
 21
377.3138470000000098
 31
0.0
  0
LINE
  5
551
  8
SLD-0_2
  6
CONTINUOUS
 62
     7
 10
197.7702502600000116
 20
389.6348433100000079
 30
0.0
 11
197.7702502600000116
 21
377.3138470000000098
 31
0.0
  0
LINE
  5
552
  8
SLD-0_2
  6
CONTINUOUS
 62
     7
 10
44.6976536299999907
 20
135.7158802499999979
 30
0.0
 11
44.6976536299999907
 21
147.9649306100000103
 31
0.0
  0
LINE
  5
553
  8
SLD-0_2
  6
CONTINUOUS
 62
     7
 10
261.6881246199999964
 20
121.6344416900000027
 30
0.0
 11
241.6881246199999964
 21
121.6344416900000027
 31
0.0
  0
LINE
  5
554
  8
SLD-0_2
  6
CONTINUOUS
 62
     7
 10
241.6881246199999964
 20
132.6333511900000133
 30
0.0
 11
241.6881246199999964
 21
119.6344416900000027
 31
0.0
  0
LINE
  5
555
  8
SLD-0_2
  6
CONTINUOUS
 62
     7
 10
-215.8118753800000036
 20
324.1348316899999986
 30
0.0
 11
-218.3118753800000036
 21
326.6348316899999986
 31
0.0
  0
LINE
  5
556
  8
SLD-0_2
  6
CONTINUOUS
 62
     7
 10
-44.5680102299999916
 20
301.6348316899999986
 30
0.0
 11
-215.8118753800000036
 21
301.6348316899999986
 31
0.0
  0
LINE
  5
557
  8
SLD-0_2
  6
CONTINUOUS
 62
     7
 10
-97.3317471999999952
 20
301.6348200799999972
 30
0.0
 11
-97.3317471999999952
 21
312.384152169999993
 31
0.0
  0
LINE
  5
558
  8
SLD-0_2
  6
CONTINUOUS
 62
     7
 10
-41.7996113600000001
 20
135.7158802499999979
 30
0.0
 11
-41.7996113600000001
 21
147.9649306100000103
 31
0.0
  0
LINE
  5
559
  8
SLD-0_2
  6
CONTINUOUS
 62
     7
 10
-32.1000820599999983
 20
147.9649306100000103
 30
0.0
 11
-32.1000820599999983
 21
135.7158802499999979
 31
0.0
  0
LINE
  5
55A
  8
SLD-0_2
  6
CONTINUOUS
 62
     7
 10
-24.8011153399999991
 20
135.7158802499999979
 30
0.0
 11
-24.8011153399999991
 21
147.9649306100000103
 31
0.0
  0
LINE
  5
55B
  8
SLD-0_2
  6
CONTINUOUS
 62
     7
 10
-16.3003473399999983
 20
135.7158802499999979
 30
0.0
 11
-16.3003473399999983
 21
147.9649306100000103
 31
0.0
  0
LINE
  5
55C
  8
SLD-0_2
  6
CONTINUOUS
 62
     7
 10
-12.0524966599999992
 20
147.9649306100000103
 30
0.0
 11
-12.0524966599999992
 21
160.2160076300000071
 31
0.0
  0
LINE
  5
55D
  8
SLD-0_2
  6
CONTINUOUS
 62
     7
 10
170.9273197400000015
 20
147.9649306100000103
 30
0.0
 11
170.9273197400000015
 21
135.7158802499999979
 31
0.0
  0
LINE
  5
55E
  8
SLD-0_2
  6
CONTINUOUS
 62
     7
 10
178.2272997899999893
 20
135.7158802499999979
 30
0.0
 11
178.2272997899999893
 21
147.9649306100000103
 31
0.0
  0
LINE
  5
55F
  8
SLD-0_2
  6
CONTINUOUS
 62
     7
 10
139.9763771199999951
 20
147.9649306100000103
 30
0.0
 11
139.9763771199999951
 21
160.2160076300000071
 31
0.0
  0
LINE
  5
560
  8
SLD-0_2
  6
CONTINUOUS
 62
     7
 10
166.6794690499999945
 20
160.2160076300000071
 30
0.0
 11
166.6794690499999945
 21
147.9649306100000103
 31
0.0
  0
LINE
  5
561
  8
SLD-0_2
  6
CONTINUOUS
 62
     7
 10
-45.0685918699999917
 20
312.1024483300000156
 30
0.0
 11
-38.8194279399999971
 21
312.1024483300000156
 31
0.0
  0
LINE
  5
562
  8
SLD-0_2
  6
CONTINUOUS
 62
     7
 10
44.7179200899999998
 20
301.6348200799999972
 30
0.0
 11
44.7179200899999998
 21
312.384152169999993
 31
0.0
  0
LINE
  5
563
  8
SLD-0_2
  6
CONTINUOUS
 62
     7
 10
14.5857425900000006
 20
312.384152169999993
 30
0.0
 11
14.5857425900000006
 21
323.1344975800000157
 31
0.0
  0
LINE
  5
564
  8
SLD-0_2
  6
CONTINUOUS
 62
     7
 10
76.2342970299999934
 20
301.6348200799999972
 30
0.0
 11
76.2342970299999934
 21
312.384152169999993
 31
0.0
  0
LINE
  5
565
  8
SLD-0_2
  6
CONTINUOUS
 62
     7
 10
149.4104157499999985
 20
312.384152169999993
 30
0.0
 11
149.4104157499999985
 21
323.1344975800000157
 31
0.0
  0
LINE
  5
566
  8
SLD-0_2
  6
CONTINUOUS
 62
     7
 10
80.5368671699999936
 20
312.384152169999993
 30
0.0
 11
80.5368671699999936
 21
323.1344975800000157
 31
0.0
  0
LINE
  5
567
  8
SLD-0_2
  6
CONTINUOUS
 62
     7
 10
54.7092864500000005
 20
312.384152169999993
 30
0.0
 11
192.4543569600000126
 21
312.384152169999993
 31
0.0
  0
LINE
  5
568
  8
SLD-0_2
  6
CONTINUOUS
 62
     7
 10
124.1746157599999947
 20
147.9649306100000103
 30
0.0
 11
124.1746157599999947
 21
160.2160076300000071
 31
0.0
  0
LINE
  5
569
  8
SLD-0_2
  6
CONTINUOUS
 62
     7
 10
-28.4618253599999989
 20
285.728866709999977
 30
0.0
 11
-28.571333039999999
 21
285.5726568800000109
 31
0.0
  0
LINE
  5
56A
  8
SLD-0_2
  6
CONTINUOUS
 62
     7
 10
-29.1761811100000017
 20
285.2190064999999777
 30
0.0
 11
-29.2062256799999993
 21
285.2465877999999861
 31
0.0
  0
LINE
  5
56B
  8
SLD-0_2
  6
CONTINUOUS
 62
     7
 10
259.1881246199999964
 20
324.1348316899999986
 30
0.0
 11
261.6881246199999964
 21
326.6348316899999986
 31
0.0
  0
ARC
  5
56C
  8
SLD-0_2
  6
CONTINUOUS
 62
     7
 10
-208.3118753800000036
 20
-99.3651683100000014
 30
0.0
 40
3.5
 50
270.0
 51
450.0
  0
ARC
  5
56D
  8
SLD-0_2
  6
CONTINUOUS
 62
     7
 10
-208.3118753800000036
 20
-149.3651683100000014
 30
0.0
 40
3.5
 50
270.0
 51
450.0
  0
ARC
  5
56E
  8
SLD-0_2
  6
CONTINUOUS
 62
     7
 10
251.6881246199999964
 20
-149.3651683100000014
 30
0.0
 40
3.5
 50
90.0
 51
270.0
  0
ARC
  5
56F
  8
SLD-0_2
  6
CONTINUOUS
 62
     7
 10
251.6881246199999964
 20
-99.3651683100000014
 30
0.0
 40
3.5
 50
90.0
 51
270.0
  0
ARC
  5
570
  8
SLD-0_2
  6
CONTINUOUS
 62
     7
 10
251.6881246199999964
 20
370.6348316899999986
 30
0.0
 40
3.5
 50
90.0
 51
270.0
  0
ARC
  5
571
  8
SLD-0_2
  6
CONTINUOUS
 62
     7
 10
-208.3118753800000036
 20
370.6348316899999986
 30
0.0
 40
3.5
 50
270.0
 51
450.0
  0
ARC
  5
572
  8
SLD-0_2
  6
CONTINUOUS
 62
     7
 10
251.6881246199999964
 20
320.6348316899999986
 30
0.0
 40
3.5
 50
90.0
 51
270.0
  0
ARC
  5
573
  8
SLD-0_2
  6
CONTINUOUS
 62
     7
 10
-208.3118753800000036
 20
320.6348316899999986
 30
0.0
 40
3.5
 50
270.0
 51
450.0
  0
LINE
  5
574
  8
SLD-0_2
  6
PHANTOM
 62
     7
 10
-198.3118753800000036
 20
301.6348316899999986
 30
0.0
 11
-198.3118753800000036
 21
389.6348316899999986
 31
0.0
  0
LINE
  5
575
  8
SLD-0_2
  6
PHANTOM
 62
     7
 10
-108.2999570900000066
 20
301.6348200799999972
 30
0.0
 11
-108.2999570900000066
 21
389.6348433100000079
 31
0.0
  0
LINE
  5
576
  8
SLD-0_2
  6
PHANTOM
 62
     7
 10
-87.142051219999999
 20
206.6344416899999885
 30
0.0
 11
-89.4397047000000072
 21
206.6344416899999885
 31
0.0
  0
LINE
  5
577
  8
SLD-0_2
  6
PHANTOM
 62
     7
 10
-27.31187538
 20
325.6348316899999986
 30
0.0
 11
-45.3118753799999965
 21
325.6348316899999986
 31
0.0
  0
LINE
  5
578
  8
SLD-0_2
  6
PHANTOM
 62
     7
 10
-8.31187538
 20
325.6348316899999986
 30
0.0
 11
-8.31187538
 21
373.6348316899999986
 31
0.0
  0
LINE
  5
579
  8
SLD-0_2
  6
PHANTOM
 62
     7
 10
-8.31187538
 20
373.6348316899999986
 30
0.0
 11
-26.31187538
 21
373.6348316899999986
 31
0.0
  0
LINE
  5
57A
  8
SLD-0_2
  6
PHANTOM
 62
     7
 10
144.6881246199999964
 20
325.6348316899999986
 30
0.0
 11
144.6881246199999964
 21
373.6348316899999986
 31
0.0
  0
LINE
  5
57B
  8
SLD-0_2
  6
PHANTOM
 62
     7
 10
-85.642051219999999
 20
204.9136922399999889
 30
0.0
 11
-85.642051219999999
 21
205.1344416899999885
 31
0.0
  0
LINE
  5
57C
  8
SLD-0_2
  6
PHANTOM
 62
     7
 10
-84.3118753800000036
 20
373.6348316899999986
 30
0.0
 11
-102.3118753800000036
 21
373.6348316899999986
 31
0.0
  0
LINE
  5
57D
  8
SLD-0_2
  6
PHANTOM
 62
     7
 10
-83.3118753800000036
 20
325.6348316899999986
 30
0.0
 11
-83.3118753800000036
 21
373.6348316899999986
 31
0.0
  0
LINE
  5
57E
  8
SLD-0_2
  6
PHANTOM
 62
     7
 10
-84.3118753800000036
 20
325.6348316899999986
 30
0.0
 11
-84.3118753800000036
 21
373.6348316899999986
 31
0.0
  0
LINE
  5
57F
  8
SLD-0_2
  6
PHANTOM
 62
     7
 10
-65.3118753800000036
 20
325.6348316899999986
 30
0.0
 11
-65.3118753800000036
 21
373.6348316899999986
 31
0.0
  0
LINE
  5
580
  8
SLD-0_2
  6
PHANTOM
 62
     7
 10
-46.3118753799999894
 20
373.6348316899999986
 30
0.0
 11
-64.3118753800000036
 21
373.6348316899999986
 31
0.0
  0
LINE
  5
581
  8
SLD-0_2
  6
PHANTOM
 62
     7
 10
-8.31187538
 20
325.6348316899999986
 30
0.0
 11
-26.31187538
 21
325.6348316899999986
 31
0.0
  0
LINE
  5
582
  8
SLD-0_2
  6
PHANTOM
 62
     7
 10
126.6881246199999964
 20
325.6348316899999986
 30
0.0
 11
126.6881246199999964
 21
373.6348316899999986
 31
0.0
  0
LINE
  5
583
  8
SLD-0_2
  6
PHANTOM
 62
     7
 10
163.6881246199999964
 20
373.6348316899999986
 30
0.0
 11
145.6881246199999964
 21
373.6348316899999986
 31
0.0
  0
LINE
  5
584
  8
SLD-0_2
  6
PHANTOM
 62
     7
 10
-84.3118753800000036
 20
204.9344416899999999
 30
0.0
 11
-84.3118753800000036
 21
160.2160076300000071
 31
0.0
  0
LINE
  5
585
  8
SLD-0_2
  6
PHANTOM
 62
     7
 10
200.3579487799999868
 20
204.9136922399999889
 30
0.0
 11
200.3579487799999868
 21
205.1344416899999885
 31
0.0
  0
LINE
  5
586
  8
SLD-0_2
  6
PHANTOM
 62
     7
 10
144.6881246199999964
 20
373.6348316899999986
 30
0.0
 11
126.6881246199999964
 21
373.6348316899999986
 31
0.0
  0
LINE
  5
587
  8
SLD-0_2
  6
PHANTOM
 62
     7
 10
201.6881246199999964
 20
325.6348316899999986
 30
0.0
 11
183.6881246199999964
 21
325.6348316899999986
 31
0.0
  0
LINE
  5
588
  8
SLD-0_2
  6
PHANTOM
 62
     7
 10
198.8579487799999868
 20
206.6344416899999885
 30
0.0
 11
196.560295300000007
 21
206.6344416899999885
 31
0.0
  0
LINE
  5
589
  8
SLD-0_2
  6
PHANTOM
 62
     7
 10
87.6881246199999964
 20
373.6348316899999986
 30
0.0
 11
69.6881246199999964
 21
373.6348316899999986
 31
0.0
  0
LINE
  5
58A
  8
SLD-0_2
  6
PHANTOM
 62
     7
 10
125.6881246199999964
 20
325.6348316899999986
 30
0.0
 11
107.6881246199999964
 21
325.6348316899999986
 31
0.0
  0
LINE
  5
58B
  8
SLD-0_2
  6
PHANTOM
 62
     7
 10
50.6881246200000035
 20
325.6348316899999986
 30
0.0
 11
50.6881246200000035
 21
373.6348316899999986
 31
0.0
  0
LINE
  5
58C
  8
SLD-0_2
  6
PHANTOM
 62
     7
 10
106.6881246199999964
 20
325.6348316899999986
 30
0.0
 11
88.6881246199999964
 21
325.6348316899999986
 31
0.0
  0
LINE
  5
58D
  8
SLD-0_2
  6
PHANTOM
 62
     7
 10
164.6881246199999964
 20
325.6348316899999986
 30
0.0
 11
164.6881246199999964
 21
373.6348316899999986
 31
0.0
  0
LINE
  5
58E
  8
SLD-0_2
  6
PHANTOM
 62
     7
 10
-45.3118753799999965
 20
325.6348316899999986
 30
0.0
 11
-45.3118753799999965
 21
373.6348316899999986
 31
0.0
  0
LINE
  5
58F
  8
SLD-0_2
  6
PHANTOM
 62
     7
 10
10.68812462
 20
325.6348316899999986
 30
0.0
 11
10.68812462
 21
373.6348316899999986
 31
0.0
  0
LINE
  5
590
  8
SLD-0_2
  6
PHANTOM
 62
     7
 10
29.68812462
 20
325.6348316899999986
 30
0.0
 11
11.68812462
 21
325.6348316899999986
 31
0.0
  0
LINE
  5
591
  8
SLD-0_2
  6
PHANTOM
 62
     7
 10
69.6881246199999964
 20
325.6348316899999986
 30
0.0
 11
69.6881246199999964
 21
373.6348316899999986
 31
0.0
  0
LINE
  5
592
  8
SLD-0_2
  6
PHANTOM
 62
     7
 10
144.6881246199999964
 20
325.6348316899999986
 30
0.0
 11
126.6881246199999964
 21
325.6348316899999986
 31
0.0
  0
LINE
  5
593
  8
SLD-0_2
  6
PHANTOM
 62
     7
 10
182.6881246199999964
 20
325.6348316899999986
 30
0.0
 11
182.6881246199999964
 21
373.6348316899999986
 31
0.0
  0
LINE
  5
594
  8
SLD-0_2
  6
PHANTOM
 62
     7
 10
30.68812462
 20
325.6348316899999986
 30
0.0
 11
30.68812462
 21
373.6348316899999986
 31
0.0
  0
LINE
  5
595
  8
SLD-0_2
  6
PHANTOM
 62
     7
 10
183.6881246199999964
 20
325.6348316899999986
 30
0.0
 11
183.6881246199999964
 21
373.6348316899999986
 31
0.0
  0
LINE
  5
596
  8
SLD-0_2
  6
PHANTOM
 62
     7
 10
-46.3118753799999894
 20
325.6348316899999986
 30
0.0
 11
-46.3118753799999894
 21
373.6348316899999986
 31
0.0
  0
LINE
  5
597
  8
SLD-0_2
  6
PHANTOM
 62
     7
 10
29.68812462
 20
373.6348316899999986
 30
0.0
 11
11.68812462
 21
373.6348316899999986
 31
0.0
  0
LINE
  5
598
  8
SLD-0_2
  6
PHANTOM
 62
     7
 10
48.6881246200000106
 20
373.6348316899999986
 30
0.0
 11
30.68812462
 21
373.6348316899999986
 31
0.0
  0
LINE
  5
599
  8
SLD-0_2
  6
PHANTOM
 62
     7
 10
125.6881246199999964
 20
325.6348316899999986
 30
0.0
 11
125.6881246199999964
 21
373.6348316899999986
 31
0.0
  0
LINE
  5
59A
  8
SLD-0_2
  6
PHANTOM
 62
     7
 10
201.6881246199999964
 20
325.6348316899999986
 30
0.0
 11
201.6881246199999964
 21
373.6348316899999986
 31
0.0
  0
LINE
  5
59B
  8
SLD-0_2
  6
PHANTOM
 62
     7
 10
-84.3118753800000036
 20
325.6348316899999986
 30
0.0
 11
-102.3118753800000036
 21
325.6348316899999986
 31
0.0
  0
LINE
  5
59C
  8
SLD-0_2
  6
PHANTOM
 62
     7
 10
201.6881246199999964
 20
204.9344416899999999
 30
0.0
 11
201.6881246199999964
 21
135.6348144000000104
 31
0.0
  0
LINE
  5
59D
  8
SLD-0_2
  6
PHANTOM
 62
     7
 10
201.6881246199999964
 20
204.9344416899999999
 30
0.0
 11
183.6881246199999964
 21
204.9344416899999999
 31
0.0
  0
LINE
  5
59E
  8
SLD-0_2
  6
PHANTOM
 62
     7
 10
10.68812462
 20
373.6348316899999986
 30
0.0
 11
-7.31187538
 21
373.6348316899999986
 31
0.0
  0
LINE
  5
59F
  8
SLD-0_2
  6
PHANTOM
 62
     7
 10
11.68812462
 20
325.6348316899999986
 30
0.0
 11
11.68812462
 21
373.6348316899999986
 31
0.0
  0
LINE
  5
5A0
  8
SLD-0_2
  6
PHANTOM
 62
     7
 10
106.6881246199999964
 20
325.6348316899999986
 30
0.0
 11
106.6881246199999964
 21
373.6348316899999986
 31
0.0
  0
LINE
  5
5A1
  8
SLD-0_2
  6
PHANTOM
 62
     7
 10
145.6881246199999964
 20
325.6348316899999986
 30
0.0
 11
145.6881246199999964
 21
373.6348316899999986
 31
0.0
  0
LINE
  5
5A2
  8
SLD-0_2
  6
PHANTOM
 62
     7
 10
163.6881246199999964
 20
325.6348316899999986
 30
0.0
 11
145.6881246199999964
 21
325.6348316899999986
 31
0.0
  0
LINE
  5
5A3
  8
SLD-0_2
  6
PHANTOM
 62
     7
 10
68.6881246199999964
 20
325.6348316899999986
 30
0.0
 11
50.6881246200000035
 21
325.6348316899999986
 31
0.0
  0
LINE
  5
5A4
  8
SLD-0_2
  6
PHANTOM
 62
     7
 10
-102.3118753800000036
 20
204.9344416899999999
 30
0.0
 11
-102.3118753800000036
 21
135.6348144000000104
 31
0.0
  0
LINE
  5
5A5
  8
SLD-0_2
  6
PHANTOM
 62
     7
 10
183.6881246199999964
 20
204.9344416899999999
 30
0.0
 11
183.6881246199999964
 21
160.2160076300000071
 31
0.0
  0
LINE
  5
5A6
  8
SLD-0_2
  6
PHANTOM
 62
     7
 10
-64.3118753800000036
 20
325.6348316899999986
 30
0.0
 11
-64.3118753800000036
 21
373.6348316899999986
 31
0.0
  0
LINE
  5
5A7
  8
SLD-0_2
  6
PHANTOM
 62
     7
 10
48.6881246200000106
 20
325.6348316899999986
 30
0.0
 11
48.6881246200000106
 21
373.6348316899999986
 31
0.0
  0
LINE
  5
5A8
  8
SLD-0_2
  6
PHANTOM
 62
     7
 10
87.6881246199999964
 20
325.6348316899999986
 30
0.0
 11
69.6881246199999964
 21
325.6348316899999986
 31
0.0
  0
LINE
  5
5A9
  8
SLD-0_2
  6
PHANTOM
 62
     7
 10
106.6881246199999964
 20
373.6348316899999986
 30
0.0
 11
88.6881246199999964
 21
373.6348316899999986
 31
0.0
  0
LINE
  5
5AA
  8
SLD-0_2
  6
PHANTOM
 62
     7
 10
125.6881246199999964
 20
373.6348316899999986
 30
0.0
 11
107.6881246199999964
 21
373.6348316899999986
 31
0.0
  0
LINE
  5
5AB
  8
SLD-0_2
  6
PHANTOM
 62
     7
 10
182.6881246199999964
 20
325.6348316899999986
 30
0.0
 11
164.6881246199999964
 21
325.6348316899999986
 31
0.0
  0
LINE
  5
5AC
  8
SLD-0_2
  6
PHANTOM
 62
     7
 10
182.6881246199999964
 20
373.6348316899999986
 30
0.0
 11
164.6881246199999964
 21
373.6348316899999986
 31
0.0
  0
LINE
  5
5AD
  8
SLD-0_2
  6
PHANTOM
 62
     7
 10
68.6881246199999964
 20
325.6348316899999986
 30
0.0
 11
68.6881246199999964
 21
373.6348316899999986
 31
0.0
  0
LINE
  5
5AE
  8
SLD-0_2
  6
PHANTOM
 62
     7
 10
-90.939704699999993
 20
204.9136922399999889
 30
0.0
 11
-90.939704699999993
 21
205.1344416899999885
 31
0.0
  0
LINE
  5
5AF
  8
SLD-0_2
  6
PHANTOM
 62
     7
 10
195.060295300000007
 20
204.9136922399999889
 30
0.0
 11
195.060295300000007
 21
205.1344416899999885
 31
0.0
  0
LINE
  5
5B0
  8
SLD-0_2
  6
PHANTOM
 62
     7
 10
-65.3118753800000036
 20
325.6348316899999986
 30
0.0
 11
-83.3118753800000036
 21
325.6348316899999986
 31
0.0
  0
LINE
  5
5B1
  8
SLD-0_2
  6
PHANTOM
 62
     7
 10
-26.31187538
 20
325.6348316899999986
 30
0.0
 11
-26.31187538
 21
373.6348316899999986
 31
0.0
  0
LINE
  5
5B2
  8
SLD-0_2
  6
PHANTOM
 62
     7
 10
-7.31187538
 20
325.6348316899999986
 30
0.0
 11
-7.31187538
 21
373.6348316899999986
 31
0.0
  0
LINE
  5
5B3
  8
SLD-0_2
  6
PHANTOM
 62
     7
 10
29.68812462
 20
325.6348316899999986
 30
0.0
 11
29.68812462
 21
373.6348316899999986
 31
0.0
  0
LINE
  5
5B4
  8
SLD-0_2
  6
PHANTOM
 62
     7
 10
107.6881246199999964
 20
325.6348316899999986
 30
0.0
 11
107.6881246199999964
 21
373.6348316899999986
 31
0.0
  0
LINE
  5
5B5
  8
SLD-0_2
  6
PHANTOM
 62
     7
 10
201.6881246199999964
 20
373.6348316899999986
 30
0.0
 11
183.6881246199999964
 21
373.6348316899999986
 31
0.0
  0
LINE
  5
5B6
  8
SLD-0_2
  6
PHANTOM
 62
     7
 10
10.68812462
 20
325.6348316899999986
 30
0.0
 11
-7.31187538
 21
325.6348316899999986
 31
0.0
  0
LINE
  5
5B7
  8
SLD-0_2
  6
PHANTOM
 62
     7
 10
87.6881246199999964
 20
325.6348316899999986
 30
0.0
 11
87.6881246199999964
 21
373.6348316899999986
 31
0.0
  0
LINE
  5
5B8
  8
SLD-0_2
  6
PHANTOM
 62
     7
 10
88.6881246199999964
 20
325.6348316899999986
 30
0.0
 11
88.6881246199999964
 21
373.6348316899999986
 31
0.0
  0
LINE
  5
5B9
  8
SLD-0_2
  6
PHANTOM
 62
     7
 10
-102.3118753800000036
 20
325.6348316899999986
 30
0.0
 11
-102.3118753800000036
 21
373.6348316899999986
 31
0.0
  0
LINE
  5
5BA
  8
SLD-0_2
  6
PHANTOM
 62
     7
 10
-27.31187538
 20
325.6348316899999986
 30
0.0
 11
-27.31187538
 21
373.6348316899999986
 31
0.0
  0
LINE
  5
5BB
  8
SLD-0_2
  6
PHANTOM
 62
     7
 10
-27.31187538
 20
373.6348316899999986
 30
0.0
 11
-45.3118753799999965
 21
373.6348316899999986
 31
0.0
  0
LINE
  5
5BC
  8
SLD-0_2
  6
PHANTOM
 62
     7
 10
48.6881246200000106
 20
325.6348316899999986
 30
0.0
 11
30.68812462
 21
325.6348316899999986
 31
0.0
  0
LINE
  5
5BD
  8
SLD-0_2
  6
PHANTOM
 62
     7
 10
68.6881246199999964
 20
373.6348316899999986
 30
0.0
 11
50.6881246200000035
 21
373.6348316899999986
 31
0.0
  0
LINE
  5
5BE
  8
SLD-0_2
  6
PHANTOM
 62
     7
 10
163.6881246199999964
 20
325.6348316899999986
 30
0.0
 11
163.6881246199999964
 21
373.6348316899999986
 31
0.0
  0
LINE
  5
5BF
  8
SLD-0_2
  6
PHANTOM
 62
     7
 10
-65.3118753800000036
 20
373.6348316899999986
 30
0.0
 11
-83.3118753800000036
 21
373.6348316899999986
 31
0.0
  0
LINE
  5
5C0
  8
SLD-0_2
  6
PHANTOM
 62
     7
 10
-46.3118753799999894
 20
325.6348316899999986
 30
0.0
 11
-64.3118753800000036
 21
325.6348316899999986
 31
0.0
  0
LINE
  5
5C1
  8
SLD-0_2
  6
PHANTOM
 62
     7
 10
-84.3118753800000036
 20
204.9344416899999999
 30
0.0
 11
-102.3118753800000036
 21
204.9344416899999999
 31
0.0
  0
ARC
  5
5C2
  8
SLD-0_2
  6
PHANTOM
 62
     7
 10
196.560295300000007
 20
205.1344416899999885
 30
0.0
 40
1.5
 50
90.0
 51
180.0
  0
ARC
  5
5C3
  8
SLD-0_2
  6
PHANTOM
 62
     7
 10
-87.142051219999999
 20
205.1344416899999885
 30
0.0
 40
1.5
 50
0.0
 51
90.0
  0
ARC
  5
5C4
  8
SLD-0_2
  6
PHANTOM
 62
     7
 10
198.8579487799999868
 20
205.1344416899999885
 30
0.0
 40
1.5
 50
0.0
 51
90.0
  0
ARC
  5
5C5
  8
SLD-0_2
  6
PHANTOM
 62
     7
 10
-89.4397047000000072
 20
205.1344416899999885
 30
0.0
 40
1.5
 50
90.0
 51
180.0
  0
LINE
  5
5C6
  8
SLD-0_1
  6
PHANTOM
 62
     7
 10
-198.3118753800000036
 20
-168.3651683100000014
 30
0.0
 11
-198.3118753800000036
 21
-80.3651683100000014
 31
0.0
  0
LINE
  5
5C7
  8
SLD-0_1
  6
PHANTOM
 62
     7
 10
-108.2999570900000066
 20
-168.3651683100000014
 30
0.0
 11
-108.2999570900000066
 21
-80.3651683100000014
 31
0.0
  0
LINE
  5
5C8
  8
SLD-0_0
  6
CONTINUOUS
 62
     7
 10
-44.5680102299999916
 20
-168.3651683100000014
 30
0.0
 11
-215.8118753800000036
 21
-168.3651683100000014
 31
0.0
  0
LINE
  5
5C9
  8
SLD-0_0
  6
PHANTOM
 62
     7
 10
-102.3118753800000036
 20
-265.0655583099999717
 30
0.0
 11
-102.3118753800000036
 21
-334.365185600000018
 31
0.0
  0
LINE
  5
5CA
  8
SLD-0_0
  6
PHANTOM
 62
     7
 10
-84.3118753800000036
 20
-265.0655583099999717
 30
0.0
 11
-102.3118753800000036
 21
-265.0655583099999717
 31
0.0
  0
LINE
  5
5CB
  8
SLD-0_0
  6
PHANTOM
 62
     7
 10
-84.3118753800000036
 20
-265.0655583099999717
 30
0.0
 11
-84.3118753800000036
 21
-309.7839923700000213
 31
0.0
  0
LINE
  5
5CC
  8
SLD-0_0
  6
PHANTOM
 62
     7
 10
-87.142051219999999
 20
-263.3655583099999831
 30
0.0
 11
-89.4397047000000072
 21
-263.3655583099999831
 31
0.0
  0
LINE
  5
5CD
  8
SLD-0_0
  6
PHANTOM
 62
     7
 10
-90.939704699999993
 20
-265.0863077600000111
 30
0.0
 11
-90.939704699999993
 21
-264.8655583099999831
 31
0.0
  0
LINE
  5
5CE
  8
SLD-0_0
  6
PHANTOM
 62
     7
 10
-85.642051219999999
 20
-265.0863077600000111
 30
0.0
 11
-85.642051219999999
 21
-264.8655583099999831
 31
0.0
  0
ARC
  5
5CF
  8
SLD-0_0
  6
PHANTOM
 62
     7
 10
-87.142051219999999
 20
-264.8655583099999831
 30
0.0
 40
1.5
 50
0.0
 51
90.0
  0
ARC
  5
5D0
  8
SLD-0_0
  6
PHANTOM
 62
     7
 10
-89.4397047000000072
 20
-264.8655583099999831
 30
0.0
 40
1.5
 50
90.0
 51
180.0
  0
LINE
  5
5D1
  8
SLD-0
  6
PHANTOM
 62
     7
 10
195.060295300000007
 20
-265.0863077600000111
 30
0.0
 11
195.060295300000007
 21
-264.8655583099999831
 31
0.0
  0
LINE
  5
5D2
  8
SLD-0
  6
PHANTOM
 62
     7
 10
183.6881246199999964
 20
-265.0655583099999717
 30
0.0
 11
183.6881246199999964
 21
-309.7839923700000213
 31
0.0
  0
LINE
  5
5D3
  8
SLD-0
  6
PHANTOM
 62
     7
 10
198.8579487799999868
 20
-263.3655583099999831
 30
0.0
 11
196.560295300000007
 21
-263.3655583099999831
 31
0.0
  0
LINE
  5
5D4
  8
SLD-0
  6
PHANTOM
 62
     7
 10
200.3579487799999868
 20
-265.0863077600000111
 30
0.0
 11
200.3579487799999868
 21
-264.8655583099999831
 31
0.0
  0
LINE
  5
5D5
  8
SLD-0
  6
PHANTOM
 62
     7
 10
201.6881246199999964
 20
-265.0655583099999717
 30
0.0
 11
201.6881246199999964
 21
-334.365185600000018
 31
0.0
  0
LINE
  5
5D6
  8
SLD-0
  6
PHANTOM
 62
     7
 10
201.6881246199999964
 20
-265.0655583099999717
 30
0.0
 11
183.6881246199999964
 21
-265.0655583099999717
 31
0.0
  0
ARC
  5
5D7
  8
SLD-0
  6
PHANTOM
 62
     7
 10
198.8579487799999868
 20
-264.8655583099999831
 30
0.0
 40
1.5
 50
0.0
 51
90.0
  0
ARC
  5
5D8
  8
SLD-0
  6
PHANTOM
 62
     7
 10
196.560295300000007
 20
-264.8655583099999831
 30
0.0
 40
1.5
 50
90.0
 51
180.0
  0
LINE
  5
5D9
  8
SLD-0
  6
CONTINUOUS
 62
     7
 10
-108.3729163600000049
 20
-337.3666488100000151
 30
0.0
 11
-108.3729163600000049
 21
-350.3655583099999831
 31
0.0
  0
TEXT
  5
5DA
  8
SLD-0
 62
     7
 10
246.5890296000000035
 20
-399.0979633599999943
 30
0.0
 40
6.87916667
  1
001
 41
1.5
 72
     5
 11
267.22652961
 21
-399.0979633599999943
 31
0.0
  0
TEXT
  5
5DB
  8
SLD-0
 62
     7
 10
-261.6881246199999964
 20
384.545880029999978
 30
0.0
 40
7.4083333299999987
  1
-M2
 41
1.1249999999999989
 72
     5
 11
-239.46312463000001
 21
384.545880029999978
 31
0.0
  0
TEXT
  5
5DC
  8
SLD-0
 62
     7
 10
-261.6881246199999964
 20
-83.2780294399999974
 30
0.0
 40
7.4083333299999987
  1
-R
 41
1.2
 72
     5
 11
-246.8714579599999865
 21
-83.2780294399999974
 31
0.0
  0
LINE
  5
63F
  8
0
  6
CONTINUOUS
 10
-179.1206173999999862
 20
314.960011129999998
 30
0.0
 11
-162.8178395799999976
 21
314.960011129999998
 31
0.0
  0
LINE
  5
64B
  8
SLD-0
  6
PHANTOM
 62
     7
 10
-162.7426290214241931
 20
266.634441815721118
 30
0.0
 11
-179.0390605214242044
 21
266.634441815721118
 31
0.0
  0
LINE
  5
64C
  8
SLD-0_1
  6
PHANTOM
 62
     7
 10
-152.8704820014241932
 20
120.9943705657210984
 30
0.0
 11
-152.8704820014241932
 21
251.1209436037563023
 31
0.0
  0
LINE
  5
64D
  8
SLD-0_1
  6
PHANTOM
 62
     7
 10
-186.4234518814241994
 20
251.1209436037563023
 30
0.0
 11
-186.4234518814241994
 21
120.9943705657210984
 31
0.0
  0
LINE
  5
64E
  8
SLD-0_1
  6
PHANTOM
 62
     7
 10
-162.7426290214241931
 20
251.1209436037563023
 30
0.0
 11
-162.7426290214241931
 21
266.634441815721118
 31
0.0
  0
LINE
  5
64F
  8
SLD-0_1
  6
PHANTOM
 62
     7
 10
-152.8704820014241932
 20
251.1209436037563023
 30
0.0
 11
-186.4234518814241994
 21
251.1209436037563023
 31
0.0
  0
LINE
  5
650
  8
SLD-0_1
  6
PHANTOM
 62
     7
 10
-179.0390605214242044
 20
266.634441815721118
 30
0.0
 11
-179.0390605214242044
 21
251.1209436037563023
 31
0.0
  0
ENDSEC
  0
EOF
