  0
SECTION
  2
HEADER
  9
$ACADVER
  1
AC1014
  9
$ACADMAINTVER
 70
       0
  9
$DWGCODEPAGE
  3
ANSI_932
  9
$INSBASE
 10
0.0
 20
0.0
 30
0.0
  9
$EXTMIN
 10
-164.38521155
 20
-142.41427469
 30
0.0
  9
$EXTMAX
 10
164.38521155
 20
138.41427469
 30
0.0
  9
$LIMMIN
 10
-174.65928727
 20
-151.19016686
  9
$LIMMAX
 10
174.65928727
 20
147.19016686
  9
$ORTHOMODE
 70
       0
  9
$REGENMODE
 70
       1
  9
$FILLMODE
 70
       1
  9
$QTEXTMODE
 70
       0
  9
$MIRRTEXT
 70
       1
  9
$DRAGMODE
 70
       2
  9
$LTSCALE
 40
1.0
  9
$OSMODE
 70
       0
  9
$ATTMODE
 70
       1
  9
$TEXTSIZE
 40
0.2
  9
$TRACEWID
 40
0.05
  9
$TEXTSTYLE
  7
STANDARD
  9
$CLAYER
  8
0
  9
$CELTYPE
  6
CONTINUOUS
  9
$CECOLOR
 62
     256
  9
$CELTSCALE
 40
1.0
  9
$DELOBJ
 70
       1
  9
$DISPSILH
 70
       0
  9
$DIMSCALE
 40
1.0
  9
$DIMASZ
 40
0.18
  9
$DIMEXO
 40
0.0625
  9
$DIMDLI
 40
0.38
  9
$DIMRND
 40
0.0
  9
$DIMDLE
 40
0.0
  9
$DIMEXE
 40
0.18
  9
$DIMTP
 40
0.0
  9
$DIMTM
 40
0.0
  9
$DIMTXT
 40
0.18
  9
$DIMCEN
 40
0.09
  9
$DIMTSZ
 40
0.0
  9
$DIMTOL
 70
       0
  9
$DIMLIM
 70
       0
  9
$DIMTIH
 70
       1
  9
$DIMTOH
 70
       1
  9
$DIMSE1
 70
       0
  9
$DIMSE2
 70
       0
  9
$DIMTAD
 70
       0
  9
$DIMZIN
 70
       0
  9
$DIMBLK
  1

  9
$DIMASO
 70
       1
  9
$DIMSHO
 70
       1
  9
$DIMPOST
  1

  9
$DIMAPOST
  1

  9
$DIMALT
 70
       0
  9
$DIMALTD
 70
       2
  9
$DIMALTF
 40
25.4
  9
$DIMLFAC
 40
1.0
  9
$DIMTOFL
 70
       0
  9
$DIMTVP
 40
0.0
  9
$DIMTIX
 70
       0
  9
$DIMSOXD
 70
       0
  9
$DIMSAH
 70
       0
  9
$DIMBLK1
  1

  9
$DIMBLK2
  1

  9
$DIMSTYLE
  2
STANDARD
  9
$DIMCLRD
 70
       0
  9
$DIMCLRE
 70
       0
  9
$DIMCLRT
 70
       0
  9
$DIMTFAC
 40
1.0
  9
$DIMGAP
 40
0.09
  9
$DIMJUST
 70
       0
  9
$DIMSD1
 70
       0
  9
$DIMSD2
 70
       0
  9
$DIMTOLJ
 70
       1
  9
$DIMTZIN
 70
       0
  9
$DIMALTZ
 70
       0
  9
$DIMALTTZ
 70
       0
  9
$DIMFIT
 70
       3
  9
$DIMUPT
 70
       0
  9
$DIMUNIT
 70
       2
  9
$DIMDEC
 70
       4
  9
$DIMTDEC
 70
       4
  9
$DIMALTU
 70
       2
  9
$DIMALTTD
 70
       2
  9
$DIMTXSTY
  7
STANDARD
  9
$DIMAUNIT
 70
       0
  9
$LUNITS
 70
       2
  9
$LUPREC
 70
       4
  9
$SKETCHINC
 40
0.1
  9
$FILLETRAD
 40
0.0
  9
$AUNITS
 70
       0
  9
$AUPREC
 70
       0
  9
$MENU
  1
acad
  9
$ELEVATION
 40
0.0
  9
$PELEVATION
 40
0.0
  9
$THICKNESS
 40
0.0
  9
$LIMCHECK
 70
       0
  9
$BLIPMODE
 70
       1
  9
$CHAMFERA
 40
0.0
  9
$CHAMFERB
 40
0.0
  9
$CHAMFERC
 40
0.0
  9
$CHAMFERD
 40
0.0
  9
$SKPOLY
 70
       0
  9
$TDCREATE
 40
0.000000000
  9
$TDUPDATE
 40
0.000000000
  9
$TDINDWG
 40
0.0000000000
  9
$TDUSRTIMER
 40
0.0000000000
  9
$USRTIMER
 70
       1
  9
$ANGBASE
 50
0.0
  9
$ANGDIR
 70
       0
  9
$PDMODE
 70
       0
  9
$PDSIZE
 40
1.0
  9
$PLINEWID
 40
0.0
  9
$COORDS
 70
       1
  9
$SPLFRAME
 70
       0
  9
$SPLINETYPE
 70
       6
  9
$SPLINESEGS
 70
       8
  9
$ATTDIA
 70
       0
  9
$ATTREQ
 70
       1
  9
$HANDLING
 70
       1
  9
$HANDSEED
  5
556
  9
$SURFTAB1
 70
       6
  9
$SURFTAB2
 70
       6
  9
$SURFTYPE
 70
       6
  9
$SURFU
 70
       6
  9
$SURFV
 70
       6
  9
$UCSNAME
  2

  9
$UCSORG
 10
0.0
 20
0.0
 30
0.0
  9
$UCSXDIR
 10
1.0
 20
0.0
 30
0.0
  9
$UCSYDIR
 10
0.0
 20
1.0
 30
0.0
  9
$PUCSNAME
  2

  9
$PUCSORG
 10
0.0
 20
0.0
 30
0.0
  9
$PUCSXDIR
 10
1.0
 20
0.0
 30
0.0
  9
$PUCSYDIR
 10
0.0
 20
1.0
 30
0.0
  9
$USERI1
 70
       0
  9
$USERI2
 70
       0
  9
$USERI3
 70
       0
  9
$USERI4
 70
       0
  9
$USERI5
 70
       0
  9
$USERR1
 40
0.0
  9
$USERR2
 40
0.0
  9
$USERR3
 40
0.0
  9
$USERR4
 40
0.0
  9
$USERR5
 40
0.0
  9
$WORLDVIEW
 70
       1
  9
$SHADEDGE
 70
       3
  9
$SHADEDIF
 70
      70
  9
$TILEMODE
 70
       1
  9
$MAXACTVP
 70
      16
  9
$PINSBASE
 10
0.0
 20
0.0
 30
0.0
  9
$PLIMCHECK
 70
       0
  9
$PEXTMIN
 10
1.00000000E+20
 20
1.00000000E+20
 30
1.00000000E+20
  9
$PEXTMAX
 10
-1.00000000E+20
 20
-1.00000000E+20
 30
-1.00000000E+20
  9
$PLIMMIN
 10
0.0
 20
0.0
  9
$PLIMMAX
 10
12.0
 20
9.0
  9
$UNITMODE
 70
       0
  9
$VISRETAIN
 70
       0
  9
$PLINEGEN
 70
       1
  9
$PSLTSCALE
 70
       0
  9
$TREEDEPTH
 70
    3020
  9
$PICKSTYLE
 70
       1
  9
$CMLSTYLE
  2
STANDARD
  9
$CMLJUST
 70
       0
  9
$CMLSCALE
 40
1.0
  9
$PROXYGRAPHICS
 70
       0
  9
$MEASUREMENT
 70
       0
  0
ENDSEC
  0
SECTION
  2
CLASSES
  0
CLASS
  1
LWPOLYLINE
  2
AcDbPolyline
  3
"AutoCAD"
 90
        0
280
       0
281
       1
  0
CLASS
  1
IMAGE
  2
AcDbRasterImage
  3
ISM
 90
      127
280
       0
281
       1
  0
CLASS
  1
OLE2FRAME
  2
AcDbOle2Frame
  3
""
 90
        0
280
       0
281
       1
  0
CLASS
  1
HATCH
  2
AcDbHatch
  3
"ACAD_SEDONA"
 90
        0
280
       0
281
       1
  0
CLASS
  1
DICTIONARYVAR
  2
AcDbDictionaryVar
  3
"AutoCAD"
 90
        0
280
       0
281
       0
  0
CLASS
  1
RASTERVARIABLES
  2
AcDbRasterVariables
  3
ISM
 90
        0
280
       0
281
       0
  0
CLASS
  1
IMAGEDEF
  2
AcDbRasterImageDef
  3
ISM
 90
        0
280
       0
281
       0
  0
CLASS
  1
IMAGEDEF_REACTOR
  2
AcDbRasterImageDefReactor
  3
ISM
 90
        1
280
       0
281
       0
  0
CLASS
  1
IDBUFFER
  2
AcDbIdBuffer
  3
"Acad"
 90
        0
280
       0
281
       0
  0
CLASS
  1
SPATIAL_FILTER
  2
AcDbSpatialFilter
  3
"Acad"
 90
        0
280
       0
281
       0
  0
CLASS
  1
XRECORD
  2
AcDbXrecord
  3
"<Built In>"
 90
        0
280
       0
281
       0
  0
CLASS
  1
SORTENTSTABLE
  2
AcDbSortentsTable
  3
"AutoCAD"
 90
        0
280
       0
281
       0
  0
CLASS
  1
LAYER_INDEX
  2
AcDbLayerIndex
  3
"Acad"
 90
        0
280
       0
281
       0
  0
CLASS
  1
SPATIAL_INDEX
  2
AcDbSpatialIndex
  3
"Acad"
 90
        0
280
       0
281
       0
  0
CLASS
  1
OBJECT_PTR
  2
CAseDLPNTableRecord
  3
"ASE-LPNTableRecord"
 90
        1
280
       0
281
       0
  0
CLASS
  1
LAYOUT
  2
AcDbLayout
  3
"AutoCAD 2000"
 90
        1
280
       0
281
       0
  0
CLASS
  1
PLOTSETTINGS
  2
AcDbPlotSettings
  3
"AutoCAD 2000"
 90
        1
280
       0
281
       0
  0
CLASS
  1
ACDBDICTIONARYWDFLT
  2
AcDbDictionaryWithDefault
  3
"AutoCAD 2000"
 90
        1
280
       0
281
       0
  0
CLASS
  1
ACDBPLACEHOLDER
  2
AcDbPlaceHolder
  3
"AutoCAD 2000"
 90
        1
280
       0
281
       0
  0
CLASS
  1
VBA_PROJECT
  2
AcDbVbaProject
  3
"acadvba"
 90
        1
280
       0
281
       0
  0
CLASS
  1
WIPEOUT
  2
AcDbWipeout
  3
WipeOut|AutoCAD Express Tool|expresstools@autodesk.com
 90
      127
280
       0
281
       1
  0
CLASS
  1
WIPEOUTVARIABLES
  2
AcDbWipeoutVariables
  3
WipeOut|AutoCAD Express Tool|expresstools@autodesk.com
 90
        0
280
       0
281
       0
  0
CLASS
  1
RTEXT
  2
RText
  3
RText|AutoCAD Express Tool|expresstools@autodesk.com
 90
        0
280
       0
281
       1
  0
CLASS
  1
ARCALIGNEDTEXT
  2
AcDbArcAlignedText
  3
ATEXT|AutoCAD Express Tool|expresstools@autodesk.com
 90
        0
280
       0
281
       1
  0
ENDSEC
  0
SECTION
  2
TABLES
  0
TABLE
  2
VPORT
  5
7
100
AcDbSymbolTable
 70
       1
  0
VPORT
  5
15
100
AcDbSymbolTableRecord
100
AcDbViewportTableRecord
  2
*ACTIVE
 70
       0
 10
0.0
 20
0.0
 11
1.0
 21
1.0
 12
0.0
 22
-2.0
 13
0.0
 23
0.0
 14
1.0
 24
1.0
 15
0.0
 25
0.0
 16
0.0
 26
0.0
 36
1.0
 17
0.0
 27
0.0
 37
0.0
 40
298.38033372
 41
1.17071581
 42
50.0
 43
0.0
 44
0.0
 50
0.0
 51
0.0
 71
       0
 72
     100
 73
       1
 74
       1
 75
       0
 76
       0
 77
       0
 78
       0
  0
ENDTAB
  0
TABLE
  2
LTYPE
  5
4
100
AcDbSymbolTable
 70
      30
  0
LTYPE
  5
11
100
AcDbSymbolTableRecord
100
AcDbLinetypeTableRecord
  2
BYBLOCK
 70
      64
  3

 72
      65
 73
       0
 40
0.0
  0
LTYPE
  5
12
100
AcDbSymbolTableRecord
100
AcDbLinetypeTableRecord
  2
BYLAYER
 70
      64
  3

 72
      65
 73
       0
 40
0.0
  0
LTYPE
  5
13
100
AcDbSymbolTableRecord
100
AcDbLinetypeTableRecord
  2
CONTINUOUS
 70
      64
  3
Solid line
 72
      65
 73
       0
 40
0.0
  0
LTYPE
  5
1D
100
AcDbSymbolTableRecord
100
AcDbLinetypeTableRecord
  2
HIDDENX2
 70
      64
  3
CADPAC LINETYPE
 72
      65
 73
       2
 40
15.64608348
 49
11.73456261
 74
       0
 49
-3.91152087
 74
       0
  0
LTYPE
  5
1E
100
AcDbSymbolTableRecord
100
AcDbLinetypeTableRecord
  2
HIDDEN
 70
      64
  3
CADPAC LINETYPE
 72
      65
 73
       2
 40
11.73456261
 49
7.82304174
 74
       0
 49
-3.91152087
 74
       0
  0
LTYPE
  5
1F
100
AcDbSymbolTableRecord
100
AcDbLinetypeTableRecord
  2
HIDDEN2
 70
      64
  3
CADPAC LINETYPE
 72
      65
 73
       2
 40
9.77880218
 49
5.86728131
 74
       0
 49
-3.91152087
 74
       0
  0
LTYPE
  5
20
100
AcDbSymbolTableRecord
100
AcDbLinetypeTableRecord
  2
DASHED
 70
      64
  3
CADPAC LINETYPE
 72
      65
 73
       2
 40
11.73456261
 49
7.82304174
 74
       0
 49
-3.91152087
 74
       0
  0
LTYPE
  5
21
100
AcDbSymbolTableRecord
100
AcDbLinetypeTableRecord
  2
DASHED2
 70
      64
  3
CADPAC LINETYPE
 72
      65
 73
       2
 40
8.80092196
 49
5.86728131
 74
       0
 49
-2.93364065
 74
       0
  0
LTYPE
  5
22
100
AcDbSymbolTableRecord
100
AcDbLinetypeTableRecord
  2
DASHEDX2
 70
      64
  3
CADPAC LINETYPE
 72
      65
 73
       2
 40
17.60184392
 49
11.73456261
 74
       0
 49
-5.86728131
 74
       0
  0
LTYPE
  5
23
100
AcDbSymbolTableRecord
100
AcDbLinetypeTableRecord
  2
DOTX2
 70
      64
  3
CADPAC LINETYPE
 72
      65
 73
       2
 40
4.88940109
 49
0.0
 74
       0
 49
-4.88940109
 74
       0
  0
LTYPE
  5
24
100
AcDbSymbolTableRecord
100
AcDbLinetypeTableRecord
  2
DOT
 70
      64
  3
CADPAC LINETYPE
 72
      65
 73
       2
 40
3.91152087
 49
0.0
 74
       0
 49
-3.91152087
 74
       0
  0
LTYPE
  5
25
100
AcDbSymbolTableRecord
100
AcDbLinetypeTableRecord
  2
DOT2
 70
      64
  3
CADPAC LINETYPE
 72
      65
 73
       2
 40
2.93364065
 49
0.0
 74
       0
 49
-2.93364065
 74
       0
  0
LTYPE
  5
26
100
AcDbSymbolTableRecord
100
AcDbLinetypeTableRecord
  2
CENTERX2
 70
      64
  3
CADPAC LINETYPE
 72
      65
 73
       4
 40
23.46912522
 49
9.77880218
 74
       0
 49
-4.88940109
 74
       0
 49
3.91152087
 74
       0
 49
-4.88940109
 74
       0
  0
LTYPE
  5
27
100
AcDbSymbolTableRecord
100
AcDbLinetypeTableRecord
  2
CENTER
 70
      64
  3
CADPAC LINETYPE
 72
      65
 73
       4
 40
17.992996
 49
7.82304174
 74
       0
 49
-3.91152087
 74
       0
 49
2.34691252
 74
       0
 49
-3.91152087
 74
       0
  0
LTYPE
  5
28
100
AcDbSymbolTableRecord
100
AcDbLinetypeTableRecord
  2
CENTER2
 70
      64
  3
CADPAC LINETYPE
 72
      65
 73
       4
 40
12.51686679
 49
5.86728131
 74
       0
 49
-2.93364065
 74
       0
 49
0.78230417
 74
       0
 49
-2.93364065
 74
       0
  0
LTYPE
  5
29
100
AcDbSymbolTableRecord
100
AcDbLinetypeTableRecord
  2
DASHDOTX2
 70
      64
  3
CADPAC LINETYPE
 72
      65
 73
       4
 40
19.55760435
 49
9.77880218
 74
       0
 49
-4.88940109
 74
       0
 49
0.0
 74
       0
 49
-4.88940109
 74
       0
  0
LTYPE
  5
2A
100
AcDbSymbolTableRecord
100
AcDbLinetypeTableRecord
  2
DASHDOT
 70
      64
  3
CADPAC LINETYPE
 72
      65
 73
       4
 40
15.64608348
 49
7.82304174
 74
       0
 49
-3.91152087
 74
       0
 49
0.0
 74
       0
 49
-3.91152087
 74
       0
  0
LTYPE
  5
2B
100
AcDbSymbolTableRecord
100
AcDbLinetypeTableRecord
  2
DASHDOT2
 70
      64
  3
CADPAC LINETYPE
 72
      65
 73
       4
 40
11.73456261
 49
5.86728131
 74
       0
 49
-2.93364065
 74
       0
 49
0.0
 74
       0
 49
-2.93364065
 74
       0
  0
LTYPE
  5
2C
100
AcDbSymbolTableRecord
100
AcDbLinetypeTableRecord
  2
DIVIDEX2
 70
      64
  3
CADPAC LINETYPE
 72
      65
 73
       6
 40
24.44700544
 49
9.77880218
 74
       0
 49
-4.88940109
 74
       0
 49
0.0
 74
       0
 49
-4.88940109
 74
       0
 49
0.0
 74
       0
 49
-4.88940109
 74
       0
  0
LTYPE
  5
2D
100
AcDbSymbolTableRecord
100
AcDbLinetypeTableRecord
  2
DIVIDE
 70
      64
  3
CADPAC LINETYPE
 72
      65
 73
       6
 40
19.55760435
 49
7.82304174
 74
       0
 49
-3.91152087
 74
       0
 49
0.0
 74
       0
 49
-3.91152087
 74
       0
 49
0.0
 74
       0
 49
-3.91152087
 74
       0
  0
LTYPE
  5
2E
100
AcDbSymbolTableRecord
100
AcDbLinetypeTableRecord
  2
DIVIDE2
 70
      64
  3
CADPAC LINETYPE
 72
      65
 73
       6
 40
14.66820326
 49
5.86728131
 74
       0
 49
-2.93364065
 74
       0
 49
0.0
 74
       0
 49
-2.93364065
 74
       0
 49
0.0
 74
       0
 49
-2.93364065
 74
       0
  0
LTYPE
  5
2F
100
AcDbSymbolTableRecord
100
AcDbLinetypeTableRecord
  2
BORDERX2
 70
      64
  3
CADPAC LINETYPE
 72
      65
 73
       6
 40
34.22580762
 49
9.77880218
 74
       0
 49
-4.88940109
 74
       0
 49
9.77880218
 74
       0
 49
-4.88940109
 74
       0
 49
0.0
 74
       0
 49
-4.88940109
 74
       0
  0
LTYPE
  5
30
100
AcDbSymbolTableRecord
100
AcDbLinetypeTableRecord
  2
BORDER
 70
      64
  3
CADPAC LINETYPE
 72
      65
 73
       6
 40
27.38064609
 49
7.82304174
 74
       0
 49
-3.91152087
 74
       0
 49
7.82304174
 74
       0
 49
-3.91152087
 74
       0
 49
0.0
 74
       0
 49
-3.91152087
 74
       0
  0
LTYPE
  5
31
100
AcDbSymbolTableRecord
100
AcDbLinetypeTableRecord
  2
BORDER2
 70
      64
  3
CADPAC LINETYPE
 72
      65
 73
       6
 40
20.53548457
 49
5.86728131
 74
       0
 49
-2.93364065
 74
       0
 49
5.86728131
 74
       0
 49
-2.93364065
 74
       0
 49
0.0
 74
       0
 49
-2.93364065
 74
       0
  0
LTYPE
  5
32
100
AcDbSymbolTableRecord
100
AcDbLinetypeTableRecord
  2
PHANTOMX2
 70
      64
  3
CADPAC LINETYPE
 72
      65
 73
       6
 40
29.33640653
 49
9.77880218
 74
       0
 49
-3.91152087
 74
       0
 49
3.91152087
 74
       0
 49
-3.91152087
 74
       0
 49
3.91152087
 74
       0
 49
-3.91152087
 74
       0
  0
LTYPE
  5
33
100
AcDbSymbolTableRecord
100
AcDbLinetypeTableRecord
  2
PHANTOM
 70
      64
  3
CADPAC LINETYPE
 72
      65
 73
       6
 40
24.2514294
 49
7.82304174
 74
       0
 49
-3.91152087
 74
       0
 49
2.34691252
 74
       0
 49
-3.91152087
 74
       0
 49
2.34691252
 74
       0
 49
-3.91152087
 74
       0
  0
LTYPE
  5
34
100
AcDbSymbolTableRecord
100
AcDbLinetypeTableRecord
  2
PHANTOM2
 70
      64
  3
CADPAC LINETYPE
 72
      65
 73
       6
 40
20.73106061
 49
5.86728131
 74
       0
 49
-3.91152087
 74
       0
 49
1.56460835
 74
       0
 49
-3.91152087
 74
       0
 49
1.56460835
 74
       0
 49
-3.91152087
 74
       0
  0
LTYPE
  5
35
100
AcDbSymbolTableRecord
100
AcDbLinetypeTableRecord
  2
ACAD_ISO06W100
 70
      64
  3
CADPAC LINETYPE
 72
      65
 73
       8
 40
26.40276588
 49
9.77880218
 74
       0
 49
-4.88940109
 74
       0
 49
0.0
 74
       0
 49
-3.91152087
 74
       0
 49
0.0
 74
       0
 49
-3.91152087
 74
       0
 49
0.0
 74
       0
 49
-3.91152087
 74
       0
  0
LTYPE
  5
36
100
AcDbSymbolTableRecord
100
AcDbLinetypeTableRecord
  2
ACAD_ISO13W100
 70
      64
  3
CADPAC LINETYPE
 72
      65
 73
       8
 40
31.29216696
 49
7.82304174
 74
       0
 49
-3.91152087
 74
       0
 49
7.82304174
 74
       0
 49
-3.91152087
 74
       0
 49
0.0
 74
       0
 49
-3.91152087
 74
       0
 49
0.0
 74
       0
 49
-3.91152087
 74
       0
  0
LTYPE
  5
37
100
AcDbSymbolTableRecord
100
AcDbLinetypeTableRecord
  2
ACAD_ISO14W100
 70
      64
  3
CADPAC LINETYPE
 72
      65
 73
       8
 40
23.46912522
 49
7.82304174
 74
       0
 49
-3.91152087
 74
       0
 49
0.0
 74
       0
 49
-3.91152087
 74
       0
 49
0.0
 74
       0
 49
-3.91152087
 74
       0
 49
0.0
 74
       0
 49
-3.91152087
 74
       0
  0
ENDTAB
  0
TABLE
  2
LAYER
  5
2
100
AcDbSymbolTable
 70
       3
  0
LAYER
  5
14
100
AcDbSymbolTableRecord
100
AcDbLayerTableRecord
  2
0
 70
       0
 62
       7
  6
CONTINUOUS
  0
LAYER
  5
38
100
AcDbSymbolTableRecord
100
AcDbLayerTableRecord
  2
SLD-0
 70
       0
 62
       7
  6
CONTINUOUS
  0
LAYER
  5
39
100
AcDbSymbolTableRecord
100
AcDbLayerTableRecord
  2
レイヤー_1
 70
       0
 62
       7
  6
CONTINUOUS
  0
ENDTAB
  0
TABLE
  2
STYLE
  5
3
100
AcDbSymbolTable
 70
       1
  0
STYLE
  5
17
100
AcDbSymbolTableRecord
100
AcDbTextStyleTableRecord
  2
STANDARD
 70
       0
 40
0.0
 41
1.0
 50
0.0
 71
       0
 42
8.0
  3
txt.shx
  4
bigfont.shx
  0
ENDTAB
  0
TABLE
  2
VIEW
  5
5
100
AcDbSymbolTable
 70
       1
  0
VIEW
  5
3A
100
AcDbSymbolTableRecord
100
AcDbViewTableRecord
  2
QQQQ
 70
       0
 40
298.38033372
 10
0.0
 20
-2.0
 41
349.31857454
 11
0.0
 21
0.0
 31
1.0
 12
100.0
 22
100.0
 32
0.0
 42
50.0
 43
0.0
 44
0.0
 50
0.0
 71
       0
  0
ENDTAB
  0
TABLE
  2
UCS
  5
6
100
AcDbSymbolTable
 70
       0
  0
ENDTAB
  0
TABLE
  2
APPID
  5
8
100
AcDbSymbolTable
 70
       1
  0
APPID
  5
16
100
AcDbSymbolTableRecord
100
AcDbRegAppTableRecord
  2
ACAD
 70
       0
  0
ENDTAB
  0
TABLE
  2
DIMSTYLE
  5
9
100
AcDbSymbolTable
 70
       1
  0
DIMSTYLE
105
18
100
AcDbSymbolTableRecord
100
AcDbDimStyleTableRecord
  2
STANDARD
 70
       0
  3

  4

  5

  6

  7

 40
1.0
 41
0.18
 42
0.0625
 43
0.38
 44
0.18
 45
0.0
 46
0.0
 47
0.0
 48
0.0
 71
       0
 72
       0
 73
       1
 74
       1
 75
       0
 76
       0
 77
       0
 78
       0
140
0.18
141
0.09
142
0.0
143
25.4
144
1.0
145
0.0
146
1.0
147
0.09
170
       0
171
       2
172
       0
173
       0
174
       0
175
       0
176
       0
177
       0
178
       0
270
       2
271
       4
272
       4
273
       2
274
       2
275
       0
280
       0
281
       0
282
       0
283
       1
284
       0
285
       0
286
       0
287
       0
288
       0
340
17
  0
ENDTAB
  0
TABLE
  2
BLOCK_RECORD
  5
1
100
AcDbSymbolTable
 70
       0
  0
BLOCK_RECORD
  5
A
100
AcDbSymbolTableRecord
100
AcDbBlockTableRecord
  2
*MODEL_SPACE
  0
BLOCK_RECORD
  5
B
100
AcDbSymbolTableRecord
100
AcDbBlockTableRecord
  2
*PAPER_SPACE
  0
ENDTAB
  0
ENDSEC
  0
SECTION
  2
BLOCKS
  0
BLOCK
  5
D
100
AcDbEntity
  8
0
100
AcDbBlockBegin
  2
*MODEL_SPACE
 70
       0
 10
0.0
 20
0.0
 30
0.0
  3
*MODEL_SPACE
  1

  0
ENDBLK
  5
E
100
AcDbEntity
  8
0
100
AcDbBlockEnd
  0
BLOCK
  5
F
100
AcDbEntity
 67
       1
  8
0
100
AcDbBlockBegin
  2
*PAPER_SPACE
 70
       0
 10
0.0
 20
0.0
 30
0.0
  3
*PAPER_SPACE
  1

  0
ENDBLK
  5
10
100
AcDbEntity
 67
       1
  8
0
100
AcDbBlockEnd
  0
ENDSEC
  0
SECTION
  2
ENTITIES
  0
LINE
  5
3B
100
AcDbEntity
  8
SLD-0
  6
CONTINUOUS
 62
       3
100
AcDbLine
 10
-156.02759329
 20
-116.98627434
 30
0.0
 11
-80.02759329
 21
-116.98627434
 31
0.0
  0
LINE
  5
3C
100
AcDbEntity
  8
SLD-0
  6
CONTINUOUS
 62
       3
100
AcDbLine
 10
-156.02759329
 20
133.01372566
 30
0.0
 11
-80.02759329
 21
133.01372566
 31
0.0
  0
LINE
  5
3D
100
AcDbEntity
  8
SLD-0
  6
CONTINUOUS
 62
       3
100
AcDbLine
 10
-78.02759329
 20
-114.98627434
 30
0.0
 11
-78.02759329
 21
131.01372566
 31
0.0
  0
LINE
  5
3E
100
AcDbEntity
  8
SLD-0
  6
CONTINUOUS
 62
       3
100
AcDbLine
 10
-158.02759329
 20
-114.98627434
 30
0.0
 11
-158.02759329
 21
131.01372566
 31
0.0
  0
LINE
  5
3F
100
AcDbEntity
  8
SLD-0
  6
CONTINUOUS
 62
       3
100
AcDbLine
 10
-101.02759329
 20
-104.98627434
 30
0.0
 11
-101.02759329
 21
-108.98627434
 31
0.0
  0
LINE
  5
40
100
AcDbEntity
  8
SLD-0
  6
CONTINUOUS
 62
       3
100
AcDbLine
 10
156.56270341
 20
133.01372566
 30
0.0
 11
158.06270341
 21
133.01372566
 31
0.0
  0
LINE
  5
41
100
AcDbEntity
  8
SLD-0
  6
CONTINUOUS
 62
       3
100
AcDbLine
 10
156.56270341
 20
-116.98627434
 30
0.0
 11
158.06270341
 21
-116.98627434
 31
0.0
  0
LINE
  5
42
100
AcDbEntity
  8
SLD-0
  6
CONTINUOUS
 62
       3
100
AcDbLine
 10
156.56270341
 20
-116.98627434
 30
0.0
 11
156.56270341
 21
133.01372566
 31
0.0
  0
LINE
  5
43
100
AcDbEntity
  8
SLD-0
  6
CONTINUOUS
 62
       3
100
AcDbLine
 10
-141.02759329
 20
121.01372566
 30
0.0
 11
-141.02759329
 21
125.01372566
 31
0.0
  0
LINE
  5
44
100
AcDbEntity
  8
SLD-0
  6
CONTINUOUS
 62
       3
100
AcDbLine
 10
-135.02759329
 20
121.01372566
 30
0.0
 11
-135.02759329
 21
125.01372566
 31
0.0
  0
LINE
  5
45
100
AcDbEntity
  8
SLD-0
  6
CONTINUOUS
 62
       3
100
AcDbLine
 10
-141.02759329
 20
-104.98627434
 30
0.0
 11
-141.02759329
 21
-108.98627434
 31
0.0
  0
LINE
  5
46
100
AcDbEntity
  8
SLD-0
  6
CONTINUOUS
 62
       3
100
AcDbLine
 10
-135.02759329
 20
-104.98627434
 30
0.0
 11
-135.02759329
 21
-108.98627434
 31
0.0
  0
LINE
  5
47
100
AcDbEntity
  8
SLD-0
  6
CONTINUOUS
 62
       3
100
AcDbLine
 10
-158.02759329
 20
131.01372566
 30
0.0
 11
-156.02759329
 21
133.01372566
 31
0.0
  0
LINE
  5
48
100
AcDbEntity
  8
SLD-0
  6
CONTINUOUS
 62
       3
100
AcDbLine
 10
-80.02759329
 20
133.01372566
 30
0.0
 11
-78.02759329
 21
131.01372566
 31
0.0
  0
LINE
  5
49
100
AcDbEntity
  8
SLD-0
  6
CONTINUOUS
 62
       3
100
AcDbLine
 10
-80.02759329
 20
-116.98627434
 30
0.0
 11
-78.02759329
 21
-114.98627434
 31
0.0
  0
LINE
  5
4A
100
AcDbEntity
  8
SLD-0
  6
CONTINUOUS
 62
       3
100
AcDbLine
 10
-158.02759329
 20
-114.98627434
 30
0.0
 11
-156.02759329
 21
-116.98627434
 31
0.0
  0
LINE
  5
4B
100
AcDbEntity
  8
SLD-0
  6
CONTINUOUS
 62
       3
100
AcDbLine
 10
-95.02759329
 20
-104.98627434
 30
0.0
 11
-95.02759329
 21
-108.98627434
 31
0.0
  0
LINE
  5
4C
100
AcDbEntity
  8
SLD-0
  6
CONTINUOUS
 62
       3
100
AcDbLine
 10
-95.02759329
 20
121.01372566
 30
0.0
 11
-95.02759329
 21
125.01372566
 31
0.0
  0
LINE
  5
4D
100
AcDbEntity
  8
SLD-0
  6
CONTINUOUS
 62
       3
100
AcDbLine
 10
-101.02759329
 20
121.01372566
 30
0.0
 11
-101.02759329
 21
125.01372566
 31
0.0
  0
LINE
  5
4E
100
AcDbEntity
  8
SLD-0
  6
CONTINUOUS
 62
       3
100
AcDbLine
 10
11.06270341
 20
-62.53025762
 30
0.0
 11
11.06270341
 21
15.46974238
 31
0.0
  0
ARC
  5
4F
100
AcDbEntity
  8
SLD-0
  6
CONTINUOUS
 62
       3
100
AcDbCircle
 10
-138.02759329
 20
121.01372566
 30
0.0
 40
3.0
100
AcDbArc
 50
180.0
 51
360.0
  0
ARC
  5
50
100
AcDbEntity
  8
SLD-0
  6
CONTINUOUS
 62
       3
100
AcDbCircle
 10
-138.02759329
 20
125.01372566
 30
0.0
 40
3.0
100
AcDbArc
 50
0.0
 51
180.0
  0
ARC
  5
51
100
AcDbEntity
  8
SLD-0
  6
CONTINUOUS
 62
       3
100
AcDbCircle
 10
-138.02759329
 20
-104.98627434
 30
0.0
 40
3.0
100
AcDbArc
 50
0.0
 51
180.0
  0
ARC
  5
52
100
AcDbEntity
  8
SLD-0
  6
CONTINUOUS
 62
       3
100
AcDbCircle
 10
-138.02759329
 20
-108.98627434
 30
0.0
 40
3.0
100
AcDbArc
 50
180.0
 51
360.0
  0
ARC
  5
53
100
AcDbEntity
  8
SLD-0
  6
CONTINUOUS
 62
       3
100
AcDbCircle
 10
-98.02759329
 20
121.01372566
 30
0.0
 40
3.0
100
AcDbArc
 50
180.0
 51
360.0
  0
ARC
  5
54
100
AcDbEntity
  8
SLD-0
  6
CONTINUOUS
 62
       3
100
AcDbCircle
 10
-98.02759329
 20
125.01372566
 30
0.0
 40
3.0
100
AcDbArc
 50
0.0
 51
180.0
  0
ARC
  5
55
100
AcDbEntity
  8
SLD-0
  6
CONTINUOUS
 62
       3
100
AcDbCircle
 10
-98.02759329
 20
-104.98627434
 30
0.0
 40
3.0
100
AcDbArc
 50
0.0
 51
180.0
  0
ARC
  5
56
100
AcDbEntity
  8
SLD-0
  6
CONTINUOUS
 62
       3
100
AcDbCircle
 10
-98.02759329
 20
-108.98627434
 30
0.0
 40
3.0
100
AcDbArc
 50
180.0
 51
360.0
  0
LINE
  5
57
100
AcDbEntity
  8
SLD-0
  6
CONTINUOUS
 62
       3
100
AcDbLine
 10
114.06270341
 20
-99.99139584
 30
0.0
 11
114.06270341
 21
28.99366814
 31
0.0
  0
LINE
  5
58
100
AcDbEntity
  8
SLD-0
  6
CONTINUOUS
 62
       3
100
AcDbLine
 10
-94.02759329
 20
16.46974238
 30
0.0
 11
-142.02759329
 21
16.46974238
 31
0.0
  0
LINE
  5
59
100
AcDbEntity
  8
SLD-0
  6
CONTINUOUS
 62
       3
100
AcDbLine
 10
-94.02759329
 20
-63.53025762
 30
0.0
 11
-142.02759329
 21
-63.53025762
 31
0.0
  0
LINE
  5
5A
100
AcDbEntity
  8
SLD-0
  6
CONTINUOUS
 62
       3
100
AcDbLine
 10
-96.02759329
 20
-60.53025762
 30
0.0
 11
-96.02759329
 21
13.46974238
 31
0.0
  0
LINE
  5
5B
100
AcDbEntity
  8
SLD-0
  6
CONTINUOUS
 62
       3
100
AcDbLine
 10
-96.02759329
 20
13.46974238
 30
0.0
 11
-140.02759329
 21
13.46974238
 31
0.0
  0
LINE
  5
5C
100
AcDbEntity
  8
SLD-0
  6
CONTINUOUS
 62
       3
100
AcDbLine
 10
-140.02759329
 20
-60.53025762
 30
0.0
 11
-140.02759329
 21
13.46974238
 31
0.0
  0
LINE
  5
5D
100
AcDbEntity
  8
SLD-0
  6
CONTINUOUS
 62
       3
100
AcDbLine
 10
-96.02759329
 20
-60.53025762
 30
0.0
 11
-140.02759329
 21
-60.53025762
 31
0.0
  0
LINE
  5
5E
100
AcDbEntity
  8
SLD-0
  6
CONTINUOUS
 62
       3
100
AcDbLine
 10
114.06270341
 20
16.46974238
 30
0.0
 11
12.06270341
 21
16.46974238
 31
0.0
  0
LINE
  5
5F
100
AcDbEntity
  8
SLD-0
  6
CONTINUOUS
 62
       3
100
AcDbLine
 10
114.06270341
 20
-63.53025762
 30
0.0
 11
12.06270341
 21
-63.53025762
 31
0.0
  0
LINE
  5
60
100
AcDbEntity
  8
SLD-0
  6
CONTINUOUS
 62
       3
100
AcDbLine
 10
-93.02759329
 20
-62.53025762
 30
0.0
 11
-93.02759329
 21
15.46974238
 31
0.0
  0
LINE
  5
61
100
AcDbEntity
  8
SLD-0
  6
CONTINUOUS
 62
       3
100
AcDbLine
 10
-143.02759329
 20
-62.53025762
 30
0.0
 11
-143.02759329
 21
15.46974238
 31
0.0
  0
ARC
  5
62
100
AcDbEntity
  8
SLD-0
  6
CONTINUOUS
 62
       3
100
AcDbCircle
 10
12.06270341
 20
-62.53025762
 30
0.0
 40
1.0
100
AcDbArc
 50
180.0
 51
270.0
  0
ARC
  5
63
100
AcDbEntity
  8
SLD-0
  6
CONTINUOUS
 62
       3
100
AcDbCircle
 10
12.06270341
 20
15.46974238
 30
0.0
 40
1.0
100
AcDbArc
 50
90.0
 51
180.0
  0
ARC
  5
64
100
AcDbEntity
  8
SLD-0
  6
CONTINUOUS
 62
       3
100
AcDbCircle
 10
-142.02759329
 20
-62.53025762
 30
0.0
 40
1.0
100
AcDbArc
 50
180.0
 51
270.0
  0
ARC
  5
65
100
AcDbEntity
  8
SLD-0
  6
CONTINUOUS
 62
       3
100
AcDbCircle
 10
-142.02759329
 20
15.46974238
 30
0.0
 40
1.0
100
AcDbArc
 50
90.0
 51
180.0
  0
ARC
  5
66
100
AcDbEntity
  8
SLD-0
  6
CONTINUOUS
 62
       3
100
AcDbCircle
 10
-94.02759329
 20
-62.53025762
 30
0.0
 40
1.0
100
AcDbArc
 50
270.0
 51
360.0
  0
ARC
  5
67
100
AcDbEntity
  8
SLD-0
  6
CONTINUOUS
 62
       3
100
AcDbCircle
 10
-94.02759329
 20
15.46974238
 30
0.0
 40
1.0
100
AcDbArc
 50
0.0
 51
90.0
  0
LINE
  5
68
100
AcDbEntity
  8
レイヤー_1
  6
CONTINUOUS
 62
       3
100
AcDbLine
 10
-157.96141761
 20
-75.99423873
 30
0.0
 11
-77.99937336
 21
-75.99423873
 31
0.0
  0
LINE
  5
69
100
AcDbEntity
  8
レイヤー_1
  6
CONTINUOUS
 62
       3
100
AcDbLine
 10
-157.96141761
 20
-99.99001781
 30
0.0
 11
-77.99937336
 21
-99.99001781
 31
0.0
  0
LINE
  5
6A
100
AcDbEntity
  8
レイヤー_1
  6
CONTINUOUS
 62
       3
100
AcDbLine
 10
158.06270341
 20
-116.98627434
 30
0.0
 11
158.06270341
 21
133.01372566
 31
0.0
  0
LINE
  5
6B
100
AcDbEntity
  8
レイヤー_1
  6
CONTINUOUS
 62
       3
100
AcDbLine
 10
-89.98830565
 20
-75.93360505
 30
0.0
 11
-89.98830565
 21
-99.98588369
 31
0.0
  0
LINE
  5
6C
100
AcDbEntity
  8
レイヤー_1
  6
CONTINUOUS
 62
       3
100
AcDbLine
 10
-91.98783907
 20
-75.93360505
 30
0.0
 11
-91.98783907
 21
-99.98588369
 31
0.0
  0
LINE
  5
6D
100
AcDbEntity
  8
レイヤー_1
  6
CONTINUOUS
 62
       3
100
AcDbLine
 10
-103.48825682
 20
-75.93360505
 30
0.0
 11
-103.48825682
 21
-99.98588369
 31
0.0
  0
LINE
  5
6E
100
AcDbEntity
  8
レイヤー_1
  6
CONTINUOUS
 62
       3
100
AcDbLine
 10
-105.48779024
 20
-75.93360505
 30
0.0
 11
-105.48779024
 21
-99.98588369
 31
0.0
  0
LINE
  5
6F
100
AcDbEntity
  8
レイヤー_1
  6
CONTINUOUS
 62
       3
100
AcDbLine
 10
-116.98820798
 20
-75.93360505
 30
0.0
 11
-116.98820798
 21
-99.98588369
 31
0.0
  0
LINE
  5
70
100
AcDbEntity
  8
レイヤー_1
  6
CONTINUOUS
 62
       3
100
AcDbLine
 10
-118.9877414
 20
-75.93360505
 30
0.0
 11
-118.9877414
 21
-99.98588369
 31
0.0
  0
LINE
  5
71
100
AcDbEntity
  8
レイヤー_1
  6
CONTINUOUS
 62
       3
100
AcDbLine
 10
-143.98673228
 20
-75.93360505
 30
0.0
 11
-143.98673228
 21
-99.98588369
 31
0.0
  0
LINE
  5
72
100
AcDbEntity
  8
レイヤー_1
  6
CONTINUOUS
 62
       3
100
AcDbLine
 10
-145.98764374
 20
-75.93360505
 30
0.0
 11
-145.98764374
 21
-99.98588369
 31
0.0
  0
LINE
  5
73
100
AcDbEntity
  8
レイヤー_1
  6
CONTINUOUS
 62
       3
100
AcDbLine
 10
-130.48678111
 20
-75.93360505
 30
0.0
 11
-130.48678111
 21
-99.98588369
 31
0.0
  0
LINE
  5
74
100
AcDbEntity
  8
レイヤー_1
  6
CONTINUOUS
 62
       3
100
AcDbLine
 10
-132.48769257
 20
-75.93360505
 30
0.0
 11
-132.48769257
 21
-99.98588369
 31
0.0
  0
LINE
  5
75
100
AcDbEntity
  8
レイヤー_1
  6
CONTINUOUS
 62
       3
100
AcDbLine
 10
-89.98830565
 20
116.05605419
 30
0.0
 11
-89.98830565
 21
92.00515359
 31
0.0
  0
LINE
  5
76
100
AcDbEntity
  8
レイヤー_1
  6
CONTINUOUS
 62
       3
100
AcDbLine
 10
-91.98783907
 20
116.05605419
 30
0.0
 11
-91.98783907
 21
92.00515359
 31
0.0
  0
LINE
  5
77
100
AcDbEntity
  8
レイヤー_1
  6
CONTINUOUS
 62
       3
100
AcDbLine
 10
-157.96141761
 20
115.99679855
 30
0.0
 11
-77.99937336
 21
115.99679855
 31
0.0
  0
LINE
  5
78
100
AcDbEntity
  8
レイヤー_1
  6
CONTINUOUS
 62
       3
100
AcDbLine
 10
-157.96141761
 20
91.99964143
 30
0.0
 11
-77.99937336
 21
91.99964143
 31
0.0
  0
LINE
  5
79
100
AcDbEntity
  8
レイヤー_1
  6
CONTINUOUS
 62
       3
100
AcDbLine
 10
-143.98673228
 20
116.05605419
 30
0.0
 11
-143.98673228
 21
92.00515359
 31
0.0
  0
LINE
  5
7A
100
AcDbEntity
  8
レイヤー_1
  6
CONTINUOUS
 62
       3
100
AcDbLine
 10
-145.98764374
 20
116.05605419
 30
0.0
 11
-145.98764374
 21
92.00515359
 31
0.0
  0
LINE
  5
7B
100
AcDbEntity
  8
レイヤー_1
  6
CONTINUOUS
 62
       3
100
AcDbLine
 10
-158.06270341
 20
28.99366814
 30
0.0
 11
-77.99248317
 21
28.99366814
 31
0.0
  0
LINE
  5
7C
100
AcDbEntity
  8
レイヤー_1
  6
CONTINUOUS
 62
       3
100
AcDbLine
 10
80.0616075
 20
28.99366814
 30
0.0
 11
156.56339786
 21
28.99366814
 31
0.0
  0
LINE
  5
7D
100
AcDbEntity
  8
レイヤー_1
  6
CONTINUOUS
 62
       3
100
AcDbLine
 10
156.56339786
 20
115.98026209
 30
0.0
 11
80.0616075
 21
115.98026209
 31
0.0
  0
LINE
  5
7E
100
AcDbEntity
  8
レイヤー_1
  6
CONTINUOUS
 62
       3
100
AcDbLine
 10
80.0616075
 20
115.98026209
 30
0.0
 11
80.0616075
 21
28.99366814
 31
0.0
  0
LINE
  5
7F
100
AcDbEntity
  8
レイヤー_1
  6
CONTINUOUS
 62
       3
100
AcDbLine
 10
114.06270341
 20
-99.99139584
 30
0.0
 11
156.56201981
 21
-99.99139584
 31
0.0
  0
LINE
  5
80
100
AcDbEntity
  8
レイヤー_1
  6
CONTINUOUS
 62
       3
100
AcDbLine
 10
16.073782
 20
16.45834371
 30
0.0
 11
16.073782
 21
-63.51885896
 31
0.0
  0
LINE
  5
81
100
AcDbEntity
  8
レイヤー_1
  6
CONTINUOUS
 62
       3
100
AcDbLine
 10
98.05127764
 20
-99.49116798
 30
0.0
 11
110.05915294
 21
-99.49116798
 31
0.0
  0
LINE
  5
82
100
AcDbEntity
  8
レイヤー_1
  6
CONTINUOUS
 62
       3
100
AcDbLine
 10
110.05640019
 20
-76.49377758
 30
0.0
 11
98.05127764
 21
-76.49377758
 31
0.0
  0
LINE
  5
83
100
AcDbEntity
  8
レイヤー_1
  6
CONTINUOUS
 62
       3
100
AcDbLine
 10
98.05127764
 20
-76.49377758
 30
0.0
 11
96.04347598
 21
-76.99331642
 31
0.0
  0
LINE
  5
84
100
AcDbEntity
  8
レイヤー_1
  6
CONTINUOUS
 62
       3
100
AcDbLine
 10
96.04347598
 20
-76.99331642
 30
0.0
 11
96.04347598
 21
-98.99094012
 31
0.0
  0
LINE
  5
85
100
AcDbEntity
  8
レイヤー_1
  6
CONTINUOUS
 62
       3
100
AcDbLine
 10
96.04347598
 20
-98.99094012
 30
0.0
 11
98.05127764
 21
-99.49116798
 31
0.0
  0
LINE
  5
86
100
AcDbEntity
  8
レイヤー_1
  6
CONTINUOUS
 62
       3
100
AcDbLine
 10
112.05214568
 20
-99.99001781
 30
0.0
 11
114.06408144
 21
-99.99001781
 31
0.0
  0
LINE
  5
87
100
AcDbEntity
  8
レイヤー_1
  6
CONTINUOUS
 62
       3
100
AcDbLine
 10
114.06408144
 20
-75.99423873
 30
0.0
 11
112.05214568
 21
-75.99423873
 31
0.0
  0
LINE
  5
88
100
AcDbEntity
  8
レイヤー_1
  6
CONTINUOUS
 62
       3
100
AcDbLine
 10
112.05214568
 20
-75.99423873
 30
0.0
 11
104.06365827
 21
-77.99377215
 31
0.0
  0
LINE
  5
89
100
AcDbEntity
  8
レイヤー_1
  6
CONTINUOUS
 62
       3
100
AcDbLine
 10
104.06365827
 20
-77.99377215
 30
0.0
 11
104.06365827
 21
-97.99048439
 31
0.0
  0
LINE
  5
8A
100
AcDbEntity
  8
レイヤー_1
  6
CONTINUOUS
 62
       3
100
AcDbLine
 10
104.06365827
 20
-97.99048439
 30
0.0
 11
112.05214568
 21
-99.99001781
 31
0.0
  0
LINE
  5
8B
100
AcDbEntity
  8
レイヤー_1
  6
CONTINUOUS
 62
       3
100
AcDbLine
 10
93.04348683
 20
-99.99001781
 30
0.0
 11
94.54417042
 21
-99.99001781
 31
0.0
  0
LINE
  5
8C
100
AcDbEntity
  8
レイヤー_1
  6
CONTINUOUS
 62
       3
100
AcDbLine
 10
94.54417042
 20
-99.99001781
 30
0.0
 11
94.54417042
 21
-75.99423873
 31
0.0
  0
LINE
  5
8D
100
AcDbEntity
  8
レイヤー_1
  6
CONTINUOUS
 62
       3
100
AcDbLine
 10
94.54417042
 20
-75.99423873
 30
0.0
 11
93.04348683
 21
-75.99423873
 31
0.0
  0
LINE
  5
8E
100
AcDbEntity
  8
レイヤー_1
  6
CONTINUOUS
 62
       3
100
AcDbLine
 10
93.04348683
 20
-75.99423873
 30
0.0
 11
93.04348683
 21
-99.99001781
 31
0.0
  0
LINE
  5
8F
100
AcDbEntity
  8
レイヤー_1
  6
CONTINUOUS
 62
       3
100
AcDbLine
 10
94.53176808
 20
-91.99188413
 30
0.0
 11
104.04574378
 21
-91.99188413
 31
0.0
  0
LINE
  5
90
100
AcDbEntity
  8
レイヤー_1
  6
CONTINUOUS
 62
       3
100
AcDbLine
 10
104.04574378
 20
-91.99188413
 30
0.0
 11
104.04574378
 21
-83.99375045
 31
0.0
  0
LINE
  5
91
100
AcDbEntity
  8
レイヤー_1
  6
CONTINUOUS
 62
       3
100
AcDbLine
 10
104.04574378
 20
-83.99375045
 30
0.0
 11
94.53176808
 21
-83.99375045
 31
0.0
  0
LINE
  5
92
100
AcDbEntity
  8
レイヤー_1
  6
CONTINUOUS
 62
       3
100
AcDbLine
 10
94.53176808
 20
-83.99375045
 30
0.0
 11
94.53176808
 21
-91.99188413
 31
0.0
  0
LINE
  5
93
100
AcDbEntity
  8
レイヤー_1
  6
CONTINUOUS
 62
       3
100
AcDbLine
 10
64.04604761
 20
92.47782069
 30
0.0
 11
76.05117017
 21
92.47782069
 31
0.0
  0
LINE
  5
94
100
AcDbEntity
  8
レイヤー_1
  6
CONTINUOUS
 62
       3
100
AcDbLine
 10
76.0511702
 20
115.47521109
 30
0.0
 11
64.04604761
 21
115.47521109
 31
0.0
  0
LINE
  5
95
100
AcDbEntity
  8
レイヤー_1
  6
CONTINUOUS
 62
       3
100
AcDbLine
 10
64.04604761
 20
115.47521109
 30
0.0
 11
62.03824597
 21
114.97567224
 31
0.0
  0
LINE
  5
96
100
AcDbEntity
  8
レイヤー_1
  6
CONTINUOUS
 62
       3
100
AcDbLine
 10
62.03824597
 20
114.97567224
 30
0.0
 11
62.03824597
 21
92.97873757
 31
0.0
  0
LINE
  5
97
100
AcDbEntity
  8
レイヤー_1
  6
CONTINUOUS
 62
       3
100
AcDbLine
 10
62.03824597
 20
92.97873757
 30
0.0
 11
64.04604761
 21
92.47782069
 31
0.0
  0
LINE
  5
98
100
AcDbEntity
  8
レイヤー_1
  6
CONTINUOUS
 62
       3
100
AcDbLine
 10
78.04691567
 20
91.97828184
 30
0.0
 11
80.05747339
 21
91.97828184
 31
0.0
  0
LINE
  5
99
100
AcDbEntity
  8
レイヤー_1
  6
CONTINUOUS
 62
       3
100
AcDbLine
 10
80.05747339
 20
115.97474993
 30
0.0
 11
78.04691567
 21
115.97474993
 31
0.0
  0
LINE
  5
9A
100
AcDbEntity
  8
レイヤー_1
  6
CONTINUOUS
 62
       3
100
AcDbLine
 10
78.04691567
 20
115.97474993
 30
0.0
 11
70.05842825
 21
113.97521652
 31
0.0
  0
LINE
  5
9B
100
AcDbEntity
  8
レイヤー_1
  6
CONTINUOUS
 62
       3
100
AcDbLine
 10
70.05842825
 20
113.97521652
 30
0.0
 11
70.05842825
 21
93.97781526
 31
0.0
  0
LINE
  5
9C
100
AcDbEntity
  8
レイヤー_1
  6
CONTINUOUS
 62
       3
100
AcDbLine
 10
70.05842825
 20
93.97781526
 30
0.0
 11
78.04691567
 21
91.97828184
 31
0.0
  0
LINE
  5
9D
100
AcDbEntity
  8
レイヤー_1
  6
CONTINUOUS
 62
       3
100
AcDbLine
 10
59.03963485
 20
91.97828184
 30
0.0
 11
60.53894041
 21
91.97828184
 31
0.0
  0
LINE
  5
9E
100
AcDbEntity
  8
レイヤー_1
  6
CONTINUOUS
 62
       3
100
AcDbLine
 10
60.53894041
 20
91.97828184
 30
0.0
 11
60.53894041
 21
115.97474993
 31
0.0
  0
LINE
  5
9F
100
AcDbEntity
  8
レイヤー_1
  6
CONTINUOUS
 62
       3
100
AcDbLine
 10
60.53894041
 20
115.97474993
 30
0.0
 11
59.03963485
 21
115.97474993
 31
0.0
  0
LINE
  5
A0
100
AcDbEntity
  8
レイヤー_1
  6
CONTINUOUS
 62
       3
100
AcDbLine
 10
59.03963485
 20
115.97474993
 30
0.0
 11
59.03963485
 21
91.97828184
 31
0.0
  0
LINE
  5
A1
100
AcDbEntity
  8
レイヤー_1
  6
CONTINUOUS
 62
       3
100
AcDbLine
 10
60.52516003
 20
99.97848258
 30
0.0
 11
70.04051377
 21
99.97848258
 31
0.0
  0
LINE
  5
A2
100
AcDbEntity
  8
レイヤー_1
  6
CONTINUOUS
 62
       3
100
AcDbLine
 10
70.04051377
 20
99.97848258
 30
0.0
 11
70.04051377
 21
107.97661626
 31
0.0
  0
LINE
  5
A3
100
AcDbEntity
  8
レイヤー_1
  6
CONTINUOUS
 62
       3
100
AcDbLine
 10
70.04051377
 20
107.97661626
 30
0.0
 11
60.52516003
 21
107.97661626
 31
0.0
  0
LINE
  5
A4
100
AcDbEntity
  8
レイヤー_1
  6
CONTINUOUS
 62
       3
100
AcDbLine
 10
60.52516003
 20
107.97661626
 30
0.0
 11
60.52516003
 21
99.97848258
 31
0.0
  0
LINE
  5
A5
100
AcDbEntity
  8
レイヤー_1
  6
CONTINUOUS
 62
       3
100
AcDbLine
 10
44.06173772
 20
46.99084696
 30
0.0
 11
80.0616075
 21
46.99084696
 31
0.0
  0
LINE
  5
A6
100
AcDbEntity
  8
レイヤー_1
  6
CONTINUOUS
 62
       3
100
AcDbLine
 10
80.0616075
 20
74.98775993
 30
0.0
 11
44.06173772
 21
74.98775993
 31
0.0
  0
LINE
  5
A7
100
AcDbEntity
  8
レイヤー_1
  6
CONTINUOUS
 62
       3
100
AcDbLine
 10
44.06173772
 20
74.98775993
 30
0.0
 11
44.06173772
 21
46.99084696
 31
0.0
  0
LINE
  5
A8
100
AcDbEntity
  8
レイヤー_1
  6
CONTINUOUS
 62
       3
100
AcDbLine
 10
78.06207408
 20
46.99084696
 30
0.0
 11
78.06207408
 21
74.98707091
 31
0.0
  0
LINE
  5
A9
100
AcDbEntity
  8
レイヤー_1
  6
CONTINUOUS
 62
       3
100
AcDbLine
 10
-138.00949162
 20
46.99084696
 30
0.0
 11
-98.00848794
 21
46.99084696
 31
0.0
  0
LINE
  5
AA
100
AcDbEntity
  8
レイヤー_1
  6
CONTINUOUS
 62
       3
100
AcDbLine
 10
-98.00848794
 20
46.99084696
 30
0.0
 11
-98.00848794
 21
74.98775993
 31
0.0
  0
LINE
  5
AB
100
AcDbEntity
  8
レイヤー_1
  6
CONTINUOUS
 62
       3
100
AcDbLine
 10
-98.00848794
 20
74.98775993
 30
0.0
 11
-138.00949162
 21
74.98775993
 31
0.0
  0
LINE
  5
AC
100
AcDbEntity
  8
レイヤー_1
  6
CONTINUOUS
 62
       3
100
AcDbLine
 10
-138.00949162
 20
74.98775993
 30
0.0
 11
-138.00949162
 21
46.99084696
 31
0.0
  0
LINE
  5
AD
100
AcDbEntity
  8
レイヤー_1
  6
CONTINUOUS
 62
       3
100
AcDbLine
 10
106.06500751
 20
-63.53025762
 30
0.0
 11
108.06272512
 21
-71.52250479
 31
0.0
  0
LINE
  5
AE
100
AcDbEntity
  8
レイヤー_1
  6
CONTINUOUS
 62
       3
100
AcDbLine
 10
108.06272512
 20
-71.52250479
 30
0.0
 11
114.06270341
 21
-71.52250479
 31
0.0
  0
LINE
  5
AF
100
AcDbEntity
  8
レイヤー_1
  6
CONTINUOUS
 62
       3
100
AcDbLine
 10
110.06225853
 20
-71.52250479
 30
0.0
 11
110.06225853
 21
-63.53025762
 31
0.0
  0
LINE
  5
B0
100
AcDbEntity
  8
レイヤー_1
  6
CONTINUOUS
 62
       3
100
AcDbLine
 10
106.06638559
 20
16.46974238
 30
0.0
 11
108.06272512
 21
24.45578837
 31
0.0
  0
LINE
  5
B1
100
AcDbEntity
  8
レイヤー_1
  6
CONTINUOUS
 62
       3
100
AcDbLine
 10
108.06272512
 20
24.45578837
 30
0.0
 11
114.06270341
 21
24.45578837
 31
0.0
  0
LINE
  5
B2
100
AcDbEntity
  8
レイヤー_1
  6
CONTINUOUS
 62
       3
100
AcDbLine
 10
-112.50958385
 20
-71.53421812
 30
0.0
 11
-107.51006129
 21
-64.7577153
 31
0.0
  0
LINE
  5
B3
100
AcDbEntity
  8
レイヤー_1
  6
CONTINUOUS
 62
       3
100
AcDbLine
 10
-107.51006129
 20
-64.7577153
 30
0.0
 11
-107.51006129
 21
-63.53608444
 31
0.0
  0
LINE
  5
B4
100
AcDbEntity
  8
レイヤー_1
  6
CONTINUOUS
 62
       3
100
AcDbLine
 10
-128.50998533
 20
-63.53608444
 30
0.0
 11
-128.50998533
 21
-64.7577153
 31
0.0
  0
LINE
  5
B5
100
AcDbEntity
  8
レイヤー_1
  6
CONTINUOUS
 62
       3
100
AcDbLine
 10
-128.50998533
 20
-64.7577153
 30
0.0
 11
-123.50908472
 21
-71.53421812
 31
0.0
  0
LINE
  5
B6
100
AcDbEntity
  8
レイヤー_1
  6
CONTINUOUS
 62
       3
100
AcDbLine
 10
-123.50908472
 20
-71.53421812
 30
0.0
 11
-112.50958385
 21
-71.53421812
 31
0.0
  0
LINE
  5
B7
100
AcDbEntity
  8
レイヤー_1
  6
CONTINUOUS
 62
       3
100
AcDbLine
 10
110.06225853
 20
24.45578837
 30
0.0
 11
110.06225853
 21
16.46974238
 31
0.0
  0
LINE
  5
B8
100
AcDbEntity
  8
レイヤー_1
  6
CONTINUOUS
 62
       3
100
AcDbLine
 10
-112.50958385
 20
24.46819071
 30
0.0
 11
-107.51006129
 21
17.69168789
 31
0.0
  0
LINE
  5
B9
100
AcDbEntity
  8
レイヤー_1
  6
CONTINUOUS
 62
       3
100
AcDbLine
 10
-107.51006129
 20
17.69168789
 30
0.0
 11
-107.51006129
 21
16.47005703
 31
0.0
  0
LINE
  5
BA
100
AcDbEntity
  8
レイヤー_1
  6
CONTINUOUS
 62
       3
100
AcDbLine
 10
-128.50998533
 20
16.47005703
 30
0.0
 11
-128.50998533
 21
17.69168789
 31
0.0
  0
LINE
  5
BB
100
AcDbEntity
  8
レイヤー_1
  6
CONTINUOUS
 62
       3
100
AcDbLine
 10
-128.50998533
 20
17.69168789
 30
0.0
 11
-123.50908472
 21
24.46819071
 31
0.0
  0
LINE
  5
BC
100
AcDbEntity
  8
レイヤー_1
  6
CONTINUOUS
 62
       3
100
AcDbLine
 10
-123.50908472
 20
24.46819071
 30
0.0
 11
-112.50958385
 21
24.46819071
 31
0.0
  0
LINE
  5
BD
100
AcDbEntity
  8
レイヤー_1
  6
CONTINUOUS
 62
       3
100
AcDbLine
 10
-130.48678111
 20
116.12288904
 30
0.0
 11
-130.48678111
 21
92.07129942
 31
0.0
  0
LINE
  5
BE
100
AcDbEntity
  8
レイヤー_1
  6
CONTINUOUS
 62
       3
100
AcDbLine
 10
-132.48769257
 20
116.12288904
 30
0.0
 11
-132.48769257
 21
92.07129942
 31
0.0
  0
LINE
  5
BF
100
AcDbEntity
  8
レイヤー_1
  6
CONTINUOUS
 62
       3
100
AcDbLine
 10
-103.48825682
 20
116.12288904
 30
0.0
 11
-103.48825682
 21
92.07129942
 31
0.0
  0
LINE
  5
C0
100
AcDbEntity
  8
レイヤー_1
  6
CONTINUOUS
 62
       3
100
AcDbLine
 10
-105.48779024
 20
116.12288904
 30
0.0
 11
-105.48779024
 21
92.07129942
 31
0.0
  0
LINE
  5
C1
100
AcDbEntity
  8
レイヤー_1
  6
CONTINUOUS
 62
       3
100
AcDbLine
 10
-116.98820798
 20
116.12288904
 30
0.0
 11
-116.98820798
 21
92.07129942
 31
0.0
  0
LINE
  5
C2
100
AcDbEntity
  8
レイヤー_1
  6
CONTINUOUS
 62
       3
100
AcDbLine
 10
-118.9877414
 20
116.12288904
 30
0.0
 11
-118.9877414
 21
92.07129942
 31
0.0
  0
LINE
  5
C3
100
AcDbEntity
  8
レイヤー_1
  6
CONTINUOUS
 62
       3
100
AcDbLine
 10
-84.25497774
 20
-90.76818621
 30
0.0
 11
-83.97318825
 21
-90.75417859
 31
0.0
  0
LINE
  5
C4
100
AcDbEntity
  8
レイヤー_1
  6
CONTINUOUS
 62
       3
100
AcDbLine
 10
-83.97318825
 20
-90.75417859
 30
0.0
 11
-83.69935336
 21
-90.71304979
 31
0.0
  0
LINE
  5
C5
100
AcDbEntity
  8
レイヤー_1
  6
CONTINUOUS
 62
       3
100
AcDbLine
 10
-83.69935336
 20
-90.71304979
 30
0.0
 11
-83.43482092
 21
-90.64614092
 31
0.0
  0
LINE
  5
C6
100
AcDbEntity
  8
レイヤー_1
  6
CONTINUOUS
 62
       3
100
AcDbLine
 10
-83.43482092
 20
-90.64614092
 30
0.0
 11
-83.18093877
 21
-90.55479307
 31
0.0
  0
LINE
  5
C7
100
AcDbEntity
  8
レイヤー_1
  6
CONTINUOUS
 62
       3
100
AcDbLine
 10
-83.18093877
 20
-90.55479307
 30
0.0
 11
-82.93905476
 21
-90.44034735
 31
0.0
  0
LINE
  5
C8
100
AcDbEntity
  8
レイヤー_1
  6
CONTINUOUS
 62
       3
100
AcDbLine
 10
-82.93905476
 20
-90.44034735
 30
0.0
 11
-82.71051673
 21
-90.30414486
 31
0.0
  0
LINE
  5
C9
100
AcDbEntity
  8
レイヤー_1
  6
CONTINUOUS
 62
       3
100
AcDbLine
 10
-82.71051673
 20
-90.30414486
 30
0.0
 11
-82.49667253
 21
-90.1475267
 31
0.0
  0
LINE
  5
CA
100
AcDbEntity
  8
レイヤー_1
  6
CONTINUOUS
 62
       3
100
AcDbLine
 10
-82.49667253
 20
-90.1475267
 30
0.0
 11
-82.29887
 21
-89.97183397
 31
0.0
  0
LINE
  5
CB
100
AcDbEntity
  8
レイヤー_1
  6
CONTINUOUS
 62
       3
100
AcDbLine
 10
-82.29887
 20
-89.97183397
 30
0.0
 11
-82.118457
 21
-89.77840778
 31
0.0
  0
LINE
  5
CC
100
AcDbEntity
  8
レイヤー_1
  6
CONTINUOUS
 62
       3
100
AcDbLine
 10
-82.118457
 20
-89.77840778
 30
0.0
 11
-81.95678136
 21
-89.56858922
 31
0.0
  0
LINE
  5
CD
100
AcDbEntity
  8
レイヤー_1
  6
CONTINUOUS
 62
       3
100
AcDbLine
 10
-81.95678136
 20
-89.56858922
 30
0.0
 11
-81.81519093
 21
-89.3437194
 31
0.0
  0
LINE
  5
CE
100
AcDbEntity
  8
レイヤー_1
  6
CONTINUOUS
 62
       3
100
AcDbLine
 10
-81.81519093
 20
-89.3437194
 30
0.0
 11
-81.69503355
 21
-89.10513942
 31
0.0
  0
LINE
  5
CF
100
AcDbEntity
  8
レイヤー_1
  6
CONTINUOUS
 62
       3
100
AcDbLine
 10
-81.69503355
 20
-89.10513942
 30
0.0
 11
-81.59765708
 21
-88.85419038
 31
0.0
  0
LINE
  5
D0
100
AcDbEntity
  8
レイヤー_1
  6
CONTINUOUS
 62
       3
100
AcDbLine
 10
-81.59765708
 20
-88.85419038
 30
0.0
 11
-81.52440936
 21
-88.59221338
 31
0.0
  0
LINE
  5
D1
100
AcDbEntity
  8
レイヤー_1
  6
CONTINUOUS
 62
       3
100
AcDbLine
 10
-81.52440936
 20
-88.59221338
 30
0.0
 11
-81.47663823
 21
-88.32054952
 31
0.0
  0
LINE
  5
D2
100
AcDbEntity
  8
レイヤー_1
  6
CONTINUOUS
 62
       3
100
AcDbLine
 10
-81.47663823
 20
-88.32054952
 30
0.0
 11
-81.45569153
 21
-88.04053991
 31
0.0
  0
LINE
  5
D3
100
AcDbEntity
  8
レイヤー_1
  6
CONTINUOUS
 62
       3
100
AcDbLine
 10
-81.45569153
 20
-88.04053991
 30
0.0
 11
-81.46272759
 21
-87.75745076
 31
0.0
  0
LINE
  5
D4
100
AcDbEntity
  8
レイヤー_1
  6
CONTINUOUS
 62
       3
100
AcDbLine
 10
-81.46272759
 20
-87.75745076
 30
0.0
 11
-81.49725498
 21
-87.48162728
 31
0.0
  0
LINE
  5
D5
100
AcDbEntity
  8
レイヤー_1
  6
CONTINUOUS
 62
       3
100
AcDbLine
 10
-81.49725498
 20
-87.48162728
 30
0.0
 11
-81.55793289
 21
-87.21476759
 31
0.0
  0
LINE
  5
D6
100
AcDbEntity
  8
レイヤー_1
  6
CONTINUOUS
 62
       3
100
AcDbLine
 10
-81.55793289
 20
-87.21476759
 30
0.0
 11
-81.64341346
 21
-86.95821858
 31
0.0
  0
LINE
  5
D7
100
AcDbEntity
  8
レイヤー_1
  6
CONTINUOUS
 62
       3
100
AcDbLine
 10
-81.64341346
 20
-86.95821858
 30
0.0
 11
-81.75234887
 21
-86.71332713
 31
0.0
  0
LINE
  5
D8
100
AcDbEntity
  8
レイヤー_1
  6
CONTINUOUS
 62
       3
100
AcDbLine
 10
-81.75234887
 20
-86.71332713
 30
0.0
 11
-81.88339124
 21
-86.48144013
 31
0.0
  0
LINE
  5
D9
100
AcDbEntity
  8
レイヤー_1
  6
CONTINUOUS
 62
       3
100
AcDbLine
 10
-81.88339124
 20
-86.48144013
 30
0.0
 11
-82.03519277
 21
-86.26390446
 31
0.0
  0
LINE
  5
DA
100
AcDbEntity
  8
レイヤー_1
  6
CONTINUOUS
 62
       3
100
AcDbLine
 10
-82.03519277
 20
-86.26390446
 30
0.0
 11
-82.20640557
 21
-86.062067
 31
0.0
  0
LINE
  5
DB
100
AcDbEntity
  8
レイヤー_1
  6
CONTINUOUS
 62
       3
100
AcDbLine
 10
-82.20640557
 20
-86.062067
 30
0.0
 11
-82.39568182
 21
-85.87727463
 31
0.0
  0
LINE
  5
DC
100
AcDbEntity
  8
レイヤー_1
  6
CONTINUOUS
 62
       3
100
AcDbLine
 10
-82.39568182
 20
-85.87727463
 30
0.0
 11
-82.60167365
 21
-85.71087423
 31
0.0
  0
LINE
  5
DD
100
AcDbEntity
  8
レイヤー_1
  6
CONTINUOUS
 62
       3
100
AcDbLine
 10
-82.60167365
 20
-85.71087423
 30
0.0
 11
-82.82303325
 21
-85.56421269
 31
0.0
  0
LINE
  5
DE
100
AcDbEntity
  8
レイヤー_1
  6
CONTINUOUS
 62
       3
100
AcDbLine
 10
-82.82303325
 20
-85.56421269
 30
0.0
 11
-83.05841276
 21
-85.43863689
 31
0.0
  0
LINE
  5
DF
100
AcDbEntity
  8
レイヤー_1
  6
CONTINUOUS
 62
       3
100
AcDbLine
 10
-83.05841276
 20
-85.43863689
 30
0.0
 11
-83.30646431
 21
-85.33549371
 31
0.0
  0
LINE
  5
E0
100
AcDbEntity
  8
レイヤー_1
  6
CONTINUOUS
 62
       3
100
AcDbLine
 10
-83.30646431
 20
-85.33549371
 30
0.0
 11
-83.56584009
 21
-85.25613003
 31
0.0
  0
LINE
  5
E1
100
AcDbEntity
  8
レイヤー_1
  6
CONTINUOUS
 62
       3
100
AcDbLine
 10
-83.56584009
 20
-85.25613003
 30
0.0
 11
-83.83519224
 21
-85.20189273
 31
0.0
  0
LINE
  5
E2
100
AcDbEntity
  8
レイヤー_1
  6
CONTINUOUS
 62
       3
100
AcDbLine
 10
-83.83519224
 20
-85.20189273
 30
0.0
 11
-84.1131729
 21
-85.17412871
 31
0.0
  0
LINE
  5
E3
100
AcDbEntity
  8
レイヤー_1
  6
CONTINUOUS
 62
       3
100
AcDbLine
 10
-84.1131729
 20
-85.17412871
 30
0.0
 11
-84.39684424
 21
-85.17412871
 31
0.0
  0
LINE
  5
E4
100
AcDbEntity
  8
レイヤー_1
  6
CONTINUOUS
 62
       3
100
AcDbLine
 10
-84.39684424
 20
-85.17412871
 30
0.0
 11
-84.67493697
 21
-85.20189273
 31
0.0
  0
LINE
  5
E5
100
AcDbEntity
  8
レイヤー_1
  6
CONTINUOUS
 62
       3
100
AcDbLine
 10
-84.67493697
 20
-85.20189273
 30
0.0
 11
-84.94438698
 21
-85.25613003
 31
0.0
  0
LINE
  5
E6
100
AcDbEntity
  8
レイヤー_1
  6
CONTINUOUS
 62
       3
100
AcDbLine
 10
-84.94438698
 20
-85.25613003
 30
0.0
 11
-85.20384737
 21
-85.33549371
 31
0.0
  0
LINE
  5
E7
100
AcDbEntity
  8
レイヤー_1
  6
CONTINUOUS
 62
       3
100
AcDbLine
 10
-85.20384737
 20
-85.33549371
 30
0.0
 11
-85.45197126
 21
-85.43863689
 31
0.0
  0
LINE
  5
E8
100
AcDbEntity
  8
レイヤー_1
  6
CONTINUOUS
 62
       3
100
AcDbLine
 10
-85.45197126
 20
-85.43863689
 30
0.0
 11
-85.68741177
 21
-85.56421269
 31
0.0
  0
LINE
  5
E9
100
AcDbEntity
  8
レイヤー_1
  6
CONTINUOUS
 62
       3
100
AcDbLine
 10
-85.68741177
 20
-85.56421269
 30
0.0
 11
-85.90882201
 21
-85.71087423
 31
0.0
  0
LINE
  5
EA
100
AcDbEntity
  8
レイヤー_1
  6
CONTINUOUS
 62
       3
100
AcDbLine
 10
-85.90882201
 20
-85.71087423
 30
0.0
 11
-86.11485511
 21
-85.87727463
 31
0.0
  0
LINE
  5
EB
100
AcDbEntity
  8
レイヤー_1
  6
CONTINUOUS
 62
       3
100
AcDbLine
 10
-86.11485511
 20
-85.87727463
 30
0.0
 11
-86.30416419
 21
-86.062067
 31
0.0
  0
LINE
  5
EC
100
AcDbEntity
  8
レイヤー_1
  6
CONTINUOUS
 62
       3
100
AcDbLine
 10
-86.30416419
 20
-86.062067
 30
0.0
 11
-86.47540235
 21
-86.26390446
 31
0.0
  0
LINE
  5
ED
100
AcDbEntity
  8
レイヤー_1
  6
CONTINUOUS
 62
       3
100
AcDbLine
 10
-86.47540235
 20
-86.26390446
 30
0.0
 11
-86.62722272
 21
-86.48144013
 31
0.0
  0
LINE
  5
EE
100
AcDbEntity
  8
レイヤー_1
  6
CONTINUOUS
 62
       3
100
AcDbLine
 10
-86.62722272
 20
-86.48144013
 30
0.0
 11
-86.75827842
 21
-86.71332713
 31
0.0
  0
LINE
  5
EF
100
AcDbEntity
  8
レイヤー_1
  6
CONTINUOUS
 62
       3
100
AcDbLine
 10
-86.75827842
 20
-86.71332713
 30
0.0
 11
-86.86722257
 21
-86.95821858
 31
0.0
  0
LINE
  5
F0
100
AcDbEntity
  8
レイヤー_1
  6
CONTINUOUS
 62
       3
100
AcDbLine
 10
-86.86722257
 20
-86.95821858
 30
0.0
 11
-86.95270828
 21
-87.21476759
 31
0.0
  0
LINE
  5
F1
100
AcDbEntity
  8
レイヤー_1
  6
CONTINUOUS
 62
       3
100
AcDbLine
 10
-86.95270828
 20
-87.21476759
 30
0.0
 11
-87.01338866
 21
-87.48162728
 31
0.0
  0
LINE
  5
F2
100
AcDbEntity
  8
レイヤー_1
  6
CONTINUOUS
 62
       3
100
AcDbLine
 10
-87.01338866
 20
-87.48162728
 30
0.0
 11
-87.04791685
 21
-87.75745076
 31
0.0
  0
LINE
  5
F3
100
AcDbEntity
  8
レイヤー_1
  6
CONTINUOUS
 62
       3
100
AcDbLine
 10
-87.04791685
 20
-87.75745076
 30
0.0
 11
-87.05495296
 21
-88.04053991
 31
0.0
  0
LINE
  5
F4
100
AcDbEntity
  8
レイヤー_1
  6
CONTINUOUS
 62
       3
100
AcDbLine
 10
-87.05495296
 20
-88.04053991
 30
0.0
 11
-87.03400596
 21
-88.32054952
 31
0.0
  0
LINE
  5
F5
100
AcDbEntity
  8
レイヤー_1
  6
CONTINUOUS
 62
       3
100
AcDbLine
 10
-87.03400596
 20
-88.32054952
 30
0.0
 11
-86.9862333
 21
-88.59221338
 31
0.0
  0
LINE
  5
F6
100
AcDbEntity
  8
レイヤー_1
  6
CONTINUOUS
 62
       3
100
AcDbLine
 10
-86.9862333
 20
-88.59221338
 30
0.0
 11
-86.91298191
 21
-88.85419038
 31
0.0
  0
LINE
  5
F7
100
AcDbEntity
  8
レイヤー_1
  6
CONTINUOUS
 62
       3
100
AcDbLine
 10
-86.91298191
 20
-88.85419038
 30
0.0
 11
-86.81559861
 21
-89.10513942
 31
0.0
  0
LINE
  5
F8
100
AcDbEntity
  8
レイヤー_1
  6
CONTINUOUS
 62
       3
100
AcDbLine
 10
-86.81559861
 20
-89.10513942
 30
0.0
 11
-86.69543034
 21
-89.3437194
 31
0.0
  0
LINE
  5
F9
100
AcDbEntity
  8
レイヤー_1
  6
CONTINUOUS
 62
       3
100
AcDbLine
 10
-86.69543034
 20
-89.3437194
 30
0.0
 11
-86.55382394
 21
-89.56858922
 31
0.0
  0
LINE
  5
FA
100
AcDbEntity
  8
レイヤー_1
  6
CONTINUOUS
 62
       3
100
AcDbLine
 10
-86.55382394
 20
-89.56858922
 30
0.0
 11
-86.39212631
 21
-89.77840778
 31
0.0
  0
LINE
  5
FB
100
AcDbEntity
  8
レイヤー_1
  6
CONTINUOUS
 62
       3
100
AcDbLine
 10
-86.39212631
 20
-89.77840778
 30
0.0
 11
-86.21168433
 21
-89.97183397
 31
0.0
  0
LINE
  5
FC
100
AcDbEntity
  8
レイヤー_1
  6
CONTINUOUS
 62
       3
100
AcDbLine
 10
-86.21168433
 20
-89.97183397
 30
0.0
 11
-86.01384489
 21
-90.1475267
 31
0.0
  0
LINE
  5
FD
100
AcDbEntity
  8
レイヤー_1
  6
CONTINUOUS
 62
       3
100
AcDbLine
 10
-86.01384489
 20
-90.1475267
 30
0.0
 11
-85.79995485
 21
-90.30414486
 31
0.0
  0
LINE
  5
FE
100
AcDbEntity
  8
レイヤー_1
  6
CONTINUOUS
 62
       3
100
AcDbLine
 10
-85.79995485
 20
-90.30414486
 30
0.0
 11
-85.57136111
 21
-90.44034735
 31
0.0
  0
LINE
  5
FF
100
AcDbEntity
  8
レイヤー_1
  6
CONTINUOUS
 62
       3
100
AcDbLine
 10
-85.57136111
 20
-90.44034735
 30
0.0
 11
-85.32941055
 21
-90.55479307
 31
0.0
  0
LINE
  5
100
100
AcDbEntity
  8
レイヤー_1
  6
CONTINUOUS
 62
       3
100
AcDbLine
 10
-85.32941055
 20
-90.55479307
 30
0.0
 11
-85.07545006
 21
-90.64614092
 31
0.0
  0
LINE
  5
101
100
AcDbEntity
  8
レイヤー_1
  6
CONTINUOUS
 62
       3
100
AcDbLine
 10
-85.07545006
 20
-90.64614092
 30
0.0
 11
-84.8108265
 21
-90.71304979
 31
0.0
  0
LINE
  5
102
100
AcDbEntity
  8
レイヤー_1
  6
CONTINUOUS
 62
       3
100
AcDbLine
 10
-84.8108265
 20
-90.71304979
 30
0.0
 11
-84.53688677
 21
-90.75417859
 31
0.0
  0
LINE
  5
103
100
AcDbEntity
  8
レイヤー_1
  6
CONTINUOUS
 62
       3
100
AcDbLine
 10
-84.53688677
 20
-90.75417859
 30
0.0
 11
-84.25497774
 21
-90.76818621
 31
0.0
  0
LINE
  5
104
100
AcDbEntity
  8
レイヤー_1
  6
CONTINUOUS
 62
       3
100
AcDbLine
 10
93.01730411
 20
-85.17059507
 30
0.0
 11
93.00640428
 21
-85.17059507
 31
0.0
  0
LINE
  5
105
100
AcDbEntity
  8
レイヤー_1
  6
CONTINUOUS
 62
       3
100
AcDbLine
 10
93.00640428
 20
-85.17059507
 30
0.0
 11
92.97557003
 21
-85.17059507
 31
0.0
  0
LINE
  5
106
100
AcDbEntity
  8
レイヤー_1
  6
CONTINUOUS
 62
       3
100
AcDbLine
 10
92.97557003
 20
-85.17059507
 30
0.0
 11
92.92759916
 21
-85.17059507
 31
0.0
  0
LINE
  5
107
100
AcDbEntity
  8
レイヤー_1
  6
CONTINUOUS
 62
       3
100
AcDbLine
 10
92.92759916
 20
-85.17059507
 30
0.0
 11
92.86528948
 21
-85.17059507
 31
0.0
  0
LINE
  5
108
100
AcDbEntity
  8
レイヤー_1
  6
CONTINUOUS
 62
       3
100
AcDbLine
 10
92.86528948
 20
-85.17059507
 30
0.0
 11
92.79143882
 21
-85.17059507
 31
0.0
  0
LINE
  5
109
100
AcDbEntity
  8
レイヤー_1
  6
CONTINUOUS
 62
       3
100
AcDbLine
 10
92.79143882
 20
-85.17059507
 30
0.0
 11
92.70884498
 21
-85.17059507
 31
0.0
  0
LINE
  5
10A
100
AcDbEntity
  8
レイヤー_1
  6
CONTINUOUS
 62
       3
100
AcDbLine
 10
92.70884498
 20
-85.17059507
 30
0.0
 11
92.6203058
 21
-85.17059507
 31
0.0
  0
LINE
  5
10B
100
AcDbEntity
  8
レイヤー_1
  6
CONTINUOUS
 62
       3
100
AcDbLine
 10
92.6203058
 20
-85.17059507
 30
0.0
 11
92.52861906
 21
-85.17059507
 31
0.0
  0
LINE
  5
10C
100
AcDbEntity
  8
レイヤー_1
  6
CONTINUOUS
 62
       3
100
AcDbLine
 10
92.52861906
 20
-85.17059507
 30
0.0
 11
92.43658259
 21
-85.17059507
 31
0.0
  0
LINE
  5
10D
100
AcDbEntity
  8
レイヤー_1
  6
CONTINUOUS
 62
       3
100
AcDbLine
 10
92.43658259
 20
-85.17059507
 30
0.0
 11
92.34699421
 21
-85.17059507
 31
0.0
  0
LINE
  5
10E
100
AcDbEntity
  8
レイヤー_1
  6
CONTINUOUS
 62
       3
100
AcDbLine
 10
92.34699421
 20
-85.17059507
 30
0.0
 11
92.26265174
 21
-85.17059507
 31
0.0
  0
LINE
  5
10F
100
AcDbEntity
  8
レイヤー_1
  6
CONTINUOUS
 62
       3
100
AcDbLine
 10
92.26265174
 20
-85.17059507
 30
0.0
 11
92.186353
 21
-85.17059507
 31
0.0
  0
LINE
  5
110
100
AcDbEntity
  8
レイヤー_1
  6
CONTINUOUS
 62
       3
100
AcDbLine
 10
92.186353
 20
-85.17059507
 30
0.0
 11
92.12089578
 21
-85.17059507
 31
0.0
  0
LINE
  5
111
100
AcDbEntity
  8
レイヤー_1
  6
CONTINUOUS
 62
       3
100
AcDbLine
 10
92.12089578
 20
-85.17059507
 30
0.0
 11
92.0690779
 21
-85.17059507
 31
0.0
  0
LINE
  5
112
100
AcDbEntity
  8
レイヤー_1
  6
CONTINUOUS
 62
       3
100
AcDbLine
 10
92.0690779
 20
-85.17059507
 30
0.0
 11
92.0336972
 21
-85.17059507
 31
0.0
  0
LINE
  5
113
100
AcDbEntity
  8
レイヤー_1
  6
CONTINUOUS
 62
       3
100
AcDbLine
 10
92.0336972
 20
-85.17059507
 30
0.0
 11
92.01755147
 21
-85.17059507
 31
0.0
  0
LINE
  5
114
100
AcDbEntity
  8
レイヤー_1
  6
CONTINUOUS
 62
       3
100
AcDbLine
 10
92.01755147
 20
-85.17059507
 30
0.0
 11
91.8109231
 21
-85.17851419
 31
0.0
  0
LINE
  5
115
100
AcDbEntity
  8
レイヤー_1
  6
CONTINUOUS
 62
       3
100
AcDbLine
 10
91.8109231
 20
-85.17851419
 30
0.0
 11
91.56099569
 21
-85.2130228
 31
0.0
  0
LINE
  5
116
100
AcDbEntity
  8
レイヤー_1
  6
CONTINUOUS
 62
       3
100
AcDbLine
 10
91.56099569
 20
-85.2130228
 30
0.0
 11
91.3378961
 21
-85.27366796
 31
0.0
  0
LINE
  5
117
100
AcDbEntity
  8
レイヤー_1
  6
CONTINUOUS
 62
       3
100
AcDbLine
 10
91.3378961
 20
-85.27366796
 30
0.0
 11
91.14017146
 21
-85.35910279
 31
0.0
  0
LINE
  5
118
100
AcDbEntity
  8
レイヤー_1
  6
CONTINUOUS
 62
       3
100
AcDbLine
 10
91.14017146
 20
-85.35910279
 30
0.0
 11
90.96636891
 21
-85.4679804
 31
0.0
  0
LINE
  5
119
100
AcDbEntity
  8
レイヤー_1
  6
CONTINUOUS
 62
       3
100
AcDbLine
 10
90.96636891
 20
-85.4679804
 30
0.0
 11
90.8150356
 21
-85.5989539
 31
0.0
  0
LINE
  5
11A
100
AcDbEntity
  8
レイヤー_1
  6
CONTINUOUS
 62
       3
100
AcDbLine
 10
90.8150356
 20
-85.5989539
 30
0.0
 11
90.68471865
 21
-85.75067643
 31
0.0
  0
LINE
  5
11B
100
AcDbEntity
  8
レイヤー_1
  6
CONTINUOUS
 62
       3
100
AcDbLine
 10
90.68471865
 20
-85.75067643
 30
0.0
 11
90.57396522
 21
-85.92180109
 31
0.0
  0
LINE
  5
11C
100
AcDbEntity
  8
レイヤー_1
  6
CONTINUOUS
 62
       3
100
AcDbLine
 10
90.57396522
 20
-85.92180109
 30
0.0
 11
90.48132243
 21
-86.110981
 31
0.0
  0
LINE
  5
11D
100
AcDbEntity
  8
レイヤー_1
  6
CONTINUOUS
 62
       3
100
AcDbLine
 10
90.48132243
 20
-86.110981
 30
0.0
 11
90.40533744
 21
-86.31686929
 31
0.0
  0
LINE
  5
11E
100
AcDbEntity
  8
レイヤー_1
  6
CONTINUOUS
 62
       3
100
AcDbLine
 10
90.40533744
 20
-86.31686929
 30
0.0
 11
90.34455738
 21
-86.53811906
 31
0.0
  0
LINE
  5
11F
100
AcDbEntity
  8
レイヤー_1
  6
CONTINUOUS
 62
       3
100
AcDbLine
 10
90.34455738
 20
-86.53811906
 30
0.0
 11
90.29752939
 21
-86.77338344
 31
0.0
  0
LINE
  5
120
100
AcDbEntity
  8
レイヤー_1
  6
CONTINUOUS
 62
       3
100
AcDbLine
 10
90.29752939
 20
-86.77338344
 30
0.0
 11
90.2628006
 21
-87.02131555
 31
0.0
  0
LINE
  5
121
100
AcDbEntity
  8
レイヤー_1
  6
CONTINUOUS
 62
       3
100
AcDbLine
 10
90.2628006
 20
-87.02131555
 30
0.0
 11
90.23891818
 21
-87.28056849
 31
0.0
  0
LINE
  5
122
100
AcDbEntity
  8
レイヤー_1
  6
CONTINUOUS
 62
       3
100
AcDbLine
 10
90.23891818
 20
-87.28056849
 30
0.0
 11
90.22442924
 21
-87.5497954
 31
0.0
  0
LINE
  5
123
100
AcDbEntity
  8
レイヤー_1
  6
CONTINUOUS
 62
       3
100
AcDbLine
 10
90.22442924
 20
-87.5497954
 30
0.0
 11
90.21788093
 21
-87.82764939
 31
0.0
  0
LINE
  5
124
100
AcDbEntity
  8
レイヤー_1
  6
CONTINUOUS
 62
       3
100
AcDbLine
 10
90.21788093
 20
-87.82764939
 30
0.0
 11
90.21788093
 21
-88.11125138
 31
0.0
  0
LINE
  5
125
100
AcDbEntity
  8
レイヤー_1
  6
CONTINUOUS
 62
       3
100
AcDbLine
 10
90.21788093
 20
-88.11125138
 30
0.0
 11
90.22442924
 21
-88.38930029
 31
0.0
  0
LINE
  5
126
100
AcDbEntity
  8
レイヤー_1
  6
CONTINUOUS
 62
       3
100
AcDbLine
 10
90.22442924
 20
-88.38930029
 30
0.0
 11
90.23891818
 21
-88.65866816
 31
0.0
  0
LINE
  5
127
100
AcDbEntity
  8
レイヤー_1
  6
CONTINUOUS
 62
       3
100
AcDbLine
 10
90.23891818
 20
-88.65866816
 30
0.0
 11
90.2628006
 21
-88.9180139
 31
0.0
  0
LINE
  5
128
100
AcDbEntity
  8
レイヤー_1
  6
CONTINUOUS
 62
       3
100
AcDbLine
 10
90.2628006
 20
-88.9180139
 30
0.0
 11
90.29752939
 21
-89.1659964
 31
0.0
  0
LINE
  5
129
100
AcDbEntity
  8
レイヤー_1
  6
CONTINUOUS
 62
       3
100
AcDbLine
 10
90.29752939
 20
-89.1659964
 30
0.0
 11
90.34455738
 21
-89.40127457
 31
0.0
  0
LINE
  5
12A
100
AcDbEntity
  8
レイヤー_1
  6
CONTINUOUS
 62
       3
100
AcDbLine
 10
90.34455738
 20
-89.40127457
 30
0.0
 11
90.40533744
 21
-89.62250731
 31
0.0
  0
LINE
  5
12B
100
AcDbEntity
  8
レイヤー_1
  6
CONTINUOUS
 62
       3
100
AcDbLine
 10
90.40533744
 20
-89.62250731
 30
0.0
 11
90.48132243
 21
-89.8283535
 31
0.0
  0
LINE
  5
12C
100
AcDbEntity
  8
レイヤー_1
  6
CONTINUOUS
 62
       3
100
AcDbLine
 10
90.48132243
 20
-89.8283535
 30
0.0
 11
90.57396522
 21
-90.01747205
 31
0.0
  0
LINE
  5
12D
100
AcDbEntity
  8
レイヤー_1
  6
CONTINUOUS
 62
       3
100
AcDbLine
 10
90.57396522
 20
-90.01747205
 30
0.0
 11
90.68471865
 21
-90.18852187
 31
0.0
  0
LINE
  5
12E
100
AcDbEntity
  8
レイヤー_1
  6
CONTINUOUS
 62
       3
100
AcDbLine
 10
90.68471865
 20
-90.18852187
 30
0.0
 11
90.8150356
 21
-90.34016184
 31
0.0
  0
LINE
  5
12F
100
AcDbEntity
  8
レイヤー_1
  6
CONTINUOUS
 62
       3
100
AcDbLine
 10
90.8150356
 20
-90.34016184
 30
0.0
 11
90.96636891
 21
-90.47105086
 31
0.0
  0
LINE
  5
130
100
AcDbEntity
  8
レイヤー_1
  6
CONTINUOUS
 62
       3
100
AcDbLine
 10
90.96636891
 20
-90.47105086
 30
0.0
 11
91.14017146
 21
-90.57984784
 31
0.0
  0
LINE
  5
131
100
AcDbEntity
  8
レイヤー_1
  6
CONTINUOUS
 62
       3
100
AcDbLine
 10
91.14017146
 20
-90.57984784
 30
0.0
 11
91.3378961
 21
-90.66521168
 31
0.0
  0
LINE
  5
132
100
AcDbEntity
  8
レイヤー_1
  6
CONTINUOUS
 62
       3
100
AcDbLine
 10
91.3378961
 20
-90.66521168
 30
0.0
 11
91.56099569
 21
-90.72580126
 31
0.0
  0
LINE
  5
133
100
AcDbEntity
  8
レイヤー_1
  6
CONTINUOUS
 62
       3
100
AcDbLine
 10
91.56099569
 20
-90.72580126
 30
0.0
 11
91.8109231
 21
-90.76027549
 31
0.0
  0
LINE
  5
134
100
AcDbEntity
  8
レイヤー_1
  6
CONTINUOUS
 62
       3
100
AcDbLine
 10
91.8109231
 20
-90.76027549
 30
0.0
 11
92.01755147
 21
-90.76818621
 31
0.0
  0
LINE
  5
135
100
AcDbEntity
  8
レイヤー_1
  6
CONTINUOUS
 62
       3
100
AcDbLine
 10
92.01755147
 20
-90.76818621
 30
0.0
 11
92.0336972
 21
-90.76818621
 31
0.0
  0
LINE
  5
136
100
AcDbEntity
  8
レイヤー_1
  6
CONTINUOUS
 62
       3
100
AcDbLine
 10
92.0336972
 20
-90.76818621
 30
0.0
 11
92.0690779
 21
-90.76818621
 31
0.0
  0
LINE
  5
137
100
AcDbEntity
  8
レイヤー_1
  6
CONTINUOUS
 62
       3
100
AcDbLine
 10
92.0690779
 20
-90.76818621
 30
0.0
 11
92.12089578
 21
-90.76818621
 31
0.0
  0
LINE
  5
138
100
AcDbEntity
  8
レイヤー_1
  6
CONTINUOUS
 62
       3
100
AcDbLine
 10
92.12089578
 20
-90.76818621
 30
0.0
 11
92.186353
 21
-90.76818621
 31
0.0
  0
LINE
  5
139
100
AcDbEntity
  8
レイヤー_1
  6
CONTINUOUS
 62
       3
100
AcDbLine
 10
92.186353
 20
-90.76818621
 30
0.0
 11
92.26265174
 21
-90.76818621
 31
0.0
  0
LINE
  5
13A
100
AcDbEntity
  8
レイヤー_1
  6
CONTINUOUS
 62
       3
100
AcDbLine
 10
92.26265174
 20
-90.76818621
 30
0.0
 11
92.34699421
 21
-90.76818621
 31
0.0
  0
LINE
  5
13B
100
AcDbEntity
  8
レイヤー_1
  6
CONTINUOUS
 62
       3
100
AcDbLine
 10
92.34699421
 20
-90.76818621
 30
0.0
 11
92.43658259
 21
-90.76818621
 31
0.0
  0
LINE
  5
13C
100
AcDbEntity
  8
レイヤー_1
  6
CONTINUOUS
 62
       3
100
AcDbLine
 10
92.43658259
 20
-90.76818621
 30
0.0
 11
92.52861906
 21
-90.76818621
 31
0.0
  0
LINE
  5
13D
100
AcDbEntity
  8
レイヤー_1
  6
CONTINUOUS
 62
       3
100
AcDbLine
 10
92.52861906
 20
-90.76818621
 30
0.0
 11
92.6203058
 21
-90.76818621
 31
0.0
  0
LINE
  5
13E
100
AcDbEntity
  8
レイヤー_1
  6
CONTINUOUS
 62
       3
100
AcDbLine
 10
92.6203058
 20
-90.76818621
 30
0.0
 11
92.70884498
 21
-90.76818621
 31
0.0
  0
LINE
  5
13F
100
AcDbEntity
  8
レイヤー_1
  6
CONTINUOUS
 62
       3
100
AcDbLine
 10
92.70884498
 20
-90.76818621
 30
0.0
 11
92.79143882
 21
-90.76818621
 31
0.0
  0
LINE
  5
140
100
AcDbEntity
  8
レイヤー_1
  6
CONTINUOUS
 62
       3
100
AcDbLine
 10
92.79143882
 20
-90.76818621
 30
0.0
 11
92.86528948
 21
-90.76818621
 31
0.0
  0
LINE
  5
141
100
AcDbEntity
  8
レイヤー_1
  6
CONTINUOUS
 62
       3
100
AcDbLine
 10
92.86528948
 20
-90.76818621
 30
0.0
 11
92.92759916
 21
-90.76818621
 31
0.0
  0
LINE
  5
142
100
AcDbEntity
  8
レイヤー_1
  6
CONTINUOUS
 62
       3
100
AcDbLine
 10
92.92759916
 20
-90.76818621
 30
0.0
 11
92.97557003
 21
-90.76818621
 31
0.0
  0
LINE
  5
143
100
AcDbEntity
  8
レイヤー_1
  6
CONTINUOUS
 62
       3
100
AcDbLine
 10
92.97557003
 20
-90.76818621
 30
0.0
 11
93.00640428
 21
-90.76818621
 31
0.0
  0
LINE
  5
144
100
AcDbEntity
  8
レイヤー_1
  6
CONTINUOUS
 62
       3
100
AcDbLine
 10
93.00640428
 20
-90.76818621
 30
0.0
 11
93.01730411
 21
-90.76818621
 31
0.0
  0
LINE
  5
145
100
AcDbEntity
  8
レイヤー_1
  6
CONTINUOUS
 62
       3
100
AcDbLine
 10
-118.01140134
 20
-69.78548765
 30
0.0
 11
-117.78579951
 21
-69.77426973
 31
0.0
  0
LINE
  5
146
100
AcDbEntity
  8
レイヤー_1
  6
CONTINUOUS
 62
       3
100
AcDbLine
 10
-117.78579951
 20
-69.77426973
 30
0.0
 11
-117.56662331
 21
-69.74133407
 31
0.0
  0
LINE
  5
147
100
AcDbEntity
  8
レイヤー_1
  6
CONTINUOUS
 62
       3
100
AcDbLine
 10
-117.56662331
 20
-69.74133407
 30
0.0
 11
-117.35494408
 21
-69.68775777
 31
0.0
  0
LINE
  5
148
100
AcDbEntity
  8
レイヤー_1
  6
CONTINUOUS
 62
       3
100
AcDbLine
 10
-117.35494408
 20
-69.68775777
 30
0.0
 11
-117.15183316
 21
-69.61461796
 31
0.0
  0
LINE
  5
149
100
AcDbEntity
  8
レイヤー_1
  6
CONTINUOUS
 62
       3
100
AcDbLine
 10
-117.15183316
 20
-69.61461796
 30
0.0
 11
-116.95836189
 21
-69.52299176
 31
0.0
  0
LINE
  5
14A
100
AcDbEntity
  8
レイヤー_1
  6
CONTINUOUS
 62
       3
100
AcDbLine
 10
-116.95836189
 20
-69.52299176
 30
0.0
 11
-116.7756016
 21
-69.41395629
 31
0.0
  0
LINE
  5
14B
100
AcDbEntity
  8
レイヤー_1
  6
CONTINUOUS
 62
       3
100
AcDbLine
 10
-116.7756016
 20
-69.41395629
 30
0.0
 11
-116.60462364
 21
-69.28858867
 31
0.0
  0
LINE
  5
14C
100
AcDbEntity
  8
レイヤー_1
  6
CONTINUOUS
 62
       3
100
AcDbLine
 10
-116.60462364
 20
-69.28858867
 30
0.0
 11
-116.44649935
 21
-69.14796602
 31
0.0
  0
LINE
  5
14D
100
AcDbEntity
  8
レイヤー_1
  6
CONTINUOUS
 62
       3
100
AcDbLine
 10
-116.44649935
 20
-69.14796602
 30
0.0
 11
-116.30230007
 21
-68.99316546
 31
0.0
  0
LINE
  5
14E
100
AcDbEntity
  8
レイヤー_1
  6
CONTINUOUS
 62
       3
100
AcDbLine
 10
-116.30230007
 20
-68.99316546
 30
0.0
 11
-116.17309714
 21
-68.82526411
 31
0.0
  0
LINE
  5
14F
100
AcDbEntity
  8
レイヤー_1
  6
CONTINUOUS
 62
       3
100
AcDbLine
 10
-116.17309714
 20
-68.82526411
 30
0.0
 11
-116.05996189
 21
-68.6453391
 31
0.0
  0
LINE
  5
150
100
AcDbEntity
  8
レイヤー_1
  6
CONTINUOUS
 62
       3
100
AcDbLine
 10
-116.05996189
 20
-68.6453391
 30
0.0
 11
-115.96396567
 21
-68.45446753
 31
0.0
  0
LINE
  5
151
100
AcDbEntity
  8
レイヤー_1
  6
CONTINUOUS
 62
       3
100
AcDbLine
 10
-115.96396567
 20
-68.45446753
 30
0.0
 11
-115.88617982
 21
-68.25372654
 31
0.0
  0
LINE
  5
152
100
AcDbEntity
  8
レイヤー_1
  6
CONTINUOUS
 62
       3
100
AcDbLine
 10
-115.88617982
 20
-68.25372654
 30
0.0
 11
-115.82767567
 21
-68.04419324
 31
0.0
  0
LINE
  5
153
100
AcDbEntity
  8
レイヤー_1
  6
CONTINUOUS
 62
       3
100
AcDbLine
 10
-115.82767567
 20
-68.04419324
 30
0.0
 11
-115.78952457
 21
-67.82694475
 31
0.0
  0
LINE
  5
154
100
AcDbEntity
  8
レイヤー_1
  6
CONTINUOUS
 62
       3
100
AcDbLine
 10
-115.78952457
 20
-67.82694475
 30
0.0
 11
-115.77279785
 21
-67.6030582
 31
0.0
  0
LINE
  5
155
100
AcDbEntity
  8
レイヤー_1
  6
CONTINUOUS
 62
       3
100
AcDbLine
 10
-115.77279785
 20
-67.6030582
 30
0.0
 11
-115.7784162
 21
-67.37641366
 31
0.0
  0
LINE
  5
156
100
AcDbEntity
  8
レイヤー_1
  6
CONTINUOUS
 62
       3
100
AcDbLine
 10
-115.7784162
 20
-67.37641366
 30
0.0
 11
-115.80598903
 21
-67.15553061
 31
0.0
  0
LINE
  5
157
100
AcDbEntity
  8
レイヤー_1
  6
CONTINUOUS
 62
       3
100
AcDbLine
 10
-115.80598903
 20
-67.15553061
 30
0.0
 11
-115.85445057
 21
-66.9418767
 31
0.0
  0
LINE
  5
158
100
AcDbEntity
  8
レイヤー_1
  6
CONTINUOUS
 62
       3
100
AcDbLine
 10
-115.85445057
 20
-66.9418767
 30
0.0
 11
-115.92272949
 21
-66.73652326
 31
0.0
  0
LINE
  5
159
100
AcDbEntity
  8
レイヤー_1
  6
CONTINUOUS
 62
       3
100
AcDbLine
 10
-115.92272949
 20
-66.73652326
 30
0.0
 11
-116.00975444
 21
-66.54054164
 31
0.0
  0
LINE
  5
15A
100
AcDbEntity
  8
レイヤー_1
  6
CONTINUOUS
 62
       3
100
AcDbLine
 10
-116.00975444
 20
-66.54054164
 30
0.0
 11
-116.1144541
 21
-66.35500317
 31
0.0
  0
LINE
  5
15B
100
AcDbEntity
  8
レイヤー_1
  6
CONTINUOUS
 62
       3
100
AcDbLine
 10
-116.1144541
 20
-66.35500317
 30
0.0
 11
-116.2357571
 21
-66.18097919
 31
0.0
  0
LINE
  5
15C
100
AcDbEntity
  8
レイヤー_1
  6
CONTINUOUS
 62
       3
100
AcDbLine
 10
-116.2357571
 20
-66.18097919
 30
0.0
 11
-116.37259213
 21
-66.01954105
 31
0.0
  0
LINE
  5
15D
100
AcDbEntity
  8
レイヤー_1
  6
CONTINUOUS
 62
       3
100
AcDbLine
 10
-116.37259213
 20
-66.01954105
 30
0.0
 11
-116.52388783
 21
-65.87176007
 31
0.0
  0
LINE
  5
15E
100
AcDbEntity
  8
レイヤー_1
  6
CONTINUOUS
 62
       3
100
AcDbLine
 10
-116.52388783
 20
-65.87176007
 30
0.0
 11
-116.68857287
 21
-65.73870762
 31
0.0
  0
LINE
  5
15F
100
AcDbEntity
  8
レイヤー_1
  6
CONTINUOUS
 62
       3
100
AcDbLine
 10
-116.68857287
 20
-65.73870762
 30
0.0
 11
-116.86557591
 21
-65.62145501
 31
0.0
  0
LINE
  5
160
100
AcDbEntity
  8
レイヤー_1
  6
CONTINUOUS
 62
       3
100
AcDbLine
 10
-116.86557591
 20
-65.62145501
 30
0.0
 11
-117.05382561
 21
-65.52107359
 31
0.0
  0
LINE
  5
161
100
AcDbEntity
  8
レイヤー_1
  6
CONTINUOUS
 62
       3
100
AcDbLine
 10
-117.05382561
 20
-65.52107359
 30
0.0
 11
-117.25225062
 21
-65.43863471
 31
0.0
  0
LINE
  5
162
100
AcDbEntity
  8
レイヤー_1
  6
CONTINUOUS
 62
       3
100
AcDbLine
 10
-117.25225062
 20
-65.43863471
 30
0.0
 11
-117.45977962
 21
-65.3752097
 31
0.0
  0
LINE
  5
163
100
AcDbEntity
  8
レイヤー_1
  6
CONTINUOUS
 62
       3
100
AcDbLine
 10
-117.45977962
 20
-65.3752097
 30
0.0
 11
-117.67534125
 21
-65.33186989
 31
0.0
  0
LINE
  5
164
100
AcDbEntity
  8
レイヤー_1
  6
CONTINUOUS
 62
       3
100
AcDbLine
 10
-117.67534125
 20
-65.33186989
 30
0.0
 11
-117.89786418
 21
-65.30968664
 31
0.0
  0
LINE
  5
165
100
AcDbEntity
  8
レイヤー_1
  6
CONTINUOUS
 62
       3
100
AcDbLine
 10
-117.89786418
 20
-65.30968664
 30
0.0
 11
-118.1249385
 21
-65.30968664
 31
0.0
  0
LINE
  5
166
100
AcDbEntity
  8
レイヤー_1
  6
CONTINUOUS
 62
       3
100
AcDbLine
 10
-118.1249385
 20
-65.30968664
 30
0.0
 11
-118.34746144
 21
-65.33186989
 31
0.0
  0
LINE
  5
167
100
AcDbEntity
  8
レイヤー_1
  6
CONTINUOUS
 62
       3
100
AcDbLine
 10
-118.34746144
 20
-65.33186989
 30
0.0
 11
-118.56302307
 21
-65.3752097
 31
0.0
  0
LINE
  5
168
100
AcDbEntity
  8
レイヤー_1
  6
CONTINUOUS
 62
       3
100
AcDbLine
 10
-118.56302307
 20
-65.3752097
 30
0.0
 11
-118.77055206
 21
-65.43863471
 31
0.0
  0
LINE
  5
169
100
AcDbEntity
  8
レイヤー_1
  6
CONTINUOUS
 62
       3
100
AcDbLine
 10
-118.77055206
 20
-65.43863471
 30
0.0
 11
-118.96897708
 21
-65.52107359
 31
0.0
  0
LINE
  5
16A
100
AcDbEntity
  8
レイヤー_1
  6
CONTINUOUS
 62
       3
100
AcDbLine
 10
-118.96897708
 20
-65.52107359
 30
0.0
 11
-119.15722678
 21
-65.62145501
 31
0.0
  0
LINE
  5
16B
100
AcDbEntity
  8
レイヤー_1
  6
CONTINUOUS
 62
       3
100
AcDbLine
 10
-119.15722678
 20
-65.62145501
 30
0.0
 11
-119.33422982
 21
-65.73870762
 31
0.0
  0
LINE
  5
16C
100
AcDbEntity
  8
レイヤー_1
  6
CONTINUOUS
 62
       3
100
AcDbLine
 10
-119.33422982
 20
-65.73870762
 30
0.0
 11
-119.49891486
 21
-65.87176007
 31
0.0
  0
LINE
  5
16D
100
AcDbEntity
  8
レイヤー_1
  6
CONTINUOUS
 62
       3
100
AcDbLine
 10
-119.49891486
 20
-65.87176007
 30
0.0
 11
-119.65021056
 21
-66.01954105
 31
0.0
  0
LINE
  5
16E
100
AcDbEntity
  8
レイヤー_1
  6
CONTINUOUS
 62
       3
100
AcDbLine
 10
-119.65021056
 20
-66.01954105
 30
0.0
 11
-119.78704558
 21
-66.18097919
 31
0.0
  0
LINE
  5
16F
100
AcDbEntity
  8
レイヤー_1
  6
CONTINUOUS
 62
       3
100
AcDbLine
 10
-119.78704558
 20
-66.18097919
 30
0.0
 11
-119.90834859
 21
-66.35500317
 31
0.0
  0
LINE
  5
170
100
AcDbEntity
  8
レイヤー_1
  6
CONTINUOUS
 62
       3
100
AcDbLine
 10
-119.90834859
 20
-66.35500317
 30
0.0
 11
-120.01304824
 21
-66.54054164
 31
0.0
  0
LINE
  5
171
100
AcDbEntity
  8
レイヤー_1
  6
CONTINUOUS
 62
       3
100
AcDbLine
 10
-120.01304824
 20
-66.54054164
 30
0.0
 11
-120.1000732
 21
-66.73652326
 31
0.0
  0
LINE
  5
172
100
AcDbEntity
  8
レイヤー_1
  6
CONTINUOUS
 62
       3
100
AcDbLine
 10
-120.1000732
 20
-66.73652326
 30
0.0
 11
-120.16835212
 21
-66.9418767
 31
0.0
  0
LINE
  5
173
100
AcDbEntity
  8
レイヤー_1
  6
CONTINUOUS
 62
       3
100
AcDbLine
 10
-120.16835212
 20
-66.9418767
 30
0.0
 11
-120.21681366
 21
-67.15553061
 31
0.0
  0
LINE
  5
174
100
AcDbEntity
  8
レイヤー_1
  6
CONTINUOUS
 62
       3
100
AcDbLine
 10
-120.21681366
 20
-67.15553061
 30
0.0
 11
-120.24438649
 21
-67.37641366
 31
0.0
  0
LINE
  5
175
100
AcDbEntity
  8
レイヤー_1
  6
CONTINUOUS
 62
       3
100
AcDbLine
 10
-120.24438649
 20
-67.37641366
 30
0.0
 11
-120.25000484
 21
-67.6030582
 31
0.0
  0
LINE
  5
176
100
AcDbEntity
  8
レイヤー_1
  6
CONTINUOUS
 62
       3
100
AcDbLine
 10
-120.25000484
 20
-67.6030582
 30
0.0
 11
-120.23327812
 21
-67.82694475
 31
0.0
  0
LINE
  5
177
100
AcDbEntity
  8
レイヤー_1
  6
CONTINUOUS
 62
       3
100
AcDbLine
 10
-120.23327812
 20
-67.82694475
 30
0.0
 11
-120.19512702
 21
-68.04419324
 31
0.0
  0
LINE
  5
178
100
AcDbEntity
  8
レイヤー_1
  6
CONTINUOUS
 62
       3
100
AcDbLine
 10
-120.19512702
 20
-68.04419324
 30
0.0
 11
-120.13662287
 21
-68.25372654
 31
0.0
  0
LINE
  5
179
100
AcDbEntity
  8
レイヤー_1
  6
CONTINUOUS
 62
       3
100
AcDbLine
 10
-120.13662287
 20
-68.25372654
 30
0.0
 11
-120.05883702
 21
-68.45446753
 31
0.0
  0
LINE
  5
17A
100
AcDbEntity
  8
レイヤー_1
  6
CONTINUOUS
 62
       3
100
AcDbLine
 10
-120.05883702
 20
-68.45446753
 30
0.0
 11
-119.9628408
 21
-68.6453391
 31
0.0
  0
LINE
  5
17B
100
AcDbEntity
  8
レイヤー_1
  6
CONTINUOUS
 62
       3
100
AcDbLine
 10
-119.9628408
 20
-68.6453391
 30
0.0
 11
-119.84970555
 21
-68.82526411
 31
0.0
  0
LINE
  5
17C
100
AcDbEntity
  8
レイヤー_1
  6
CONTINUOUS
 62
       3
100
AcDbLine
 10
-119.84970555
 20
-68.82526411
 30
0.0
 11
-119.72050261
 21
-68.99316546
 31
0.0
  0
LINE
  5
17D
100
AcDbEntity
  8
レイヤー_1
  6
CONTINUOUS
 62
       3
100
AcDbLine
 10
-119.72050261
 20
-68.99316546
 30
0.0
 11
-119.57630333
 21
-69.14796602
 31
0.0
  0
LINE
  5
17E
100
AcDbEntity
  8
レイヤー_1
  6
CONTINUOUS
 62
       3
100
AcDbLine
 10
-119.57630333
 20
-69.14796602
 30
0.0
 11
-119.41817904
 21
-69.28858867
 31
0.0
  0
LINE
  5
17F
100
AcDbEntity
  8
レイヤー_1
  6
CONTINUOUS
 62
       3
100
AcDbLine
 10
-119.41817904
 20
-69.28858867
 30
0.0
 11
-119.24720109
 21
-69.41395629
 31
0.0
  0
LINE
  5
180
100
AcDbEntity
  8
レイヤー_1
  6
CONTINUOUS
 62
       3
100
AcDbLine
 10
-119.24720109
 20
-69.41395629
 30
0.0
 11
-119.0644408
 21
-69.52299176
 31
0.0
  0
LINE
  5
181
100
AcDbEntity
  8
レイヤー_1
  6
CONTINUOUS
 62
       3
100
AcDbLine
 10
-119.0644408
 20
-69.52299176
 30
0.0
 11
-118.87096953
 21
-69.61461796
 31
0.0
  0
LINE
  5
182
100
AcDbEntity
  8
レイヤー_1
  6
CONTINUOUS
 62
       3
100
AcDbLine
 10
-118.87096953
 20
-69.61461796
 30
0.0
 11
-118.66785861
 21
-69.68775777
 31
0.0
  0
LINE
  5
183
100
AcDbEntity
  8
レイヤー_1
  6
CONTINUOUS
 62
       3
100
AcDbLine
 10
-118.66785861
 20
-69.68775777
 30
0.0
 11
-118.45617937
 21
-69.74133407
 31
0.0
  0
LINE
  5
184
100
AcDbEntity
  8
レイヤー_1
  6
CONTINUOUS
 62
       3
100
AcDbLine
 10
-118.45617937
 20
-69.74133407
 30
0.0
 11
-118.23700317
 21
-69.77426973
 31
0.0
  0
LINE
  5
185
100
AcDbEntity
  8
レイヤー_1
  6
CONTINUOUS
 62
       3
100
AcDbLine
 10
-118.23700317
 20
-69.77426973
 30
0.0
 11
-118.01140134
 21
-69.78548765
 31
0.0
  0
LINE
  5
186
100
AcDbEntity
  8
レイヤー_1
  6
CONTINUOUS
 62
       3
100
AcDbLine
 10
-151.77884925
 20
-90.78334463
 30
0.0
 11
-151.49694023
 21
-90.769322
 31
0.0
  0
LINE
  5
187
100
AcDbEntity
  8
レイヤー_1
  6
CONTINUOUS
 62
       3
100
AcDbLine
 10
-151.49694023
 20
-90.769322
 30
0.0
 11
-151.22300049
 21
-90.72815073
 31
0.0
  0
LINE
  5
188
100
AcDbEntity
  8
レイヤー_1
  6
CONTINUOUS
 62
       3
100
AcDbLine
 10
-151.22300049
 20
-90.72815073
 30
0.0
 11
-150.95837693
 21
-90.66117578
 31
0.0
  0
LINE
  5
189
100
AcDbEntity
  8
レイヤー_1
  6
CONTINUOUS
 62
       3
100
AcDbLine
 10
-150.95837693
 20
-90.66117578
 30
0.0
 11
-150.70441643
 21
-90.5697421
 31
0.0
  0
LINE
  5
18A
100
AcDbEntity
  8
レイヤー_1
  6
CONTINUOUS
 62
       3
100
AcDbLine
 10
-150.70441643
 20
-90.5697421
 30
0.0
 11
-150.46246588
 21
-90.45519466
 31
0.0
  0
LINE
  5
18B
100
AcDbEntity
  8
レイヤー_1
  6
CONTINUOUS
 62
       3
100
AcDbLine
 10
-150.46246588
 20
-90.45519466
 30
0.0
 11
-150.23387214
 21
-90.3188784
 31
0.0
  0
LINE
  5
18C
100
AcDbEntity
  8
レイヤー_1
  6
CONTINUOUS
 62
       3
100
AcDbLine
 10
-150.23387214
 20
-90.3188784
 30
0.0
 11
-150.01998211
 21
-90.16213829
 31
0.0
  0
LINE
  5
18D
100
AcDbEntity
  8
レイヤー_1
  6
CONTINUOUS
 62
       3
100
AcDbLine
 10
-150.01998211
 20
-90.16213829
 30
0.0
 11
-149.82214265
 21
-89.98631927
 31
0.0
  0
LINE
  5
18E
100
AcDbEntity
  8
レイヤー_1
  6
CONTINUOUS
 62
       3
100
AcDbLine
 10
-149.82214265
 20
-89.98631927
 30
0.0
 11
-149.64170067
 21
-89.79276631
 31
0.0
  0
LINE
  5
18F
100
AcDbEntity
  8
レイヤー_1
  6
CONTINUOUS
 62
       3
100
AcDbLine
 10
-149.64170067
 20
-89.79276631
 30
0.0
 11
-149.48000304
 21
-89.58282435
 31
0.0
  0
LINE
  5
190
100
AcDbEntity
  8
レイヤー_1
  6
CONTINUOUS
 62
       3
100
AcDbLine
 10
-149.48000304
 20
-89.58282435
 30
0.0
 11
-149.33839664
 21
-89.35783836
 31
0.0
  0
LINE
  5
191
100
AcDbEntity
  8
レイヤー_1
  6
CONTINUOUS
 62
       3
100
AcDbLine
 10
-149.33839664
 20
-89.35783836
 30
0.0
 11
-149.21822837
 21
-89.11915328
 31
0.0
  0
LINE
  5
192
100
AcDbEntity
  8
レイヤー_1
  6
CONTINUOUS
 62
       3
100
AcDbLine
 10
-149.21822837
 20
-89.11915328
 30
0.0
 11
-149.12084508
 21
-88.86811408
 31
0.0
  0
LINE
  5
193
100
AcDbEntity
  8
レイヤー_1
  6
CONTINUOUS
 62
       3
100
AcDbLine
 10
-149.12084508
 20
-88.86811408
 30
0.0
 11
-149.04759368
 21
-88.6060657
 31
0.0
  0
LINE
  5
194
100
AcDbEntity
  8
レイヤー_1
  6
CONTINUOUS
 62
       3
100
AcDbLine
 10
-149.04759368
 20
-88.6060657
 30
0.0
 11
-148.99982103
 21
-88.33435311
 31
0.0
  0
LINE
  5
195
100
AcDbEntity
  8
レイヤー_1
  6
CONTINUOUS
 62
       3
100
AcDbLine
 10
-148.99982103
 20
-88.33435311
 30
0.0
 11
-148.97887402
 21
-88.05432126
 31
0.0
  0
LINE
  5
196
100
AcDbEntity
  8
レイヤー_1
  6
CONTINUOUS
 62
       3
100
AcDbLine
 10
-148.97887402
 20
-88.05432126
 30
0.0
 11
-148.98591014
 21
-87.77104901
 31
0.0
  0
LINE
  5
197
100
AcDbEntity
  8
レイヤー_1
  6
CONTINUOUS
 62
       3
100
AcDbLine
 10
-148.98591014
 20
-87.77104901
 30
0.0
 11
-149.02043832
 21
-87.49500867
 31
0.0
  0
LINE
  5
198
100
AcDbEntity
  8
レイヤー_1
  6
CONTINUOUS
 62
       3
100
AcDbLine
 10
-149.02043832
 20
-87.49500867
 30
0.0
 11
-149.08111872
 21
-87.22796007
 31
0.0
  0
LINE
  5
199
100
AcDbEntity
  8
レイヤー_1
  6
CONTINUOUS
 62
       3
100
AcDbLine
 10
-149.08111872
 20
-87.22796007
 30
0.0
 11
-149.16660441
 21
-86.97124816
 31
0.0
  0
LINE
  5
19A
100
AcDbEntity
  8
レイヤー_1
  6
CONTINUOUS
 62
       3
100
AcDbLine
 10
-149.16660441
 20
-86.97124816
 30
0.0
 11
-149.27554857
 21
-86.7262179
 31
0.0
  0
LINE
  5
19B
100
AcDbEntity
  8
レイヤー_1
  6
CONTINUOUS
 62
       3
100
AcDbLine
 10
-149.27554857
 20
-86.7262179
 30
0.0
 11
-149.40660427
 21
-86.49421424
 31
0.0
  0
LINE
  5
19C
100
AcDbEntity
  8
レイヤー_1
  6
CONTINUOUS
 62
       3
100
AcDbLine
 10
-149.40660427
 20
-86.49421424
 30
0.0
 11
-149.55842463
 21
-86.27658215
 31
0.0
  0
LINE
  5
19D
100
AcDbEntity
  8
レイヤー_1
  6
CONTINUOUS
 62
       3
100
AcDbLine
 10
-149.55842463
 20
-86.27658215
 30
0.0
 11
-149.72966281
 21
-86.07466657
 31
0.0
  0
LINE
  5
19E
100
AcDbEntity
  8
レイヤー_1
  6
CONTINUOUS
 62
       3
100
AcDbLine
 10
-149.72966281
 20
-86.07466657
 30
0.0
 11
-149.91897188
 21
-85.88981246
 31
0.0
  0
LINE
  5
19F
100
AcDbEntity
  8
レイヤー_1
  6
CONTINUOUS
 62
       3
100
AcDbLine
 10
-149.91897188
 20
-85.88981246
 30
0.0
 11
-150.12500498
 21
-85.72336477
 31
0.0
  0
LINE
  5
1A0
100
AcDbEntity
  8
レイヤー_1
  6
CONTINUOUS
 62
       3
100
AcDbLine
 10
-150.12500498
 20
-85.72336477
 30
0.0
 11
-150.34641522
 21
-85.57666847
 31
0.0
  0
LINE
  5
1A1
100
AcDbEntity
  8
レイヤー_1
  6
CONTINUOUS
 62
       3
100
AcDbLine
 10
-150.34641522
 20
-85.57666847
 30
0.0
 11
-150.58185574
 21
-85.4510685
 31
0.0
  0
LINE
  5
1A2
100
AcDbEntity
  8
レイヤー_1
  6
CONTINUOUS
 62
       3
100
AcDbLine
 10
-150.58185574
 20
-85.4510685
 30
0.0
 11
-150.82997963
 21
-85.34790982
 31
0.0
  0
LINE
  5
1A3
100
AcDbEntity
  8
レイヤー_1
  6
CONTINUOUS
 62
       3
100
AcDbLine
 10
-150.82997963
 20
-85.34790982
 30
0.0
 11
-151.08944001
 21
-85.26853739
 31
0.0
  0
LINE
  5
1A4
100
AcDbEntity
  8
レイヤー_1
  6
CONTINUOUS
 62
       3
100
AcDbLine
 10
-151.08944001
 20
-85.26853739
 30
0.0
 11
-151.35889001
 21
-85.21429616
 31
0.0
  0
LINE
  5
1A5
100
AcDbEntity
  8
レイヤー_1
  6
CONTINUOUS
 62
       3
100
AcDbLine
 10
-151.35889001
 20
-85.21429616
 30
0.0
 11
-151.63698276
 21
-85.18653109
 31
0.0
  0
LINE
  5
1A6
100
AcDbEntity
  8
レイヤー_1
  6
CONTINUOUS
 62
       3
100
AcDbLine
 10
-151.63698276
 20
-85.18653109
 30
0.0
 11
-151.92065408
 21
-85.18653109
 31
0.0
  0
LINE
  5
1A7
100
AcDbEntity
  8
レイヤー_1
  6
CONTINUOUS
 62
       3
100
AcDbLine
 10
-151.92065408
 20
-85.18653109
 30
0.0
 11
-152.19863474
 21
-85.21429616
 31
0.0
  0
LINE
  5
1A8
100
AcDbEntity
  8
レイヤー_1
  6
CONTINUOUS
 62
       3
100
AcDbLine
 10
-152.19863474
 20
-85.21429616
 30
0.0
 11
-152.4679869
 21
-85.26853739
 31
0.0
  0
LINE
  5
1A9
100
AcDbEntity
  8
レイヤー_1
  6
CONTINUOUS
 62
       3
100
AcDbLine
 10
-152.4679869
 20
-85.26853739
 30
0.0
 11
-152.72736266
 21
-85.34790982
 31
0.0
  0
LINE
  5
1AA
100
AcDbEntity
  8
レイヤー_1
  6
CONTINUOUS
 62
       3
100
AcDbLine
 10
-152.72736266
 20
-85.34790982
 30
0.0
 11
-152.97541423
 21
-85.4510685
 31
0.0
  0
LINE
  5
1AB
100
AcDbEntity
  8
レイヤー_1
  6
CONTINUOUS
 62
       3
100
AcDbLine
 10
-152.97541423
 20
-85.4510685
 30
0.0
 11
-153.21079373
 21
-85.57666847
 31
0.0
  0
LINE
  5
1AC
100
AcDbEntity
  8
レイヤー_1
  6
CONTINUOUS
 62
       3
100
AcDbLine
 10
-153.21079373
 20
-85.57666847
 30
0.0
 11
-153.43215333
 21
-85.72336477
 31
0.0
  0
LINE
  5
1AD
100
AcDbEntity
  8
レイヤー_1
  6
CONTINUOUS
 62
       3
100
AcDbLine
 10
-153.43215333
 20
-85.72336477
 30
0.0
 11
-153.63814517
 21
-85.88981246
 31
0.0
  0
LINE
  5
1AE
100
AcDbEntity
  8
レイヤー_1
  6
CONTINUOUS
 62
       3
100
AcDbLine
 10
-153.63814517
 20
-85.88981246
 30
0.0
 11
-153.82742142
 21
-86.07466657
 31
0.0
  0
LINE
  5
1AF
100
AcDbEntity
  8
レイヤー_1
  6
CONTINUOUS
 62
       3
100
AcDbLine
 10
-153.82742142
 20
-86.07466657
 30
0.0
 11
-153.99863422
 21
-86.27658215
 31
0.0
  0
LINE
  5
1B0
100
AcDbEntity
  8
レイヤー_1
  6
CONTINUOUS
 62
       3
100
AcDbLine
 10
-153.99863422
 20
-86.27658215
 30
0.0
 11
-154.15043574
 21
-86.49421424
 31
0.0
  0
LINE
  5
1B1
100
AcDbEntity
  8
レイヤー_1
  6
CONTINUOUS
 62
       3
100
AcDbLine
 10
-154.15043574
 20
-86.49421424
 30
0.0
 11
-154.28147812
 21
-86.7262179
 31
0.0
  0
LINE
  5
1B2
100
AcDbEntity
  8
レイヤー_1
  6
CONTINUOUS
 62
       3
100
AcDbLine
 10
-154.28147812
 20
-86.7262179
 30
0.0
 11
-154.39041352
 21
-86.97124816
 31
0.0
  0
LINE
  5
1B3
100
AcDbEntity
  8
レイヤー_1
  6
CONTINUOUS
 62
       3
100
AcDbLine
 10
-154.39041352
 20
-86.97124816
 30
0.0
 11
-154.47589411
 21
-87.22796007
 31
0.0
  0
LINE
  5
1B4
100
AcDbEntity
  8
レイヤー_1
  6
CONTINUOUS
 62
       3
100
AcDbLine
 10
-154.47589411
 20
-87.22796007
 30
0.0
 11
-154.536572
 21
-87.49500867
 31
0.0
  0
LINE
  5
1B5
100
AcDbEntity
  8
レイヤー_1
  6
CONTINUOUS
 62
       3
100
AcDbLine
 10
-154.536572
 20
-87.49500867
 30
0.0
 11
-154.5710994
 21
-87.77104901
 31
0.0
  0
LINE
  5
1B6
100
AcDbEntity
  8
レイヤー_1
  6
CONTINUOUS
 62
       3
100
AcDbLine
 10
-154.5710994
 20
-87.77104901
 30
0.0
 11
-154.57813545
 21
-88.05432126
 31
0.0
  0
LINE
  5
1B7
100
AcDbEntity
  8
レイヤー_1
  6
CONTINUOUS
 62
       3
100
AcDbLine
 10
-154.57813545
 20
-88.05432126
 30
0.0
 11
-154.55718876
 21
-88.33435311
 31
0.0
  0
LINE
  5
1B8
100
AcDbEntity
  8
レイヤー_1
  6
CONTINUOUS
 62
       3
100
AcDbLine
 10
-154.55718876
 20
-88.33435311
 30
0.0
 11
-154.50941763
 21
-88.6060657
 31
0.0
  0
LINE
  5
1B9
100
AcDbEntity
  8
レイヤー_1
  6
CONTINUOUS
 62
       3
100
AcDbLine
 10
-154.50941763
 20
-88.6060657
 30
0.0
 11
-154.4361699
 21
-88.86811408
 31
0.0
  0
LINE
  5
1BA
100
AcDbEntity
  8
レイヤー_1
  6
CONTINUOUS
 62
       3
100
AcDbLine
 10
-154.4361699
 20
-88.86811408
 30
0.0
 11
-154.33879344
 21
-89.11915328
 31
0.0
  0
LINE
  5
1BB
100
AcDbEntity
  8
レイヤー_1
  6
CONTINUOUS
 62
       3
100
AcDbLine
 10
-154.33879344
 20
-89.11915328
 30
0.0
 11
-154.21863607
 21
-89.35783836
 31
0.0
  0
LINE
  5
1BC
100
AcDbEntity
  8
レイヤー_1
  6
CONTINUOUS
 62
       3
100
AcDbLine
 10
-154.21863607
 20
-89.35783836
 30
0.0
 11
-154.07704563
 21
-89.58282435
 31
0.0
  0
LINE
  5
1BD
100
AcDbEntity
  8
レイヤー_1
  6
CONTINUOUS
 62
       3
100
AcDbLine
 10
-154.07704563
 20
-89.58282435
 30
0.0
 11
-153.91536998
 21
-89.79276631
 31
0.0
  0
LINE
  5
1BE
100
AcDbEntity
  8
レイヤー_1
  6
CONTINUOUS
 62
       3
100
AcDbLine
 10
-153.91536998
 20
-89.79276631
 30
0.0
 11
-153.73495699
 21
-89.98631927
 31
0.0
  0
LINE
  5
1BF
100
AcDbEntity
  8
レイヤー_1
  6
CONTINUOUS
 62
       3
100
AcDbLine
 10
-153.73495699
 20
-89.98631927
 30
0.0
 11
-153.53715446
 21
-90.16213829
 31
0.0
  0
LINE
  5
1C0
100
AcDbEntity
  8
レイヤー_1
  6
CONTINUOUS
 62
       3
100
AcDbLine
 10
-153.53715446
 20
-90.16213829
 30
0.0
 11
-153.32331026
 21
-90.3188784
 31
0.0
  0
LINE
  5
1C1
100
AcDbEntity
  8
レイヤー_1
  6
CONTINUOUS
 62
       3
100
AcDbLine
 10
-153.32331026
 20
-90.3188784
 30
0.0
 11
-153.09477222
 21
-90.45519466
 31
0.0
  0
LINE
  5
1C2
100
AcDbEntity
  8
レイヤー_1
  6
CONTINUOUS
 62
       3
100
AcDbLine
 10
-153.09477222
 20
-90.45519466
 30
0.0
 11
-152.85288822
 21
-90.5697421
 31
0.0
  0
LINE
  5
1C3
100
AcDbEntity
  8
レイヤー_1
  6
CONTINUOUS
 62
       3
100
AcDbLine
 10
-152.85288822
 20
-90.5697421
 30
0.0
 11
-152.59900607
 21
-90.66117578
 31
0.0
  0
LINE
  5
1C4
100
AcDbEntity
  8
レイヤー_1
  6
CONTINUOUS
 62
       3
100
AcDbLine
 10
-152.59900607
 20
-90.66117578
 30
0.0
 11
-152.33447362
 21
-90.72815073
 31
0.0
  0
LINE
  5
1C5
100
AcDbEntity
  8
レイヤー_1
  6
CONTINUOUS
 62
       3
100
AcDbLine
 10
-152.33447362
 20
-90.72815073
 30
0.0
 11
-152.06063874
 21
-90.769322
 31
0.0
  0
LINE
  5
1C6
100
AcDbEntity
  8
レイヤー_1
  6
CONTINUOUS
 62
       3
100
AcDbLine
 10
-152.06063874
 20
-90.769322
 30
0.0
 11
-151.77884925
 21
-90.78334463
 31
0.0
  0
LINE
  5
1C7
100
AcDbEntity
  8
レイヤー_1
  6
CONTINUOUS
 62
       3
100
AcDbLine
 10
-84.25497774
 20
101.22147303
 30
0.0
 11
-83.97318825
 21
101.23548081
 31
0.0
  0
LINE
  5
1C8
100
AcDbEntity
  8
レイヤー_1
  6
CONTINUOUS
 62
       3
100
AcDbLine
 10
-83.97318825
 20
101.23548081
 30
0.0
 11
-83.69935336
 21
101.27661073
 31
0.0
  0
LINE
  5
1C9
100
AcDbEntity
  8
レイヤー_1
  6
CONTINUOUS
 62
       3
100
AcDbLine
 10
-83.69935336
 20
101.27661073
 30
0.0
 11
-83.43482092
 21
101.34352266
 31
0.0
  0
LINE
  5
1CA
100
AcDbEntity
  8
レイヤー_1
  6
CONTINUOUS
 62
       3
100
AcDbLine
 10
-83.43482092
 20
101.34352266
 30
0.0
 11
-83.18093877
 21
101.43487645
 31
0.0
  0
LINE
  5
1CB
100
AcDbEntity
  8
レイヤー_1
  6
CONTINUOUS
 62
       3
100
AcDbLine
 10
-83.18093877
 20
101.43487645
 30
0.0
 11
-82.93905476
 21
101.54933196
 31
0.0
  0
LINE
  5
1CC
100
AcDbEntity
  8
レイヤー_1
  6
CONTINUOUS
 62
       3
100
AcDbLine
 10
-82.93905476
 20
101.54933196
 30
0.0
 11
-82.71051673
 21
101.68554906
 31
0.0
  0
LINE
  5
1CD
100
AcDbEntity
  8
レイヤー_1
  6
CONTINUOUS
 62
       3
100
AcDbLine
 10
-82.71051673
 20
101.68554906
 30
0.0
 11
-82.49667253
 21
101.84218762
 31
0.0
  0
LINE
  5
1CE
100
AcDbEntity
  8
レイヤー_1
  6
CONTINUOUS
 62
       3
100
AcDbLine
 10
-82.49667253
 20
101.84218762
 30
0.0
 11
-82.29887
 21
102.01790748
 31
0.0
  0
LINE
  5
1CF
100
AcDbEntity
  8
レイヤー_1
  6
CONTINUOUS
 62
       3
100
AcDbLine
 10
-82.29887
 20
102.01790748
 30
0.0
 11
-82.118457
 21
102.21136852
 31
0.0
  0
LINE
  5
1D0
100
AcDbEntity
  8
レイヤー_1
  6
CONTINUOUS
 62
       3
100
AcDbLine
 10
-82.118457
 20
102.21136852
 30
0.0
 11
-81.95678136
 21
102.42123059
 31
0.0
  0
LINE
  5
1D1
100
AcDbEntity
  8
レイヤー_1
  6
CONTINUOUS
 62
       3
100
AcDbLine
 10
-81.95678136
 20
102.42123059
 30
0.0
 11
-81.81519093
 21
102.64615356
 31
0.0
  0
LINE
  5
1D2
100
AcDbEntity
  8
レイヤー_1
  6
CONTINUOUS
 62
       3
100
AcDbLine
 10
-81.81519093
 20
102.64615356
 30
0.0
 11
-81.69503355
 21
102.88479729
 31
0.0
  0
LINE
  5
1D3
100
AcDbEntity
  8
レイヤー_1
  6
CONTINUOUS
 62
       3
100
AcDbLine
 10
-81.69503355
 20
102.88479729
 30
0.0
 11
-81.59765708
 21
103.13582164
 31
0.0
  0
LINE
  5
1D4
100
AcDbEntity
  8
レイヤー_1
  6
CONTINUOUS
 62
       3
100
AcDbLine
 10
-81.59765708
 20
103.13582164
 30
0.0
 11
-81.52440936
 21
103.39788647
 31
0.0
  0
LINE
  5
1D5
100
AcDbEntity
  8
レイヤー_1
  6
CONTINUOUS
 62
       3
100
AcDbLine
 10
-81.52440936
 20
103.39788647
 30
0.0
 11
-81.47663823
 21
103.66965165
 31
0.0
  0
LINE
  5
1D6
100
AcDbEntity
  8
レイヤー_1
  6
CONTINUOUS
 62
       3
100
AcDbLine
 10
-81.47663823
 20
103.66965165
 30
0.0
 11
-81.45569153
 21
103.94977704
 31
0.0
  0
LINE
  5
1D7
100
AcDbEntity
  8
レイヤー_1
  6
CONTINUOUS
 62
       3
100
AcDbLine
 10
-81.45569153
 20
103.94977704
 30
0.0
 11
-81.46272759
 21
104.23316216
 31
0.0
  0
LINE
  5
1D8
100
AcDbEntity
  8
レイヤー_1
  6
CONTINUOUS
 62
       3
100
AcDbLine
 10
-81.46272759
 20
104.23316216
 30
0.0
 11
-81.49725498
 21
104.50927496
 31
0.0
  0
LINE
  5
1D9
100
AcDbEntity
  8
レイヤー_1
  6
CONTINUOUS
 62
       3
100
AcDbLine
 10
-81.49725498
 20
104.50927496
 30
0.0
 11
-81.55793289
 21
104.77635749
 31
0.0
  0
LINE
  5
1DA
100
AcDbEntity
  8
レイヤー_1
  6
CONTINUOUS
 62
       3
100
AcDbLine
 10
-81.55793289
 20
104.77635749
 30
0.0
 11
-81.64341346
 21
105.0330696
 31
0.0
  0
LINE
  5
1DB
100
AcDbEntity
  8
レイヤー_1
  6
CONTINUOUS
 62
       3
100
AcDbLine
 10
-81.64341346
 20
105.0330696
 30
0.0
 11
-81.75234887
 21
105.27807115
 31
0.0
  0
LINE
  5
1DC
100
AcDbEntity
  8
レイヤー_1
  6
CONTINUOUS
 62
       3
100
AcDbLine
 10
-81.75234887
 20
105.27807115
 30
0.0
 11
-81.88339124
 21
105.51002202
 31
0.0
  0
LINE
  5
1DD
100
AcDbEntity
  8
レイヤー_1
  6
CONTINUOUS
 62
       3
100
AcDbLine
 10
-81.88339124
 20
105.51002202
 30
0.0
 11
-82.03519277
 21
105.72758206
 31
0.0
  0
LINE
  5
1DE
100
AcDbEntity
  8
レイヤー_1
  6
CONTINUOUS
 62
       3
100
AcDbLine
 10
-82.03519277
 20
105.72758206
 30
0.0
 11
-82.20640557
 21
105.92941113
 31
0.0
  0
LINE
  5
1DF
100
AcDbEntity
  8
レイヤー_1
  6
CONTINUOUS
 62
       3
100
AcDbLine
 10
-82.20640557
 20
105.92941113
 30
0.0
 11
-82.39568182
 21
106.1141691
 31
0.0
  0
LINE
  5
1E0
100
AcDbEntity
  8
レイヤー_1
  6
CONTINUOUS
 62
       3
100
AcDbLine
 10
-82.39568182
 20
106.1141691
 30
0.0
 11
-82.60167365
 21
106.28051582
 31
0.0
  0
LINE
  5
1E1
100
AcDbEntity
  8
レイヤー_1
  6
CONTINUOUS
 62
       3
100
AcDbLine
 10
-82.60167365
 20
106.28051582
 30
0.0
 11
-82.82303325
 21
106.42711117
 31
0.0
  0
LINE
  5
1E2
100
AcDbEntity
  8
レイヤー_1
  6
CONTINUOUS
 62
       3
100
AcDbLine
 10
-82.82303325
 20
106.42711117
 30
0.0
 11
-83.05841276
 21
106.55261499
 31
0.0
  0
LINE
  5
1E3
100
AcDbEntity
  8
レイヤー_1
  6
CONTINUOUS
 62
       3
100
AcDbLine
 10
-83.05841276
 20
106.55261499
 30
0.0
 11
-83.30646431
 21
106.65568716
 31
0.0
  0
LINE
  5
1E4
100
AcDbEntity
  8
レイヤー_1
  6
CONTINUOUS
 62
       3
100
AcDbLine
 10
-83.30646431
 20
106.65568716
 30
0.0
 11
-83.56584009
 21
106.73498754
 31
0.0
  0
LINE
  5
1E5
100
AcDbEntity
  8
レイヤー_1
  6
CONTINUOUS
 62
       3
100
AcDbLine
 10
-83.56584009
 20
106.73498754
 30
0.0
 11
-83.83519224
 21
106.78917598
 31
0.0
  0
LINE
  5
1E6
100
AcDbEntity
  8
レイヤー_1
  6
CONTINUOUS
 62
       3
100
AcDbLine
 10
-83.83519224
 20
106.78917598
 30
0.0
 11
-84.1131729
 21
106.81691235
 31
0.0
  0
LINE
  5
1E7
100
AcDbEntity
  8
レイヤー_1
  6
CONTINUOUS
 62
       3
100
AcDbLine
 10
-84.1131729
 20
106.81691235
 30
0.0
 11
-84.39684424
 21
106.81691235
 31
0.0
  0
LINE
  5
1E8
100
AcDbEntity
  8
レイヤー_1
  6
CONTINUOUS
 62
       3
100
AcDbLine
 10
-84.39684424
 20
106.81691235
 30
0.0
 11
-84.67493697
 21
106.78917598
 31
0.0
  0
LINE
  5
1E9
100
AcDbEntity
  8
レイヤー_1
  6
CONTINUOUS
 62
       3
100
AcDbLine
 10
-84.67493697
 20
106.78917598
 30
0.0
 11
-84.94438698
 21
106.73498754
 31
0.0
  0
LINE
  5
1EA
100
AcDbEntity
  8
レイヤー_1
  6
CONTINUOUS
 62
       3
100
AcDbLine
 10
-84.94438698
 20
106.73498754
 30
0.0
 11
-85.20384737
 21
106.65568716
 31
0.0
  0
LINE
  5
1EB
100
AcDbEntity
  8
レイヤー_1
  6
CONTINUOUS
 62
       3
100
AcDbLine
 10
-85.20384737
 20
106.65568716
 30
0.0
 11
-85.45197126
 21
106.55261499
 31
0.0
  0
LINE
  5
1EC
100
AcDbEntity
  8
レイヤー_1
  6
CONTINUOUS
 62
       3
100
AcDbLine
 10
-85.45197126
 20
106.55261499
 30
0.0
 11
-85.68741177
 21
106.42711117
 31
0.0
  0
LINE
  5
1ED
100
AcDbEntity
  8
レイヤー_1
  6
CONTINUOUS
 62
       3
100
AcDbLine
 10
-85.68741177
 20
106.42711117
 30
0.0
 11
-85.90882201
 21
106.28051582
 31
0.0
  0
LINE
  5
1EE
100
AcDbEntity
  8
レイヤー_1
  6
CONTINUOUS
 62
       3
100
AcDbLine
 10
-85.90882201
 20
106.28051582
 30
0.0
 11
-86.11485511
 21
106.1141691
 31
0.0
  0
LINE
  5
1EF
100
AcDbEntity
  8
レイヤー_1
  6
CONTINUOUS
 62
       3
100
AcDbLine
 10
-86.11485511
 20
106.1141691
 30
0.0
 11
-86.30416419
 21
105.92941113
 31
0.0
  0
LINE
  5
1F0
100
AcDbEntity
  8
レイヤー_1
  6
CONTINUOUS
 62
       3
100
AcDbLine
 10
-86.30416419
 20
105.92941113
 30
0.0
 11
-86.47540235
 21
105.72758206
 31
0.0
  0
LINE
  5
1F1
100
AcDbEntity
  8
レイヤー_1
  6
CONTINUOUS
 62
       3
100
AcDbLine
 10
-86.47540235
 20
105.72758206
 30
0.0
 11
-86.62722272
 21
105.51002202
 31
0.0
  0
LINE
  5
1F2
100
AcDbEntity
  8
レイヤー_1
  6
CONTINUOUS
 62
       3
100
AcDbLine
 10
-86.62722272
 20
105.51002202
 30
0.0
 11
-86.75827842
 21
105.27807115
 31
0.0
  0
LINE
  5
1F3
100
AcDbEntity
  8
レイヤー_1
  6
CONTINUOUS
 62
       3
100
AcDbLine
 10
-86.75827842
 20
105.27807115
 30
0.0
 11
-86.86722257
 21
105.0330696
 31
0.0
  0
LINE
  5
1F4
100
AcDbEntity
  8
レイヤー_1
  6
CONTINUOUS
 62
       3
100
AcDbLine
 10
-86.86722257
 20
105.0330696
 30
0.0
 11
-86.95270828
 21
104.77635749
 31
0.0
  0
LINE
  5
1F5
100
AcDbEntity
  8
レイヤー_1
  6
CONTINUOUS
 62
       3
100
AcDbLine
 10
-86.95270828
 20
104.77635749
 30
0.0
 11
-87.01338866
 21
104.50927496
 31
0.0
  0
LINE
  5
1F6
100
AcDbEntity
  8
レイヤー_1
  6
CONTINUOUS
 62
       3
100
AcDbLine
 10
-87.01338866
 20
104.50927496
 30
0.0
 11
-87.04791685
 21
104.23316216
 31
0.0
  0
LINE
  5
1F7
100
AcDbEntity
  8
レイヤー_1
  6
CONTINUOUS
 62
       3
100
AcDbLine
 10
-87.04791685
 20
104.23316216
 30
0.0
 11
-87.05495296
 21
103.94977704
 31
0.0
  0
LINE
  5
1F8
100
AcDbEntity
  8
レイヤー_1
  6
CONTINUOUS
 62
       3
100
AcDbLine
 10
-87.05495296
 20
103.94977704
 30
0.0
 11
-87.03400596
 21
103.66965165
 31
0.0
  0
LINE
  5
1F9
100
AcDbEntity
  8
レイヤー_1
  6
CONTINUOUS
 62
       3
100
AcDbLine
 10
-87.03400596
 20
103.66965165
 30
0.0
 11
-86.9862333
 21
103.39788647
 31
0.0
  0
LINE
  5
1FA
100
AcDbEntity
  8
レイヤー_1
  6
CONTINUOUS
 62
       3
100
AcDbLine
 10
-86.9862333
 20
103.39788647
 30
0.0
 11
-86.91298191
 21
103.13582164
 31
0.0
  0
LINE
  5
1FB
100
AcDbEntity
  8
レイヤー_1
  6
CONTINUOUS
 62
       3
100
AcDbLine
 10
-86.91298191
 20
103.13582164
 30
0.0
 11
-86.81559861
 21
102.88479729
 31
0.0
  0
LINE
  5
1FC
100
AcDbEntity
  8
レイヤー_1
  6
CONTINUOUS
 62
       3
100
AcDbLine
 10
-86.81559861
 20
102.88479729
 30
0.0
 11
-86.69543034
 21
102.64615356
 31
0.0
  0
LINE
  5
1FD
100
AcDbEntity
  8
レイヤー_1
  6
CONTINUOUS
 62
       3
100
AcDbLine
 10
-86.69543034
 20
102.64615356
 30
0.0
 11
-86.55382394
 21
102.42123059
 31
0.0
  0
LINE
  5
1FE
100
AcDbEntity
  8
レイヤー_1
  6
CONTINUOUS
 62
       3
100
AcDbLine
 10
-86.55382394
 20
102.42123059
 30
0.0
 11
-86.39212631
 21
102.21136852
 31
0.0
  0
LINE
  5
1FF
100
AcDbEntity
  8
レイヤー_1
  6
CONTINUOUS
 62
       3
100
AcDbLine
 10
-86.39212631
 20
102.21136852
 30
0.0
 11
-86.21168433
 21
102.01790748
 31
0.0
  0
LINE
  5
200
100
AcDbEntity
  8
レイヤー_1
  6
CONTINUOUS
 62
       3
100
AcDbLine
 10
-86.21168433
 20
102.01790748
 30
0.0
 11
-86.01384489
 21
101.84218762
 31
0.0
  0
LINE
  5
201
100
AcDbEntity
  8
レイヤー_1
  6
CONTINUOUS
 62
       3
100
AcDbLine
 10
-86.01384489
 20
101.84218762
 30
0.0
 11
-85.79995485
 21
101.68554906
 31
0.0
  0
LINE
  5
202
100
AcDbEntity
  8
レイヤー_1
  6
CONTINUOUS
 62
       3
100
AcDbLine
 10
-85.79995485
 20
101.68554906
 30
0.0
 11
-85.57136111
 21
101.54933196
 31
0.0
  0
LINE
  5
203
100
AcDbEntity
  8
レイヤー_1
  6
CONTINUOUS
 62
       3
100
AcDbLine
 10
-85.57136111
 20
101.54933196
 30
0.0
 11
-85.32941055
 21
101.43487645
 31
0.0
  0
LINE
  5
204
100
AcDbEntity
  8
レイヤー_1
  6
CONTINUOUS
 62
       3
100
AcDbLine
 10
-85.32941055
 20
101.43487645
 30
0.0
 11
-85.07545006
 21
101.34352266
 31
0.0
  0
LINE
  5
205
100
AcDbEntity
  8
レイヤー_1
  6
CONTINUOUS
 62
       3
100
AcDbLine
 10
-85.07545006
 20
101.34352266
 30
0.0
 11
-84.8108265
 21
101.27661073
 31
0.0
  0
LINE
  5
206
100
AcDbEntity
  8
レイヤー_1
  6
CONTINUOUS
 62
       3
100
AcDbLine
 10
-84.8108265
 20
101.27661073
 30
0.0
 11
-84.53688677
 21
101.23548081
 31
0.0
  0
LINE
  5
207
100
AcDbEntity
  8
レイヤー_1
  6
CONTINUOUS
 62
       3
100
AcDbLine
 10
-84.53688677
 20
101.23548081
 30
0.0
 11
-84.25497774
 21
101.22147303
 31
0.0
  0
LINE
  5
208
100
AcDbEntity
  8
レイヤー_1
  6
CONTINUOUS
 62
       3
100
AcDbLine
 10
-151.77884925
 20
101.20838167
 30
0.0
 11
-151.49694023
 21
101.22239696
 31
0.0
  0
LINE
  5
209
100
AcDbEntity
  8
レイヤー_1
  6
CONTINUOUS
 62
       3
100
AcDbLine
 10
-151.49694023
 20
101.22239696
 30
0.0
 11
-151.22300049
 21
101.26354811
 31
0.0
  0
LINE
  5
20A
100
AcDbEntity
  8
レイヤー_1
  6
CONTINUOUS
 62
       3
100
AcDbLine
 10
-151.22300049
 20
101.26354811
 30
0.0
 11
-150.95837693
 21
101.33049308
 31
0.0
  0
LINE
  5
20B
100
AcDbEntity
  8
レイヤー_1
  6
CONTINUOUS
 62
       3
100
AcDbLine
 10
-150.95837693
 20
101.33049308
 30
0.0
 11
-150.70441643
 21
101.42188978
 31
0.0
  0
LINE
  5
20C
100
AcDbEntity
  8
レイヤー_1
  6
CONTINUOUS
 62
       3
100
AcDbLine
 10
-150.70441643
 20
101.42188978
 30
0.0
 11
-150.46246588
 21
101.53639615
 31
0.0
  0
LINE
  5
20D
100
AcDbEntity
  8
レイヤー_1
  6
CONTINUOUS
 62
       3
100
AcDbLine
 10
-150.46246588
 20
101.53639615
 30
0.0
 11
-150.23387214
 21
101.67267014
 31
0.0
  0
LINE
  5
20E
100
AcDbEntity
  8
レイヤー_1
  6
CONTINUOUS
 62
       3
100
AcDbLine
 10
-150.23387214
 20
101.67267014
 30
0.0
 11
-150.01998211
 21
101.82936967
 31
0.0
  0
LINE
  5
20F
100
AcDbEntity
  8
レイヤー_1
  6
CONTINUOUS
 62
       3
100
AcDbLine
 10
-150.01998211
 20
101.82936967
 30
0.0
 11
-149.82214265
 21
102.00515268
 31
0.0
  0
LINE
  5
210
100
AcDbEntity
  8
レイヤー_1
  6
CONTINUOUS
 62
       3
100
AcDbLine
 10
-149.82214265
 20
102.00515268
 30
0.0
 11
-149.64170067
 21
102.1986771
 31
0.0
  0
LINE
  5
211
100
AcDbEntity
  8
レイヤー_1
  6
CONTINUOUS
 62
       3
100
AcDbLine
 10
-149.64170067
 20
102.1986771
 30
0.0
 11
-149.48000304
 21
102.40860087
 31
0.0
  0
LINE
  5
212
100
AcDbEntity
  8
レイヤー_1
  6
CONTINUOUS
 62
       3
100
AcDbLine
 10
-149.48000304
 20
102.40860087
 30
0.0
 11
-149.33839664
 21
102.63358193
 31
0.0
  0
LINE
  5
213
100
AcDbEntity
  8
レイヤー_1
  6
CONTINUOUS
 62
       3
100
AcDbLine
 10
-149.33839664
 20
102.63358193
 30
0.0
 11
-149.21822837
 21
102.87227821
 31
0.0
  0
LINE
  5
214
100
AcDbEntity
  8
レイヤー_1
  6
CONTINUOUS
 62
       3
100
AcDbLine
 10
-149.21822837
 20
102.87227821
 30
0.0
 11
-149.12084508
 21
103.12334764
 31
0.0
  0
LINE
  5
215
100
AcDbEntity
  8
レイヤー_1
  6
CONTINUOUS
 62
       3
100
AcDbLine
 10
-149.12084508
 20
103.12334764
 30
0.0
 11
-149.04759368
 21
103.38544816
 31
0.0
  0
LINE
  5
216
100
AcDbEntity
  8
レイヤー_1
  6
CONTINUOUS
 62
       3
100
AcDbLine
 10
-149.04759368
 20
103.38544816
 30
0.0
 11
-148.99982103
 21
103.6572377
 31
0.0
  0
LINE
  5
217
100
AcDbEntity
  8
レイヤー_1
  6
CONTINUOUS
 62
       3
100
AcDbLine
 10
-148.99982103
 20
103.6572377
 30
0.0
 11
-148.97887402
 21
103.93737421
 31
0.0
  0
LINE
  5
218
100
AcDbEntity
  8
レイヤー_1
  6
CONTINUOUS
 62
       3
100
AcDbLine
 10
-148.97887402
 20
103.93737421
 30
0.0
 11
-148.98591014
 21
104.22049942
 31
0.0
  0
LINE
  5
219
100
AcDbEntity
  8
レイヤー_1
  6
CONTINUOUS
 62
       3
100
AcDbLine
 10
-148.98591014
 20
104.22049942
 30
0.0
 11
-149.02043832
 21
104.49634089
 31
0.0
  0
LINE
  5
21A
100
AcDbEntity
  8
レイヤー_1
  6
CONTINUOUS
 62
       3
100
AcDbLine
 10
-149.02043832
 20
104.49634089
 30
0.0
 11
-149.08111872
 21
104.76323085
 31
0.0
  0
LINE
  5
21B
100
AcDbEntity
  8
レイヤー_1
  6
CONTINUOUS
 62
       3
100
AcDbLine
 10
-149.08111872
 20
104.76323085
 30
0.0
 11
-149.16660441
 21
105.01982048
 31
0.0
  0
LINE
  5
21C
100
AcDbEntity
  8
レイヤー_1
  6
CONTINUOUS
 62
       3
100
AcDbLine
 10
-149.16660441
 20
105.01982048
 30
0.0
 11
-149.27554857
 21
105.26476098
 31
0.0
  0
LINE
  5
21D
100
AcDbEntity
  8
レイヤー_1
  6
CONTINUOUS
 62
       3
100
AcDbLine
 10
-149.27554857
 20
105.26476098
 30
0.0
 11
-149.40660427
 21
105.49670354
 31
0.0
  0
LINE
  5
21E
100
AcDbEntity
  8
レイヤー_1
  6
CONTINUOUS
 62
       3
100
AcDbLine
 10
-149.40660427
 20
105.49670354
 30
0.0
 11
-149.55842463
 21
105.71429935
 31
0.0
  0
LINE
  5
21F
100
AcDbEntity
  8
レイヤー_1
  6
CONTINUOUS
 62
       3
100
AcDbLine
 10
-149.55842463
 20
105.71429935
 30
0.0
 11
-149.72966281
 21
105.91619959
 31
0.0
  0
LINE
  5
220
100
AcDbEntity
  8
レイヤー_1
  6
CONTINUOUS
 62
       3
100
AcDbLine
 10
-149.72966281
 20
105.91619959
 30
0.0
 11
-149.91897188
 21
106.10105547
 31
0.0
  0
LINE
  5
221
100
AcDbEntity
  8
レイヤー_1
  6
CONTINUOUS
 62
       3
100
AcDbLine
 10
-149.91897188
 20
106.10105547
 30
0.0
 11
-150.12500498
 21
106.26751817
 31
0.0
  0
LINE
  5
222
100
AcDbEntity
  8
レイヤー_1
  6
CONTINUOUS
 62
       3
100
AcDbLine
 10
-150.12500498
 20
106.26751817
 30
0.0
 11
-150.34641522
 21
106.41423888
 31
0.0
  0
LINE
  5
223
100
AcDbEntity
  8
レイヤー_1
  6
CONTINUOUS
 62
       3
100
AcDbLine
 10
-150.34641522
 20
106.41423888
 30
0.0
 11
-150.58185574
 21
106.53986879
 31
0.0
  0
LINE
  5
224
100
AcDbEntity
  8
レイヤー_1
  6
CONTINUOUS
 62
       3
100
AcDbLine
 10
-150.58185574
 20
106.53986879
 30
0.0
 11
-150.82997963
 21
106.6430591
 31
0.0
  0
LINE
  5
225
100
AcDbEntity
  8
レイヤー_1
  6
CONTINUOUS
 62
       3
100
AcDbLine
 10
-150.82997963
 20
106.6430591
 30
0.0
 11
-151.08944001
 21
106.722461
 31
0.0
  0
LINE
  5
226
100
AcDbEntity
  8
レイヤー_1
  6
CONTINUOUS
 62
       3
100
AcDbLine
 10
-151.08944001
 20
106.722461
 30
0.0
 11
-151.35889001
 21
106.77672567
 31
0.0
  0
LINE
  5
227
100
AcDbEntity
  8
レイヤー_1
  6
CONTINUOUS
 62
       3
100
AcDbLine
 10
-151.35889001
 20
106.77672567
 30
0.0
 11
-151.63698276
 21
106.80450431
 31
0.0
  0
LINE
  5
228
100
AcDbEntity
  8
レイヤー_1
  6
CONTINUOUS
 62
       3
100
AcDbLine
 10
-151.63698276
 20
106.80450431
 30
0.0
 11
-151.92065408
 21
106.80450431
 31
0.0
  0
LINE
  5
229
100
AcDbEntity
  8
レイヤー_1
  6
CONTINUOUS
 62
       3
100
AcDbLine
 10
-151.92065408
 20
106.80450431
 30
0.0
 11
-152.19863474
 21
106.77672567
 31
0.0
  0
LINE
  5
22A
100
AcDbEntity
  8
レイヤー_1
  6
CONTINUOUS
 62
       3
100
AcDbLine
 10
-152.19863474
 20
106.77672567
 30
0.0
 11
-152.4679869
 21
106.722461
 31
0.0
  0
LINE
  5
22B
100
AcDbEntity
  8
レイヤー_1
  6
CONTINUOUS
 62
       3
100
AcDbLine
 10
-152.4679869
 20
106.722461
 30
0.0
 11
-152.72736266
 21
106.6430591
 31
0.0
  0
LINE
  5
22C
100
AcDbEntity
  8
レイヤー_1
  6
CONTINUOUS
 62
       3
100
AcDbLine
 10
-152.72736266
 20
106.6430591
 30
0.0
 11
-152.97541423
 21
106.53986879
 31
0.0
  0
LINE
  5
22D
100
AcDbEntity
  8
レイヤー_1
  6
CONTINUOUS
 62
       3
100
AcDbLine
 10
-152.97541423
 20
106.53986879
 30
0.0
 11
-153.21079373
 21
106.41423888
 31
0.0
  0
LINE
  5
22E
100
AcDbEntity
  8
レイヤー_1
  6
CONTINUOUS
 62
       3
100
AcDbLine
 10
-153.21079373
 20
106.41423888
 30
0.0
 11
-153.43215333
 21
106.26751817
 31
0.0
  0
LINE
  5
22F
100
AcDbEntity
  8
レイヤー_1
  6
CONTINUOUS
 62
       3
100
AcDbLine
 10
-153.43215333
 20
106.26751817
 30
0.0
 11
-153.63814517
 21
106.10105547
 31
0.0
  0
LINE
  5
230
100
AcDbEntity
  8
レイヤー_1
  6
CONTINUOUS
 62
       3
100
AcDbLine
 10
-153.63814517
 20
106.10105547
 30
0.0
 11
-153.82742142
 21
105.91619959
 31
0.0
  0
LINE
  5
231
100
AcDbEntity
  8
レイヤー_1
  6
CONTINUOUS
 62
       3
100
AcDbLine
 10
-153.82742142
 20
105.91619959
 30
0.0
 11
-153.99863422
 21
105.71429935
 31
0.0
  0
LINE
  5
232
100
AcDbEntity
  8
レイヤー_1
  6
CONTINUOUS
 62
       3
100
AcDbLine
 10
-153.99863422
 20
105.71429935
 30
0.0
 11
-154.15043574
 21
105.49670354
 31
0.0
  0
LINE
  5
233
100
AcDbEntity
  8
レイヤー_1
  6
CONTINUOUS
 62
       3
100
AcDbLine
 10
-154.15043574
 20
105.49670354
 30
0.0
 11
-154.28147812
 21
105.26476098
 31
0.0
  0
LINE
  5
234
100
AcDbEntity
  8
レイヤー_1
  6
CONTINUOUS
 62
       3
100
AcDbLine
 10
-154.28147812
 20
105.26476098
 30
0.0
 11
-154.39041352
 21
105.01982048
 31
0.0
  0
LINE
  5
235
100
AcDbEntity
  8
レイヤー_1
  6
CONTINUOUS
 62
       3
100
AcDbLine
 10
-154.39041352
 20
105.01982048
 30
0.0
 11
-154.47589411
 21
104.76323085
 31
0.0
  0
LINE
  5
236
100
AcDbEntity
  8
レイヤー_1
  6
CONTINUOUS
 62
       3
100
AcDbLine
 10
-154.47589411
 20
104.76323085
 30
0.0
 11
-154.536572
 21
104.49634089
 31
0.0
  0
LINE
  5
237
100
AcDbEntity
  8
レイヤー_1
  6
CONTINUOUS
 62
       3
100
AcDbLine
 10
-154.536572
 20
104.49634089
 30
0.0
 11
-154.5710994
 21
104.22049942
 31
0.0
  0
LINE
  5
238
100
AcDbEntity
  8
レイヤー_1
  6
CONTINUOUS
 62
       3
100
AcDbLine
 10
-154.5710994
 20
104.22049942
 30
0.0
 11
-154.57813545
 21
103.93737421
 31
0.0
  0
LINE
  5
239
100
AcDbEntity
  8
レイヤー_1
  6
CONTINUOUS
 62
       3
100
AcDbLine
 10
-154.57813545
 20
103.93737421
 30
0.0
 11
-154.55718876
 21
103.6572377
 31
0.0
  0
LINE
  5
23A
100
AcDbEntity
  8
レイヤー_1
  6
CONTINUOUS
 62
       3
100
AcDbLine
 10
-154.55718876
 20
103.6572377
 30
0.0
 11
-154.50941763
 21
103.38544816
 31
0.0
  0
LINE
  5
23B
100
AcDbEntity
  8
レイヤー_1
  6
CONTINUOUS
 62
       3
100
AcDbLine
 10
-154.50941763
 20
103.38544816
 30
0.0
 11
-154.4361699
 21
103.12334764
 31
0.0
  0
LINE
  5
23C
100
AcDbEntity
  8
レイヤー_1
  6
CONTINUOUS
 62
       3
100
AcDbLine
 10
-154.4361699
 20
103.12334764
 30
0.0
 11
-154.33879344
 21
102.87227821
 31
0.0
  0
LINE
  5
23D
100
AcDbEntity
  8
レイヤー_1
  6
CONTINUOUS
 62
       3
100
AcDbLine
 10
-154.33879344
 20
102.87227821
 30
0.0
 11
-154.21863607
 21
102.63358193
 31
0.0
  0
LINE
  5
23E
100
AcDbEntity
  8
レイヤー_1
  6
CONTINUOUS
 62
       3
100
AcDbLine
 10
-154.21863607
 20
102.63358193
 30
0.0
 11
-154.07704563
 21
102.40860087
 31
0.0
  0
LINE
  5
23F
100
AcDbEntity
  8
レイヤー_1
  6
CONTINUOUS
 62
       3
100
AcDbLine
 10
-154.07704563
 20
102.40860087
 30
0.0
 11
-153.91536998
 21
102.1986771
 31
0.0
  0
LINE
  5
240
100
AcDbEntity
  8
レイヤー_1
  6
CONTINUOUS
 62
       3
100
AcDbLine
 10
-153.91536998
 20
102.1986771
 30
0.0
 11
-153.73495699
 21
102.00515268
 31
0.0
  0
LINE
  5
241
100
AcDbEntity
  8
レイヤー_1
  6
CONTINUOUS
 62
       3
100
AcDbLine
 10
-153.73495699
 20
102.00515268
 30
0.0
 11
-153.53715446
 21
101.82936967
 31
0.0
  0
LINE
  5
242
100
AcDbEntity
  8
レイヤー_1
  6
CONTINUOUS
 62
       3
100
AcDbLine
 10
-153.53715446
 20
101.82936967
 30
0.0
 11
-153.32331026
 21
101.67267014
 31
0.0
  0
LINE
  5
243
100
AcDbEntity
  8
レイヤー_1
  6
CONTINUOUS
 62
       3
100
AcDbLine
 10
-153.32331026
 20
101.67267014
 30
0.0
 11
-153.09477222
 21
101.53639615
 31
0.0
  0
LINE
  5
244
100
AcDbEntity
  8
レイヤー_1
  6
CONTINUOUS
 62
       3
100
AcDbLine
 10
-153.09477222
 20
101.53639615
 30
0.0
 11
-152.85288822
 21
101.42188978
 31
0.0
  0
LINE
  5
245
100
AcDbEntity
  8
レイヤー_1
  6
CONTINUOUS
 62
       3
100
AcDbLine
 10
-152.85288822
 20
101.42188978
 30
0.0
 11
-152.59900607
 21
101.33049308
 31
0.0
  0
LINE
  5
246
100
AcDbEntity
  8
レイヤー_1
  6
CONTINUOUS
 62
       3
100
AcDbLine
 10
-152.59900607
 20
101.33049308
 30
0.0
 11
-152.33447362
 21
101.26354811
 31
0.0
  0
LINE
  5
247
100
AcDbEntity
  8
レイヤー_1
  6
CONTINUOUS
 62
       3
100
AcDbLine
 10
-152.33447362
 20
101.26354811
 30
0.0
 11
-152.06063874
 21
101.22239696
 31
0.0
  0
LINE
  5
248
100
AcDbEntity
  8
レイヤー_1
  6
CONTINUOUS
 62
       3
100
AcDbLine
 10
-152.06063874
 20
101.22239696
 30
0.0
 11
-151.77884925
 21
101.20838167
 31
0.0
  0
LINE
  5
249
100
AcDbEntity
  8
レイヤー_1
  6
CONTINUOUS
 62
       3
100
AcDbLine
 10
59.01207409
 20
106.79977164
 30
0.0
 11
59.00117427
 21
106.79977164
 31
0.0
  0
LINE
  5
24A
100
AcDbEntity
  8
レイヤー_1
  6
CONTINUOUS
 62
       3
100
AcDbLine
 10
59.00117427
 20
106.79977164
 30
0.0
 11
58.97034001
 21
106.79977164
 31
0.0
  0
LINE
  5
24B
100
AcDbEntity
  8
レイヤー_1
  6
CONTINUOUS
 62
       3
100
AcDbLine
 10
58.97034001
 20
106.79977164
 30
0.0
 11
58.92236914
 21
106.79977164
 31
0.0
  0
LINE
  5
24C
100
AcDbEntity
  8
レイヤー_1
  6
CONTINUOUS
 62
       3
100
AcDbLine
 10
58.92236914
 20
106.79977164
 30
0.0
 11
58.86005946
 21
106.79977164
 31
0.0
  0
LINE
  5
24D
100
AcDbEntity
  8
レイヤー_1
  6
CONTINUOUS
 62
       3
100
AcDbLine
 10
58.86005946
 20
106.79977164
 30
0.0
 11
58.78620881
 21
106.79977164
 31
0.0
  0
LINE
  5
24E
100
AcDbEntity
  8
レイヤー_1
  6
CONTINUOUS
 62
       3
100
AcDbLine
 10
58.78620881
 20
106.79977164
 30
0.0
 11
58.70361497
 21
106.79977164
 31
0.0
  0
LINE
  5
24F
100
AcDbEntity
  8
レイヤー_1
  6
CONTINUOUS
 62
       3
100
AcDbLine
 10
58.70361497
 20
106.79977164
 30
0.0
 11
58.61507577
 21
106.79977164
 31
0.0
  0
LINE
  5
250
100
AcDbEntity
  8
レイヤー_1
  6
CONTINUOUS
 62
       3
100
AcDbLine
 10
58.61507577
 20
106.79977164
 30
0.0
 11
58.52338903
 21
106.79977164
 31
0.0
  0
LINE
  5
251
100
AcDbEntity
  8
レイヤー_1
  6
CONTINUOUS
 62
       3
100
AcDbLine
 10
58.52338903
 20
106.79977164
 30
0.0
 11
58.43135257
 21
106.79977164
 31
0.0
  0
LINE
  5
252
100
AcDbEntity
  8
レイヤー_1
  6
CONTINUOUS
 62
       3
100
AcDbLine
 10
58.43135257
 20
106.79977164
 30
0.0
 11
58.3417642
 21
106.79977164
 31
0.0
  0
LINE
  5
253
100
AcDbEntity
  8
レイヤー_1
  6
CONTINUOUS
 62
       3
100
AcDbLine
 10
58.3417642
 20
106.79977164
 30
0.0
 11
58.25742173
 21
106.79977164
 31
0.0
  0
LINE
  5
254
100
AcDbEntity
  8
レイヤー_1
  6
CONTINUOUS
 62
       3
100
AcDbLine
 10
58.25742173
 20
106.79977164
 30
0.0
 11
58.18112297
 21
106.79977164
 31
0.0
  0
LINE
  5
255
100
AcDbEntity
  8
レイヤー_1
  6
CONTINUOUS
 62
       3
100
AcDbLine
 10
58.18112297
 20
106.79977164
 30
0.0
 11
58.11566576
 21
106.79977164
 31
0.0
  0
LINE
  5
256
100
AcDbEntity
  8
レイヤー_1
  6
CONTINUOUS
 62
       3
100
AcDbLine
 10
58.11566576
 20
106.79977164
 30
0.0
 11
58.06384789
 21
106.79977164
 31
0.0
  0
LINE
  5
257
100
AcDbEntity
  8
レイヤー_1
  6
CONTINUOUS
 62
       3
100
AcDbLine
 10
58.06384789
 20
106.79977164
 30
0.0
 11
58.02846718
 21
106.79977164
 31
0.0
  0
LINE
  5
258
100
AcDbEntity
  8
レイヤー_1
  6
CONTINUOUS
 62
       3
100
AcDbLine
 10
58.02846718
 20
106.79977164
 30
0.0
 11
58.01232146
 21
106.79977164
 31
0.0
  0
LINE
  5
259
100
AcDbEntity
  8
レイヤー_1
  6
CONTINUOUS
 62
       3
100
AcDbLine
 10
58.01232146
 20
106.79977164
 30
0.0
 11
57.80569307
 21
106.79184818
 31
0.0
  0
LINE
  5
25A
100
AcDbEntity
  8
レイヤー_1
  6
CONTINUOUS
 62
       3
100
AcDbLine
 10
57.80569307
 20
106.79184818
 30
0.0
 11
57.55576567
 21
106.75732079
 31
0.0
  0
LINE
  5
25B
100
AcDbEntity
  8
レイヤー_1
  6
CONTINUOUS
 62
       3
100
AcDbLine
 10
57.55576567
 20
106.75732079
 30
0.0
 11
57.33266609
 21
106.69664288
 31
0.0
  0
LINE
  5
25C
100
AcDbEntity
  8
レイヤー_1
  6
CONTINUOUS
 62
       3
100
AcDbLine
 10
57.33266609
 20
106.69664288
 30
0.0
 11
57.13494145
 21
106.6111623
 31
0.0
  0
LINE
  5
25D
100
AcDbEntity
  8
レイヤー_1
  6
CONTINUOUS
 62
       3
100
AcDbLine
 10
57.13494145
 20
106.6111623
 30
0.0
 11
56.9611389
 21
106.5022269
 31
0.0
  0
LINE
  5
25E
100
AcDbEntity
  8
レイヤー_1
  6
CONTINUOUS
 62
       3
100
AcDbLine
 10
56.9611389
 20
106.5022269
 30
0.0
 11
56.80980558
 21
106.37118452
 31
0.0
  0
LINE
  5
25F
100
AcDbEntity
  8
レイヤー_1
  6
CONTINUOUS
 62
       3
100
AcDbLine
 10
56.80980558
 20
106.37118452
 30
0.0
 11
56.67948864
 21
106.219383
 31
0.0
  0
LINE
  5
260
100
AcDbEntity
  8
レイヤー_1
  6
CONTINUOUS
 62
       3
100
AcDbLine
 10
56.67948864
 20
106.219383
 30
0.0
 11
56.5687352
 21
106.0481702
 31
0.0
  0
LINE
  5
261
100
AcDbEntity
  8
レイヤー_1
  6
CONTINUOUS
 62
       3
100
AcDbLine
 10
56.5687352
 20
106.0481702
 30
0.0
 11
56.47609242
 21
105.85889395
 31
0.0
  0
LINE
  5
262
100
AcDbEntity
  8
レイヤー_1
  6
CONTINUOUS
 62
       3
100
AcDbLine
 10
56.47609242
 20
105.85889395
 30
0.0
 11
56.40010743
 21
105.65290211
 31
0.0
  0
LINE
  5
263
100
AcDbEntity
  8
レイヤー_1
  6
CONTINUOUS
 62
       3
100
AcDbLine
 10
56.40010743
 20
105.65290211
 30
0.0
 11
56.33932736
 21
105.43154251
 31
0.0
  0
LINE
  5
264
100
AcDbEntity
  8
レイヤー_1
  6
CONTINUOUS
 62
       3
100
AcDbLine
 10
56.33932736
 20
105.43154251
 30
0.0
 11
56.29229937
 21
105.19616301
 31
0.0
  0
LINE
  5
265
100
AcDbEntity
  8
レイヤー_1
  6
CONTINUOUS
 62
       3
100
AcDbLine
 10
56.29229937
 20
105.19616301
 30
0.0
 11
56.25757059
 21
104.94811145
 31
0.0
  0
LINE
  5
266
100
AcDbEntity
  8
レイヤー_1
  6
CONTINUOUS
 62
       3
100
AcDbLine
 10
56.25757059
 20
104.94811145
 30
0.0
 11
56.23368816
 21
104.68873567
 31
0.0
  0
LINE
  5
267
100
AcDbEntity
  8
レイヤー_1
  6
CONTINUOUS
 62
       3
100
AcDbLine
 10
56.23368816
 20
104.68873567
 30
0.0
 11
56.21919922
 21
104.41938353
 31
0.0
  0
LINE
  5
268
100
AcDbEntity
  8
レイヤー_1
  6
CONTINUOUS
 62
       3
100
AcDbLine
 10
56.21919922
 20
104.41938353
 30
0.0
 11
56.21265091
 21
104.14140286
 31
0.0
  0
LINE
  5
269
100
AcDbEntity
  8
レイヤー_1
  6
CONTINUOUS
 62
       3
100
AcDbLine
 10
56.21265091
 20
104.14140286
 30
0.0
 11
56.21265091
 21
103.85773537
 31
0.0
  0
LINE
  5
26A
100
AcDbEntity
  8
レイヤー_1
  6
CONTINUOUS
 62
       3
100
AcDbLine
 10
56.21265091
 20
103.85773537
 30
0.0
 11
56.21919922
 21
103.57967185
 31
0.0
  0
LINE
  5
26B
100
AcDbEntity
  8
レイヤー_1
  6
CONTINUOUS
 62
       3
100
AcDbLine
 10
56.21919922
 20
103.57967185
 30
0.0
 11
56.23368816
 21
103.3102766
 31
0.0
  0
LINE
  5
26C
100
AcDbEntity
  8
レイヤー_1
  6
CONTINUOUS
 62
       3
100
AcDbLine
 10
56.23368816
 20
103.3102766
 30
0.0
 11
56.25757059
 21
103.05089265
 31
0.0
  0
LINE
  5
26D
100
AcDbEntity
  8
レイヤー_1
  6
CONTINUOUS
 62
       3
100
AcDbLine
 10
56.25757059
 20
103.05089265
 30
0.0
 11
56.29229937
 21
102.80286301
 31
0.0
  0
LINE
  5
26E
100
AcDbEntity
  8
レイヤー_1
  6
CONTINUOUS
 62
       3
100
AcDbLine
 10
56.29229937
 20
102.80286301
 30
0.0
 11
56.33932736
 21
102.56753073
 31
0.0
  0
LINE
  5
26F
100
AcDbEntity
  8
レイヤー_1
  6
CONTINUOUS
 62
       3
100
AcDbLine
 10
56.33932736
 20
102.56753073
 30
0.0
 11
56.40010743
 21
102.34623883
 31
0.0
  0
LINE
  5
270
100
AcDbEntity
  8
レイヤー_1
  6
CONTINUOUS
 62
       3
100
AcDbLine
 10
56.40010743
 20
102.34623883
 30
0.0
 11
56.47609242
 21
102.14033033
 31
0.0
  0
LINE
  5
271
100
AcDbEntity
  8
レイヤー_1
  6
CONTINUOUS
 62
       3
100
AcDbLine
 10
56.47609242
 20
102.14033033
 30
0.0
 11
56.5687352
 21
101.95114827
 31
0.0
  0
LINE
  5
272
100
AcDbEntity
  8
レイヤー_1
  6
CONTINUOUS
 62
       3
100
AcDbLine
 10
56.5687352
 20
101.95114827
 30
0.0
 11
56.67948864
 21
101.78003567
 31
0.0
  0
LINE
  5
273
100
AcDbEntity
  8
レイヤー_1
  6
CONTINUOUS
 62
       3
100
AcDbLine
 10
56.67948864
 20
101.78003567
 30
0.0
 11
56.80980558
 21
101.62833557
 31
0.0
  0
LINE
  5
274
100
AcDbEntity
  8
レイヤー_1
  6
CONTINUOUS
 62
       3
100
AcDbLine
 10
56.80980558
 20
101.62833557
 30
0.0
 11
56.9611389
 21
101.49739098
 31
0.0
  0
LINE
  5
275
100
AcDbEntity
  8
レイヤー_1
  6
CONTINUOUS
 62
       3
100
AcDbLine
 10
56.9611389
 20
101.49739098
 30
0.0
 11
57.13494145
 21
101.38854495
 31
0.0
  0
LINE
  5
276
100
AcDbEntity
  8
レイヤー_1
  6
CONTINUOUS
 62
       3
100
AcDbLine
 10
57.13494145
 20
101.38854495
 30
0.0
 11
57.33266609
 21
101.30314049
 31
0.0
  0
LINE
  5
277
100
AcDbEntity
  8
レイヤー_1
  6
CONTINUOUS
 62
       3
100
AcDbLine
 10
57.33266609
 20
101.30314049
 30
0.0
 11
57.55576567
 21
101.24252064
 31
0.0
  0
LINE
  5
278
100
AcDbEntity
  8
レイヤー_1
  6
CONTINUOUS
 62
       3
100
AcDbLine
 10
57.55576567
 20
101.24252064
 30
0.0
 11
57.80569307
 21
101.20802842
 31
0.0
  0
LINE
  5
279
100
AcDbEntity
  8
レイヤー_1
  6
CONTINUOUS
 62
       3
100
AcDbLine
 10
57.80569307
 20
101.20802842
 30
0.0
 11
58.01232146
 21
101.20011344
 31
0.0
  0
LINE
  5
27A
100
AcDbEntity
  8
レイヤー_1
  6
CONTINUOUS
 62
       3
100
AcDbLine
 10
58.01232146
 20
101.20011344
 30
0.0
 11
58.02846718
 21
101.20011344
 31
0.0
  0
LINE
  5
27B
100
AcDbEntity
  8
レイヤー_1
  6
CONTINUOUS
 62
       3
100
AcDbLine
 10
58.02846718
 20
101.20011344
 30
0.0
 11
58.06384789
 21
101.20011344
 31
0.0
  0
LINE
  5
27C
100
AcDbEntity
  8
レイヤー_1
  6
CONTINUOUS
 62
       3
100
AcDbLine
 10
58.06384789
 20
101.20011344
 30
0.0
 11
58.11566576
 21
101.20011344
 31
0.0
  0
LINE
  5
27D
100
AcDbEntity
  8
レイヤー_1
  6
CONTINUOUS
 62
       3
100
AcDbLine
 10
58.11566576
 20
101.20011344
 30
0.0
 11
58.18112297
 21
101.20011344
 31
0.0
  0
LINE
  5
27E
100
AcDbEntity
  8
レイヤー_1
  6
CONTINUOUS
 62
       3
100
AcDbLine
 10
58.18112297
 20
101.20011344
 30
0.0
 11
58.25742173
 21
101.20011344
 31
0.0
  0
LINE
  5
27F
100
AcDbEntity
  8
レイヤー_1
  6
CONTINUOUS
 62
       3
100
AcDbLine
 10
58.25742173
 20
101.20011344
 30
0.0
 11
58.3417642
 21
101.20011344
 31
0.0
  0
LINE
  5
280
100
AcDbEntity
  8
レイヤー_1
  6
CONTINUOUS
 62
       3
100
AcDbLine
 10
58.3417642
 20
101.20011344
 30
0.0
 11
58.43135257
 21
101.20011344
 31
0.0
  0
LINE
  5
281
100
AcDbEntity
  8
レイヤー_1
  6
CONTINUOUS
 62
       3
100
AcDbLine
 10
58.43135257
 20
101.20011344
 30
0.0
 11
58.52338903
 21
101.20011344
 31
0.0
  0
LINE
  5
282
100
AcDbEntity
  8
レイヤー_1
  6
CONTINUOUS
 62
       3
100
AcDbLine
 10
58.52338903
 20
101.20011344
 30
0.0
 11
58.61507577
 21
101.20011344
 31
0.0
  0
LINE
  5
283
100
AcDbEntity
  8
レイヤー_1
  6
CONTINUOUS
 62
       3
100
AcDbLine
 10
58.61507577
 20
101.20011344
 30
0.0
 11
58.70361497
 21
101.20011344
 31
0.0
  0
LINE
  5
284
100
AcDbEntity
  8
レイヤー_1
  6
CONTINUOUS
 62
       3
100
AcDbLine
 10
58.70361497
 20
101.20011344
 30
0.0
 11
58.78620881
 21
101.20011344
 31
0.0
  0
LINE
  5
285
100
AcDbEntity
  8
レイヤー_1
  6
CONTINUOUS
 62
       3
100
AcDbLine
 10
58.78620881
 20
101.20011344
 30
0.0
 11
58.86005946
 21
101.20011344
 31
0.0
  0
LINE
  5
286
100
AcDbEntity
  8
レイヤー_1
  6
CONTINUOUS
 62
       3
100
AcDbLine
 10
58.86005946
 20
101.20011344
 30
0.0
 11
58.92236914
 21
101.20011344
 31
0.0
  0
LINE
  5
287
100
AcDbEntity
  8
レイヤー_1
  6
CONTINUOUS
 62
       3
100
AcDbLine
 10
58.92236914
 20
101.20011344
 30
0.0
 11
58.97034001
 21
101.20011344
 31
0.0
  0
LINE
  5
288
100
AcDbEntity
  8
レイヤー_1
  6
CONTINUOUS
 62
       3
100
AcDbLine
 10
58.97034001
 20
101.20011344
 30
0.0
 11
59.00117427
 21
101.20011344
 31
0.0
  0
LINE
  5
289
100
AcDbEntity
  8
レイヤー_1
  6
CONTINUOUS
 62
       3
100
AcDbLine
 10
59.00117427
 20
101.20011344
 30
0.0
 11
59.01207409
 21
101.20011344
 31
0.0
  0
LINE
  5
28A
100
AcDbEntity
  8
レイヤー_1
  6
CONTINUOUS
 62
       3
100
AcDbLine
 10
-118.00864527
 20
22.72014926
 30
0.0
 11
-118.23402304
 21
22.70892384
 31
0.0
  0
LINE
  5
28B
100
AcDbEntity
  8
レイヤー_1
  6
CONTINUOUS
 62
       3
100
AcDbLine
 10
-118.23402304
 20
22.70892384
 30
0.0
 11
-118.45303202
 21
22.67596694
 31
0.0
  0
LINE
  5
28C
100
AcDbEntity
  8
レイヤー_1
  6
CONTINUOUS
 62
       3
100
AcDbLine
 10
-118.45303202
 20
22.67596694
 30
0.0
 11
-118.6645951
 21
22.6223576
 31
0.0
  0
LINE
  5
28D
100
AcDbEntity
  8
レイヤー_1
  6
CONTINUOUS
 62
       3
100
AcDbLine
 10
-118.6645951
 20
22.6223576
 30
0.0
 11
-118.86763515
 21
22.54917488
 31
0.0
  0
LINE
  5
28E
100
AcDbEntity
  8
レイヤー_1
  6
CONTINUOUS
 62
       3
100
AcDbLine
 10
-118.86763515
 20
22.54917488
 30
0.0
 11
-119.06107505
 21
22.45749782
 31
0.0
  0
LINE
  5
28F
100
AcDbEntity
  8
レイヤー_1
  6
CONTINUOUS
 62
       3
100
AcDbLine
 10
-119.06107505
 20
22.45749782
 30
0.0
 11
-119.24383769
 21
22.34840547
 31
0.0
  0
LINE
  5
290
100
AcDbEntity
  8
レイヤー_1
  6
CONTINUOUS
 62
       3
100
AcDbLine
 10
-119.24383769
 20
22.34840547
 30
0.0
 11
-119.41484593
 21
22.22297687
 31
0.0
  0
LINE
  5
291
100
AcDbEntity
  8
レイヤー_1
  6
CONTINUOUS
 62
       3
100
AcDbLine
 10
-119.41484593
 20
22.22297687
 30
0.0
 11
-119.57302267
 21
22.08229107
 31
0.0
  0
LINE
  5
292
100
AcDbEntity
  8
レイヤー_1
  6
CONTINUOUS
 62
       3
100
AcDbLine
 10
-119.57302267
 20
22.08229107
 30
0.0
 11
-119.71729077
 21
21.92742713
 31
0.0
  0
LINE
  5
293
100
AcDbEntity
  8
レイヤー_1
  6
CONTINUOUS
 62
       3
100
AcDbLine
 10
-119.71729077
 20
21.92742713
 30
0.0
 11
-119.84657313
 21
21.75946408
 31
0.0
  0
LINE
  5
294
100
AcDbEntity
  8
レイヤー_1
  6
CONTINUOUS
 62
       3
100
AcDbLine
 10
-119.84657313
 20
21.75946408
 30
0.0
 11
-119.95979262
 21
21.57948098
 31
0.0
  0
LINE
  5
295
100
AcDbEntity
  8
レイヤー_1
  6
CONTINUOUS
 62
       3
100
AcDbLine
 10
-119.95979262
 20
21.57948098
 30
0.0
 11
-120.05587212
 21
21.38855687
 31
0.0
  0
LINE
  5
296
100
AcDbEntity
  8
レイヤー_1
  6
CONTINUOUS
 62
       3
100
AcDbLine
 10
-120.05587212
 20
21.38855687
 30
0.0
 11
-120.1337345
 21
21.18777079
 31
0.0
  0
LINE
  5
297
100
AcDbEntity
  8
レイヤー_1
  6
CONTINUOUS
 62
       3
100
AcDbLine
 10
-120.1337345
 20
21.18777079
 30
0.0
 11
-120.19230266
 21
20.9782018
 31
0.0
  0
LINE
  5
298
100
AcDbEntity
  8
レイヤー_1
  6
CONTINUOUS
 62
       3
100
AcDbLine
 10
-120.19230266
 20
20.9782018
 30
0.0
 11
-120.23049946
 21
20.76092895
 31
0.0
  0
LINE
  5
299
100
AcDbEntity
  8
レイヤー_1
  6
CONTINUOUS
 62
       3
100
AcDbLine
 10
-120.23049946
 20
20.76092895
 30
0.0
 11
-120.2472478
 21
20.53703128
 31
0.0
  0
LINE
  5
29A
100
AcDbEntity
  8
レイヤー_1
  6
CONTINUOUS
 62
       3
100
AcDbLine
 10
-120.2472478
 20
20.53703128
 30
0.0
 11
-120.24162201
 21
20.31038625
 31
0.0
  0
LINE
  5
29B
100
AcDbEntity
  8
レイヤー_1
  6
CONTINUOUS
 62
       3
100
AcDbLine
 10
-120.24162201
 20
20.31038625
 30
0.0
 11
-120.2140148
 21
20.08950321
 31
0.0
  0
LINE
  5
29C
100
AcDbEntity
  8
レイヤー_1
  6
CONTINUOUS
 62
       3
100
AcDbLine
 10
-120.2140148
 20
20.08950321
 30
0.0
 11
-120.16549768
 21
19.87584929
 31
0.0
  0
LINE
  5
29D
100
AcDbEntity
  8
レイヤー_1
  6
CONTINUOUS
 62
       3
100
AcDbLine
 10
-120.16549768
 20
19.87584929
 30
0.0
 11
-120.09714777
 21
19.67049586
 31
0.0
  0
LINE
  5
29E
100
AcDbEntity
  8
レイヤー_1
  6
CONTINUOUS
 62
       3
100
AcDbLine
 10
-120.09714777
 20
19.67049586
 30
0.0
 11
-120.01004219
 21
19.47451423
 31
0.0
  0
LINE
  5
29F
100
AcDbEntity
  8
レイヤー_1
  6
CONTINUOUS
 62
       3
100
AcDbLine
 10
-120.01004219
 20
19.47451423
 30
0.0
 11
-119.90525805
 21
19.28897576
 31
0.0
  0
LINE
  5
2A0
100
AcDbEntity
  8
レイヤー_1
  6
CONTINUOUS
 62
       3
100
AcDbLine
 10
-119.90525805
 20
19.28897576
 30
0.0
 11
-119.78387249
 21
19.11495179
 31
0.0
  0
LINE
  5
2A1
100
AcDbEntity
  8
レイヤー_1
  6
CONTINUOUS
 62
       3
100
AcDbLine
 10
-119.78387249
 20
19.11495179
 30
0.0
 11
-119.64696262
 21
18.95351364
 31
0.0
  0
LINE
  5
2A2
100
AcDbEntity
  8
レイヤー_1
  6
CONTINUOUS
 62
       3
100
AcDbLine
 10
-119.64696262
 20
18.95351364
 30
0.0
 11
-119.49560556
 21
18.80573267
 31
0.0
  0
LINE
  5
2A3
100
AcDbEntity
  8
レイヤー_1
  6
CONTINUOUS
 62
       3
100
AcDbLine
 10
-119.49560556
 20
18.80573267
 30
0.0
 11
-119.33087843
 21
18.67268021
 31
0.0
  0
LINE
  5
2A4
100
AcDbEntity
  8
レイヤー_1
  6
CONTINUOUS
 62
       3
100
AcDbLine
 10
-119.33087843
 20
18.67268021
 30
0.0
 11
-119.15385835
 21
18.5554276
 31
0.0
  0
LINE
  5
2A5
100
AcDbEntity
  8
レイヤー_1
  6
CONTINUOUS
 62
       3
100
AcDbLine
 10
-119.15385835
 20
18.5554276
 30
0.0
 11
-118.96562244
 21
18.45504619
 31
0.0
  0
LINE
  5
2A6
100
AcDbEntity
  8
レイヤー_1
  6
CONTINUOUS
 62
       3
100
AcDbLine
 10
-118.96562244
 20
18.45504619
 30
0.0
 11
-118.76724782
 21
18.3726073
 31
0.0
  0
LINE
  5
2A7
100
AcDbEntity
  8
レイヤー_1
  6
CONTINUOUS
 62
       3
100
AcDbLine
 10
-118.76724782
 20
18.3726073
 30
0.0
 11
-118.55981162
 21
18.30918229
 31
0.0
  0
LINE
  5
2A8
100
AcDbEntity
  8
レイヤー_1
  6
CONTINUOUS
 62
       3
100
AcDbLine
 10
-118.55981162
 20
18.30918229
 30
0.0
 11
-118.34439095
 21
18.26584249
 31
0.0
  0
LINE
  5
2A9
100
AcDbEntity
  8
レイヤー_1
  6
CONTINUOUS
 62
       3
100
AcDbLine
 10
-118.34439095
 20
18.26584249
 30
0.0
 11
-118.12206293
 21
18.24365924
 31
0.0
  0
LINE
  5
2AA
100
AcDbEntity
  8
レイヤー_1
  6
CONTINUOUS
 62
       3
100
AcDbLine
 10
-118.12206293
 20
18.24365924
 30
0.0
 11
-117.89510236
 21
18.24365924
 31
0.0
  0
LINE
  5
2AB
100
AcDbEntity
  8
レイヤー_1
  6
CONTINUOUS
 62
       3
100
AcDbLine
 10
-117.89510236
 20
18.24365924
 30
0.0
 11
-117.67253559
 21
18.26584249
 31
0.0
  0
LINE
  5
2AC
100
AcDbEntity
  8
レイヤー_1
  6
CONTINUOUS
 62
       3
100
AcDbLine
 10
-117.67253559
 20
18.26584249
 30
0.0
 11
-117.45689182
 21
18.30918229
 31
0.0
  0
LINE
  5
2AD
100
AcDbEntity
  8
レイヤー_1
  6
CONTINUOUS
 62
       3
100
AcDbLine
 10
-117.45689182
 20
18.30918229
 30
0.0
 11
-117.24924818
 21
18.3726073
 31
0.0
  0
LINE
  5
2AE
100
AcDbEntity
  8
レイヤー_1
  6
CONTINUOUS
 62
       3
100
AcDbLine
 10
-117.24924818
 20
18.3726073
 30
0.0
 11
-117.05068178
 21
18.45504619
 31
0.0
  0
LINE
  5
2AF
100
AcDbEntity
  8
レイヤー_1
  6
CONTINUOUS
 62
       3
100
AcDbLine
 10
-117.05068178
 20
18.45504619
 30
0.0
 11
-116.86226974
 21
18.5554276
 31
0.0
  0
LINE
  5
2B0
100
AcDbEntity
  8
レイヤー_1
  6
CONTINUOUS
 62
       3
100
AcDbLine
 10
-116.86226974
 20
18.5554276
 30
0.0
 11
-116.68508919
 21
18.67268021
 31
0.0
  0
LINE
  5
2B1
100
AcDbEntity
  8
レイヤー_1
  6
CONTINUOUS
 62
       3
100
AcDbLine
 10
-116.68508919
 20
18.67268021
 30
0.0
 11
-116.52021724
 21
18.80573267
 31
0.0
  0
LINE
  5
2B2
100
AcDbEntity
  8
レイヤー_1
  6
CONTINUOUS
 62
       3
100
AcDbLine
 10
-116.52021724
 20
18.80573267
 30
0.0
 11
-116.36873102
 21
18.95351364
 31
0.0
  0
LINE
  5
2B3
100
AcDbEntity
  8
レイヤー_1
  6
CONTINUOUS
 62
       3
100
AcDbLine
 10
-116.36873102
 20
18.95351364
 30
0.0
 11
-116.23170765
 21
19.11495179
 31
0.0
  0
LINE
  5
2B4
100
AcDbEntity
  8
レイヤー_1
  6
CONTINUOUS
 62
       3
100
AcDbLine
 10
-116.23170765
 20
19.11495179
 30
0.0
 11
-116.11022423
 21
19.28897576
 31
0.0
  0
LINE
  5
2B5
100
AcDbEntity
  8
レイヤー_1
  6
CONTINUOUS
 62
       3
100
AcDbLine
 10
-116.11022423
 20
19.28897576
 30
0.0
 11
-116.00535791
 21
19.47451423
 31
0.0
  0
LINE
  5
2B6
100
AcDbEntity
  8
レイヤー_1
  6
CONTINUOUS
 62
       3
100
AcDbLine
 10
-116.00535791
 20
19.47451423
 30
0.0
 11
-115.91818579
 21
19.67049586
 31
0.0
  0
LINE
  5
2B7
100
AcDbEntity
  8
レイヤー_1
  6
CONTINUOUS
 62
       3
100
AcDbLine
 10
-115.91818579
 20
19.67049586
 30
0.0
 11
-115.849785
 21
19.87584929
 31
0.0
  0
LINE
  5
2B8
100
AcDbEntity
  8
レイヤー_1
  6
CONTINUOUS
 62
       3
100
AcDbLine
 10
-115.849785
 20
19.87584929
 30
0.0
 11
-115.80123265
 21
20.08950321
 31
0.0
  0
LINE
  5
2B9
100
AcDbEntity
  8
レイヤー_1
  6
CONTINUOUS
 62
       3
100
AcDbLine
 10
-115.80123265
 20
20.08950321
 30
0.0
 11
-115.77360587
 21
20.31038625
 31
0.0
  0
LINE
  5
2BA
100
AcDbEntity
  8
レイヤー_1
  6
CONTINUOUS
 62
       3
100
AcDbLine
 10
-115.77360587
 20
20.31038625
 30
0.0
 11
-115.76797617
 21
20.53703128
 31
0.0
  0
LINE
  5
2BB
100
AcDbEntity
  8
レイヤー_1
  6
CONTINUOUS
 62
       3
100
AcDbLine
 10
-115.76797617
 20
20.53703128
 30
0.0
 11
-115.78473624
 21
20.76092895
 31
0.0
  0
LINE
  5
2BC
100
AcDbEntity
  8
レイヤー_1
  6
CONTINUOUS
 62
       3
100
AcDbLine
 10
-115.78473624
 20
20.76092895
 30
0.0
 11
-115.82296045
 21
20.9782018
 31
0.0
  0
LINE
  5
2BD
100
AcDbEntity
  8
レイヤー_1
  6
CONTINUOUS
 62
       3
100
AcDbLine
 10
-115.82296045
 20
20.9782018
 30
0.0
 11
-115.88157166
 21
21.18777079
 31
0.0
  0
LINE
  5
2BE
100
AcDbEntity
  8
レイヤー_1
  6
CONTINUOUS
 62
       3
100
AcDbLine
 10
-115.88157166
 20
21.18777079
 30
0.0
 11
-115.95949275
 21
21.38855687
 31
0.0
  0
LINE
  5
2BF
100
AcDbEntity
  8
レイヤー_1
  6
CONTINUOUS
 62
       3
100
AcDbLine
 10
-115.95949275
 20
21.38855687
 30
0.0
 11
-116.05564662
 21
21.57948098
 31
0.0
  0
LINE
  5
2C0
100
AcDbEntity
  8
レイヤー_1
  6
CONTINUOUS
 62
       3
100
AcDbLine
 10
-116.05564662
 20
21.57948098
 30
0.0
 11
-116.16895612
 21
21.75946408
 31
0.0
  0
LINE
  5
2C1
100
AcDbEntity
  8
レイヤー_1
  6
CONTINUOUS
 62
       3
100
AcDbLine
 10
-116.16895612
 20
21.75946408
 30
0.0
 11
-116.29834416
 21
21.92742713
 31
0.0
  0
LINE
  5
2C2
100
AcDbEntity
  8
レイヤー_1
  6
CONTINUOUS
 62
       3
100
AcDbLine
 10
-116.29834416
 20
21.92742713
 30
0.0
 11
-116.4427336
 21
22.08229107
 31
0.0
  0
LINE
  5
2C3
100
AcDbEntity
  8
レイヤー_1
  6
CONTINUOUS
 62
       3
100
AcDbLine
 10
-116.4427336
 20
22.08229107
 30
0.0
 11
-116.60104732
 21
22.22297687
 31
0.0
  0
LINE
  5
2C4
100
AcDbEntity
  8
レイヤー_1
  6
CONTINUOUS
 62
       3
100
AcDbLine
 10
-116.60104732
 20
22.22297687
 30
0.0
 11
-116.77220821
 21
22.34840547
 31
0.0
  0
LINE
  5
2C5
100
AcDbEntity
  8
レイヤー_1
  6
CONTINUOUS
 62
       3
100
AcDbLine
 10
-116.77220821
 20
22.34840547
 30
0.0
 11
-116.95513914
 21
22.45749782
 31
0.0
  0
LINE
  5
2C6
100
AcDbEntity
  8
レイヤー_1
  6
CONTINUOUS
 62
       3
100
AcDbLine
 10
-116.95513914
 20
22.45749782
 30
0.0
 11
-117.148763
 21
22.54917488
 31
0.0
  0
LINE
  5
2C7
100
AcDbEntity
  8
レイヤー_1
  6
CONTINUOUS
 62
       3
100
AcDbLine
 10
-117.148763
 20
22.54917488
 30
0.0
 11
-117.35200266
 21
22.6223576
 31
0.0
  0
LINE
  5
2C8
100
AcDbEntity
  8
レイヤー_1
  6
CONTINUOUS
 62
       3
100
AcDbLine
 10
-117.35200266
 20
22.6223576
 30
0.0
 11
-117.56378101
 21
22.67596694
 31
0.0
  0
LINE
  5
2C9
100
AcDbEntity
  8
レイヤー_1
  6
CONTINUOUS
 62
       3
100
AcDbLine
 10
-117.56378101
 20
22.67596694
 30
0.0
 11
-117.78302092
 21
22.70892384
 31
0.0
  0
LINE
  5
2CA
100
AcDbEntity
  8
レイヤー_1
  6
CONTINUOUS
 62
       3
100
AcDbLine
 10
-117.78302092
 20
22.70892384
 30
0.0
 11
-118.00864527
 21
22.72014926
 31
0.0
  0
LINE
  5
2CB
100
AcDbEntity
  8
レイヤー_1
  6
CONTINUOUS
 62
       3
100
AcDbLine
 10
-104.00846623
 20
-38.51366691
 30
0.0
 11
-103.75694128
 21
-38.5011543
 31
0.0
  0
LINE
  5
2CC
100
AcDbEntity
  8
レイヤー_1
  6
CONTINUOUS
 62
       3
100
AcDbLine
 10
-103.75694128
 20
-38.5011543
 30
0.0
 11
-103.51249348
 21
-38.46441611
 31
0.0
  0
LINE
  5
2CD
100
AcDbEntity
  8
レイヤー_1
  6
CONTINUOUS
 62
       3
100
AcDbLine
 10
-103.51249348
 20
-38.46441611
 30
0.0
 11
-103.27632905
 21
-38.40465183
 31
0.0
  0
LINE
  5
2CE
100
AcDbEntity
  8
レイヤー_1
  6
CONTINUOUS
 62
       3
100
AcDbLine
 10
-103.27632905
 20
-38.40465183
 30
0.0
 11
-103.04965421
 21
-38.32306093
 31
0.0
  0
LINE
  5
2CF
100
AcDbEntity
  8
レイヤー_1
  6
CONTINUOUS
 62
       3
100
AcDbLine
 10
-103.04965421
 20
-38.32306093
 30
0.0
 11
-102.83367519
 21
-38.22084289
 31
0.0
  0
LINE
  5
2D0
100
AcDbEntity
  8
レイヤー_1
  6
CONTINUOUS
 62
       3
100
AcDbLine
 10
-102.83367519
 20
-38.22084289
 30
0.0
 11
-102.6295982
 21
-38.09919718
 31
0.0
  0
LINE
  5
2D1
100
AcDbEntity
  8
レイヤー_1
  6
CONTINUOUS
 62
       3
100
AcDbLine
 10
-102.6295982
 20
-38.09919718
 30
0.0
 11
-102.43862947
 21
-37.95932328
 31
0.0
  0
LINE
  5
2D2
100
AcDbEntity
  8
レイヤー_1
  6
CONTINUOUS
 62
       3
100
AcDbLine
 10
-102.43862947
 20
-37.95932328
 30
0.0
 11
-102.26197522
 21
-37.80242067
 31
0.0
  0
LINE
  5
2D3
100
AcDbEntity
  8
レイヤー_1
  6
CONTINUOUS
 62
       3
100
AcDbLine
 10
-102.26197522
 20
-37.80242067
 30
0.0
 11
-102.10084166
 21
-37.62968882
 31
0.0
  0
LINE
  5
2D4
100
AcDbEntity
  8
レイヤー_1
  6
CONTINUOUS
 62
       3
100
AcDbLine
 10
-102.10084166
 20
-37.62968882
 30
0.0
 11
-101.95643502
 21
-37.4423272
 31
0.0
  0
LINE
  5
2D5
100
AcDbEntity
  8
レイヤー_1
  6
CONTINUOUS
 62
       3
100
AcDbLine
 10
-101.95643502
 20
-37.4423272
 30
0.0
 11
-101.82996151
 21
-37.24153531
 31
0.0
  0
LINE
  5
2D6
100
AcDbEntity
  8
レイヤー_1
  6
CONTINUOUS
 62
       3
100
AcDbLine
 10
-101.82996151
 20
-37.24153531
 30
0.0
 11
-101.72262737
 21
-37.02851261
 31
0.0
  0
LINE
  5
2D7
100
AcDbEntity
  8
レイヤー_1
  6
CONTINUOUS
 62
       3
100
AcDbLine
 10
-101.72262737
 20
-37.02851261
 30
0.0
 11
-101.6356388
 21
-36.80445858
 31
0.0
  0
LINE
  5
2D8
100
AcDbEntity
  8
レイヤー_1
  6
CONTINUOUS
 62
       3
100
AcDbLine
 10
-101.6356388
 20
-36.80445858
 30
0.0
 11
-101.57020204
 21
-36.57057269
 31
0.0
  0
LINE
  5
2D9
100
AcDbEntity
  8
レイヤー_1
  6
CONTINUOUS
 62
       3
100
AcDbLine
 10
-101.57020204
 20
-36.57057269
 30
0.0
 11
-101.52752329
 21
-36.32805443
 31
0.0
  0
LINE
  5
2DA
100
AcDbEntity
  8
レイヤー_1
  6
CONTINUOUS
 62
       3
100
AcDbLine
 10
-101.52752329
 20
-36.32805443
 30
0.0
 11
-101.50880879
 21
-36.07810326
 31
0.0
  0
LINE
  5
2DB
100
AcDbEntity
  8
レイヤー_1
  6
CONTINUOUS
 62
       3
100
AcDbLine
 10
-101.50880879
 20
-36.07810326
 30
0.0
 11
-101.51509512
 21
-35.8252563
 31
0.0
  0
LINE
  5
2DC
100
AcDbEntity
  8
レイヤー_1
  6
CONTINUOUS
 62
       3
100
AcDbLine
 10
-101.51509512
 20
-35.8252563
 30
0.0
 11
-101.54594253
 21
-35.57887165
 31
0.0
  0
LINE
  5
2DD
100
AcDbEntity
  8
レイヤー_1
  6
CONTINUOUS
 62
       3
100
AcDbLine
 10
-101.54594253
 20
-35.57887165
 30
0.0
 11
-101.60015106
 21
-35.34051964
 31
0.0
  0
LINE
  5
2DE
100
AcDbEntity
  8
レイヤー_1
  6
CONTINUOUS
 62
       3
100
AcDbLine
 10
-101.60015106
 20
-35.34051964
 30
0.0
 11
-101.6765145
 21
-35.11139975
 31
0.0
  0
LINE
  5
2DF
100
AcDbEntity
  8
レイヤー_1
  6
CONTINUOUS
 62
       3
100
AcDbLine
 10
-101.6765145
 20
-35.11139975
 30
0.0
 11
-101.77382663
 21
-34.89271145
 31
0.0
  0
LINE
  5
2E0
100
AcDbEntity
  8
レイヤー_1
  6
CONTINUOUS
 62
       3
100
AcDbLine
 10
-101.77382663
 20
-34.89271145
 30
0.0
 11
-101.89088123
 21
-34.68565421
 31
0.0
  0
LINE
  5
2E1
100
AcDbEntity
  8
レイヤー_1
  6
CONTINUOUS
 62
       3
100
AcDbLine
 10
-101.89088123
 20
-34.68565421
 30
0.0
 11
-102.02647208
 21
-34.49142753
 31
0.0
  0
LINE
  5
2E2
100
AcDbEntity
  8
レイヤー_1
  6
CONTINUOUS
 62
       3
100
AcDbLine
 10
-102.02647208
 20
-34.49142753
 30
0.0
 11
-102.17939296
 21
-34.31123086
 31
0.0
  0
LINE
  5
2E3
100
AcDbEntity
  8
レイヤー_1
  6
CONTINUOUS
 62
       3
100
AcDbLine
 10
-102.17939296
 20
-34.31123086
 30
0.0
 11
-102.34843764
 21
-34.1462637
 31
0.0
  0
LINE
  5
2E4
100
AcDbEntity
  8
レイヤー_1
  6
CONTINUOUS
 62
       3
100
AcDbLine
 10
-102.34843764
 20
-34.1462637
 30
0.0
 11
-102.53239992
 21
-33.99772551
 31
0.0
  0
LINE
  5
2E5
100
AcDbEntity
  8
レイヤー_1
  6
CONTINUOUS
 62
       3
100
AcDbLine
 10
-102.53239992
 20
-33.99772551
 30
0.0
 11
-102.73007355
 21
-33.86681577
 31
0.0
  0
LINE
  5
2E6
100
AcDbEntity
  8
レイヤー_1
  6
CONTINUOUS
 62
       3
100
AcDbLine
 10
-102.73007355
 20
-33.86681577
 30
0.0
 11
-102.94025233
 21
-33.75473395
 31
0.0
  0
LINE
  5
2E7
100
AcDbEntity
  8
レイヤー_1
  6
CONTINUOUS
 62
       3
100
AcDbLine
 10
-102.94025233
 20
-33.75473395
 30
0.0
 11
-103.16173004
 21
-33.66267955
 31
0.0
  0
LINE
  5
2E8
100
AcDbEntity
  8
レイヤー_1
  6
CONTINUOUS
 62
       3
100
AcDbLine
 10
-103.16173004
 20
-33.66267955
 30
0.0
 11
-103.39330045
 21
-33.59185202
 31
0.0
  0
LINE
  5
2E9
100
AcDbEntity
  8
レイヤー_1
  6
CONTINUOUS
 62
       3
100
AcDbLine
 10
-103.39330045
 20
-33.59185202
 30
0.0
 11
-103.63375734
 21
-33.54345086
 31
0.0
  0
LINE
  5
2EA
100
AcDbEntity
  8
レイヤー_1
  6
CONTINUOUS
 62
       3
100
AcDbLine
 10
-103.63375734
 20
-33.54345086
 30
0.0
 11
-103.8818945
 21
-33.51867552
 31
0.0
  0
LINE
  5
2EB
100
AcDbEntity
  8
レイヤー_1
  6
CONTINUOUS
 62
       3
100
AcDbLine
 10
-103.8818945
 20
-33.51867552
 30
0.0
 11
-104.13509963
 21
-33.51867552
 31
0.0
  0
LINE
  5
2EC
100
AcDbEntity
  8
レイヤー_1
  6
CONTINUOUS
 62
       3
100
AcDbLine
 10
-104.13509963
 20
-33.51867552
 30
0.0
 11
-104.38334886
 21
-33.54345086
 31
0.0
  0
LINE
  5
2ED
100
AcDbEntity
  8
レイヤー_1
  6
CONTINUOUS
 62
       3
100
AcDbLine
 10
-104.38334886
 20
-33.54345086
 30
0.0
 11
-104.62390361
 21
-33.59185202
 31
0.0
  0
LINE
  5
2EE
100
AcDbEntity
  8
レイヤー_1
  6
CONTINUOUS
 62
       3
100
AcDbLine
 10
-104.62390361
 20
-33.59185202
 30
0.0
 11
-104.85555863
 21
-33.66267955
 31
0.0
  0
LINE
  5
2EF
100
AcDbEntity
  8
レイヤー_1
  6
CONTINUOUS
 62
       3
100
AcDbLine
 10
-104.85555863
 20
-33.66267955
 30
0.0
 11
-105.07710867
 21
-33.75473395
 31
0.0
  0
LINE
  5
2F0
100
AcDbEntity
  8
レイヤー_1
  6
CONTINUOUS
 62
       3
100
AcDbLine
 10
-105.07710867
 20
-33.75473395
 30
0.0
 11
-105.28734846
 21
-33.86681577
 31
0.0
  0
LINE
  5
2F1
100
AcDbEntity
  8
レイヤー_1
  6
CONTINUOUS
 62
       3
100
AcDbLine
 10
-105.28734846
 20
-33.86681577
 30
0.0
 11
-105.48507274
 21
-33.99772551
 31
0.0
  0
LINE
  5
2F2
100
AcDbEntity
  8
レイヤー_1
  6
CONTINUOUS
 62
       3
100
AcDbLine
 10
-105.48507274
 20
-33.99772551
 30
0.0
 11
-105.66907627
 21
-34.1462637
 31
0.0
  0
LINE
  5
2F3
100
AcDbEntity
  8
レイヤー_1
  6
CONTINUOUS
 62
       3
100
AcDbLine
 10
-105.66907627
 20
-34.1462637
 30
0.0
 11
-105.83815378
 21
-34.31123086
 31
0.0
  0
LINE
  5
2F4
100
AcDbEntity
  8
レイヤー_1
  6
CONTINUOUS
 62
       3
100
AcDbLine
 10
-105.83815378
 20
-34.31123086
 30
0.0
 11
-105.99110002
 21
-34.49142753
 31
0.0
  0
LINE
  5
2F5
100
AcDbEntity
  8
レイヤー_1
  6
CONTINUOUS
 62
       3
100
AcDbLine
 10
-105.99110002
 20
-34.49142753
 30
0.0
 11
-106.12670973
 21
-34.68565421
 31
0.0
  0
LINE
  5
2F6
100
AcDbEntity
  8
レイヤー_1
  6
CONTINUOUS
 62
       3
100
AcDbLine
 10
-106.12670973
 20
-34.68565421
 30
0.0
 11
-106.24377765
 21
-34.89271145
 31
0.0
  0
LINE
  5
2F7
100
AcDbEntity
  8
レイヤー_1
  6
CONTINUOUS
 62
       3
100
AcDbLine
 10
-106.24377765
 20
-34.89271145
 30
0.0
 11
-106.34109852
 21
-35.11139975
 31
0.0
  0
LINE
  5
2F8
100
AcDbEntity
  8
レイヤー_1
  6
CONTINUOUS
 62
       3
100
AcDbLine
 10
-106.34109852
 20
-35.11139975
 30
0.0
 11
-106.41746709
 21
-35.34051964
 31
0.0
  0
LINE
  5
2F9
100
AcDbEntity
  8
レイヤー_1
  6
CONTINUOUS
 62
       3
100
AcDbLine
 10
-106.41746709
 20
-35.34051964
 30
0.0
 11
-106.4716781
 21
-35.57887165
 31
0.0
  0
LINE
  5
2FA
100
AcDbEntity
  8
レイヤー_1
  6
CONTINUOUS
 62
       3
100
AcDbLine
 10
-106.4716781
 20
-35.57887165
 30
0.0
 11
-106.5025263
 21
-35.8252563
 31
0.0
  0
LINE
  5
2FB
100
AcDbEntity
  8
レイヤー_1
  6
CONTINUOUS
 62
       3
100
AcDbLine
 10
-106.5025263
 20
-35.8252563
 30
0.0
 11
-106.50881269
 21
-36.07810326
 31
0.0
  0
LINE
  5
2FC
100
AcDbEntity
  8
レイヤー_1
  6
CONTINUOUS
 62
       3
100
AcDbLine
 10
-106.50881269
 20
-36.07810326
 30
0.0
 11
-106.49009788
 21
-36.32805443
 31
0.0
  0
LINE
  5
2FD
100
AcDbEntity
  8
レイヤー_1
  6
CONTINUOUS
 62
       3
100
AcDbLine
 10
-106.49009788
 20
-36.32805443
 30
0.0
 11
-106.44741762
 21
-36.57057269
 31
0.0
  0
LINE
  5
2FE
100
AcDbEntity
  8
レイヤー_1
  6
CONTINUOUS
 62
       3
100
AcDbLine
 10
-106.44741762
 20
-36.57057269
 30
0.0
 11
-106.38197717
 21
-36.80445858
 31
0.0
  0
LINE
  5
2FF
100
AcDbEntity
  8
レイヤー_1
  6
CONTINUOUS
 62
       3
100
AcDbLine
 10
-106.38197717
 20
-36.80445858
 30
0.0
 11
-106.29498179
 21
-37.02851261
 31
0.0
  0
LINE
  5
300
100
AcDbEntity
  8
レイヤー_1
  6
CONTINUOUS
 62
       3
100
AcDbLine
 10
-106.29498179
 20
-37.02851261
 30
0.0
 11
-106.18763674
 21
-37.24153531
 31
0.0
  0
LINE
  5
301
100
AcDbEntity
  8
レイヤー_1
  6
CONTINUOUS
 62
       3
100
AcDbLine
 10
-106.18763674
 20
-37.24153531
 30
0.0
 11
-106.06114727
 21
-37.4423272
 31
0.0
  0
LINE
  5
302
100
AcDbEntity
  8
レイヤー_1
  6
CONTINUOUS
 62
       3
100
AcDbLine
 10
-106.06114727
 20
-37.4423272
 30
0.0
 11
-105.91671864
 21
-37.62968882
 31
0.0
  0
LINE
  5
303
100
AcDbEntity
  8
レイヤー_1
  6
CONTINUOUS
 62
       3
100
AcDbLine
 10
-105.91671864
 20
-37.62968882
 30
0.0
 11
-105.75555611
 21
-37.80242067
 31
0.0
  0
LINE
  5
304
100
AcDbEntity
  8
レイヤー_1
  6
CONTINUOUS
 62
       3
100
AcDbLine
 10
-105.75555611
 20
-37.80242067
 30
0.0
 11
-105.57886493
 21
-37.95932328
 31
0.0
  0
LINE
  5
305
100
AcDbEntity
  8
レイヤー_1
  6
CONTINUOUS
 62
       3
100
AcDbLine
 10
-105.57886493
 20
-37.95932328
 30
0.0
 11
-105.38785037
 21
-38.09919718
 31
0.0
  0
LINE
  5
306
100
AcDbEntity
  8
レイヤー_1
  6
CONTINUOUS
 62
       3
100
AcDbLine
 10
-105.38785037
 20
-38.09919718
 30
0.0
 11
-105.18371767
 21
-38.22084289
 31
0.0
  0
LINE
  5
307
100
AcDbEntity
  8
レイヤー_1
  6
CONTINUOUS
 62
       3
100
AcDbLine
 10
-105.18371767
 20
-38.22084289
 30
0.0
 11
-104.9676721
 21
-38.32306093
 31
0.0
  0
LINE
  5
308
100
AcDbEntity
  8
レイヤー_1
  6
CONTINUOUS
 62
       3
100
AcDbLine
 10
-104.9676721
 20
-38.32306093
 30
0.0
 11
-104.74091892
 21
-38.40465183
 31
0.0
  0
LINE
  5
309
100
AcDbEntity
  8
レイヤー_1
  6
CONTINUOUS
 62
       3
100
AcDbLine
 10
-104.74091892
 20
-38.40465183
 30
0.0
 11
-104.50466337
 21
-38.46441611
 31
0.0
  0
LINE
  5
30A
100
AcDbEntity
  8
レイヤー_1
  6
CONTINUOUS
 62
       3
100
AcDbLine
 10
-104.50466337
 20
-38.46441611
 30
0.0
 11
-104.26011073
 21
-38.5011543
 31
0.0
  0
LINE
  5
30B
100
AcDbEntity
  8
レイヤー_1
  6
CONTINUOUS
 62
       3
100
AcDbLine
 10
-104.26011073
 20
-38.5011543
 30
0.0
 11
-104.00846623
 21
-38.51366691
 31
0.0
  0
LINE
  5
30C
100
AcDbEntity
  8
レイヤー_1
  6
CONTINUOUS
 62
       3
100
AcDbLine
 10
-104.00846623
 20
-46.01226174
 30
0.0
 11
-103.75694128
 21
-45.99974929
 31
0.0
  0
LINE
  5
30D
100
AcDbEntity
  8
レイヤー_1
  6
CONTINUOUS
 62
       3
100
AcDbLine
 10
-103.75694128
 20
-45.99974929
 30
0.0
 11
-103.51249348
 21
-45.96301223
 31
0.0
  0
LINE
  5
30E
100
AcDbEntity
  8
レイヤー_1
  6
CONTINUOUS
 62
       3
100
AcDbLine
 10
-103.51249348
 20
-45.96301223
 30
0.0
 11
-103.27632905
 21
-45.903251
 31
0.0
  0
LINE
  5
30F
100
AcDbEntity
  8
レイヤー_1
  6
CONTINUOUS
 62
       3
100
AcDbLine
 10
-103.27632905
 20
-45.903251
 30
0.0
 11
-103.04965421
 21
-45.82166604
 31
0.0
  0
LINE
  5
310
100
AcDbEntity
  8
レイヤー_1
  6
CONTINUOUS
 62
       3
100
AcDbLine
 10
-103.04965421
 20
-45.82166604
 30
0.0
 11
-102.83367519
 21
-45.71945779
 31
0.0
  0
LINE
  5
311
100
AcDbEntity
  8
レイヤー_1
  6
CONTINUOUS
 62
       3
100
AcDbLine
 10
-102.83367519
 20
-45.71945779
 30
0.0
 11
-102.6295982
 21
-45.5978267
 31
0.0
  0
LINE
  5
312
100
AcDbEntity
  8
レイヤー_1
  6
CONTINUOUS
 62
       3
100
AcDbLine
 10
-102.6295982
 20
-45.5978267
 30
0.0
 11
-102.43862947
 21
-45.45797319
 31
0.0
  0
LINE
  5
313
100
AcDbEntity
  8
レイヤー_1
  6
CONTINUOUS
 62
       3
100
AcDbLine
 10
-102.43862947
 20
-45.45797319
 30
0.0
 11
-102.26197522
 21
-45.30109771
 31
0.0
  0
LINE
  5
314
100
AcDbEntity
  8
レイヤー_1
  6
CONTINUOUS
 62
       3
100
AcDbLine
 10
-102.26197522
 20
-45.30109771
 30
0.0
 11
-102.10084166
 21
-45.12840071
 31
0.0
  0
LINE
  5
315
100
AcDbEntity
  8
レイヤー_1
  6
CONTINUOUS
 62
       3
100
AcDbLine
 10
-102.10084166
 20
-45.12840071
 30
0.0
 11
-101.95643502
 21
-44.94108261
 31
0.0
  0
LINE
  5
316
100
AcDbEntity
  8
レイヤー_1
  6
CONTINUOUS
 62
       3
100
AcDbLine
 10
-101.95643502
 20
-44.94108261
 30
0.0
 11
-101.82996151
 21
-44.74034387
 31
0.0
  0
LINE
  5
317
100
AcDbEntity
  8
レイヤー_1
  6
CONTINUOUS
 62
       3
100
AcDbLine
 10
-101.82996151
 20
-44.74034387
 30
0.0
 11
-101.72262737
 21
-44.52738491
 31
0.0
  0
LINE
  5
318
100
AcDbEntity
  8
レイヤー_1
  6
CONTINUOUS
 62
       3
100
AcDbLine
 10
-101.72262737
 20
-44.52738491
 30
0.0
 11
-101.6356388
 21
-44.30340619
 31
0.0
  0
LINE
  5
319
100
AcDbEntity
  8
レイヤー_1
  6
CONTINUOUS
 62
       3
100
AcDbLine
 10
-101.6356388
 20
-44.30340619
 30
0.0
 11
-101.57020204
 21
-44.06960814
 31
0.0
  0
LINE
  5
31A
100
AcDbEntity
  8
レイヤー_1
  6
CONTINUOUS
 62
       3
100
AcDbLine
 10
-101.57020204
 20
-44.06960814
 30
0.0
 11
-101.52752329
 21
-43.82719119
 31
0.0
  0
LINE
  5
31B
100
AcDbEntity
  8
レイヤー_1
  6
CONTINUOUS
 62
       3
100
AcDbLine
 10
-101.52752329
 20
-43.82719119
 30
0.0
 11
-101.50880879
 21
-43.5773558
 31
0.0
  0
LINE
  5
31C
100
AcDbEntity
  8
レイヤー_1
  6
CONTINUOUS
 62
       3
100
AcDbLine
 10
-101.50880879
 20
-43.5773558
 30
0.0
 11
-101.51509512
 21
-43.32444908
 31
0.0
  0
LINE
  5
31D
100
AcDbEntity
  8
レイヤー_1
  6
CONTINUOUS
 62
       3
100
AcDbLine
 10
-101.51509512
 20
-43.32444908
 30
0.0
 11
-101.54594253
 21
-43.07795601
 31
0.0
  0
LINE
  5
31E
100
AcDbEntity
  8
レイヤー_1
  6
CONTINUOUS
 62
       3
100
AcDbLine
 10
-101.54594253
 20
-43.07795601
 30
0.0
 11
-101.60015106
 21
-42.83950954
 31
0.0
  0
LINE
  5
31F
100
AcDbEntity
  8
レイヤー_1
  6
CONTINUOUS
 62
       3
100
AcDbLine
 10
-101.60015106
 20
-42.83950954
 30
0.0
 11
-101.6765145
 21
-42.6103082
 31
0.0
  0
LINE
  5
320
100
AcDbEntity
  8
レイヤー_1
  6
CONTINUOUS
 62
       3
100
AcDbLine
 10
-101.6765145
 20
-42.6103082
 30
0.0
 11
-101.77382663
 21
-42.39155049
 31
0.0
  0
LINE
  5
321
100
AcDbEntity
  8
レイヤー_1
  6
CONTINUOUS
 62
       3
100
AcDbLine
 10
-101.77382663
 20
-42.39155049
 30
0.0
 11
-101.89088123
 21
-42.18443493
 31
0.0
  0
LINE
  5
322
100
AcDbEntity
  8
レイヤー_1
  6
CONTINUOUS
 62
       3
100
AcDbLine
 10
-101.89088123
 20
-42.18443493
 30
0.0
 11
-102.02647208
 21
-41.99016003
 31
0.0
  0
LINE
  5
323
100
AcDbEntity
  8
レイヤー_1
  6
CONTINUOUS
 62
       3
100
AcDbLine
 10
-102.02647208
 20
-41.99016003
 30
0.0
 11
-102.17939296
 21
-41.80992431
 31
0.0
  0
LINE
  5
324
100
AcDbEntity
  8
レイヤー_1
  6
CONTINUOUS
 62
       3
100
AcDbLine
 10
-102.17939296
 20
-41.80992431
 30
0.0
 11
-102.34843764
 21
-41.64492627
 31
0.0
  0
LINE
  5
325
100
AcDbEntity
  8
レイヤー_1
  6
CONTINUOUS
 62
       3
100
AcDbLine
 10
-102.34843764
 20
-41.64492627
 30
0.0
 11
-102.53239992
 21
-41.49636444
 31
0.0
  0
LINE
  5
326
100
AcDbEntity
  8
レイヤー_1
  6
CONTINUOUS
 62
       3
100
AcDbLine
 10
-102.53239992
 20
-41.49636444
 30
0.0
 11
-102.73007355
 21
-41.36543731
 31
0.0
  0
LINE
  5
327
100
AcDbEntity
  8
レイヤー_1
  6
CONTINUOUS
 62
       3
100
AcDbLine
 10
-102.73007355
 20
-41.36543731
 30
0.0
 11
-102.94025233
 21
-41.25334342
 31
0.0
  0
LINE
  5
328
100
AcDbEntity
  8
レイヤー_1
  6
CONTINUOUS
 62
       3
100
AcDbLine
 10
-102.94025233
 20
-41.25334342
 30
0.0
 11
-103.16173004
 21
-41.16128127
 31
0.0
  0
LINE
  5
329
100
AcDbEntity
  8
レイヤー_1
  6
CONTINUOUS
 62
       3
100
AcDbLine
 10
-103.16173004
 20
-41.16128127
 30
0.0
 11
-103.39330045
 21
-41.09044936
 31
0.0
  0
LINE
  5
32A
100
AcDbEntity
  8
レイヤー_1
  6
CONTINUOUS
 62
       3
100
AcDbLine
 10
-103.39330045
 20
-41.09044936
 30
0.0
 11
-103.63375734
 21
-41.04204623
 31
0.0
  0
LINE
  5
32B
100
AcDbEntity
  8
レイヤー_1
  6
CONTINUOUS
 62
       3
100
AcDbLine
 10
-103.63375734
 20
-41.04204623
 30
0.0
 11
-103.8818945
 21
-41.01727038
 31
0.0
  0
LINE
  5
32C
100
AcDbEntity
  8
レイヤー_1
  6
CONTINUOUS
 62
       3
100
AcDbLine
 10
-103.8818945
 20
-41.01727038
 30
0.0
 11
-104.13509963
 21
-41.01727038
 31
0.0
  0
LINE
  5
32D
100
AcDbEntity
  8
レイヤー_1
  6
CONTINUOUS
 62
       3
100
AcDbLine
 10
-104.13509963
 20
-41.01727038
 30
0.0
 11
-104.38334886
 21
-41.04204623
 31
0.0
  0
LINE
  5
32E
100
AcDbEntity
  8
レイヤー_1
  6
CONTINUOUS
 62
       3
100
AcDbLine
 10
-104.38334886
 20
-41.04204623
 30
0.0
 11
-104.62390361
 21
-41.09044936
 31
0.0
  0
LINE
  5
32F
100
AcDbEntity
  8
レイヤー_1
  6
CONTINUOUS
 62
       3
100
AcDbLine
 10
-104.62390361
 20
-41.09044936
 30
0.0
 11
-104.85555863
 21
-41.16128127
 31
0.0
  0
LINE
  5
330
100
AcDbEntity
  8
レイヤー_1
  6
CONTINUOUS
 62
       3
100
AcDbLine
 10
-104.85555863
 20
-41.16128127
 30
0.0
 11
-105.07710867
 21
-41.25334342
 31
0.0
  0
LINE
  5
331
100
AcDbEntity
  8
レイヤー_1
  6
CONTINUOUS
 62
       3
100
AcDbLine
 10
-105.07710867
 20
-41.25334342
 30
0.0
 11
-105.28734846
 21
-41.36543731
 31
0.0
  0
LINE
  5
332
100
AcDbEntity
  8
レイヤー_1
  6
CONTINUOUS
 62
       3
100
AcDbLine
 10
-105.28734846
 20
-41.36543731
 30
0.0
 11
-105.48507274
 21
-41.49636444
 31
0.0
  0
LINE
  5
333
100
AcDbEntity
  8
レイヤー_1
  6
CONTINUOUS
 62
       3
100
AcDbLine
 10
-105.48507274
 20
-41.49636444
 30
0.0
 11
-105.66907627
 21
-41.64492627
 31
0.0
  0
LINE
  5
334
100
AcDbEntity
  8
レイヤー_1
  6
CONTINUOUS
 62
       3
100
AcDbLine
 10
-105.66907627
 20
-41.64492627
 30
0.0
 11
-105.83815378
 21
-41.80992431
 31
0.0
  0
LINE
  5
335
100
AcDbEntity
  8
レイヤー_1
  6
CONTINUOUS
 62
       3
100
AcDbLine
 10
-105.83815378
 20
-41.80992431
 30
0.0
 11
-105.99110002
 21
-41.99016003
 31
0.0
  0
LINE
  5
336
100
AcDbEntity
  8
レイヤー_1
  6
CONTINUOUS
 62
       3
100
AcDbLine
 10
-105.99110002
 20
-41.99016003
 30
0.0
 11
-106.12670973
 21
-42.18443493
 31
0.0
  0
LINE
  5
337
100
AcDbEntity
  8
レイヤー_1
  6
CONTINUOUS
 62
       3
100
AcDbLine
 10
-106.12670973
 20
-42.18443493
 30
0.0
 11
-106.24377765
 21
-42.39155049
 31
0.0
  0
LINE
  5
338
100
AcDbEntity
  8
レイヤー_1
  6
CONTINUOUS
 62
       3
100
AcDbLine
 10
-106.24377765
 20
-42.39155049
 30
0.0
 11
-106.34109852
 21
-42.6103082
 31
0.0
  0
LINE
  5
339
100
AcDbEntity
  8
レイヤー_1
  6
CONTINUOUS
 62
       3
100
AcDbLine
 10
-106.34109852
 20
-42.6103082
 30
0.0
 11
-106.41746709
 21
-42.83950954
 31
0.0
  0
LINE
  5
33A
100
AcDbEntity
  8
レイヤー_1
  6
CONTINUOUS
 62
       3
100
AcDbLine
 10
-106.41746709
 20
-42.83950954
 30
0.0
 11
-106.4716781
 21
-43.07795601
 31
0.0
  0
LINE
  5
33B
100
AcDbEntity
  8
レイヤー_1
  6
CONTINUOUS
 62
       3
100
AcDbLine
 10
-106.4716781
 20
-43.07795601
 30
0.0
 11
-106.5025263
 21
-43.32444908
 31
0.0
  0
LINE
  5
33C
100
AcDbEntity
  8
レイヤー_1
  6
CONTINUOUS
 62
       3
100
AcDbLine
 10
-106.5025263
 20
-43.32444908
 30
0.0
 11
-106.50881269
 21
-43.5773558
 31
0.0
  0
LINE
  5
33D
100
AcDbEntity
  8
レイヤー_1
  6
CONTINUOUS
 62
       3
100
AcDbLine
 10
-106.50881269
 20
-43.5773558
 30
0.0
 11
-106.49009788
 21
-43.82719119
 31
0.0
  0
LINE
  5
33E
100
AcDbEntity
  8
レイヤー_1
  6
CONTINUOUS
 62
       3
100
AcDbLine
 10
-106.49009788
 20
-43.82719119
 30
0.0
 11
-106.44741762
 21
-44.06960814
 31
0.0
  0
LINE
  5
33F
100
AcDbEntity
  8
レイヤー_1
  6
CONTINUOUS
 62
       3
100
AcDbLine
 10
-106.44741762
 20
-44.06960814
 30
0.0
 11
-106.38197717
 21
-44.30340619
 31
0.0
  0
LINE
  5
340
100
AcDbEntity
  8
レイヤー_1
  6
CONTINUOUS
 62
       3
100
AcDbLine
 10
-106.38197717
 20
-44.30340619
 30
0.0
 11
-106.29498179
 21
-44.52738491
 31
0.0
  0
LINE
  5
341
100
AcDbEntity
  8
レイヤー_1
  6
CONTINUOUS
 62
       3
100
AcDbLine
 10
-106.29498179
 20
-44.52738491
 30
0.0
 11
-106.18763674
 21
-44.74034387
 31
0.0
  0
LINE
  5
342
100
AcDbEntity
  8
レイヤー_1
  6
CONTINUOUS
 62
       3
100
AcDbLine
 10
-106.18763674
 20
-44.74034387
 30
0.0
 11
-106.06114727
 21
-44.94108261
 31
0.0
  0
LINE
  5
343
100
AcDbEntity
  8
レイヤー_1
  6
CONTINUOUS
 62
       3
100
AcDbLine
 10
-106.06114727
 20
-44.94108261
 30
0.0
 11
-105.91671864
 21
-45.12840071
 31
0.0
  0
LINE
  5
344
100
AcDbEntity
  8
レイヤー_1
  6
CONTINUOUS
 62
       3
100
AcDbLine
 10
-105.91671864
 20
-45.12840071
 30
0.0
 11
-105.75555611
 21
-45.30109771
 31
0.0
  0
LINE
  5
345
100
AcDbEntity
  8
レイヤー_1
  6
CONTINUOUS
 62
       3
100
AcDbLine
 10
-105.75555611
 20
-45.30109771
 30
0.0
 11
-105.57886493
 21
-45.45797319
 31
0.0
  0
LINE
  5
346
100
AcDbEntity
  8
レイヤー_1
  6
CONTINUOUS
 62
       3
100
AcDbLine
 10
-105.57886493
 20
-45.45797319
 30
0.0
 11
-105.38785037
 21
-45.5978267
 31
0.0
  0
LINE
  5
347
100
AcDbEntity
  8
レイヤー_1
  6
CONTINUOUS
 62
       3
100
AcDbLine
 10
-105.38785037
 20
-45.5978267
 30
0.0
 11
-105.18371767
 21
-45.71945779
 31
0.0
  0
LINE
  5
348
100
AcDbEntity
  8
レイヤー_1
  6
CONTINUOUS
 62
       3
100
AcDbLine
 10
-105.18371767
 20
-45.71945779
 30
0.0
 11
-104.9676721
 21
-45.82166604
 31
0.0
  0
LINE
  5
349
100
AcDbEntity
  8
レイヤー_1
  6
CONTINUOUS
 62
       3
100
AcDbLine
 10
-104.9676721
 20
-45.82166604
 30
0.0
 11
-104.74091892
 21
-45.903251
 31
0.0
  0
LINE
  5
34A
100
AcDbEntity
  8
レイヤー_1
  6
CONTINUOUS
 62
       3
100
AcDbLine
 10
-104.74091892
 20
-45.903251
 30
0.0
 11
-104.50466337
 21
-45.96301223
 31
0.0
  0
LINE
  5
34B
100
AcDbEntity
  8
レイヤー_1
  6
CONTINUOUS
 62
       3
100
AcDbLine
 10
-104.50466337
 20
-45.96301223
 30
0.0
 11
-104.26011073
 21
-45.99974929
 31
0.0
  0
LINE
  5
34C
100
AcDbEntity
  8
レイヤー_1
  6
CONTINUOUS
 62
       3
100
AcDbLine
 10
-104.26011073
 20
-45.99974929
 30
0.0
 11
-104.00846623
 21
-46.01226174
 31
0.0
  0
LINE
  5
34D
100
AcDbEntity
  8
レイヤー_1
  6
CONTINUOUS
 62
       3
100
AcDbLine
 10
-138.23824596
 20
-92.9758034
 30
0.0
 11
-137.73474793
 21
-92.95077817
 31
0.0
  0
LINE
  5
34E
100
AcDbEntity
  8
レイヤー_1
  6
CONTINUOUS
 62
       3
100
AcDbLine
 10
-137.73474793
 20
-92.95077817
 30
0.0
 11
-137.24551789
 21
-92.87730181
 31
0.0
  0
LINE
  5
34F
100
AcDbEntity
  8
レイヤー_1
  6
CONTINUOUS
 62
       3
100
AcDbLine
 10
-137.24551789
 20
-92.87730181
 30
0.0
 11
-136.77295672
 21
-92.75777324
 31
0.0
  0
LINE
  5
350
100
AcDbEntity
  8
レイヤー_1
  6
CONTINUOUS
 62
       3
100
AcDbLine
 10
-136.77295672
 20
-92.75777324
 30
0.0
 11
-136.31946529
 21
-92.59459144
 31
0.0
  0
LINE
  5
351
100
AcDbEntity
  8
レイヤー_1
  6
CONTINUOUS
 62
       3
100
AcDbLine
 10
-136.31946529
 20
-92.59459144
 30
0.0
 11
-135.88744452
 21
-92.39015536
 31
0.0
  0
LINE
  5
352
100
AcDbEntity
  8
レイヤー_1
  6
CONTINUOUS
 62
       3
100
AcDbLine
 10
-135.88744452
 20
-92.39015536
 30
0.0
 11
-135.47929524
 21
-92.14686394
 31
0.0
  0
LINE
  5
353
100
AcDbEntity
  8
レイヤー_1
  6
CONTINUOUS
 62
       3
100
AcDbLine
 10
-135.47929524
 20
-92.14686394
 30
0.0
 11
-135.09741834
 21
-91.86711614
 31
0.0
  0
LINE
  5
354
100
AcDbEntity
  8
レイヤー_1
  6
CONTINUOUS
 62
       3
100
AcDbLine
 10
-135.09741834
 20
-91.86711614
 30
0.0
 11
-134.74421474
 21
-91.55331091
 31
0.0
  0
LINE
  5
355
100
AcDbEntity
  8
レイヤー_1
  6
CONTINUOUS
 62
       3
100
AcDbLine
 10
-134.74421474
 20
-91.55331091
 30
0.0
 11
-134.42208527
 21
-91.20784721
 31
0.0
  0
LINE
  5
356
100
AcDbEntity
  8
レイヤー_1
  6
CONTINUOUS
 62
       3
100
AcDbLine
 10
-134.42208527
 20
-91.20784721
 30
0.0
 11
-134.13343084
 21
-90.83312399
 31
0.0
  0
LINE
  5
357
100
AcDbEntity
  8
レイヤー_1
  6
CONTINUOUS
 62
       3
100
AcDbLine
 10
-134.13343084
 20
-90.83312399
 30
0.0
 11
-133.88065231
 21
-90.4315402
 31
0.0
  0
LINE
  5
358
100
AcDbEntity
  8
レイヤー_1
  6
CONTINUOUS
 62
       3
100
AcDbLine
 10
-133.88065231
 20
-90.4315402
 30
0.0
 11
-133.66615058
 21
-90.0054948
 31
0.0
  0
LINE
  5
359
100
AcDbEntity
  8
レイヤー_1
  6
CONTINUOUS
 62
       3
100
AcDbLine
 10
-133.66615058
 20
-90.0054948
 30
0.0
 11
-133.4923265
 21
-89.55738673
 31
0.0
  0
LINE
  5
35A
100
AcDbEntity
  8
レイヤー_1
  6
CONTINUOUS
 62
       3
100
AcDbLine
 10
-133.4923265
 20
-89.55738673
 30
0.0
 11
-133.361581
 21
-89.08961496
 31
0.0
  0
LINE
  5
35B
100
AcDbEntity
  8
レイヤー_1
  6
CONTINUOUS
 62
       3
100
AcDbLine
 10
-133.361581
 20
-89.08961496
 30
0.0
 11
-133.27631492
 21
-88.60457843
 31
0.0
  0
LINE
  5
35C
100
AcDbEntity
  8
レイヤー_1
  6
CONTINUOUS
 62
       3
100
AcDbLine
 10
-133.27631492
 20
-88.60457843
 30
0.0
 11
-133.23892914
 21
-88.1046761
 31
0.0
  0
LINE
  5
35D
100
AcDbEntity
  8
レイヤー_1
  6
CONTINUOUS
 62
       3
100
AcDbLine
 10
-133.23892914
 20
-88.1046761
 30
0.0
 11
-133.25148694
 21
-87.59880004
 31
0.0
  0
LINE
  5
35E
100
AcDbEntity
  8
レイヤー_1
  6
CONTINUOUS
 62
       3
100
AcDbLine
 10
-133.25148694
 20
-87.59880004
 30
0.0
 11
-133.31311297
 21
-87.10581389
 31
0.0
  0
LINE
  5
35F
100
AcDbEntity
  8
レイヤー_1
  6
CONTINUOUS
 62
       3
100
AcDbLine
 10
-133.31311297
 20
-87.10581389
 30
0.0
 11
-133.42141888
 21
-86.62892096
 31
0.0
  0
LINE
  5
360
100
AcDbEntity
  8
レイヤー_1
  6
CONTINUOUS
 62
       3
100
AcDbLine
 10
-133.42141888
 20
-86.62892096
 30
0.0
 11
-133.57400377
 21
-86.17051827
 31
0.0
  0
LINE
  5
361
100
AcDbEntity
  8
レイヤー_1
  6
CONTINUOUS
 62
       3
100
AcDbLine
 10
-133.57400377
 20
-86.17051827
 30
0.0
 11
-133.76846678
 21
-85.73300285
 31
0.0
  0
LINE
  5
362
100
AcDbEntity
  8
レイヤー_1
  6
CONTINUOUS
 62
       3
100
AcDbLine
 10
-133.76846678
 20
-85.73300285
 30
0.0
 11
-134.00240703
 21
-85.31877173
 31
0.0
  0
LINE
  5
363
100
AcDbEntity
  8
レイヤー_1
  6
CONTINUOUS
 62
       3
100
AcDbLine
 10
-134.00240703
 20
-85.31877173
 30
0.0
 11
-134.27342362
 21
-84.93022194
 31
0.0
  0
LINE
  5
364
100
AcDbEntity
  8
レイヤー_1
  6
CONTINUOUS
 62
       3
100
AcDbLine
 10
-134.27342362
 20
-84.93022194
 30
0.0
 11
-134.57911568
 21
-84.56975049
 31
0.0
  0
LINE
  5
365
100
AcDbEntity
  8
レイヤー_1
  6
CONTINUOUS
 62
       3
100
AcDbLine
 10
-134.57911568
 20
-84.56975049
 30
0.0
 11
-134.91708233
 21
-84.23975442
 31
0.0
  0
LINE
  5
366
100
AcDbEntity
  8
レイヤー_1
  6
CONTINUOUS
 62
       3
100
AcDbLine
 10
-134.91708233
 20
-84.23975442
 30
0.0
 11
-135.28492269
 21
-83.94263074
 31
0.0
  0
LINE
  5
367
100
AcDbEntity
  8
レイヤー_1
  6
CONTINUOUS
 62
       3
100
AcDbLine
 10
-135.28492269
 20
-83.94263074
 30
0.0
 11
-135.68023587
 21
-83.6807765
 31
0.0
  0
LINE
  5
368
100
AcDbEntity
  8
レイヤー_1
  6
CONTINUOUS
 62
       3
100
AcDbLine
 10
-135.68023587
 20
-83.6807765
 30
0.0
 11
-136.10062103
 21
-83.45658871
 31
0.0
  0
LINE
  5
369
100
AcDbEntity
  8
レイヤー_1
  6
CONTINUOUS
 62
       3
100
AcDbLine
 10
-136.10062103
 20
-83.45658871
 30
0.0
 11
-136.54367724
 21
-83.2724644
 31
0.0
  0
LINE
  5
36A
100
AcDbEntity
  8
レイヤー_1
  6
CONTINUOUS
 62
       3
100
AcDbLine
 10
-136.54367724
 20
-83.2724644
 30
0.0
 11
-137.00700363
 21
-83.1308006
 31
0.0
  0
LINE
  5
36B
100
AcDbEntity
  8
レイヤー_1
  6
CONTINUOUS
 62
       3
100
AcDbLine
 10
-137.00700363
 20
-83.1308006
 30
0.0
 11
-137.48819935
 21
-83.03399433
 31
0.0
  0
LINE
  5
36C
100
AcDbEntity
  8
レイヤー_1
  6
CONTINUOUS
 62
       3
100
AcDbLine
 10
-137.48819935
 20
-83.03399433
 30
0.0
 11
-137.9848635
 21
-82.98444262
 31
0.0
  0
LINE
  5
36D
100
AcDbEntity
  8
レイヤー_1
  6
CONTINUOUS
 62
       3
100
AcDbLine
 10
-137.9848635
 20
-82.98444262
 30
0.0
 11
-138.49150509
 21
-82.98444262
 31
0.0
  0
LINE
  5
36E
100
AcDbEntity
  8
レイヤー_1
  6
CONTINUOUS
 62
       3
100
AcDbLine
 10
-138.49150509
 20
-82.98444262
 30
0.0
 11
-138.98794508
 21
-83.03399433
 31
0.0
  0
LINE
  5
36F
100
AcDbEntity
  8
レイヤー_1
  6
CONTINUOUS
 62
       3
100
AcDbLine
 10
-138.98794508
 20
-83.03399433
 30
0.0
 11
-139.46894508
 21
-83.1308006
 31
0.0
  0
LINE
  5
370
100
AcDbEntity
  8
レイヤー_1
  6
CONTINUOUS
 62
       3
100
AcDbLine
 10
-139.46894508
 20
-83.1308006
 30
0.0
 11
-139.93210226
 21
-83.2724644
 31
0.0
  0
LINE
  5
371
100
AcDbEntity
  8
レイヤー_1
  6
CONTINUOUS
 62
       3
100
AcDbLine
 10
-139.93210226
 20
-83.2724644
 30
0.0
 11
-140.37501381
 21
-83.45658871
 31
0.0
  0
LINE
  5
372
100
AcDbEntity
  8
レイヤー_1
  6
CONTINUOUS
 62
       3
100
AcDbLine
 10
-140.37501381
 20
-83.45658871
 30
0.0
 11
-140.79527695
 21
-83.6807765
 31
0.0
  0
LINE
  5
373
100
AcDbEntity
  8
レイヤー_1
  6
CONTINUOUS
 62
       3
100
AcDbLine
 10
-140.79527695
 20
-83.6807765
 30
0.0
 11
-141.19048884
 21
-83.94263074
 31
0.0
  0
LINE
  5
374
100
AcDbEntity
  8
レイヤー_1
  6
CONTINUOUS
 62
       3
100
AcDbLine
 10
-141.19048884
 20
-83.94263074
 30
0.0
 11
-141.55824668
 21
-84.23975442
 31
0.0
  0
LINE
  5
375
100
AcDbEntity
  8
レイヤー_1
  6
CONTINUOUS
 62
       3
100
AcDbLine
 10
-141.55824668
 20
-84.23975442
 30
0.0
 11
-141.89614768
 21
-84.56975049
 31
0.0
  0
LINE
  5
376
100
AcDbEntity
  8
レイヤー_1
  6
CONTINUOUS
 62
       3
100
AcDbLine
 10
-141.89614768
 20
-84.56975049
 30
0.0
 11
-142.20178902
 21
-84.93022194
 31
0.0
  0
LINE
  5
377
100
AcDbEntity
  8
レイヤー_1
  6
CONTINUOUS
 62
       3
100
AcDbLine
 10
-142.20178902
 20
-84.93022194
 30
0.0
 11
-142.4727679
 21
-85.31877173
 31
0.0
  0
LINE
  5
378
100
AcDbEntity
  8
レイヤー_1
  6
CONTINUOUS
 62
       3
100
AcDbLine
 10
-142.4727679
 20
-85.31877173
 30
0.0
 11
-142.7066815
 21
-85.73300285
 31
0.0
  0
LINE
  5
379
100
AcDbEntity
  8
レイヤー_1
  6
CONTINUOUS
 62
       3
100
AcDbLine
 10
-142.7066815
 20
-85.73300285
 30
0.0
 11
-142.90112702
 21
-86.17051827
 31
0.0
  0
LINE
  5
37A
100
AcDbEntity
  8
レイヤー_1
  6
CONTINUOUS
 62
       3
100
AcDbLine
 10
-142.90112702
 20
-86.17051827
 30
0.0
 11
-143.05370167
 21
-86.62892096
 31
0.0
  0
LINE
  5
37B
100
AcDbEntity
  8
レイヤー_1
  6
CONTINUOUS
 62
       3
100
AcDbLine
 10
-143.05370167
 20
-86.62892096
 30
0.0
 11
-143.16200262
 21
-87.10581389
 31
0.0
  0
LINE
  5
37C
100
AcDbEntity
  8
レイヤー_1
  6
CONTINUOUS
 62
       3
100
AcDbLine
 10
-143.16200262
 20
-87.10581389
 30
0.0
 11
-143.22362708
 21
-87.59880004
 31
0.0
  0
LINE
  5
37D
100
AcDbEntity
  8
レイヤー_1
  6
CONTINUOUS
 62
       3
100
AcDbLine
 10
-143.22362708
 20
-87.59880004
 30
0.0
 11
-143.23618473
 21
-88.1046761
 31
0.0
  0
LINE
  5
37E
100
AcDbEntity
  8
レイヤー_1
  6
CONTINUOUS
 62
       3
100
AcDbLine
 10
-143.23618473
 20
-88.1046761
 30
0.0
 11
-143.19879959
 21
-88.60457843
 31
0.0
  0
LINE
  5
37F
100
AcDbEntity
  8
レイヤー_1
  6
CONTINUOUS
 62
       3
100
AcDbLine
 10
-143.19879959
 20
-88.60457843
 30
0.0
 11
-143.11353653
 21
-89.08961496
 31
0.0
  0
LINE
  5
380
100
AcDbEntity
  8
レイヤー_1
  6
CONTINUOUS
 62
       3
100
AcDbLine
 10
-143.11353653
 20
-89.08961496
 30
0.0
 11
-142.98279839
 21
-89.55738673
 31
0.0
  0
LINE
  5
381
100
AcDbEntity
  8
レイヤー_1
  6
CONTINUOUS
 62
       3
100
AcDbLine
 10
-142.98279839
 20
-89.55738673
 30
0.0
 11
-142.80898795
 21
-90.0054948
 31
0.0
  0
LINE
  5
382
100
AcDbEntity
  8
レイヤー_1
  6
CONTINUOUS
 62
       3
100
AcDbLine
 10
-142.80898795
 20
-90.0054948
 30
0.0
 11
-142.59450802
 21
-90.4315402
 31
0.0
  0
LINE
  5
383
100
AcDbEntity
  8
レイヤー_1
  6
CONTINUOUS
 62
       3
100
AcDbLine
 10
-142.59450802
 20
-90.4315402
 30
0.0
 11
-142.34176144
 21
-90.83312399
 31
0.0
  0
LINE
  5
384
100
AcDbEntity
  8
レイヤー_1
  6
CONTINUOUS
 62
       3
100
AcDbLine
 10
-142.34176144
 20
-90.83312399
 30
0.0
 11
-142.05315097
 21
-91.20784721
 31
0.0
  0
LINE
  5
385
100
AcDbEntity
  8
レイヤー_1
  6
CONTINUOUS
 62
       3
100
AcDbLine
 10
-142.05315097
 20
-91.20784721
 30
0.0
 11
-141.73107945
 21
-91.55331091
 31
0.0
  0
LINE
  5
386
100
AcDbEntity
  8
レイヤー_1
  6
CONTINUOUS
 62
       3
100
AcDbLine
 10
-141.73107945
 20
-91.55331091
 30
0.0
 11
-141.37794969
 21
-91.86711614
 31
0.0
  0
LINE
  5
387
100
AcDbEntity
  8
レイヤー_1
  6
CONTINUOUS
 62
       3
100
AcDbLine
 10
-141.37794969
 20
-91.86711614
 30
0.0
 11
-140.99616446
 21
-92.14686394
 31
0.0
  0
LINE
  5
388
100
AcDbEntity
  8
レイヤー_1
  6
CONTINUOUS
 62
       3
100
AcDbLine
 10
-140.99616446
 20
-92.14686394
 30
0.0
 11
-140.58812661
 21
-92.39015536
 31
0.0
  0
LINE
  5
389
100
AcDbEntity
  8
レイヤー_1
  6
CONTINUOUS
 62
       3
100
AcDbLine
 10
-140.58812661
 20
-92.39015536
 30
0.0
 11
-140.15623892
 21
-92.59459144
 31
0.0
  0
LINE
  5
38A
100
AcDbEntity
  8
レイヤー_1
  6
CONTINUOUS
 62
       3
100
AcDbLine
 10
-140.15623892
 20
-92.59459144
 30
0.0
 11
-139.7029042
 21
-92.75777324
 31
0.0
  0
LINE
  5
38B
100
AcDbEntity
  8
レイヤー_1
  6
CONTINUOUS
 62
       3
100
AcDbLine
 10
-139.7029042
 20
-92.75777324
 30
0.0
 11
-139.23052526
 21
-92.87730181
 31
0.0
  0
LINE
  5
38C
100
AcDbEntity
  8
レイヤー_1
  6
CONTINUOUS
 62
       3
100
AcDbLine
 10
-139.23052526
 20
-92.87730181
 30
0.0
 11
-138.74150491
 21
-92.95077817
 31
0.0
  0
LINE
  5
38D
100
AcDbEntity
  8
レイヤー_1
  6
CONTINUOUS
 62
       3
100
AcDbLine
 10
-138.74150491
 20
-92.95077817
 30
0.0
 11
-138.23824596
 21
-92.9758034
 31
0.0
  0
LINE
  5
38E
100
AcDbEntity
  8
レイヤー_1
  6
CONTINUOUS
 62
       3
100
AcDbLine
 10
-124.79617239
 20
-92.9758034
 30
0.0
 11
-124.29268938
 21
-92.95077817
 31
0.0
  0
LINE
  5
38F
100
AcDbEntity
  8
レイヤー_1
  6
CONTINUOUS
 62
       3
100
AcDbLine
 10
-124.29268938
 20
-92.95077817
 30
0.0
 11
-123.80350181
 21
-92.87730181
 31
0.0
  0
LINE
  5
390
100
AcDbEntity
  8
レイヤー_1
  6
CONTINUOUS
 62
       3
100
AcDbLine
 10
-123.80350181
 20
-92.87730181
 30
0.0
 11
-123.33100672
 21
-92.75777324
 31
0.0
  0
LINE
  5
391
100
AcDbEntity
  8
レイヤー_1
  6
CONTINUOUS
 62
       3
100
AcDbLine
 10
-123.33100672
 20
-92.75777324
 30
0.0
 11
-122.87760113
 21
-92.59459144
 31
0.0
  0
LINE
  5
392
100
AcDbEntity
  8
レイヤー_1
  6
CONTINUOUS
 62
       3
100
AcDbLine
 10
-122.87760113
 20
-92.59459144
 30
0.0
 11
-122.44568206
 21
-92.39015536
 31
0.0
  0
LINE
  5
393
100
AcDbEntity
  8
レイヤー_1
  6
CONTINUOUS
 62
       3
100
AcDbLine
 10
-122.44568206
 20
-92.39015536
 30
0.0
 11
-122.03764655
 21
-92.14686394
 31
0.0
  0
LINE
  5
394
100
AcDbEntity
  8
レイヤー_1
  6
CONTINUOUS
 62
       3
100
AcDbLine
 10
-122.03764655
 20
-92.14686394
 30
0.0
 11
-121.65589162
 21
-91.86711614
 31
0.0
  0
LINE
  5
395
100
AcDbEntity
  8
レイヤー_1
  6
CONTINUOUS
 62
       3
100
AcDbLine
 10
-121.65589162
 20
-91.86711614
 30
0.0
 11
-121.30281429
 21
-91.55331091
 31
0.0
  0
LINE
  5
396
100
AcDbEntity
  8
レイヤー_1
  6
CONTINUOUS
 62
       3
100
AcDbLine
 10
-121.30281429
 20
-91.55331091
 30
0.0
 11
-120.9808116
 21
-91.20784721
 31
0.0
  0
LINE
  5
397
100
AcDbEntity
  8
レイヤー_1
  6
CONTINUOUS
 62
       3
100
AcDbLine
 10
-120.9808116
 20
-91.20784721
 30
0.0
 11
-120.69228056
 21
-90.83312399
 31
0.0
  0
LINE
  5
398
100
AcDbEntity
  8
レイヤー_1
  6
CONTINUOUS
 62
       3
100
AcDbLine
 10
-120.69228056
 20
-90.83312399
 30
0.0
 11
-120.43961821
 21
-90.4315402
 31
0.0
  0
LINE
  5
399
100
AcDbEntity
  8
レイヤー_1
  6
CONTINUOUS
 62
       3
100
AcDbLine
 10
-120.43961821
 20
-90.4315402
 30
0.0
 11
-120.22522157
 21
-90.0054948
 31
0.0
  0
LINE
  5
39A
100
AcDbEntity
  8
レイヤー_1
  6
CONTINUOUS
 62
       3
100
AcDbLine
 10
-120.22522157
 20
-90.0054948
 30
0.0
 11
-120.05148767
 21
-89.55738673
 31
0.0
  0
LINE
  5
39B
100
AcDbEntity
  8
レイヤー_1
  6
CONTINUOUS
 62
       3
100
AcDbLine
 10
-120.05148767
 20
-89.55738673
 30
0.0
 11
-119.92081353
 21
-89.08961496
 31
0.0
  0
LINE
  5
39C
100
AcDbEntity
  8
レイヤー_1
  6
CONTINUOUS
 62
       3
100
AcDbLine
 10
-119.92081353
 20
-89.08961496
 30
0.0
 11
-119.83559618
 21
-88.60457843
 31
0.0
  0
LINE
  5
39D
100
AcDbEntity
  8
レイヤー_1
  6
CONTINUOUS
 62
       3
100
AcDbLine
 10
-119.83559618
 20
-88.60457843
 30
0.0
 11
-119.79823265
 21
-88.1046761
 31
0.0
  0
LINE
  5
39E
100
AcDbEntity
  8
レイヤー_1
  6
CONTINUOUS
 62
       3
100
AcDbLine
 10
-119.79823265
 20
-88.1046761
 30
0.0
 11
-119.81078287
 21
-87.59880004
 31
0.0
  0
LINE
  5
39F
100
AcDbEntity
  8
レイヤー_1
  6
CONTINUOUS
 62
       3
100
AcDbLine
 10
-119.81078287
 20
-87.59880004
 30
0.0
 11
-119.87237294
 21
-87.10581389
 31
0.0
  0
LINE
  5
3A0
100
AcDbEntity
  8
レイヤー_1
  6
CONTINUOUS
 62
       3
100
AcDbLine
 10
-119.87237294
 20
-87.10581389
 30
0.0
 11
-119.98061832
 21
-86.62892096
 31
0.0
  0
LINE
  5
3A1
100
AcDbEntity
  8
レイヤー_1
  6
CONTINUOUS
 62
       3
100
AcDbLine
 10
-119.98061832
 20
-86.62892096
 30
0.0
 11
-120.13312197
 21
-86.17051827
 31
0.0
  0
LINE
  5
3A2
100
AcDbEntity
  8
レイヤー_1
  6
CONTINUOUS
 62
       3
100
AcDbLine
 10
-120.13312197
 20
-86.17051827
 30
0.0
 11
-120.32748687
 21
-85.73300285
 31
0.0
  0
LINE
  5
3A3
100
AcDbEntity
  8
レイヤー_1
  6
CONTINUOUS
 62
       3
100
AcDbLine
 10
-120.32748687
 20
-85.73300285
 30
0.0
 11
-120.56131599
 21
-85.31877173
 31
0.0
  0
LINE
  5
3A4
100
AcDbEntity
  8
レイヤー_1
  6
CONTINUOUS
 62
       3
100
AcDbLine
 10
-120.56131599
 20
-85.31877173
 30
0.0
 11
-120.83221231
 21
-84.93022194
 31
0.0
  0
LINE
  5
3A5
100
AcDbEntity
  8
レイヤー_1
  6
CONTINUOUS
 62
       3
100
AcDbLine
 10
-120.83221231
 20
-84.93022194
 30
0.0
 11
-121.1377788
 21
-84.56975049
 31
0.0
  0
LINE
  5
3A6
100
AcDbEntity
  8
レイヤー_1
  6
CONTINUOUS
 62
       3
100
AcDbLine
 10
-121.1377788
 20
-84.56975049
 30
0.0
 11
-121.47561844
 21
-84.23975442
 31
0.0
  0
LINE
  5
3A7
100
AcDbEntity
  8
レイヤー_1
  6
CONTINUOUS
 62
       3
100
AcDbLine
 10
-121.47561844
 20
-84.23975442
 30
0.0
 11
-121.8433342
 21
-83.94263074
 31
0.0
  0
LINE
  5
3A8
100
AcDbEntity
  8
レイヤー_1
  6
CONTINUOUS
 62
       3
100
AcDbLine
 10
-121.8433342
 20
-83.94263074
 30
0.0
 11
-122.23852905
 21
-83.6807765
 31
0.0
  0
LINE
  5
3A9
100
AcDbEntity
  8
レイヤー_1
  6
CONTINUOUS
 62
       3
100
AcDbLine
 10
-122.23852905
 20
-83.6807765
 30
0.0
 11
-122.65880596
 21
-83.45658871
 31
0.0
  0
LINE
  5
3AA
100
AcDbEntity
  8
レイヤー_1
  6
CONTINUOUS
 62
       3
100
AcDbLine
 10
-122.65880596
 20
-83.45658871
 30
0.0
 11
-123.10176792
 21
-83.2724644
 31
0.0
  0
LINE
  5
3AB
100
AcDbEntity
  8
レイヤー_1
  6
CONTINUOUS
 62
       3
100
AcDbLine
 10
-123.10176792
 20
-83.2724644
 30
0.0
 11
-123.56501789
 21
-83.1308006
 31
0.0
  0
LINE
  5
3AC
100
AcDbEntity
  8
レイヤー_1
  6
CONTINUOUS
 62
       3
100
AcDbLine
 10
-123.56501789
 20
-83.1308006
 30
0.0
 11
-124.04615885
 21
-83.03399433
 31
0.0
  0
LINE
  5
3AD
100
AcDbEntity
  8
レイヤー_1
  6
CONTINUOUS
 62
       3
100
AcDbLine
 10
-124.04615885
 20
-83.03399433
 30
0.0
 11
-124.54279377
 21
-82.98444262
 31
0.0
  0
LINE
  5
3AE
100
AcDbEntity
  8
レイヤー_1
  6
CONTINUOUS
 62
       3
100
AcDbLine
 10
-124.54279377
 20
-82.98444262
 30
0.0
 11
-125.04955102
 21
-82.98444262
 31
0.0
  0
LINE
  5
3AF
100
AcDbEntity
  8
レイヤー_1
  6
CONTINUOUS
 62
       3
100
AcDbLine
 10
-125.04955102
 20
-82.98444262
 30
0.0
 11
-125.54618594
 21
-83.03399433
 31
0.0
  0
LINE
  5
3B0
100
AcDbEntity
  8
レイヤー_1
  6
CONTINUOUS
 62
       3
100
AcDbLine
 10
-125.54618594
 20
-83.03399433
 30
0.0
 11
-126.02732689
 21
-83.1308006
 31
0.0
  0
LINE
  5
3B1
100
AcDbEntity
  8
レイヤー_1
  6
CONTINUOUS
 62
       3
100
AcDbLine
 10
-126.02732689
 20
-83.1308006
 30
0.0
 11
-126.49057686
 21
-83.2724644
 31
0.0
  0
LINE
  5
3B2
100
AcDbEntity
  8
レイヤー_1
  6
CONTINUOUS
 62
       3
100
AcDbLine
 10
-126.49057686
 20
-83.2724644
 30
0.0
 11
-126.93353882
 21
-83.45658871
 31
0.0
  0
LINE
  5
3B3
100
AcDbEntity
  8
レイヤー_1
  6
CONTINUOUS
 62
       3
100
AcDbLine
 10
-126.93353882
 20
-83.45658871
 30
0.0
 11
-127.35381574
 21
-83.6807765
 31
0.0
  0
LINE
  5
3B4
100
AcDbEntity
  8
レイヤー_1
  6
CONTINUOUS
 62
       3
100
AcDbLine
 10
-127.35381574
 20
-83.6807765
 30
0.0
 11
-127.74901059
 21
-83.94263074
 31
0.0
  0
LINE
  5
3B5
100
AcDbEntity
  8
レイヤー_1
  6
CONTINUOUS
 62
       3
100
AcDbLine
 10
-127.74901059
 20
-83.94263074
 30
0.0
 11
-128.11672634
 21
-84.23975442
 31
0.0
  0
LINE
  5
3B6
100
AcDbEntity
  8
レイヤー_1
  6
CONTINUOUS
 62
       3
100
AcDbLine
 10
-128.11672634
 20
-84.23975442
 30
0.0
 11
-128.45456598
 21
-84.56975049
 31
0.0
  0
LINE
  5
3B7
100
AcDbEntity
  8
レイヤー_1
  6
CONTINUOUS
 62
       3
100
AcDbLine
 10
-128.45456598
 20
-84.56975049
 30
0.0
 11
-128.76013247
 21
-84.93022194
 31
0.0
  0
LINE
  5
3B8
100
AcDbEntity
  8
レイヤー_1
  6
CONTINUOUS
 62
       3
100
AcDbLine
 10
-128.76013247
 20
-84.93022194
 30
0.0
 11
-129.03102878
 21
-85.31877173
 31
0.0
  0
LINE
  5
3B9
100
AcDbEntity
  8
レイヤー_1
  6
CONTINUOUS
 62
       3
100
AcDbLine
 10
-129.03102878
 20
-85.31877173
 30
0.0
 11
-129.26485791
 21
-85.73300285
 31
0.0
  0
LINE
  5
3BA
100
AcDbEntity
  8
レイヤー_1
  6
CONTINUOUS
 62
       3
100
AcDbLine
 10
-129.26485791
 20
-85.73300285
 30
0.0
 11
-129.45922282
 21
-86.17051827
 31
0.0
  0
LINE
  5
3BB
100
AcDbEntity
  8
レイヤー_1
  6
CONTINUOUS
 62
       3
100
AcDbLine
 10
-129.45922282
 20
-86.17051827
 30
0.0
 11
-129.61172647
 21
-86.62892096
 31
0.0
  0
LINE
  5
3BC
100
AcDbEntity
  8
レイヤー_1
  6
CONTINUOUS
 62
       3
100
AcDbLine
 10
-129.61172647
 20
-86.62892096
 30
0.0
 11
-129.71997184
 21
-87.10581389
 31
0.0
  0
LINE
  5
3BD
100
AcDbEntity
  8
レイヤー_1
  6
CONTINUOUS
 62
       3
100
AcDbLine
 10
-129.71997184
 20
-87.10581389
 30
0.0
 11
-129.7815619
 21
-87.59880004
 31
0.0
  0
LINE
  5
3BE
100
AcDbEntity
  8
レイヤー_1
  6
CONTINUOUS
 62
       3
100
AcDbLine
 10
-129.7815619
 20
-87.59880004
 30
0.0
 11
-129.79411214
 21
-88.1046761
 31
0.0
  0
LINE
  5
3BF
100
AcDbEntity
  8
レイヤー_1
  6
CONTINUOUS
 62
       3
100
AcDbLine
 10
-129.79411214
 20
-88.1046761
 30
0.0
 11
-129.7567486
 21
-88.60457843
 31
0.0
  0
LINE
  5
3C0
100
AcDbEntity
  8
レイヤー_1
  6
CONTINUOUS
 62
       3
100
AcDbLine
 10
-129.7567486
 20
-88.60457843
 30
0.0
 11
-129.67153125
 21
-89.08961496
 31
0.0
  0
LINE
  5
3C1
100
AcDbEntity
  8
レイヤー_1
  6
CONTINUOUS
 62
       3
100
AcDbLine
 10
-129.67153125
 20
-89.08961496
 30
0.0
 11
-129.5408571
 21
-89.55738673
 31
0.0
  0
LINE
  5
3C2
100
AcDbEntity
  8
レイヤー_1
  6
CONTINUOUS
 62
       3
100
AcDbLine
 10
-129.5408571
 20
-89.55738673
 30
0.0
 11
-129.3671232
 21
-90.0054948
 31
0.0
  0
LINE
  5
3C3
100
AcDbEntity
  8
レイヤー_1
  6
CONTINUOUS
 62
       3
100
AcDbLine
 10
-129.3671232
 20
-90.0054948
 30
0.0
 11
-129.15272657
 21
-90.4315402
 31
0.0
  0
LINE
  5
3C4
100
AcDbEntity
  8
レイヤー_1
  6
CONTINUOUS
 62
       3
100
AcDbLine
 10
-129.15272657
 20
-90.4315402
 30
0.0
 11
-128.90006421
 21
-90.83312399
 31
0.0
  0
LINE
  5
3C5
100
AcDbEntity
  8
レイヤー_1
  6
CONTINUOUS
 62
       3
100
AcDbLine
 10
-128.90006421
 20
-90.83312399
 30
0.0
 11
-128.61153318
 21
-91.20784721
 31
0.0
  0
LINE
  5
3C6
100
AcDbEntity
  8
レイヤー_1
  6
CONTINUOUS
 62
       3
100
AcDbLine
 10
-128.61153318
 20
-91.20784721
 30
0.0
 11
-128.28953049
 21
-91.55331091
 31
0.0
  0
LINE
  5
3C7
100
AcDbEntity
  8
レイヤー_1
  6
CONTINUOUS
 62
       3
100
AcDbLine
 10
-128.28953049
 20
-91.55331091
 30
0.0
 11
-127.93645317
 21
-91.86711614
 31
0.0
  0
LINE
  5
3C8
100
AcDbEntity
  8
レイヤー_1
  6
CONTINUOUS
 62
       3
100
AcDbLine
 10
-127.93645317
 20
-91.86711614
 30
0.0
 11
-127.55469823
 21
-92.14686394
 31
0.0
  0
LINE
  5
3C9
100
AcDbEntity
  8
レイヤー_1
  6
CONTINUOUS
 62
       3
100
AcDbLine
 10
-127.55469823
 20
-92.14686394
 30
0.0
 11
-127.14666272
 21
-92.39015536
 31
0.0
  0
LINE
  5
3CA
100
AcDbEntity
  8
レイヤー_1
  6
CONTINUOUS
 62
       3
100
AcDbLine
 10
-127.14666272
 20
-92.39015536
 30
0.0
 11
-126.71474366
 21
-92.59459144
 31
0.0
  0
LINE
  5
3CB
100
AcDbEntity
  8
レイヤー_1
  6
CONTINUOUS
 62
       3
100
AcDbLine
 10
-126.71474366
 20
-92.59459144
 30
0.0
 11
-126.26133807
 21
-92.75777324
 31
0.0
  0
LINE
  5
3CC
100
AcDbEntity
  8
レイヤー_1
  6
CONTINUOUS
 62
       3
100
AcDbLine
 10
-126.26133807
 20
-92.75777324
 30
0.0
 11
-125.78884297
 21
-92.87730181
 31
0.0
  0
LINE
  5
3CD
100
AcDbEntity
  8
レイヤー_1
  6
CONTINUOUS
 62
       3
100
AcDbLine
 10
-125.78884297
 20
-92.87730181
 30
0.0
 11
-125.29965541
 21
-92.95077817
 31
0.0
  0
LINE
  5
3CE
100
AcDbEntity
  8
レイヤー_1
  6
CONTINUOUS
 62
       3
100
AcDbLine
 10
-125.29965541
 20
-92.95077817
 30
0.0
 11
-124.79617239
 21
-92.9758034
 31
0.0
  0
LINE
  5
3CF
100
AcDbEntity
  8
レイヤー_1
  6
CONTINUOUS
 62
       3
100
AcDbLine
 10
-111.26590438
 20
-92.9758034
 30
0.0
 11
-110.76242137
 21
-92.95077817
 31
0.0
  0
LINE
  5
3D0
100
AcDbEntity
  8
レイヤー_1
  6
CONTINUOUS
 62
       3
100
AcDbLine
 10
-110.76242137
 20
-92.95077817
 30
0.0
 11
-110.2732338
 21
-92.87730181
 31
0.0
  0
LINE
  5
3D1
100
AcDbEntity
  8
レイヤー_1
  6
CONTINUOUS
 62
       3
100
AcDbLine
 10
-110.2732338
 20
-92.87730181
 30
0.0
 11
-109.80073871
 21
-92.75777324
 31
0.0
  0
LINE
  5
3D2
100
AcDbEntity
  8
レイヤー_1
  6
CONTINUOUS
 62
       3
100
AcDbLine
 10
-109.80073871
 20
-92.75777324
 30
0.0
 11
-109.34733312
 21
-92.59459144
 31
0.0
  0
LINE
  5
3D3
100
AcDbEntity
  8
レイヤー_1
  6
CONTINUOUS
 62
       3
100
AcDbLine
 10
-109.34733312
 20
-92.59459144
 30
0.0
 11
-108.91541405
 21
-92.39015536
 31
0.0
  0
LINE
  5
3D4
100
AcDbEntity
  8
レイヤー_1
  6
CONTINUOUS
 62
       3
100
AcDbLine
 10
-108.91541405
 20
-92.39015536
 30
0.0
 11
-108.50737854
 21
-92.14686394
 31
0.0
  0
LINE
  5
3D5
100
AcDbEntity
  8
レイヤー_1
  6
CONTINUOUS
 62
       3
100
AcDbLine
 10
-108.50737854
 20
-92.14686394
 30
0.0
 11
-108.12562361
 21
-91.86711614
 31
0.0
  0
LINE
  5
3D6
100
AcDbEntity
  8
レイヤー_1
  6
CONTINUOUS
 62
       3
100
AcDbLine
 10
-108.12562361
 20
-91.86711614
 30
0.0
 11
-107.77254628
 21
-91.55331091
 31
0.0
  0
LINE
  5
3D7
100
AcDbEntity
  8
レイヤー_1
  6
CONTINUOUS
 62
       3
100
AcDbLine
 10
-107.77254628
 20
-91.55331091
 30
0.0
 11
-107.45054359
 21
-91.20784721
 31
0.0
  0
LINE
  5
3D8
100
AcDbEntity
  8
レイヤー_1
  6
CONTINUOUS
 62
       3
100
AcDbLine
 10
-107.45054359
 20
-91.20784721
 30
0.0
 11
-107.16201256
 21
-90.83312399
 31
0.0
  0
LINE
  5
3D9
100
AcDbEntity
  8
レイヤー_1
  6
CONTINUOUS
 62
       3
100
AcDbLine
 10
-107.16201256
 20
-90.83312399
 30
0.0
 11
-106.90935021
 21
-90.4315402
 31
0.0
  0
LINE
  5
3DA
100
AcDbEntity
  8
レイヤー_1
  6
CONTINUOUS
 62
       3
100
AcDbLine
 10
-106.90935021
 20
-90.4315402
 30
0.0
 11
-106.69495357
 21
-90.0054948
 31
0.0
  0
LINE
  5
3DB
100
AcDbEntity
  8
レイヤー_1
  6
CONTINUOUS
 62
       3
100
AcDbLine
 10
-106.69495357
 20
-90.0054948
 30
0.0
 11
-106.52121966
 21
-89.55738673
 31
0.0
  0
LINE
  5
3DC
100
AcDbEntity
  8
レイヤー_1
  6
CONTINUOUS
 62
       3
100
AcDbLine
 10
-106.52121966
 20
-89.55738673
 30
0.0
 11
-106.39054552
 21
-89.08961496
 31
0.0
  0
LINE
  5
3DD
100
AcDbEntity
  8
レイヤー_1
  6
CONTINUOUS
 62
       3
100
AcDbLine
 10
-106.39054552
 20
-89.08961496
 30
0.0
 11
-106.30532817
 21
-88.60457843
 31
0.0
  0
LINE
  5
3DE
100
AcDbEntity
  8
レイヤー_1
  6
CONTINUOUS
 62
       3
100
AcDbLine
 10
-106.30532817
 20
-88.60457843
 30
0.0
 11
-106.26796464
 21
-88.1046761
 31
0.0
  0
LINE
  5
3DF
100
AcDbEntity
  8
レイヤー_1
  6
CONTINUOUS
 62
       3
100
AcDbLine
 10
-106.26796464
 20
-88.1046761
 30
0.0
 11
-106.28051486
 21
-87.59880004
 31
0.0
  0
LINE
  5
3E0
100
AcDbEntity
  8
レイヤー_1
  6
CONTINUOUS
 62
       3
100
AcDbLine
 10
-106.28051486
 20
-87.59880004
 30
0.0
 11
-106.34210494
 21
-87.10581389
 31
0.0
  0
LINE
  5
3E1
100
AcDbEntity
  8
レイヤー_1
  6
CONTINUOUS
 62
       3
100
AcDbLine
 10
-106.34210494
 20
-87.10581389
 30
0.0
 11
-106.45035031
 21
-86.62892096
 31
0.0
  0
LINE
  5
3E2
100
AcDbEntity
  8
レイヤー_1
  6
CONTINUOUS
 62
       3
100
AcDbLine
 10
-106.45035031
 20
-86.62892096
 30
0.0
 11
-106.60285396
 21
-86.17051827
 31
0.0
  0
LINE
  5
3E3
100
AcDbEntity
  8
レイヤー_1
  6
CONTINUOUS
 62
       3
100
AcDbLine
 10
-106.60285396
 20
-86.17051827
 30
0.0
 11
-106.79721886
 21
-85.73300285
 31
0.0
  0
LINE
  5
3E4
100
AcDbEntity
  8
レイヤー_1
  6
CONTINUOUS
 62
       3
100
AcDbLine
 10
-106.79721886
 20
-85.73300285
 30
0.0
 11
-107.03104798
 21
-85.31877173
 31
0.0
  0
LINE
  5
3E5
100
AcDbEntity
  8
レイヤー_1
  6
CONTINUOUS
 62
       3
100
AcDbLine
 10
-107.03104798
 20
-85.31877173
 30
0.0
 11
-107.3019443
 21
-84.93022194
 31
0.0
  0
LINE
  5
3E6
100
AcDbEntity
  8
レイヤー_1
  6
CONTINUOUS
 62
       3
100
AcDbLine
 10
-107.3019443
 20
-84.93022194
 30
0.0
 11
-107.6075108
 21
-84.56975049
 31
0.0
  0
LINE
  5
3E7
100
AcDbEntity
  8
レイヤー_1
  6
CONTINUOUS
 62
       3
100
AcDbLine
 10
-107.6075108
 20
-84.56975049
 30
0.0
 11
-107.94535043
 21
-84.23975442
 31
0.0
  0
LINE
  5
3E8
100
AcDbEntity
  8
レイヤー_1
  6
CONTINUOUS
 62
       3
100
AcDbLine
 10
-107.94535043
 20
-84.23975442
 30
0.0
 11
-108.31306619
 21
-83.94263074
 31
0.0
  0
LINE
  5
3E9
100
AcDbEntity
  8
レイヤー_1
  6
CONTINUOUS
 62
       3
100
AcDbLine
 10
-108.31306619
 20
-83.94263074
 30
0.0
 11
-108.70826104
 21
-83.6807765
 31
0.0
  0
LINE
  5
3EA
100
AcDbEntity
  8
レイヤー_1
  6
CONTINUOUS
 62
       3
100
AcDbLine
 10
-108.70826104
 20
-83.6807765
 30
0.0
 11
-109.12853796
 21
-83.45658871
 31
0.0
  0
LINE
  5
3EB
100
AcDbEntity
  8
レイヤー_1
  6
CONTINUOUS
 62
       3
100
AcDbLine
 10
-109.12853796
 20
-83.45658871
 30
0.0
 11
-109.57149991
 21
-83.2724644
 31
0.0
  0
LINE
  5
3EC
100
AcDbEntity
  8
レイヤー_1
  6
CONTINUOUS
 62
       3
100
AcDbLine
 10
-109.57149991
 20
-83.2724644
 30
0.0
 11
-110.03474988
 21
-83.1308006
 31
0.0
  0
LINE
  5
3ED
100
AcDbEntity
  8
レイヤー_1
  6
CONTINUOUS
 62
       3
100
AcDbLine
 10
-110.03474988
 20
-83.1308006
 30
0.0
 11
-110.51589084
 21
-83.03399433
 31
0.0
  0
LINE
  5
3EE
100
AcDbEntity
  8
レイヤー_1
  6
CONTINUOUS
 62
       3
100
AcDbLine
 10
-110.51589084
 20
-83.03399433
 30
0.0
 11
-111.01252576
 21
-82.98444262
 31
0.0
  0
LINE
  5
3EF
100
AcDbEntity
  8
レイヤー_1
  6
CONTINUOUS
 62
       3
100
AcDbLine
 10
-111.01252576
 20
-82.98444262
 30
0.0
 11
-111.51928301
 21
-82.98444262
 31
0.0
  0
LINE
  5
3F0
100
AcDbEntity
  8
レイヤー_1
  6
CONTINUOUS
 62
       3
100
AcDbLine
 10
-111.51928301
 20
-82.98444262
 30
0.0
 11
-112.01591793
 21
-83.03399433
 31
0.0
  0
LINE
  5
3F1
100
AcDbEntity
  8
レイヤー_1
  6
CONTINUOUS
 62
       3
100
AcDbLine
 10
-112.01591793
 20
-83.03399433
 30
0.0
 11
-112.49705889
 21
-83.1308006
 31
0.0
  0
LINE
  5
3F2
100
AcDbEntity
  8
レイヤー_1
  6
CONTINUOUS
 62
       3
100
AcDbLine
 10
-112.49705889
 20
-83.1308006
 30
0.0
 11
-112.96030886
 21
-83.2724644
 31
0.0
  0
LINE
  5
3F3
100
AcDbEntity
  8
レイヤー_1
  6
CONTINUOUS
 62
       3
100
AcDbLine
 10
-112.96030886
 20
-83.2724644
 30
0.0
 11
-113.40327081
 21
-83.45658871
 31
0.0
  0
LINE
  5
3F4
100
AcDbEntity
  8
レイヤー_1
  6
CONTINUOUS
 62
       3
100
AcDbLine
 10
-113.40327081
 20
-83.45658871
 30
0.0
 11
-113.82354773
 21
-83.6807765
 31
0.0
  0
LINE
  5
3F5
100
AcDbEntity
  8
レイヤー_1
  6
CONTINUOUS
 62
       3
100
AcDbLine
 10
-113.82354773
 20
-83.6807765
 30
0.0
 11
-114.21874258
 21
-83.94263074
 31
0.0
  0
LINE
  5
3F6
100
AcDbEntity
  8
レイヤー_1
  6
CONTINUOUS
 62
       3
100
AcDbLine
 10
-114.21874258
 20
-83.94263074
 30
0.0
 11
-114.58645833
 21
-84.23975442
 31
0.0
  0
LINE
  5
3F7
100
AcDbEntity
  8
レイヤー_1
  6
CONTINUOUS
 62
       3
100
AcDbLine
 10
-114.58645833
 20
-84.23975442
 30
0.0
 11
-114.92429797
 21
-84.56975049
 31
0.0
  0
LINE
  5
3F8
100
AcDbEntity
  8
レイヤー_1
  6
CONTINUOUS
 62
       3
100
AcDbLine
 10
-114.92429797
 20
-84.56975049
 30
0.0
 11
-115.22986446
 21
-84.93022194
 31
0.0
  0
LINE
  5
3F9
100
AcDbEntity
  8
レイヤー_1
  6
CONTINUOUS
 62
       3
100
AcDbLine
 10
-115.22986446
 20
-84.93022194
 30
0.0
 11
-115.50076079
 21
-85.31877173
 31
0.0
  0
LINE
  5
3FA
100
AcDbEntity
  8
レイヤー_1
  6
CONTINUOUS
 62
       3
100
AcDbLine
 10
-115.50076079
 20
-85.31877173
 30
0.0
 11
-115.73458991
 21
-85.73300285
 31
0.0
  0
LINE
  5
3FB
100
AcDbEntity
  8
レイヤー_1
  6
CONTINUOUS
 62
       3
100
AcDbLine
 10
-115.73458991
 20
-85.73300285
 30
0.0
 11
-115.92895481
 21
-86.17051827
 31
0.0
  0
LINE
  5
3FC
100
AcDbEntity
  8
レイヤー_1
  6
CONTINUOUS
 62
       3
100
AcDbLine
 10
-115.92895481
 20
-86.17051827
 30
0.0
 11
-116.08145846
 21
-86.62892096
 31
0.0
  0
LINE
  5
3FD
100
AcDbEntity
  8
レイヤー_1
  6
CONTINUOUS
 62
       3
100
AcDbLine
 10
-116.08145846
 20
-86.62892096
 30
0.0
 11
-116.18970383
 21
-87.10581389
 31
0.0
  0
LINE
  5
3FE
100
AcDbEntity
  8
レイヤー_1
  6
CONTINUOUS
 62
       3
100
AcDbLine
 10
-116.18970383
 20
-87.10581389
 30
0.0
 11
-116.2512939
 21
-87.59880004
 31
0.0
  0
LINE
  5
3FF
100
AcDbEntity
  8
レイヤー_1
  6
CONTINUOUS
 62
       3
100
AcDbLine
 10
-116.2512939
 20
-87.59880004
 30
0.0
 11
-116.26384413
 21
-88.1046761
 31
0.0
  0
LINE
  5
400
100
AcDbEntity
  8
レイヤー_1
  6
CONTINUOUS
 62
       3
100
AcDbLine
 10
-116.26384413
 20
-88.1046761
 30
0.0
 11
-116.22648059
 21
-88.60457843
 31
0.0
  0
LINE
  5
401
100
AcDbEntity
  8
レイヤー_1
  6
CONTINUOUS
 62
       3
100
AcDbLine
 10
-116.22648059
 20
-88.60457843
 30
0.0
 11
-116.14126324
 21
-89.08961496
 31
0.0
  0
LINE
  5
402
100
AcDbEntity
  8
レイヤー_1
  6
CONTINUOUS
 62
       3
100
AcDbLine
 10
-116.14126324
 20
-89.08961496
 30
0.0
 11
-116.0105891
 21
-89.55738673
 31
0.0
  0
LINE
  5
403
100
AcDbEntity
  8
レイヤー_1
  6
CONTINUOUS
 62
       3
100
AcDbLine
 10
-116.0105891
 20
-89.55738673
 30
0.0
 11
-115.8368552
 21
-90.0054948
 31
0.0
  0
LINE
  5
404
100
AcDbEntity
  8
レイヤー_1
  6
CONTINUOUS
 62
       3
100
AcDbLine
 10
-115.8368552
 20
-90.0054948
 30
0.0
 11
-115.62245856
 21
-90.4315402
 31
0.0
  0
LINE
  5
405
100
AcDbEntity
  8
レイヤー_1
  6
CONTINUOUS
 62
       3
100
AcDbLine
 10
-115.62245856
 20
-90.4315402
 30
0.0
 11
-115.36979621
 21
-90.83312399
 31
0.0
  0
LINE
  5
406
100
AcDbEntity
  8
レイヤー_1
  6
CONTINUOUS
 62
       3
100
AcDbLine
 10
-115.36979621
 20
-90.83312399
 30
0.0
 11
-115.08126518
 21
-91.20784721
 31
0.0
  0
LINE
  5
407
100
AcDbEntity
  8
レイヤー_1
  6
CONTINUOUS
 62
       3
100
AcDbLine
 10
-115.08126518
 20
-91.20784721
 30
0.0
 11
-114.75926248
 21
-91.55331091
 31
0.0
  0
LINE
  5
408
100
AcDbEntity
  8
レイヤー_1
  6
CONTINUOUS
 62
       3
100
AcDbLine
 10
-114.75926248
 20
-91.55331091
 30
0.0
 11
-114.40618516
 21
-91.86711614
 31
0.0
  0
LINE
  5
409
100
AcDbEntity
  8
レイヤー_1
  6
CONTINUOUS
 62
       3
100
AcDbLine
 10
-114.40618516
 20
-91.86711614
 30
0.0
 11
-114.02443022
 21
-92.14686394
 31
0.0
  0
LINE
  5
40A
100
AcDbEntity
  8
レイヤー_1
  6
CONTINUOUS
 62
       3
100
AcDbLine
 10
-114.02443022
 20
-92.14686394
 30
0.0
 11
-113.61639471
 21
-92.39015536
 31
0.0
  0
LINE
  5
40B
100
AcDbEntity
  8
レイヤー_1
  6
CONTINUOUS
 62
       3
100
AcDbLine
 10
-113.61639471
 20
-92.39015536
 30
0.0
 11
-113.18447565
 21
-92.59459144
 31
0.0
  0
LINE
  5
40C
100
AcDbEntity
  8
レイヤー_1
  6
CONTINUOUS
 62
       3
100
AcDbLine
 10
-113.18447565
 20
-92.59459144
 30
0.0
 11
-112.73107006
 21
-92.75777324
 31
0.0
  0
LINE
  5
40D
100
AcDbEntity
  8
レイヤー_1
  6
CONTINUOUS
 62
       3
100
AcDbLine
 10
-112.73107006
 20
-92.75777324
 30
0.0
 11
-112.25857497
 21
-92.87730181
 31
0.0
  0
LINE
  5
40E
100
AcDbEntity
  8
レイヤー_1
  6
CONTINUOUS
 62
       3
100
AcDbLine
 10
-112.25857497
 20
-92.87730181
 30
0.0
 11
-111.7693874
 21
-92.95077817
 31
0.0
  0
LINE
  5
40F
100
AcDbEntity
  8
レイヤー_1
  6
CONTINUOUS
 62
       3
100
AcDbLine
 10
-111.7693874
 20
-92.95077817
 30
0.0
 11
-111.26590438
 21
-92.9758034
 31
0.0
  0
LINE
  5
410
100
AcDbEntity
  8
レイヤー_1
  6
CONTINUOUS
 62
       3
100
AcDbLine
 10
-97.73632539
 20
-92.9758034
 30
0.0
 11
-97.23284238
 21
-92.95077817
 31
0.0
  0
LINE
  5
411
100
AcDbEntity
  8
レイヤー_1
  6
CONTINUOUS
 62
       3
100
AcDbLine
 10
-97.23284238
 20
-92.95077817
 30
0.0
 11
-96.74365481
 21
-92.87730181
 31
0.0
  0
LINE
  5
412
100
AcDbEntity
  8
レイヤー_1
  6
CONTINUOUS
 62
       3
100
AcDbLine
 10
-96.74365481
 20
-92.87730181
 30
0.0
 11
-96.27115972
 21
-92.75777324
 31
0.0
  0
LINE
  5
413
100
AcDbEntity
  8
レイヤー_1
  6
CONTINUOUS
 62
       3
100
AcDbLine
 10
-96.27115972
 20
-92.75777324
 30
0.0
 11
-95.81775413
 21
-92.59459144
 31
0.0
  0
LINE
  5
414
100
AcDbEntity
  8
レイヤー_1
  6
CONTINUOUS
 62
       3
100
AcDbLine
 10
-95.81775413
 20
-92.59459144
 30
0.0
 11
-95.38583506
 21
-92.39015536
 31
0.0
  0
LINE
  5
415
100
AcDbEntity
  8
レイヤー_1
  6
CONTINUOUS
 62
       3
100
AcDbLine
 10
-95.38583506
 20
-92.39015536
 30
0.0
 11
-94.97779955
 21
-92.14686394
 31
0.0
  0
LINE
  5
416
100
AcDbEntity
  8
レイヤー_1
  6
CONTINUOUS
 62
       3
100
AcDbLine
 10
-94.97779955
 20
-92.14686394
 30
0.0
 11
-94.59604462
 21
-91.86711614
 31
0.0
  0
LINE
  5
417
100
AcDbEntity
  8
レイヤー_1
  6
CONTINUOUS
 62
       3
100
AcDbLine
 10
-94.59604462
 20
-91.86711614
 30
0.0
 11
-94.2429673
 21
-91.55331091
 31
0.0
  0
LINE
  5
418
100
AcDbEntity
  8
レイヤー_1
  6
CONTINUOUS
 62
       3
100
AcDbLine
 10
-94.2429673
 20
-91.55331091
 30
0.0
 11
-93.9209646
 21
-91.20784721
 31
0.0
  0
LINE
  5
419
100
AcDbEntity
  8
レイヤー_1
  6
CONTINUOUS
 62
       3
100
AcDbLine
 10
-93.9209646
 20
-91.20784721
 30
0.0
 11
-93.63243356
 21
-90.83312399
 31
0.0
  0
LINE
  5
41A
100
AcDbEntity
  8
レイヤー_1
  6
CONTINUOUS
 62
       3
100
AcDbLine
 10
-93.63243356
 20
-90.83312399
 30
0.0
 11
-93.37977122
 21
-90.4315402
 31
0.0
  0
LINE
  5
41B
100
AcDbEntity
  8
レイヤー_1
  6
CONTINUOUS
 62
       3
100
AcDbLine
 10
-93.37977122
 20
-90.4315402
 30
0.0
 11
-93.16537458
 21
-90.0054948
 31
0.0
  0
LINE
  5
41C
100
AcDbEntity
  8
レイヤー_1
  6
CONTINUOUS
 62
       3
100
AcDbLine
 10
-93.16537458
 20
-90.0054948
 30
0.0
 11
-92.99164067
 21
-89.55738673
 31
0.0
  0
LINE
  5
41D
100
AcDbEntity
  8
レイヤー_1
  6
CONTINUOUS
 62
       3
100
AcDbLine
 10
-92.99164067
 20
-89.55738673
 30
0.0
 11
-92.86096653
 21
-89.08961496
 31
0.0
  0
LINE
  5
41E
100
AcDbEntity
  8
レイヤー_1
  6
CONTINUOUS
 62
       3
100
AcDbLine
 10
-92.86096653
 20
-89.08961496
 30
0.0
 11
-92.77574918
 21
-88.60457843
 31
0.0
  0
LINE
  5
41F
100
AcDbEntity
  8
レイヤー_1
  6
CONTINUOUS
 62
       3
100
AcDbLine
 10
-92.77574918
 20
-88.60457843
 30
0.0
 11
-92.73838565
 21
-88.1046761
 31
0.0
  0
LINE
  5
420
100
AcDbEntity
  8
レイヤー_1
  6
CONTINUOUS
 62
       3
100
AcDbLine
 10
-92.73838565
 20
-88.1046761
 30
0.0
 11
-92.75093587
 21
-87.59880004
 31
0.0
  0
LINE
  5
421
100
AcDbEntity
  8
レイヤー_1
  6
CONTINUOUS
 62
       3
100
AcDbLine
 10
-92.75093587
 20
-87.59880004
 30
0.0
 11
-92.81252595
 21
-87.10581389
 31
0.0
  0
LINE
  5
422
100
AcDbEntity
  8
レイヤー_1
  6
CONTINUOUS
 62
       3
100
AcDbLine
 10
-92.81252595
 20
-87.10581389
 30
0.0
 11
-92.92077132
 21
-86.62892096
 31
0.0
  0
LINE
  5
423
100
AcDbEntity
  8
レイヤー_1
  6
CONTINUOUS
 62
       3
100
AcDbLine
 10
-92.92077132
 20
-86.62892096
 30
0.0
 11
-93.07327497
 21
-86.17051827
 31
0.0
  0
LINE
  5
424
100
AcDbEntity
  8
レイヤー_1
  6
CONTINUOUS
 62
       3
100
AcDbLine
 10
-93.07327497
 20
-86.17051827
 30
0.0
 11
-93.26763987
 21
-85.73300285
 31
0.0
  0
LINE
  5
425
100
AcDbEntity
  8
レイヤー_1
  6
CONTINUOUS
 62
       3
100
AcDbLine
 10
-93.26763987
 20
-85.73300285
 30
0.0
 11
-93.50146899
 21
-85.31877173
 31
0.0
  0
LINE
  5
426
100
AcDbEntity
  8
レイヤー_1
  6
CONTINUOUS
 62
       3
100
AcDbLine
 10
-93.50146899
 20
-85.31877173
 30
0.0
 11
-93.77236531
 21
-84.93022194
 31
0.0
  0
LINE
  5
427
100
AcDbEntity
  8
レイヤー_1
  6
CONTINUOUS
 62
       3
100
AcDbLine
 10
-93.77236531
 20
-84.93022194
 30
0.0
 11
-94.07793181
 21
-84.56975049
 31
0.0
  0
LINE
  5
428
100
AcDbEntity
  8
レイヤー_1
  6
CONTINUOUS
 62
       3
100
AcDbLine
 10
-94.07793181
 20
-84.56975049
 30
0.0
 11
-94.41577144
 21
-84.23975442
 31
0.0
  0
LINE
  5
429
100
AcDbEntity
  8
レイヤー_1
  6
CONTINUOUS
 62
       3
100
AcDbLine
 10
-94.41577144
 20
-84.23975442
 30
0.0
 11
-94.7834872
 21
-83.94263074
 31
0.0
  0
LINE
  5
42A
100
AcDbEntity
  8
レイヤー_1
  6
CONTINUOUS
 62
       3
100
AcDbLine
 10
-94.7834872
 20
-83.94263074
 30
0.0
 11
-95.17868205
 21
-83.6807765
 31
0.0
  0
LINE
  5
42B
100
AcDbEntity
  8
レイヤー_1
  6
CONTINUOUS
 62
       3
100
AcDbLine
 10
-95.17868205
 20
-83.6807765
 30
0.0
 11
-95.59895897
 21
-83.45658871
 31
0.0
  0
LINE
  5
42C
100
AcDbEntity
  8
レイヤー_1
  6
CONTINUOUS
 62
       3
100
AcDbLine
 10
-95.59895897
 20
-83.45658871
 30
0.0
 11
-96.04192092
 21
-83.2724644
 31
0.0
  0
LINE
  5
42D
100
AcDbEntity
  8
レイヤー_1
  6
CONTINUOUS
 62
       3
100
AcDbLine
 10
-96.04192092
 20
-83.2724644
 30
0.0
 11
-96.50517088
 21
-83.1308006
 31
0.0
  0
LINE
  5
42E
100
AcDbEntity
  8
レイヤー_1
  6
CONTINUOUS
 62
       3
100
AcDbLine
 10
-96.50517088
 20
-83.1308006
 30
0.0
 11
-96.98631185
 21
-83.03399433
 31
0.0
  0
LINE
  5
42F
100
AcDbEntity
  8
レイヤー_1
  6
CONTINUOUS
 62
       3
100
AcDbLine
 10
-96.98631185
 20
-83.03399433
 30
0.0
 11
-97.48294677
 21
-82.98444262
 31
0.0
  0
LINE
  5
430
100
AcDbEntity
  8
レイヤー_1
  6
CONTINUOUS
 62
       3
100
AcDbLine
 10
-97.48294677
 20
-82.98444262
 30
0.0
 11
-97.98970402
 21
-82.98444262
 31
0.0
  0
LINE
  5
431
100
AcDbEntity
  8
レイヤー_1
  6
CONTINUOUS
 62
       3
100
AcDbLine
 10
-97.98970402
 20
-82.98444262
 30
0.0
 11
-98.48633894
 21
-83.03399433
 31
0.0
  0
LINE
  5
432
100
AcDbEntity
  8
レイヤー_1
  6
CONTINUOUS
 62
       3
100
AcDbLine
 10
-98.48633894
 20
-83.03399433
 30
0.0
 11
-98.9674799
 21
-83.1308006
 31
0.0
  0
LINE
  5
433
100
AcDbEntity
  8
レイヤー_1
  6
CONTINUOUS
 62
       3
100
AcDbLine
 10
-98.9674799
 20
-83.1308006
 30
0.0
 11
-99.43072987
 21
-83.2724644
 31
0.0
  0
LINE
  5
434
100
AcDbEntity
  8
レイヤー_1
  6
CONTINUOUS
 62
       3
100
AcDbLine
 10
-99.43072987
 20
-83.2724644
 30
0.0
 11
-99.87369182
 21
-83.45658871
 31
0.0
  0
LINE
  5
435
100
AcDbEntity
  8
レイヤー_1
  6
CONTINUOUS
 62
       3
100
AcDbLine
 10
-99.87369182
 20
-83.45658871
 30
0.0
 11
-100.29396874
 21
-83.6807765
 31
0.0
  0
LINE
  5
436
100
AcDbEntity
  8
レイヤー_1
  6
CONTINUOUS
 62
       3
100
AcDbLine
 10
-100.29396874
 20
-83.6807765
 30
0.0
 11
-100.68916359
 21
-83.94263074
 31
0.0
  0
LINE
  5
437
100
AcDbEntity
  8
レイヤー_1
  6
CONTINUOUS
 62
       3
100
AcDbLine
 10
-100.68916359
 20
-83.94263074
 30
0.0
 11
-101.05687934
 21
-84.23975442
 31
0.0
  0
LINE
  5
438
100
AcDbEntity
  8
レイヤー_1
  6
CONTINUOUS
 62
       3
100
AcDbLine
 10
-101.05687934
 20
-84.23975442
 30
0.0
 11
-101.39471898
 21
-84.56975049
 31
0.0
  0
LINE
  5
439
100
AcDbEntity
  8
レイヤー_1
  6
CONTINUOUS
 62
       3
100
AcDbLine
 10
-101.39471898
 20
-84.56975049
 30
0.0
 11
-101.70028548
 21
-84.93022194
 31
0.0
  0
LINE
  5
43A
100
AcDbEntity
  8
レイヤー_1
  6
CONTINUOUS
 62
       3
100
AcDbLine
 10
-101.70028548
 20
-84.93022194
 30
0.0
 11
-101.9711818
 21
-85.31877173
 31
0.0
  0
LINE
  5
43B
100
AcDbEntity
  8
レイヤー_1
  6
CONTINUOUS
 62
       3
100
AcDbLine
 10
-101.9711818
 20
-85.31877173
 30
0.0
 11
-102.20501092
 21
-85.73300285
 31
0.0
  0
LINE
  5
43C
100
AcDbEntity
  8
レイヤー_1
  6
CONTINUOUS
 62
       3
100
AcDbLine
 10
-102.20501092
 20
-85.73300285
 30
0.0
 11
-102.39937582
 21
-86.17051827
 31
0.0
  0
LINE
  5
43D
100
AcDbEntity
  8
レイヤー_1
  6
CONTINUOUS
 62
       3
100
AcDbLine
 10
-102.39937582
 20
-86.17051827
 30
0.0
 11
-102.55187947
 21
-86.62892096
 31
0.0
  0
LINE
  5
43E
100
AcDbEntity
  8
レイヤー_1
  6
CONTINUOUS
 62
       3
100
AcDbLine
 10
-102.55187947
 20
-86.62892096
 30
0.0
 11
-102.66012484
 21
-87.10581389
 31
0.0
  0
LINE
  5
43F
100
AcDbEntity
  8
レイヤー_1
  6
CONTINUOUS
 62
       3
100
AcDbLine
 10
-102.66012484
 20
-87.10581389
 30
0.0
 11
-102.72171491
 21
-87.59880004
 31
0.0
  0
LINE
  5
440
100
AcDbEntity
  8
レイヤー_1
  6
CONTINUOUS
 62
       3
100
AcDbLine
 10
-102.72171491
 20
-87.59880004
 30
0.0
 11
-102.73426514
 21
-88.1046761
 31
0.0
  0
LINE
  5
441
100
AcDbEntity
  8
レイヤー_1
  6
CONTINUOUS
 62
       3
100
AcDbLine
 10
-102.73426514
 20
-88.1046761
 30
0.0
 11
-102.6969016
 21
-88.60457843
 31
0.0
  0
LINE
  5
442
100
AcDbEntity
  8
レイヤー_1
  6
CONTINUOUS
 62
       3
100
AcDbLine
 10
-102.6969016
 20
-88.60457843
 30
0.0
 11
-102.61168425
 21
-89.08961496
 31
0.0
  0
LINE
  5
443
100
AcDbEntity
  8
レイヤー_1
  6
CONTINUOUS
 62
       3
100
AcDbLine
 10
-102.61168425
 20
-89.08961496
 30
0.0
 11
-102.48101011
 21
-89.55738673
 31
0.0
  0
LINE
  5
444
100
AcDbEntity
  8
レイヤー_1
  6
CONTINUOUS
 62
       3
100
AcDbLine
 10
-102.48101011
 20
-89.55738673
 30
0.0
 11
-102.30727621
 21
-90.0054948
 31
0.0
  0
LINE
  5
445
100
AcDbEntity
  8
レイヤー_1
  6
CONTINUOUS
 62
       3
100
AcDbLine
 10
-102.30727621
 20
-90.0054948
 30
0.0
 11
-102.09287957
 21
-90.4315402
 31
0.0
  0
LINE
  5
446
100
AcDbEntity
  8
レイヤー_1
  6
CONTINUOUS
 62
       3
100
AcDbLine
 10
-102.09287957
 20
-90.4315402
 30
0.0
 11
-101.84021722
 21
-90.83312399
 31
0.0
  0
LINE
  5
447
100
AcDbEntity
  8
レイヤー_1
  6
CONTINUOUS
 62
       3
100
AcDbLine
 10
-101.84021722
 20
-90.83312399
 30
0.0
 11
-101.55168619
 21
-91.20784721
 31
0.0
  0
LINE
  5
448
100
AcDbEntity
  8
レイヤー_1
  6
CONTINUOUS
 62
       3
100
AcDbLine
 10
-101.55168619
 20
-91.20784721
 30
0.0
 11
-101.22968349
 21
-91.55331091
 31
0.0
  0
LINE
  5
449
100
AcDbEntity
  8
レイヤー_1
  6
CONTINUOUS
 62
       3
100
AcDbLine
 10
-101.22968349
 20
-91.55331091
 30
0.0
 11
-100.87660617
 21
-91.86711614
 31
0.0
  0
LINE
  5
44A
100
AcDbEntity
  8
レイヤー_1
  6
CONTINUOUS
 62
       3
100
AcDbLine
 10
-100.87660617
 20
-91.86711614
 30
0.0
 11
-100.49485124
 21
-92.14686394
 31
0.0
  0
LINE
  5
44B
100
AcDbEntity
  8
レイヤー_1
  6
CONTINUOUS
 62
       3
100
AcDbLine
 10
-100.49485124
 20
-92.14686394
 30
0.0
 11
-100.08681572
 21
-92.39015536
 31
0.0
  0
LINE
  5
44C
100
AcDbEntity
  8
レイヤー_1
  6
CONTINUOUS
 62
       3
100
AcDbLine
 10
-100.08681572
 20
-92.39015536
 30
0.0
 11
-99.65489666
 21
-92.59459144
 31
0.0
  0
LINE
  5
44D
100
AcDbEntity
  8
レイヤー_1
  6
CONTINUOUS
 62
       3
100
AcDbLine
 10
-99.65489666
 20
-92.59459144
 30
0.0
 11
-99.20149106
 21
-92.75777324
 31
0.0
  0
LINE
  5
44E
100
AcDbEntity
  8
レイヤー_1
  6
CONTINUOUS
 62
       3
100
AcDbLine
 10
-99.20149106
 20
-92.75777324
 30
0.0
 11
-98.72899598
 21
-92.87730181
 31
0.0
  0
LINE
  5
44F
100
AcDbEntity
  8
レイヤー_1
  6
CONTINUOUS
 62
       3
100
AcDbLine
 10
-98.72899598
 20
-92.87730181
 30
0.0
 11
-98.23980841
 21
-92.95077817
 31
0.0
  0
LINE
  5
450
100
AcDbEntity
  8
レイヤー_1
  6
CONTINUOUS
 62
       3
100
AcDbLine
 10
-98.23980841
 20
-92.95077817
 30
0.0
 11
-97.73632539
 21
-92.9758034
 31
0.0
  0
LINE
  5
451
100
AcDbEntity
  8
レイヤー_1
  6
CONTINUOUS
 62
       3
100
AcDbLine
 10
-138.23824596
 20
99.08069069
 30
0.0
 11
-137.73474793
 21
99.10573093
 31
0.0
  0
LINE
  5
452
100
AcDbEntity
  8
レイヤー_1
  6
CONTINUOUS
 62
       3
100
AcDbLine
 10
-137.73474793
 20
99.10573093
 30
0.0
 11
-137.24551789
 21
99.17924977
 31
0.0
  0
LINE
  5
453
100
AcDbEntity
  8
レイヤー_1
  6
CONTINUOUS
 62
       3
100
AcDbLine
 10
-137.24551789
 20
99.17924977
 30
0.0
 11
-136.77295672
 21
99.29884441
 31
0.0
  0
LINE
  5
454
100
AcDbEntity
  8
レイヤー_1
  6
CONTINUOUS
 62
       3
100
AcDbLine
 10
-136.77295672
 20
99.29884441
 30
0.0
 11
-136.31946529
 21
99.46211204
 31
0.0
  0
LINE
  5
455
100
AcDbEntity
  8
レイヤー_1
  6
CONTINUOUS
 62
       3
100
AcDbLine
 10
-136.31946529
 20
99.46211204
 30
0.0
 11
-135.88744452
 21
99.66664985
 31
0.0
  0
LINE
  5
456
100
AcDbEntity
  8
レイヤー_1
  6
CONTINUOUS
 62
       3
100
AcDbLine
 10
-135.88744452
 20
99.66664985
 30
0.0
 11
-135.47929524
 21
99.91005503
 31
0.0
  0
LINE
  5
457
100
AcDbEntity
  8
レイヤー_1
  6
CONTINUOUS
 62
       3
100
AcDbLine
 10
-135.47929524
 20
99.91005503
 30
0.0
 11
-135.09741834
 21
100.18992479
 31
0.0
  0
LINE
  5
458
100
AcDbEntity
  8
レイヤー_1
  6
CONTINUOUS
 62
       3
100
AcDbLine
 10
-135.09741834
 20
100.18992479
 30
0.0
 11
-134.74421474
 21
100.5038563
 31
0.0
  0
LINE
  5
459
100
AcDbEntity
  8
レイヤー_1
  6
CONTINUOUS
 62
       3
100
AcDbLine
 10
-134.74421474
 20
100.5038563
 30
0.0
 11
-134.42208527
 21
100.84944678
 31
0.0
  0
LINE
  5
45A
100
AcDbEntity
  8
レイヤー_1
  6
CONTINUOUS
 62
       3
100
AcDbLine
 10
-134.42208527
 20
100.84944678
 30
0.0
 11
-134.13343084
 21
101.2242934
 31
0.0
  0
LINE
  5
45B
100
AcDbEntity
  8
レイヤー_1
  6
CONTINUOUS
 62
       3
100
AcDbLine
 10
-134.13343084
 20
101.2242934
 30
0.0
 11
-133.88065231
 21
101.62599336
 31
0.0
  0
LINE
  5
45C
100
AcDbEntity
  8
レイヤー_1
  6
CONTINUOUS
 62
       3
100
AcDbLine
 10
-133.88065231
 20
101.62599336
 30
0.0
 11
-133.66615058
 21
102.05214386
 31
0.0
  0
LINE
  5
45D
100
AcDbEntity
  8
レイヤー_1
  6
CONTINUOUS
 62
       3
100
AcDbLine
 10
-133.66615058
 20
102.05214386
 30
0.0
 11
-133.4923265
 21
102.50034208
 31
0.0
  0
LINE
  5
45E
100
AcDbEntity
  8
レイヤー_1
  6
CONTINUOUS
 62
       3
100
AcDbLine
 10
-133.4923265
 20
102.50034208
 30
0.0
 11
-133.361581
 21
102.96818523
 31
0.0
  0
LINE
  5
45F
100
AcDbEntity
  8
レイヤー_1
  6
CONTINUOUS
 62
       3
100
AcDbLine
 10
-133.361581
 20
102.96818523
 30
0.0
 11
-133.27631492
 21
103.45327049
 31
0.0
  0
LINE
  5
460
100
AcDbEntity
  8
レイヤー_1
  6
CONTINUOUS
 62
       3
100
AcDbLine
 10
-133.27631492
 20
103.45327049
 30
0.0
 11
-133.23892914
 21
103.95319506
 31
0.0
  0
LINE
  5
461
100
AcDbEntity
  8
レイヤー_1
  6
CONTINUOUS
 62
       3
100
AcDbLine
 10
-133.23892914
 20
103.95319506
 30
0.0
 11
-133.25148694
 21
104.45907209
 31
0.0
  0
LINE
  5
462
100
AcDbEntity
  8
レイヤー_1
  6
CONTINUOUS
 62
       3
100
AcDbLine
 10
-133.25148694
 20
104.45907209
 30
0.0
 11
-133.31311297
 21
104.95205824
 31
0.0
  0
LINE
  5
463
100
AcDbEntity
  8
レイヤー_1
  6
CONTINUOUS
 62
       3
100
AcDbLine
 10
-133.31311297
 20
104.95205824
 30
0.0
 11
-133.42141888
 21
105.42895117
 31
0.0
  0
LINE
  5
464
100
AcDbEntity
  8
レイヤー_1
  6
CONTINUOUS
 62
       3
100
AcDbLine
 10
-133.42141888
 20
105.42895117
 30
0.0
 11
-133.57400377
 21
105.88735386
 31
0.0
  0
LINE
  5
465
100
AcDbEntity
  8
レイヤー_1
  6
CONTINUOUS
 62
       3
100
AcDbLine
 10
-133.57400377
 20
105.88735386
 30
0.0
 11
-133.76846678
 21
106.32486928
 31
0.0
  0
LINE
  5
466
100
AcDbEntity
  8
レイヤー_1
  6
CONTINUOUS
 62
       3
100
AcDbLine
 10
-133.76846678
 20
106.32486928
 30
0.0
 11
-134.00240703
 21
106.7391004
 31
0.0
  0
LINE
  5
467
100
AcDbEntity
  8
レイヤー_1
  6
CONTINUOUS
 62
       3
100
AcDbLine
 10
-134.00240703
 20
106.7391004
 30
0.0
 11
-134.27342362
 21
107.12765019
 31
0.0
  0
LINE
  5
468
100
AcDbEntity
  8
レイヤー_1
  6
CONTINUOUS
 62
       3
100
AcDbLine
 10
-134.27342362
 20
107.12765019
 30
0.0
 11
-134.57911568
 21
107.48812164
 31
0.0
  0
LINE
  5
469
100
AcDbEntity
  8
レイヤー_1
  6
CONTINUOUS
 62
       3
100
AcDbLine
 10
-134.57911568
 20
107.48812164
 30
0.0
 11
-134.91708233
 21
107.81811772
 31
0.0
  0
LINE
  5
46A
100
AcDbEntity
  8
レイヤー_1
  6
CONTINUOUS
 62
       3
100
AcDbLine
 10
-134.91708233
 20
107.81811772
 30
0.0
 11
-135.28492269
 21
108.11524139
 31
0.0
  0
LINE
  5
46B
100
AcDbEntity
  8
レイヤー_1
  6
CONTINUOUS
 62
       3
100
AcDbLine
 10
-135.28492269
 20
108.11524139
 30
0.0
 11
-135.68023587
 21
108.37709563
 31
0.0
  0
LINE
  5
46C
100
AcDbEntity
  8
レイヤー_1
  6
CONTINUOUS
 62
       3
100
AcDbLine
 10
-135.68023587
 20
108.37709563
 30
0.0
 11
-136.10062103
 21
108.60128342
 31
0.0
  0
LINE
  5
46D
100
AcDbEntity
  8
レイヤー_1
  6
CONTINUOUS
 62
       3
100
AcDbLine
 10
-136.10062103
 20
108.60128342
 30
0.0
 11
-136.54367724
 21
108.78540773
 31
0.0
  0
LINE
  5
46E
100
AcDbEntity
  8
レイヤー_1
  6
CONTINUOUS
 62
       3
100
AcDbLine
 10
-136.54367724
 20
108.78540773
 30
0.0
 11
-137.00700363
 21
108.92707153
 31
0.0
  0
LINE
  5
46F
100
AcDbEntity
  8
レイヤー_1
  6
CONTINUOUS
 62
       3
100
AcDbLine
 10
-137.00700363
 20
108.92707153
 30
0.0
 11
-137.48819935
 21
109.0238778
 31
0.0
  0
LINE
  5
470
100
AcDbEntity
  8
レイヤー_1
  6
CONTINUOUS
 62
       3
100
AcDbLine
 10
-137.48819935
 20
109.0238778
 30
0.0
 11
-137.9848635
 21
109.07342951
 31
0.0
  0
LINE
  5
471
100
AcDbEntity
  8
レイヤー_1
  6
CONTINUOUS
 62
       3
100
AcDbLine
 10
-137.9848635
 20
109.07342951
 30
0.0
 11
-138.49150509
 21
109.07342951
 31
0.0
  0
LINE
  5
472
100
AcDbEntity
  8
レイヤー_1
  6
CONTINUOUS
 62
       3
100
AcDbLine
 10
-138.49150509
 20
109.07342951
 30
0.0
 11
-138.98794508
 21
109.0238778
 31
0.0
  0
LINE
  5
473
100
AcDbEntity
  8
レイヤー_1
  6
CONTINUOUS
 62
       3
100
AcDbLine
 10
-138.98794508
 20
109.0238778
 30
0.0
 11
-139.46894508
 21
108.92707153
 31
0.0
  0
LINE
  5
474
100
AcDbEntity
  8
レイヤー_1
  6
CONTINUOUS
 62
       3
100
AcDbLine
 10
-139.46894508
 20
108.92707153
 30
0.0
 11
-139.93210226
 21
108.78540773
 31
0.0
  0
LINE
  5
475
100
AcDbEntity
  8
レイヤー_1
  6
CONTINUOUS
 62
       3
100
AcDbLine
 10
-139.93210226
 20
108.78540773
 30
0.0
 11
-140.37501381
 21
108.60128342
 31
0.0
  0
LINE
  5
476
100
AcDbEntity
  8
レイヤー_1
  6
CONTINUOUS
 62
       3
100
AcDbLine
 10
-140.37501381
 20
108.60128342
 30
0.0
 11
-140.79527695
 21
108.37709563
 31
0.0
  0
LINE
  5
477
100
AcDbEntity
  8
レイヤー_1
  6
CONTINUOUS
 62
       3
100
AcDbLine
 10
-140.79527695
 20
108.37709563
 30
0.0
 11
-141.19048884
 21
108.11524139
 31
0.0
  0
LINE
  5
478
100
AcDbEntity
  8
レイヤー_1
  6
CONTINUOUS
 62
       3
100
AcDbLine
 10
-141.19048884
 20
108.11524139
 30
0.0
 11
-141.55824668
 21
107.81811772
 31
0.0
  0
LINE
  5
479
100
AcDbEntity
  8
レイヤー_1
  6
CONTINUOUS
 62
       3
100
AcDbLine
 10
-141.55824668
 20
107.81811772
 30
0.0
 11
-141.89614768
 21
107.48812164
 31
0.0
  0
LINE
  5
47A
100
AcDbEntity
  8
レイヤー_1
  6
CONTINUOUS
 62
       3
100
AcDbLine
 10
-141.89614768
 20
107.48812164
 30
0.0
 11
-142.20178902
 21
107.12765019
 31
0.0
  0
LINE
  5
47B
100
AcDbEntity
  8
レイヤー_1
  6
CONTINUOUS
 62
       3
100
AcDbLine
 10
-142.20178902
 20
107.12765019
 30
0.0
 11
-142.4727679
 21
106.7391004
 31
0.0
  0
LINE
  5
47C
100
AcDbEntity
  8
レイヤー_1
  6
CONTINUOUS
 62
       3
100
AcDbLine
 10
-142.4727679
 20
106.7391004
 30
0.0
 11
-142.7066815
 21
106.32486928
 31
0.0
  0
LINE
  5
47D
100
AcDbEntity
  8
レイヤー_1
  6
CONTINUOUS
 62
       3
100
AcDbLine
 10
-142.7066815
 20
106.32486928
 30
0.0
 11
-142.90112702
 21
105.88735386
 31
0.0
  0
LINE
  5
47E
100
AcDbEntity
  8
レイヤー_1
  6
CONTINUOUS
 62
       3
100
AcDbLine
 10
-142.90112702
 20
105.88735386
 30
0.0
 11
-143.05370167
 21
105.42895117
 31
0.0
  0
LINE
  5
47F
100
AcDbEntity
  8
レイヤー_1
  6
CONTINUOUS
 62
       3
100
AcDbLine
 10
-143.05370167
 20
105.42895117
 30
0.0
 11
-143.16200262
 21
104.95205824
 31
0.0
  0
LINE
  5
480
100
AcDbEntity
  8
レイヤー_1
  6
CONTINUOUS
 62
       3
100
AcDbLine
 10
-143.16200262
 20
104.95205824
 30
0.0
 11
-143.22362708
 21
104.45907209
 31
0.0
  0
LINE
  5
481
100
AcDbEntity
  8
レイヤー_1
  6
CONTINUOUS
 62
       3
100
AcDbLine
 10
-143.22362708
 20
104.45907209
 30
0.0
 11
-143.23618473
 21
103.95319506
 31
0.0
  0
LINE
  5
482
100
AcDbEntity
  8
レイヤー_1
  6
CONTINUOUS
 62
       3
100
AcDbLine
 10
-143.23618473
 20
103.95319506
 30
0.0
 11
-143.19879959
 21
103.45327049
 31
0.0
  0
LINE
  5
483
100
AcDbEntity
  8
レイヤー_1
  6
CONTINUOUS
 62
       3
100
AcDbLine
 10
-143.19879959
 20
103.45327049
 30
0.0
 11
-143.11353653
 21
102.96818523
 31
0.0
  0
LINE
  5
484
100
AcDbEntity
  8
レイヤー_1
  6
CONTINUOUS
 62
       3
100
AcDbLine
 10
-143.11353653
 20
102.96818523
 30
0.0
 11
-142.98279839
 21
102.50034208
 31
0.0
  0
LINE
  5
485
100
AcDbEntity
  8
レイヤー_1
  6
CONTINUOUS
 62
       3
100
AcDbLine
 10
-142.98279839
 20
102.50034208
 30
0.0
 11
-142.80898795
 21
102.05214386
 31
0.0
  0
LINE
  5
486
100
AcDbEntity
  8
レイヤー_1
  6
CONTINUOUS
 62
       3
100
AcDbLine
 10
-142.80898795
 20
102.05214386
 30
0.0
 11
-142.59450802
 21
101.62599336
 31
0.0
  0
LINE
  5
487
100
AcDbEntity
  8
レイヤー_1
  6
CONTINUOUS
 62
       3
100
AcDbLine
 10
-142.59450802
 20
101.62599336
 30
0.0
 11
-142.34176144
 21
101.2242934
 31
0.0
  0
LINE
  5
488
100
AcDbEntity
  8
レイヤー_1
  6
CONTINUOUS
 62
       3
100
AcDbLine
 10
-142.34176144
 20
101.2242934
 30
0.0
 11
-142.05315097
 21
100.84944678
 31
0.0
  0
LINE
  5
489
100
AcDbEntity
  8
レイヤー_1
  6
CONTINUOUS
 62
       3
100
AcDbLine
 10
-142.05315097
 20
100.84944678
 30
0.0
 11
-141.73107945
 21
100.5038563
 31
0.0
  0
LINE
  5
48A
100
AcDbEntity
  8
レイヤー_1
  6
CONTINUOUS
 62
       3
100
AcDbLine
 10
-141.73107945
 20
100.5038563
 30
0.0
 11
-141.37794969
 21
100.18992479
 31
0.0
  0
LINE
  5
48B
100
AcDbEntity
  8
レイヤー_1
  6
CONTINUOUS
 62
       3
100
AcDbLine
 10
-141.37794969
 20
100.18992479
 30
0.0
 11
-140.99616446
 21
99.91005503
 31
0.0
  0
LINE
  5
48C
100
AcDbEntity
  8
レイヤー_1
  6
CONTINUOUS
 62
       3
100
AcDbLine
 10
-140.99616446
 20
99.91005503
 30
0.0
 11
-140.58812661
 21
99.66664985
 31
0.0
  0
LINE
  5
48D
100
AcDbEntity
  8
レイヤー_1
  6
CONTINUOUS
 62
       3
100
AcDbLine
 10
-140.58812661
 20
99.66664985
 30
0.0
 11
-140.15623892
 21
99.46211204
 31
0.0
  0
LINE
  5
48E
100
AcDbEntity
  8
レイヤー_1
  6
CONTINUOUS
 62
       3
100
AcDbLine
 10
-140.15623892
 20
99.46211204
 30
0.0
 11
-139.7029042
 21
99.29884441
 31
0.0
  0
LINE
  5
48F
100
AcDbEntity
  8
レイヤー_1
  6
CONTINUOUS
 62
       3
100
AcDbLine
 10
-139.7029042
 20
99.29884441
 30
0.0
 11
-139.23052526
 21
99.17924977
 31
0.0
  0
LINE
  5
490
100
AcDbEntity
  8
レイヤー_1
  6
CONTINUOUS
 62
       3
100
AcDbLine
 10
-139.23052526
 20
99.17924977
 30
0.0
 11
-138.74150491
 21
99.10573093
 31
0.0
  0
LINE
  5
491
100
AcDbEntity
  8
レイヤー_1
  6
CONTINUOUS
 62
       3
100
AcDbLine
 10
-138.74150491
 20
99.10573093
 30
0.0
 11
-138.23824596
 21
99.08069069
 31
0.0
  0
LINE
  5
492
100
AcDbEntity
  8
レイヤー_1
  6
CONTINUOUS
 62
       3
100
AcDbLine
 10
-124.79617239
 20
99.08069069
 30
0.0
 11
-124.29268938
 21
99.10573093
 31
0.0
  0
LINE
  5
493
100
AcDbEntity
  8
レイヤー_1
  6
CONTINUOUS
 62
       3
100
AcDbLine
 10
-124.29268938
 20
99.10573093
 30
0.0
 11
-123.80350181
 21
99.17924977
 31
0.0
  0
LINE
  5
494
100
AcDbEntity
  8
レイヤー_1
  6
CONTINUOUS
 62
       3
100
AcDbLine
 10
-123.80350181
 20
99.17924977
 30
0.0
 11
-123.33100672
 21
99.29884441
 31
0.0
  0
LINE
  5
495
100
AcDbEntity
  8
レイヤー_1
  6
CONTINUOUS
 62
       3
100
AcDbLine
 10
-123.33100672
 20
99.29884441
 30
0.0
 11
-122.87760113
 21
99.46211204
 31
0.0
  0
LINE
  5
496
100
AcDbEntity
  8
レイヤー_1
  6
CONTINUOUS
 62
       3
100
AcDbLine
 10
-122.87760113
 20
99.46211204
 30
0.0
 11
-122.44568206
 21
99.66664985
 31
0.0
  0
LINE
  5
497
100
AcDbEntity
  8
レイヤー_1
  6
CONTINUOUS
 62
       3
100
AcDbLine
 10
-122.44568206
 20
99.66664985
 30
0.0
 11
-122.03764655
 21
99.91005503
 31
0.0
  0
LINE
  5
498
100
AcDbEntity
  8
レイヤー_1
  6
CONTINUOUS
 62
       3
100
AcDbLine
 10
-122.03764655
 20
99.91005503
 30
0.0
 11
-121.65589162
 21
100.18992479
 31
0.0
  0
LINE
  5
499
100
AcDbEntity
  8
レイヤー_1
  6
CONTINUOUS
 62
       3
100
AcDbLine
 10
-121.65589162
 20
100.18992479
 30
0.0
 11
-121.30281429
 21
100.5038563
 31
0.0
  0
LINE
  5
49A
100
AcDbEntity
  8
レイヤー_1
  6
CONTINUOUS
 62
       3
100
AcDbLine
 10
-121.30281429
 20
100.5038563
 30
0.0
 11
-120.9808116
 21
100.84944678
 31
0.0
  0
LINE
  5
49B
100
AcDbEntity
  8
レイヤー_1
  6
CONTINUOUS
 62
       3
100
AcDbLine
 10
-120.9808116
 20
100.84944678
 30
0.0
 11
-120.69228056
 21
101.2242934
 31
0.0
  0
LINE
  5
49C
100
AcDbEntity
  8
レイヤー_1
  6
CONTINUOUS
 62
       3
100
AcDbLine
 10
-120.69228056
 20
101.2242934
 30
0.0
 11
-120.43961821
 21
101.62599336
 31
0.0
  0
LINE
  5
49D
100
AcDbEntity
  8
レイヤー_1
  6
CONTINUOUS
 62
       3
100
AcDbLine
 10
-120.43961821
 20
101.62599336
 30
0.0
 11
-120.22522157
 21
102.05214386
 31
0.0
  0
LINE
  5
49E
100
AcDbEntity
  8
レイヤー_1
  6
CONTINUOUS
 62
       3
100
AcDbLine
 10
-120.22522157
 20
102.05214386
 30
0.0
 11
-120.05148767
 21
102.50034208
 31
0.0
  0
LINE
  5
49F
100
AcDbEntity
  8
レイヤー_1
  6
CONTINUOUS
 62
       3
100
AcDbLine
 10
-120.05148767
 20
102.50034208
 30
0.0
 11
-119.92081353
 21
102.96818523
 31
0.0
  0
LINE
  5
4A0
100
AcDbEntity
  8
レイヤー_1
  6
CONTINUOUS
 62
       3
100
AcDbLine
 10
-119.92081353
 20
102.96818523
 30
0.0
 11
-119.83559618
 21
103.45327049
 31
0.0
  0
LINE
  5
4A1
100
AcDbEntity
  8
レイヤー_1
  6
CONTINUOUS
 62
       3
100
AcDbLine
 10
-119.83559618
 20
103.45327049
 30
0.0
 11
-119.79823265
 21
103.95319506
 31
0.0
  0
LINE
  5
4A2
100
AcDbEntity
  8
レイヤー_1
  6
CONTINUOUS
 62
       3
100
AcDbLine
 10
-119.79823265
 20
103.95319506
 30
0.0
 11
-119.81078287
 21
104.45907209
 31
0.0
  0
LINE
  5
4A3
100
AcDbEntity
  8
レイヤー_1
  6
CONTINUOUS
 62
       3
100
AcDbLine
 10
-119.81078287
 20
104.45907209
 30
0.0
 11
-119.87237294
 21
104.95205824
 31
0.0
  0
LINE
  5
4A4
100
AcDbEntity
  8
レイヤー_1
  6
CONTINUOUS
 62
       3
100
AcDbLine
 10
-119.87237294
 20
104.95205824
 30
0.0
 11
-119.98061832
 21
105.42895117
 31
0.0
  0
LINE
  5
4A5
100
AcDbEntity
  8
レイヤー_1
  6
CONTINUOUS
 62
       3
100
AcDbLine
 10
-119.98061832
 20
105.42895117
 30
0.0
 11
-120.13312197
 21
105.88735386
 31
0.0
  0
LINE
  5
4A6
100
AcDbEntity
  8
レイヤー_1
  6
CONTINUOUS
 62
       3
100
AcDbLine
 10
-120.13312197
 20
105.88735386
 30
0.0
 11
-120.32748687
 21
106.32486928
 31
0.0
  0
LINE
  5
4A7
100
AcDbEntity
  8
レイヤー_1
  6
CONTINUOUS
 62
       3
100
AcDbLine
 10
-120.32748687
 20
106.32486928
 30
0.0
 11
-120.56131599
 21
106.7391004
 31
0.0
  0
LINE
  5
4A8
100
AcDbEntity
  8
レイヤー_1
  6
CONTINUOUS
 62
       3
100
AcDbLine
 10
-120.56131599
 20
106.7391004
 30
0.0
 11
-120.83221231
 21
107.12765019
 31
0.0
  0
LINE
  5
4A9
100
AcDbEntity
  8
レイヤー_1
  6
CONTINUOUS
 62
       3
100
AcDbLine
 10
-120.83221231
 20
107.12765019
 30
0.0
 11
-121.1377788
 21
107.48812164
 31
0.0
  0
LINE
  5
4AA
100
AcDbEntity
  8
レイヤー_1
  6
CONTINUOUS
 62
       3
100
AcDbLine
 10
-121.1377788
 20
107.48812164
 30
0.0
 11
-121.47561844
 21
107.81811772
 31
0.0
  0
LINE
  5
4AB
100
AcDbEntity
  8
レイヤー_1
  6
CONTINUOUS
 62
       3
100
AcDbLine
 10
-121.47561844
 20
107.81811772
 30
0.0
 11
-121.8433342
 21
108.11524139
 31
0.0
  0
LINE
  5
4AC
100
AcDbEntity
  8
レイヤー_1
  6
CONTINUOUS
 62
       3
100
AcDbLine
 10
-121.8433342
 20
108.11524139
 30
0.0
 11
-122.23852905
 21
108.37709563
 31
0.0
  0
LINE
  5
4AD
100
AcDbEntity
  8
レイヤー_1
  6
CONTINUOUS
 62
       3
100
AcDbLine
 10
-122.23852905
 20
108.37709563
 30
0.0
 11
-122.65880596
 21
108.60128342
 31
0.0
  0
LINE
  5
4AE
100
AcDbEntity
  8
レイヤー_1
  6
CONTINUOUS
 62
       3
100
AcDbLine
 10
-122.65880596
 20
108.60128342
 30
0.0
 11
-123.10176792
 21
108.78540773
 31
0.0
  0
LINE
  5
4AF
100
AcDbEntity
  8
レイヤー_1
  6
CONTINUOUS
 62
       3
100
AcDbLine
 10
-123.10176792
 20
108.78540773
 30
0.0
 11
-123.56501789
 21
108.92707153
 31
0.0
  0
LINE
  5
4B0
100
AcDbEntity
  8
レイヤー_1
  6
CONTINUOUS
 62
       3
100
AcDbLine
 10
-123.56501789
 20
108.92707153
 30
0.0
 11
-124.04615885
 21
109.0238778
 31
0.0
  0
LINE
  5
4B1
100
AcDbEntity
  8
レイヤー_1
  6
CONTINUOUS
 62
       3
100
AcDbLine
 10
-124.04615885
 20
109.0238778
 30
0.0
 11
-124.54279377
 21
109.07342951
 31
0.0
  0
LINE
  5
4B2
100
AcDbEntity
  8
レイヤー_1
  6
CONTINUOUS
 62
       3
100
AcDbLine
 10
-124.54279377
 20
109.07342951
 30
0.0
 11
-125.04955102
 21
109.07342951
 31
0.0
  0
LINE
  5
4B3
100
AcDbEntity
  8
レイヤー_1
  6
CONTINUOUS
 62
       3
100
AcDbLine
 10
-125.04955102
 20
109.07342951
 30
0.0
 11
-125.54618594
 21
109.0238778
 31
0.0
  0
LINE
  5
4B4
100
AcDbEntity
  8
レイヤー_1
  6
CONTINUOUS
 62
       3
100
AcDbLine
 10
-125.54618594
 20
109.0238778
 30
0.0
 11
-126.02732689
 21
108.92707153
 31
0.0
  0
LINE
  5
4B5
100
AcDbEntity
  8
レイヤー_1
  6
CONTINUOUS
 62
       3
100
AcDbLine
 10
-126.02732689
 20
108.92707153
 30
0.0
 11
-126.49057686
 21
108.78540773
 31
0.0
  0
LINE
  5
4B6
100
AcDbEntity
  8
レイヤー_1
  6
CONTINUOUS
 62
       3
100
AcDbLine
 10
-126.49057686
 20
108.78540773
 30
0.0
 11
-126.93353882
 21
108.60128342
 31
0.0
  0
LINE
  5
4B7
100
AcDbEntity
  8
レイヤー_1
  6
CONTINUOUS
 62
       3
100
AcDbLine
 10
-126.93353882
 20
108.60128342
 30
0.0
 11
-127.35381574
 21
108.37709563
 31
0.0
  0
LINE
  5
4B8
100
AcDbEntity
  8
レイヤー_1
  6
CONTINUOUS
 62
       3
100
AcDbLine
 10
-127.35381574
 20
108.37709563
 30
0.0
 11
-127.74901059
 21
108.11524139
 31
0.0
  0
LINE
  5
4B9
100
AcDbEntity
  8
レイヤー_1
  6
CONTINUOUS
 62
       3
100
AcDbLine
 10
-127.74901059
 20
108.11524139
 30
0.0
 11
-128.11672634
 21
107.81811772
 31
0.0
  0
LINE
  5
4BA
100
AcDbEntity
  8
レイヤー_1
  6
CONTINUOUS
 62
       3
100
AcDbLine
 10
-128.11672634
 20
107.81811772
 30
0.0
 11
-128.45456598
 21
107.48812164
 31
0.0
  0
LINE
  5
4BB
100
AcDbEntity
  8
レイヤー_1
  6
CONTINUOUS
 62
       3
100
AcDbLine
 10
-128.45456598
 20
107.48812164
 30
0.0
 11
-128.76013247
 21
107.12765019
 31
0.0
  0
LINE
  5
4BC
100
AcDbEntity
  8
レイヤー_1
  6
CONTINUOUS
 62
       3
100
AcDbLine
 10
-128.76013247
 20
107.12765019
 30
0.0
 11
-129.03102878
 21
106.7391004
 31
0.0
  0
LINE
  5
4BD
100
AcDbEntity
  8
レイヤー_1
  6
CONTINUOUS
 62
       3
100
AcDbLine
 10
-129.03102878
 20
106.7391004
 30
0.0
 11
-129.26485791
 21
106.32486928
 31
0.0
  0
LINE
  5
4BE
100
AcDbEntity
  8
レイヤー_1
  6
CONTINUOUS
 62
       3
100
AcDbLine
 10
-129.26485791
 20
106.32486928
 30
0.0
 11
-129.45922282
 21
105.88735386
 31
0.0
  0
LINE
  5
4BF
100
AcDbEntity
  8
レイヤー_1
  6
CONTINUOUS
 62
       3
100
AcDbLine
 10
-129.45922282
 20
105.88735386
 30
0.0
 11
-129.61172647
 21
105.42895117
 31
0.0
  0
LINE
  5
4C0
100
AcDbEntity
  8
レイヤー_1
  6
CONTINUOUS
 62
       3
100
AcDbLine
 10
-129.61172647
 20
105.42895117
 30
0.0
 11
-129.71997184
 21
104.95205824
 31
0.0
  0
LINE
  5
4C1
100
AcDbEntity
  8
レイヤー_1
  6
CONTINUOUS
 62
       3
100
AcDbLine
 10
-129.71997184
 20
104.95205824
 30
0.0
 11
-129.7815619
 21
104.45907209
 31
0.0
  0
LINE
  5
4C2
100
AcDbEntity
  8
レイヤー_1
  6
CONTINUOUS
 62
       3
100
AcDbLine
 10
-129.7815619
 20
104.45907209
 30
0.0
 11
-129.79411214
 21
103.95319506
 31
0.0
  0
LINE
  5
4C3
100
AcDbEntity
  8
レイヤー_1
  6
CONTINUOUS
 62
       3
100
AcDbLine
 10
-129.79411214
 20
103.95319506
 30
0.0
 11
-129.7567486
 21
103.45327049
 31
0.0
  0
LINE
  5
4C4
100
AcDbEntity
  8
レイヤー_1
  6
CONTINUOUS
 62
       3
100
AcDbLine
 10
-129.7567486
 20
103.45327049
 30
0.0
 11
-129.67153125
 21
102.96818523
 31
0.0
  0
LINE
  5
4C5
100
AcDbEntity
  8
レイヤー_1
  6
CONTINUOUS
 62
       3
100
AcDbLine
 10
-129.67153125
 20
102.96818523
 30
0.0
 11
-129.5408571
 21
102.50034208
 31
0.0
  0
LINE
  5
4C6
100
AcDbEntity
  8
レイヤー_1
  6
CONTINUOUS
 62
       3
100
AcDbLine
 10
-129.5408571
 20
102.50034208
 30
0.0
 11
-129.3671232
 21
102.05214386
 31
0.0
  0
LINE
  5
4C7
100
AcDbEntity
  8
レイヤー_1
  6
CONTINUOUS
 62
       3
100
AcDbLine
 10
-129.3671232
 20
102.05214386
 30
0.0
 11
-129.15272657
 21
101.62599336
 31
0.0
  0
LINE
  5
4C8
100
AcDbEntity
  8
レイヤー_1
  6
CONTINUOUS
 62
       3
100
AcDbLine
 10
-129.15272657
 20
101.62599336
 30
0.0
 11
-128.90006421
 21
101.2242934
 31
0.0
  0
LINE
  5
4C9
100
AcDbEntity
  8
レイヤー_1
  6
CONTINUOUS
 62
       3
100
AcDbLine
 10
-128.90006421
 20
101.2242934
 30
0.0
 11
-128.61153318
 21
100.84944678
 31
0.0
  0
LINE
  5
4CA
100
AcDbEntity
  8
レイヤー_1
  6
CONTINUOUS
 62
       3
100
AcDbLine
 10
-128.61153318
 20
100.84944678
 30
0.0
 11
-128.28953049
 21
100.5038563
 31
0.0
  0
LINE
  5
4CB
100
AcDbEntity
  8
レイヤー_1
  6
CONTINUOUS
 62
       3
100
AcDbLine
 10
-128.28953049
 20
100.5038563
 30
0.0
 11
-127.93645317
 21
100.18992479
 31
0.0
  0
LINE
  5
4CC
100
AcDbEntity
  8
レイヤー_1
  6
CONTINUOUS
 62
       3
100
AcDbLine
 10
-127.93645317
 20
100.18992479
 30
0.0
 11
-127.55469823
 21
99.91005503
 31
0.0
  0
LINE
  5
4CD
100
AcDbEntity
  8
レイヤー_1
  6
CONTINUOUS
 62
       3
100
AcDbLine
 10
-127.55469823
 20
99.91005503
 30
0.0
 11
-127.14666272
 21
99.66664985
 31
0.0
  0
LINE
  5
4CE
100
AcDbEntity
  8
レイヤー_1
  6
CONTINUOUS
 62
       3
100
AcDbLine
 10
-127.14666272
 20
99.66664985
 30
0.0
 11
-126.71474366
 21
99.46211204
 31
0.0
  0
LINE
  5
4CF
100
AcDbEntity
  8
レイヤー_1
  6
CONTINUOUS
 62
       3
100
AcDbLine
 10
-126.71474366
 20
99.46211204
 30
0.0
 11
-126.26133807
 21
99.29884441
 31
0.0
  0
LINE
  5
4D0
100
AcDbEntity
  8
レイヤー_1
  6
CONTINUOUS
 62
       3
100
AcDbLine
 10
-126.26133807
 20
99.29884441
 30
0.0
 11
-125.78884297
 21
99.17924977
 31
0.0
  0
LINE
  5
4D1
100
AcDbEntity
  8
レイヤー_1
  6
CONTINUOUS
 62
       3
100
AcDbLine
 10
-125.78884297
 20
99.17924977
 30
0.0
 11
-125.29965541
 21
99.10573093
 31
0.0
  0
LINE
  5
4D2
100
AcDbEntity
  8
レイヤー_1
  6
CONTINUOUS
 62
       3
100
AcDbLine
 10
-125.29965541
 20
99.10573093
 30
0.0
 11
-124.79617239
 21
99.08069069
 31
0.0
  0
LINE
  5
4D3
100
AcDbEntity
  8
レイヤー_1
  6
CONTINUOUS
 62
       3
100
AcDbLine
 10
-97.73632539
 20
99.08069069
 30
0.0
 11
-97.23284238
 21
99.10573093
 31
0.0
  0
LINE
  5
4D4
100
AcDbEntity
  8
レイヤー_1
  6
CONTINUOUS
 62
       3
100
AcDbLine
 10
-97.23284238
 20
99.10573093
 30
0.0
 11
-96.74365481
 21
99.17924977
 31
0.0
  0
LINE
  5
4D5
100
AcDbEntity
  8
レイヤー_1
  6
CONTINUOUS
 62
       3
100
AcDbLine
 10
-96.74365481
 20
99.17924977
 30
0.0
 11
-96.27115972
 21
99.29884441
 31
0.0
  0
LINE
  5
4D6
100
AcDbEntity
  8
レイヤー_1
  6
CONTINUOUS
 62
       3
100
AcDbLine
 10
-96.27115972
 20
99.29884441
 30
0.0
 11
-95.81775413
 21
99.46211204
 31
0.0
  0
LINE
  5
4D7
100
AcDbEntity
  8
レイヤー_1
  6
CONTINUOUS
 62
       3
100
AcDbLine
 10
-95.81775413
 20
99.46211204
 30
0.0
 11
-95.38583506
 21
99.66664985
 31
0.0
  0
LINE
  5
4D8
100
AcDbEntity
  8
レイヤー_1
  6
CONTINUOUS
 62
       3
100
AcDbLine
 10
-95.38583506
 20
99.66664985
 30
0.0
 11
-94.97779955
 21
99.91005503
 31
0.0
  0
LINE
  5
4D9
100
AcDbEntity
  8
レイヤー_1
  6
CONTINUOUS
 62
       3
100
AcDbLine
 10
-94.97779955
 20
99.91005503
 30
0.0
 11
-94.59604462
 21
100.18992479
 31
0.0
  0
LINE
  5
4DA
100
AcDbEntity
  8
レイヤー_1
  6
CONTINUOUS
 62
       3
100
AcDbLine
 10
-94.59604462
 20
100.18992479
 30
0.0
 11
-94.2429673
 21
100.5038563
 31
0.0
  0
LINE
  5
4DB
100
AcDbEntity
  8
レイヤー_1
  6
CONTINUOUS
 62
       3
100
AcDbLine
 10
-94.2429673
 20
100.5038563
 30
0.0
 11
-93.9209646
 21
100.84944678
 31
0.0
  0
LINE
  5
4DC
100
AcDbEntity
  8
レイヤー_1
  6
CONTINUOUS
 62
       3
100
AcDbLine
 10
-93.9209646
 20
100.84944678
 30
0.0
 11
-93.63243356
 21
101.2242934
 31
0.0
  0
LINE
  5
4DD
100
AcDbEntity
  8
レイヤー_1
  6
CONTINUOUS
 62
       3
100
AcDbLine
 10
-93.63243356
 20
101.2242934
 30
0.0
 11
-93.37977122
 21
101.62599336
 31
0.0
  0
LINE
  5
4DE
100
AcDbEntity
  8
レイヤー_1
  6
CONTINUOUS
 62
       3
100
AcDbLine
 10
-93.37977122
 20
101.62599336
 30
0.0
 11
-93.16537458
 21
102.05214386
 31
0.0
  0
LINE
  5
4DF
100
AcDbEntity
  8
レイヤー_1
  6
CONTINUOUS
 62
       3
100
AcDbLine
 10
-93.16537458
 20
102.05214386
 30
0.0
 11
-92.99164067
 21
102.50034208
 31
0.0
  0
LINE
  5
4E0
100
AcDbEntity
  8
レイヤー_1
  6
CONTINUOUS
 62
       3
100
AcDbLine
 10
-92.99164067
 20
102.50034208
 30
0.0
 11
-92.86096653
 21
102.96818523
 31
0.0
  0
LINE
  5
4E1
100
AcDbEntity
  8
レイヤー_1
  6
CONTINUOUS
 62
       3
100
AcDbLine
 10
-92.86096653
 20
102.96818523
 30
0.0
 11
-92.77574918
 21
103.45327049
 31
0.0
  0
LINE
  5
4E2
100
AcDbEntity
  8
レイヤー_1
  6
CONTINUOUS
 62
       3
100
AcDbLine
 10
-92.77574918
 20
103.45327049
 30
0.0
 11
-92.73838565
 21
103.95319506
 31
0.0
  0
LINE
  5
4E3
100
AcDbEntity
  8
レイヤー_1
  6
CONTINUOUS
 62
       3
100
AcDbLine
 10
-92.73838565
 20
103.95319506
 30
0.0
 11
-92.75093587
 21
104.45907209
 31
0.0
  0
LINE
  5
4E4
100
AcDbEntity
  8
レイヤー_1
  6
CONTINUOUS
 62
       3
100
AcDbLine
 10
-92.75093587
 20
104.45907209
 30
0.0
 11
-92.81252595
 21
104.95205824
 31
0.0
  0
LINE
  5
4E5
100
AcDbEntity
  8
レイヤー_1
  6
CONTINUOUS
 62
       3
100
AcDbLine
 10
-92.81252595
 20
104.95205824
 30
0.0
 11
-92.92077132
 21
105.42895117
 31
0.0
  0
LINE
  5
4E6
100
AcDbEntity
  8
レイヤー_1
  6
CONTINUOUS
 62
       3
100
AcDbLine
 10
-92.92077132
 20
105.42895117
 30
0.0
 11
-93.07327497
 21
105.88735386
 31
0.0
  0
LINE
  5
4E7
100
AcDbEntity
  8
レイヤー_1
  6
CONTINUOUS
 62
       3
100
AcDbLine
 10
-93.07327497
 20
105.88735386
 30
0.0
 11
-93.26763987
 21
106.32486928
 31
0.0
  0
LINE
  5
4E8
100
AcDbEntity
  8
レイヤー_1
  6
CONTINUOUS
 62
       3
100
AcDbLine
 10
-93.26763987
 20
106.32486928
 30
0.0
 11
-93.50146899
 21
106.7391004
 31
0.0
  0
LINE
  5
4E9
100
AcDbEntity
  8
レイヤー_1
  6
CONTINUOUS
 62
       3
100
AcDbLine
 10
-93.50146899
 20
106.7391004
 30
0.0
 11
-93.77236531
 21
107.12765019
 31
0.0
  0
LINE
  5
4EA
100
AcDbEntity
  8
レイヤー_1
  6
CONTINUOUS
 62
       3
100
AcDbLine
 10
-93.77236531
 20
107.12765019
 30
0.0
 11
-94.07793181
 21
107.48812164
 31
0.0
  0
LINE
  5
4EB
100
AcDbEntity
  8
レイヤー_1
  6
CONTINUOUS
 62
       3
100
AcDbLine
 10
-94.07793181
 20
107.48812164
 30
0.0
 11
-94.41577144
 21
107.81811772
 31
0.0
  0
LINE
  5
4EC
100
AcDbEntity
  8
レイヤー_1
  6
CONTINUOUS
 62
       3
100
AcDbLine
 10
-94.41577144
 20
107.81811772
 30
0.0
 11
-94.7834872
 21
108.11524139
 31
0.0
  0
LINE
  5
4ED
100
AcDbEntity
  8
レイヤー_1
  6
CONTINUOUS
 62
       3
100
AcDbLine
 10
-94.7834872
 20
108.11524139
 30
0.0
 11
-95.17868205
 21
108.37709563
 31
0.0
  0
LINE
  5
4EE
100
AcDbEntity
  8
レイヤー_1
  6
CONTINUOUS
 62
       3
100
AcDbLine
 10
-95.17868205
 20
108.37709563
 30
0.0
 11
-95.59895897
 21
108.60128342
 31
0.0
  0
LINE
  5
4EF
100
AcDbEntity
  8
レイヤー_1
  6
CONTINUOUS
 62
       3
100
AcDbLine
 10
-95.59895897
 20
108.60128342
 30
0.0
 11
-96.04192092
 21
108.78540773
 31
0.0
  0
LINE
  5
4F0
100
AcDbEntity
  8
レイヤー_1
  6
CONTINUOUS
 62
       3
100
AcDbLine
 10
-96.04192092
 20
108.78540773
 30
0.0
 11
-96.50517088
 21
108.92707153
 31
0.0
  0
LINE
  5
4F1
100
AcDbEntity
  8
レイヤー_1
  6
CONTINUOUS
 62
       3
100
AcDbLine
 10
-96.50517088
 20
108.92707153
 30
0.0
 11
-96.98631185
 21
109.0238778
 31
0.0
  0
LINE
  5
4F2
100
AcDbEntity
  8
レイヤー_1
  6
CONTINUOUS
 62
       3
100
AcDbLine
 10
-96.98631185
 20
109.0238778
 30
0.0
 11
-97.48294677
 21
109.07342951
 31
0.0
  0
LINE
  5
4F3
100
AcDbEntity
  8
レイヤー_1
  6
CONTINUOUS
 62
       3
100
AcDbLine
 10
-97.48294677
 20
109.07342951
 30
0.0
 11
-97.98970402
 21
109.07342951
 31
0.0
  0
LINE
  5
4F4
100
AcDbEntity
  8
レイヤー_1
  6
CONTINUOUS
 62
       3
100
AcDbLine
 10
-97.98970402
 20
109.07342951
 30
0.0
 11
-98.48633894
 21
109.0238778
 31
0.0
  0
LINE
  5
4F5
100
AcDbEntity
  8
レイヤー_1
  6
CONTINUOUS
 62
       3
100
AcDbLine
 10
-98.48633894
 20
109.0238778
 30
0.0
 11
-98.9674799
 21
108.92707153
 31
0.0
  0
LINE
  5
4F6
100
AcDbEntity
  8
レイヤー_1
  6
CONTINUOUS
 62
       3
100
AcDbLine
 10
-98.9674799
 20
108.92707153
 30
0.0
 11
-99.43072987
 21
108.78540773
 31
0.0
  0
LINE
  5
4F7
100
AcDbEntity
  8
レイヤー_1
  6
CONTINUOUS
 62
       3
100
AcDbLine
 10
-99.43072987
 20
108.78540773
 30
0.0
 11
-99.87369182
 21
108.60128342
 31
0.0
  0
LINE
  5
4F8
100
AcDbEntity
  8
レイヤー_1
  6
CONTINUOUS
 62
       3
100
AcDbLine
 10
-99.87369182
 20
108.60128342
 30
0.0
 11
-100.29396874
 21
108.37709563
 31
0.0
  0
LINE
  5
4F9
100
AcDbEntity
  8
レイヤー_1
  6
CONTINUOUS
 62
       3
100
AcDbLine
 10
-100.29396874
 20
108.37709563
 30
0.0
 11
-100.68916359
 21
108.11524139
 31
0.0
  0
LINE
  5
4FA
100
AcDbEntity
  8
レイヤー_1
  6
CONTINUOUS
 62
       3
100
AcDbLine
 10
-100.68916359
 20
108.11524139
 30
0.0
 11
-101.05687934
 21
107.81811772
 31
0.0
  0
LINE
  5
4FB
100
AcDbEntity
  8
レイヤー_1
  6
CONTINUOUS
 62
       3
100
AcDbLine
 10
-101.05687934
 20
107.81811772
 30
0.0
 11
-101.39471898
 21
107.48812164
 31
0.0
  0
LINE
  5
4FC
100
AcDbEntity
  8
レイヤー_1
  6
CONTINUOUS
 62
       3
100
AcDbLine
 10
-101.39471898
 20
107.48812164
 30
0.0
 11
-101.70028548
 21
107.12765019
 31
0.0
  0
LINE
  5
4FD
100
AcDbEntity
  8
レイヤー_1
  6
CONTINUOUS
 62
       3
100
AcDbLine
 10
-101.70028548
 20
107.12765019
 30
0.0
 11
-101.9711818
 21
106.7391004
 31
0.0
  0
LINE
  5
4FE
100
AcDbEntity
  8
レイヤー_1
  6
CONTINUOUS
 62
       3
100
AcDbLine
 10
-101.9711818
 20
106.7391004
 30
0.0
 11
-102.20501092
 21
106.32486928
 31
0.0
  0
LINE
  5
4FF
100
AcDbEntity
  8
レイヤー_1
  6
CONTINUOUS
 62
       3
100
AcDbLine
 10
-102.20501092
 20
106.32486928
 30
0.0
 11
-102.39937582
 21
105.88735386
 31
0.0
  0
LINE
  5
500
100
AcDbEntity
  8
レイヤー_1
  6
CONTINUOUS
 62
       3
100
AcDbLine
 10
-102.39937582
 20
105.88735386
 30
0.0
 11
-102.55187947
 21
105.42895117
 31
0.0
  0
LINE
  5
501
100
AcDbEntity
  8
レイヤー_1
  6
CONTINUOUS
 62
       3
100
AcDbLine
 10
-102.55187947
 20
105.42895117
 30
0.0
 11
-102.66012484
 21
104.95205824
 31
0.0
  0
LINE
  5
502
100
AcDbEntity
  8
レイヤー_1
  6
CONTINUOUS
 62
       3
100
AcDbLine
 10
-102.66012484
 20
104.95205824
 30
0.0
 11
-102.72171491
 21
104.45907209
 31
0.0
  0
LINE
  5
503
100
AcDbEntity
  8
レイヤー_1
  6
CONTINUOUS
 62
       3
100
AcDbLine
 10
-102.72171491
 20
104.45907209
 30
0.0
 11
-102.73426514
 21
103.95319506
 31
0.0
  0
LINE
  5
504
100
AcDbEntity
  8
レイヤー_1
  6
CONTINUOUS
 62
       3
100
AcDbLine
 10
-102.73426514
 20
103.95319506
 30
0.0
 11
-102.6969016
 21
103.45327049
 31
0.0
  0
LINE
  5
505
100
AcDbEntity
  8
レイヤー_1
  6
CONTINUOUS
 62
       3
100
AcDbLine
 10
-102.6969016
 20
103.45327049
 30
0.0
 11
-102.61168425
 21
102.96818523
 31
0.0
  0
LINE
  5
506
100
AcDbEntity
  8
レイヤー_1
  6
CONTINUOUS
 62
       3
100
AcDbLine
 10
-102.61168425
 20
102.96818523
 30
0.0
 11
-102.48101011
 21
102.50034208
 31
0.0
  0
LINE
  5
507
100
AcDbEntity
  8
レイヤー_1
  6
CONTINUOUS
 62
       3
100
AcDbLine
 10
-102.48101011
 20
102.50034208
 30
0.0
 11
-102.30727621
 21
102.05214386
 31
0.0
  0
LINE
  5
508
100
AcDbEntity
  8
レイヤー_1
  6
CONTINUOUS
 62
       3
100
AcDbLine
 10
-102.30727621
 20
102.05214386
 30
0.0
 11
-102.09287957
 21
101.62599336
 31
0.0
  0
LINE
  5
509
100
AcDbEntity
  8
レイヤー_1
  6
CONTINUOUS
 62
       3
100
AcDbLine
 10
-102.09287957
 20
101.62599336
 30
0.0
 11
-101.84021722
 21
101.2242934
 31
0.0
  0
LINE
  5
50A
100
AcDbEntity
  8
レイヤー_1
  6
CONTINUOUS
 62
       3
100
AcDbLine
 10
-101.84021722
 20
101.2242934
 30
0.0
 11
-101.55168619
 21
100.84944678
 31
0.0
  0
LINE
  5
50B
100
AcDbEntity
  8
レイヤー_1
  6
CONTINUOUS
 62
       3
100
AcDbLine
 10
-101.55168619
 20
100.84944678
 30
0.0
 11
-101.22968349
 21
100.5038563
 31
0.0
  0
LINE
  5
50C
100
AcDbEntity
  8
レイヤー_1
  6
CONTINUOUS
 62
       3
100
AcDbLine
 10
-101.22968349
 20
100.5038563
 30
0.0
 11
-100.87660617
 21
100.18992479
 31
0.0
  0
LINE
  5
50D
100
AcDbEntity
  8
レイヤー_1
  6
CONTINUOUS
 62
       3
100
AcDbLine
 10
-100.87660617
 20
100.18992479
 30
0.0
 11
-100.49485124
 21
99.91005503
 31
0.0
  0
LINE
  5
50E
100
AcDbEntity
  8
レイヤー_1
  6
CONTINUOUS
 62
       3
100
AcDbLine
 10
-100.49485124
 20
99.91005503
 30
0.0
 11
-100.08681572
 21
99.66664985
 31
0.0
  0
LINE
  5
50F
100
AcDbEntity
  8
レイヤー_1
  6
CONTINUOUS
 62
       3
100
AcDbLine
 10
-100.08681572
 20
99.66664985
 30
0.0
 11
-99.65489666
 21
99.46211204
 31
0.0
  0
LINE
  5
510
100
AcDbEntity
  8
レイヤー_1
  6
CONTINUOUS
 62
       3
100
AcDbLine
 10
-99.65489666
 20
99.46211204
 30
0.0
 11
-99.20149106
 21
99.29884441
 31
0.0
  0
LINE
  5
511
100
AcDbEntity
  8
レイヤー_1
  6
CONTINUOUS
 62
       3
100
AcDbLine
 10
-99.20149106
 20
99.29884441
 30
0.0
 11
-98.72899598
 21
99.17924977
 31
0.0
  0
LINE
  5
512
100
AcDbEntity
  8
レイヤー_1
  6
CONTINUOUS
 62
       3
100
AcDbLine
 10
-98.72899598
 20
99.17924977
 30
0.0
 11
-98.23980841
 21
99.10573093
 31
0.0
  0
LINE
  5
513
100
AcDbEntity
  8
レイヤー_1
  6
CONTINUOUS
 62
       3
100
AcDbLine
 10
-98.23980841
 20
99.10573093
 30
0.0
 11
-97.73632539
 21
99.08069069
 31
0.0
  0
LINE
  5
514
100
AcDbEntity
  8
レイヤー_1
  6
CONTINUOUS
 62
       3
100
AcDbLine
 10
-111.26590438
 20
99.08069069
 30
0.0
 11
-110.76242137
 21
99.10573093
 31
0.0
  0
LINE
  5
515
100
AcDbEntity
  8
レイヤー_1
  6
CONTINUOUS
 62
       3
100
AcDbLine
 10
-110.76242137
 20
99.10573093
 30
0.0
 11
-110.2732338
 21
99.17924977
 31
0.0
  0
LINE
  5
516
100
AcDbEntity
  8
レイヤー_1
  6
CONTINUOUS
 62
       3
100
AcDbLine
 10
-110.2732338
 20
99.17924977
 30
0.0
 11
-109.80073871
 21
99.29884441
 31
0.0
  0
LINE
  5
517
100
AcDbEntity
  8
レイヤー_1
  6
CONTINUOUS
 62
       3
100
AcDbLine
 10
-109.80073871
 20
99.29884441
 30
0.0
 11
-109.34733312
 21
99.46211204
 31
0.0
  0
LINE
  5
518
100
AcDbEntity
  8
レイヤー_1
  6
CONTINUOUS
 62
       3
100
AcDbLine
 10
-109.34733312
 20
99.46211204
 30
0.0
 11
-108.91541405
 21
99.66664985
 31
0.0
  0
LINE
  5
519
100
AcDbEntity
  8
レイヤー_1
  6
CONTINUOUS
 62
       3
100
AcDbLine
 10
-108.91541405
 20
99.66664985
 30
0.0
 11
-108.50737854
 21
99.91005503
 31
0.0
  0
LINE
  5
51A
100
AcDbEntity
  8
レイヤー_1
  6
CONTINUOUS
 62
       3
100
AcDbLine
 10
-108.50737854
 20
99.91005503
 30
0.0
 11
-108.12562361
 21
100.18992479
 31
0.0
  0
LINE
  5
51B
100
AcDbEntity
  8
レイヤー_1
  6
CONTINUOUS
 62
       3
100
AcDbLine
 10
-108.12562361
 20
100.18992479
 30
0.0
 11
-107.77254628
 21
100.5038563
 31
0.0
  0
LINE
  5
51C
100
AcDbEntity
  8
レイヤー_1
  6
CONTINUOUS
 62
       3
100
AcDbLine
 10
-107.77254628
 20
100.5038563
 30
0.0
 11
-107.45054359
 21
100.84944678
 31
0.0
  0
LINE
  5
51D
100
AcDbEntity
  8
レイヤー_1
  6
CONTINUOUS
 62
       3
100
AcDbLine
 10
-107.45054359
 20
100.84944678
 30
0.0
 11
-107.16201256
 21
101.2242934
 31
0.0
  0
LINE
  5
51E
100
AcDbEntity
  8
レイヤー_1
  6
CONTINUOUS
 62
       3
100
AcDbLine
 10
-107.16201256
 20
101.2242934
 30
0.0
 11
-106.90935021
 21
101.62599336
 31
0.0
  0
LINE
  5
51F
100
AcDbEntity
  8
レイヤー_1
  6
CONTINUOUS
 62
       3
100
AcDbLine
 10
-106.90935021
 20
101.62599336
 30
0.0
 11
-106.69495357
 21
102.05214386
 31
0.0
  0
LINE
  5
520
100
AcDbEntity
  8
レイヤー_1
  6
CONTINUOUS
 62
       3
100
AcDbLine
 10
-106.69495357
 20
102.05214386
 30
0.0
 11
-106.52121966
 21
102.50034208
 31
0.0
  0
LINE
  5
521
100
AcDbEntity
  8
レイヤー_1
  6
CONTINUOUS
 62
       3
100
AcDbLine
 10
-106.52121966
 20
102.50034208
 30
0.0
 11
-106.39054552
 21
102.96818523
 31
0.0
  0
LINE
  5
522
100
AcDbEntity
  8
レイヤー_1
  6
CONTINUOUS
 62
       3
100
AcDbLine
 10
-106.39054552
 20
102.96818523
 30
0.0
 11
-106.30532817
 21
103.45327049
 31
0.0
  0
LINE
  5
523
100
AcDbEntity
  8
レイヤー_1
  6
CONTINUOUS
 62
       3
100
AcDbLine
 10
-106.30532817
 20
103.45327049
 30
0.0
 11
-106.26796464
 21
103.95319506
 31
0.0
  0
LINE
  5
524
100
AcDbEntity
  8
レイヤー_1
  6
CONTINUOUS
 62
       3
100
AcDbLine
 10
-106.26796464
 20
103.95319506
 30
0.0
 11
-106.28051486
 21
104.45907209
 31
0.0
  0
LINE
  5
525
100
AcDbEntity
  8
レイヤー_1
  6
CONTINUOUS
 62
       3
100
AcDbLine
 10
-106.28051486
 20
104.45907209
 30
0.0
 11
-106.34210494
 21
104.95205824
 31
0.0
  0
LINE
  5
526
100
AcDbEntity
  8
レイヤー_1
  6
CONTINUOUS
 62
       3
100
AcDbLine
 10
-106.34210494
 20
104.95205824
 30
0.0
 11
-106.45035031
 21
105.42895117
 31
0.0
  0
LINE
  5
527
100
AcDbEntity
  8
レイヤー_1
  6
CONTINUOUS
 62
       3
100
AcDbLine
 10
-106.45035031
 20
105.42895117
 30
0.0
 11
-106.60285396
 21
105.88735386
 31
0.0
  0
LINE
  5
528
100
AcDbEntity
  8
レイヤー_1
  6
CONTINUOUS
 62
       3
100
AcDbLine
 10
-106.60285396
 20
105.88735386
 30
0.0
 11
-106.79721886
 21
106.32486928
 31
0.0
  0
LINE
  5
529
100
AcDbEntity
  8
レイヤー_1
  6
CONTINUOUS
 62
       3
100
AcDbLine
 10
-106.79721886
 20
106.32486928
 30
0.0
 11
-107.03104798
 21
106.7391004
 31
0.0
  0
LINE
  5
52A
100
AcDbEntity
  8
レイヤー_1
  6
CONTINUOUS
 62
       3
100
AcDbLine
 10
-107.03104798
 20
106.7391004
 30
0.0
 11
-107.3019443
 21
107.12765019
 31
0.0
  0
LINE
  5
52B
100
AcDbEntity
  8
レイヤー_1
  6
CONTINUOUS
 62
       3
100
AcDbLine
 10
-107.3019443
 20
107.12765019
 30
0.0
 11
-107.6075108
 21
107.48812164
 31
0.0
  0
LINE
  5
52C
100
AcDbEntity
  8
レイヤー_1
  6
CONTINUOUS
 62
       3
100
AcDbLine
 10
-107.6075108
 20
107.48812164
 30
0.0
 11
-107.94535043
 21
107.81811772
 31
0.0
  0
LINE
  5
52D
100
AcDbEntity
  8
レイヤー_1
  6
CONTINUOUS
 62
       3
100
AcDbLine
 10
-107.94535043
 20
107.81811772
 30
0.0
 11
-108.31306619
 21
108.11524139
 31
0.0
  0
LINE
  5
52E
100
AcDbEntity
  8
レイヤー_1
  6
CONTINUOUS
 62
       3
100
AcDbLine
 10
-108.31306619
 20
108.11524139
 30
0.0
 11
-108.70826104
 21
108.37709563
 31
0.0
  0
LINE
  5
52F
100
AcDbEntity
  8
レイヤー_1
  6
CONTINUOUS
 62
       3
100
AcDbLine
 10
-108.70826104
 20
108.37709563
 30
0.0
 11
-109.12853796
 21
108.60128342
 31
0.0
  0
LINE
  5
530
100
AcDbEntity
  8
レイヤー_1
  6
CONTINUOUS
 62
       3
100
AcDbLine
 10
-109.12853796
 20
108.60128342
 30
0.0
 11
-109.57149991
 21
108.78540773
 31
0.0
  0
LINE
  5
531
100
AcDbEntity
  8
レイヤー_1
  6
CONTINUOUS
 62
       3
100
AcDbLine
 10
-109.57149991
 20
108.78540773
 30
0.0
 11
-110.03474988
 21
108.92707153
 31
0.0
  0
LINE
  5
532
100
AcDbEntity
  8
レイヤー_1
  6
CONTINUOUS
 62
       3
100
AcDbLine
 10
-110.03474988
 20
108.92707153
 30
0.0
 11
-110.51589084
 21
109.0238778
 31
0.0
  0
LINE
  5
533
100
AcDbEntity
  8
レイヤー_1
  6
CONTINUOUS
 62
       3
100
AcDbLine
 10
-110.51589084
 20
109.0238778
 30
0.0
 11
-111.01252576
 21
109.07342951
 31
0.0
  0
LINE
  5
534
100
AcDbEntity
  8
レイヤー_1
  6
CONTINUOUS
 62
       3
100
AcDbLine
 10
-111.01252576
 20
109.07342951
 30
0.0
 11
-111.51928301
 21
109.07342951
 31
0.0
  0
LINE
  5
535
100
AcDbEntity
  8
レイヤー_1
  6
CONTINUOUS
 62
       3
100
AcDbLine
 10
-111.51928301
 20
109.07342951
 30
0.0
 11
-112.01591793
 21
109.0238778
 31
0.0
  0
LINE
  5
536
100
AcDbEntity
  8
レイヤー_1
  6
CONTINUOUS
 62
       3
100
AcDbLine
 10
-112.01591793
 20
109.0238778
 30
0.0
 11
-112.49705889
 21
108.92707153
 31
0.0
  0
LINE
  5
537
100
AcDbEntity
  8
レイヤー_1
  6
CONTINUOUS
 62
       3
100
AcDbLine
 10
-112.49705889
 20
108.92707153
 30
0.0
 11
-112.96030886
 21
108.78540773
 31
0.0
  0
LINE
  5
538
100
AcDbEntity
  8
レイヤー_1
  6
CONTINUOUS
 62
       3
100
AcDbLine
 10
-112.96030886
 20
108.78540773
 30
0.0
 11
-113.40327081
 21
108.60128342
 31
0.0
  0
LINE
  5
539
100
AcDbEntity
  8
レイヤー_1
  6
CONTINUOUS
 62
       3
100
AcDbLine
 10
-113.40327081
 20
108.60128342
 30
0.0
 11
-113.82354773
 21
108.37709563
 31
0.0
  0
LINE
  5
53A
100
AcDbEntity
  8
レイヤー_1
  6
CONTINUOUS
 62
       3
100
AcDbLine
 10
-113.82354773
 20
108.37709563
 30
0.0
 11
-114.21874258
 21
108.11524139
 31
0.0
  0
LINE
  5
53B
100
AcDbEntity
  8
レイヤー_1
  6
CONTINUOUS
 62
       3
100
AcDbLine
 10
-114.21874258
 20
108.11524139
 30
0.0
 11
-114.58645833
 21
107.81811772
 31
0.0
  0
LINE
  5
53C
100
AcDbEntity
  8
レイヤー_1
  6
CONTINUOUS
 62
       3
100
AcDbLine
 10
-114.58645833
 20
107.81811772
 30
0.0
 11
-114.92429797
 21
107.48812164
 31
0.0
  0
LINE
  5
53D
100
AcDbEntity
  8
レイヤー_1
  6
CONTINUOUS
 62
       3
100
AcDbLine
 10
-114.92429797
 20
107.48812164
 30
0.0
 11
-115.22986446
 21
107.12765019
 31
0.0
  0
LINE
  5
53E
100
AcDbEntity
  8
レイヤー_1
  6
CONTINUOUS
 62
       3
100
AcDbLine
 10
-115.22986446
 20
107.12765019
 30
0.0
 11
-115.50076079
 21
106.7391004
 31
0.0
  0
LINE
  5
53F
100
AcDbEntity
  8
レイヤー_1
  6
CONTINUOUS
 62
       3
100
AcDbLine
 10
-115.50076079
 20
106.7391004
 30
0.0
 11
-115.73458991
 21
106.32486928
 31
0.0
  0
LINE
  5
540
100
AcDbEntity
  8
レイヤー_1
  6
CONTINUOUS
 62
       3
100
AcDbLine
 10
-115.73458991
 20
106.32486928
 30
0.0
 11
-115.92895481
 21
105.88735386
 31
0.0
  0
LINE
  5
541
100
AcDbEntity
  8
レイヤー_1
  6
CONTINUOUS
 62
       3
100
AcDbLine
 10
-115.92895481
 20
105.88735386
 30
0.0
 11
-116.08145846
 21
105.42895117
 31
0.0
  0
LINE
  5
542
100
AcDbEntity
  8
レイヤー_1
  6
CONTINUOUS
 62
       3
100
AcDbLine
 10
-116.08145846
 20
105.42895117
 30
0.0
 11
-116.18970383
 21
104.95205824
 31
0.0
  0
LINE
  5
543
100
AcDbEntity
  8
レイヤー_1
  6
CONTINUOUS
 62
       3
100
AcDbLine
 10
-116.18970383
 20
104.95205824
 30
0.0
 11
-116.2512939
 21
104.45907209
 31
0.0
  0
LINE
  5
544
100
AcDbEntity
  8
レイヤー_1
  6
CONTINUOUS
 62
       3
100
AcDbLine
 10
-116.2512939
 20
104.45907209
 30
0.0
 11
-116.26384413
 21
103.95319506
 31
0.0
  0
LINE
  5
545
100
AcDbEntity
  8
レイヤー_1
  6
CONTINUOUS
 62
       3
100
AcDbLine
 10
-116.26384413
 20
103.95319506
 30
0.0
 11
-116.22648059
 21
103.45327049
 31
0.0
  0
LINE
  5
546
100
AcDbEntity
  8
レイヤー_1
  6
CONTINUOUS
 62
       3
100
AcDbLine
 10
-116.22648059
 20
103.45327049
 30
0.0
 11
-116.14126324
 21
102.96818523
 31
0.0
  0
LINE
  5
547
100
AcDbEntity
  8
レイヤー_1
  6
CONTINUOUS
 62
       3
100
AcDbLine
 10
-116.14126324
 20
102.96818523
 30
0.0
 11
-116.0105891
 21
102.50034208
 31
0.0
  0
LINE
  5
548
100
AcDbEntity
  8
レイヤー_1
  6
CONTINUOUS
 62
       3
100
AcDbLine
 10
-116.0105891
 20
102.50034208
 30
0.0
 11
-115.8368552
 21
102.05214386
 31
0.0
  0
LINE
  5
549
100
AcDbEntity
  8
レイヤー_1
  6
CONTINUOUS
 62
       3
100
AcDbLine
 10
-115.8368552
 20
102.05214386
 30
0.0
 11
-115.62245856
 21
101.62599336
 31
0.0
  0
LINE
  5
54A
100
AcDbEntity
  8
レイヤー_1
  6
CONTINUOUS
 62
       3
100
AcDbLine
 10
-115.62245856
 20
101.62599336
 30
0.0
 11
-115.36979621
 21
101.2242934
 31
0.0
  0
LINE
  5
54B
100
AcDbEntity
  8
レイヤー_1
  6
CONTINUOUS
 62
       3
100
AcDbLine
 10
-115.36979621
 20
101.2242934
 30
0.0
 11
-115.08126518
 21
100.84944678
 31
0.0
  0
LINE
  5
54C
100
AcDbEntity
  8
レイヤー_1
  6
CONTINUOUS
 62
       3
100
AcDbLine
 10
-115.08126518
 20
100.84944678
 30
0.0
 11
-114.75926248
 21
100.5038563
 31
0.0
  0
LINE
  5
54D
100
AcDbEntity
  8
レイヤー_1
  6
CONTINUOUS
 62
       3
100
AcDbLine
 10
-114.75926248
 20
100.5038563
 30
0.0
 11
-114.40618516
 21
100.18992479
 31
0.0
  0
LINE
  5
54E
100
AcDbEntity
  8
レイヤー_1
  6
CONTINUOUS
 62
       3
100
AcDbLine
 10
-114.40618516
 20
100.18992479
 30
0.0
 11
-114.02443022
 21
99.91005503
 31
0.0
  0
LINE
  5
54F
100
AcDbEntity
  8
レイヤー_1
  6
CONTINUOUS
 62
       3
100
AcDbLine
 10
-114.02443022
 20
99.91005503
 30
0.0
 11
-113.61639471
 21
99.66664985
 31
0.0
  0
LINE
  5
550
100
AcDbEntity
  8
レイヤー_1
  6
CONTINUOUS
 62
       3
100
AcDbLine
 10
-113.61639471
 20
99.66664985
 30
0.0
 11
-113.18447565
 21
99.46211204
 31
0.0
  0
LINE
  5
551
100
AcDbEntity
  8
レイヤー_1
  6
CONTINUOUS
 62
       3
100
AcDbLine
 10
-113.18447565
 20
99.46211204
 30
0.0
 11
-112.73107006
 21
99.29884441
 31
0.0
  0
LINE
  5
552
100
AcDbEntity
  8
レイヤー_1
  6
CONTINUOUS
 62
       3
100
AcDbLine
 10
-112.73107006
 20
99.29884441
 30
0.0
 11
-112.25857497
 21
99.17924977
 31
0.0
  0
LINE
  5
553
100
AcDbEntity
  8
レイヤー_1
  6
CONTINUOUS
 62
       3
100
AcDbLine
 10
-112.25857497
 20
99.17924977
 30
0.0
 11
-111.7693874
 21
99.10573093
 31
0.0
  0
LINE
  5
554
100
AcDbEntity
  8
レイヤー_1
  6
CONTINUOUS
 62
       3
100
AcDbLine
 10
-111.7693874
 20
99.10573093
 30
0.0
 11
-111.26590438
 21
99.08069069
 31
0.0
  0
TEXT
  5
555
100
AcDbEntity
  8
SLD-0
 62
       3
100
AcDbText
 10
146.53673003
 20
-137.01372566
 30
0.0
 40
8.0
  1
000
 72
       5
 11
170.53673003
 21
-137.01372566
 31
0.0
100
AcDbText
  0
ENDSEC
  0
SECTION
  2
OBJECTS
  0
DICTIONARY
  5
19
100
AcDbDictionary
  3
ACAD_GROUP
350
1A
  3
ACAD_MLINESTYLE
350
1B
  0
DICTIONARY
  5
1A
102
{ACAD_REACTORS
330
19
102
}
100
AcDbDictionary
  0
DICTIONARY
  5
1B
102
{ACAD_REACTORS
330
19
102
}
100
AcDbDictionary
  3
STANDARD
350
1C
  0
MLINESTYLE
  5
1C
102
{ACAD_REACTORS
330
1B
102
}
100
AcDbMlineStyle
  2
STANDARD
 70
       0
  3

 62
       0
 51
90.0
 52
90.0
 71
       2
 49
0.5
 62
     256
  6
BYLAYER
 49
-0.5
 62
     256
  6
BYLAYER
  0
ENDSEC
  0
EOF
