  0
SECTION
  2
HEADER
  9
$ACADVER
  1
AC1014
  9
$ACADMAINTVER
 70
       0
  9
$DWGCODEPAGE
  3
ANSI_932
  9
$INSBASE
 10
0.0
 20
0.0
 30
0.0
  9
$EXTMIN
 10
-118.46534021
 20
-51.09043737
 30
0.0
  9
$EXTMAX
 10
118.46534021
 20
46.09043737
 30
0.0
  9
$LIMMIN
 10
-125.86942397
 20
-54.1273397
  9
$LIMMAX
 10
125.86942397
 20
49.1273397
  9
$ORTHOMODE
 70
       0
  9
$REGENMODE
 70
       1
  9
$FILLMODE
 70
       1
  9
$QTEXTMODE
 70
       0
  9
$MIRRTEXT
 70
       1
  9
$DRAGMODE
 70
       2
  9
$LTSCALE
 40
1.0
  9
$OSMODE
 70
       0
  9
$ATTMODE
 70
       1
  9
$TEXTSIZE
 40
0.2
  9
$TRACEWID
 40
0.05
  9
$TEXTSTYLE
  7
STANDARD
  9
$CLAYER
  8
0
  9
$CELTYPE
  6
CONTINUOUS
  9
$CECOLOR
 62
     256
  9
$CELTSCALE
 40
1.0
  9
$DELOBJ
 70
       1
  9
$DISPSILH
 70
       0
  9
$DIMSCALE
 40
1.0
  9
$DIMASZ
 40
0.18
  9
$DIMEXO
 40
0.0625
  9
$DIMDLI
 40
0.38
  9
$DIMRND
 40
0.0
  9
$DIMDLE
 40
0.0
  9
$DIMEXE
 40
0.18
  9
$DIMTP
 40
0.0
  9
$DIMTM
 40
0.0
  9
$DIMTXT
 40
0.18
  9
$DIMCEN
 40
0.09
  9
$DIMTSZ
 40
0.0
  9
$DIMTOL
 70
       0
  9
$DIMLIM
 70
       0
  9
$DIMTIH
 70
       1
  9
$DIMTOH
 70
       1
  9
$DIMSE1
 70
       0
  9
$DIMSE2
 70
       0
  9
$DIMTAD
 70
       0
  9
$DIMZIN
 70
       0
  9
$DIMBLK
  1

  9
$DIMASO
 70
       1
  9
$DIMSHO
 70
       1
  9
$DIMPOST
  1

  9
$DIMAPOST
  1

  9
$DIMALT
 70
       0
  9
$DIMALTD
 70
       2
  9
$DIMALTF
 40
25.4
  9
$DIMLFAC
 40
1.0
  9
$DIMTOFL
 70
       0
  9
$DIMTVP
 40
0.0
  9
$DIMTIX
 70
       0
  9
$DIMSOXD
 70
       0
  9
$DIMSAH
 70
       0
  9
$DIMBLK1
  1

  9
$DIMBLK2
  1

  9
$DIMSTYLE
  2
STANDARD
  9
$DIMCLRD
 70
       0
  9
$DIMCLRE
 70
       0
  9
$DIMCLRT
 70
       0
  9
$DIMTFAC
 40
1.0
  9
$DIMGAP
 40
0.09
  9
$DIMJUST
 70
       0
  9
$DIMSD1
 70
       0
  9
$DIMSD2
 70
       0
  9
$DIMTOLJ
 70
       1
  9
$DIMTZIN
 70
       0
  9
$DIMALTZ
 70
       0
  9
$DIMALTTZ
 70
       0
  9
$DIMFIT
 70
       3
  9
$DIMUPT
 70
       0
  9
$DIMUNIT
 70
       2
  9
$DIMDEC
 70
       4
  9
$DIMTDEC
 70
       4
  9
$DIMALTU
 70
       2
  9
$DIMALTTD
 70
       2
  9
$DIMTXSTY
  7
STANDARD
  9
$DIMAUNIT
 70
       0
  9
$LUNITS
 70
       2
  9
$LUPREC
 70
       4
  9
$SKETCHINC
 40
0.1
  9
$FILLETRAD
 40
0.0
  9
$AUNITS
 70
       0
  9
$AUPREC
 70
       0
  9
$MENU
  1
acad
  9
$ELEVATION
 40
0.0
  9
$PELEVATION
 40
0.0
  9
$THICKNESS
 40
0.0
  9
$LIMCHECK
 70
       0
  9
$BLIPMODE
 70
       1
  9
$CHAMFERA
 40
0.0
  9
$CHAMFERB
 40
0.0
  9
$CHAMFERC
 40
0.0
  9
$CHAMFERD
 40
0.0
  9
$SKPOLY
 70
       0
  9
$TDCREATE
 40
0.000000000
  9
$TDUPDATE
 40
0.000000000
  9
$TDINDWG
 40
0.0000000000
  9
$TDUSRTIMER
 40
0.0000000000
  9
$USRTIMER
 70
       1
  9
$ANGBASE
 50
0.0
  9
$ANGDIR
 70
       0
  9
$PDMODE
 70
       0
  9
$PDSIZE
 40
1.0
  9
$PLINEWID
 40
0.0
  9
$COORDS
 70
       1
  9
$SPLFRAME
 70
       0
  9
$SPLINETYPE
 70
       6
  9
$SPLINESEGS
 70
       8
  9
$ATTDIA
 70
       0
  9
$ATTREQ
 70
       1
  9
$HANDLING
 70
       1
  9
$HANDSEED
  5
371
  9
$SURFTAB1
 70
       6
  9
$SURFTAB2
 70
       6
  9
$SURFTYPE
 70
       6
  9
$SURFU
 70
       6
  9
$SURFV
 70
       6
  9
$UCSNAME
  2

  9
$UCSORG
 10
0.0
 20
0.0
 30
0.0
  9
$UCSXDIR
 10
1.0
 20
0.0
 30
0.0
  9
$UCSYDIR
 10
0.0
 20
1.0
 30
0.0
  9
$PUCSNAME
  2

  9
$PUCSORG
 10
0.0
 20
0.0
 30
0.0
  9
$PUCSXDIR
 10
1.0
 20
0.0
 30
0.0
  9
$PUCSYDIR
 10
0.0
 20
1.0
 30
0.0
  9
$USERI1
 70
       0
  9
$USERI2
 70
       0
  9
$USERI3
 70
       0
  9
$USERI4
 70
       0
  9
$USERI5
 70
       0
  9
$USERR1
 40
0.0
  9
$USERR2
 40
0.0
  9
$USERR3
 40
0.0
  9
$USERR4
 40
0.0
  9
$USERR5
 40
0.0
  9
$WORLDVIEW
 70
       1
  9
$SHADEDGE
 70
       3
  9
$SHADEDIF
 70
      70
  9
$TILEMODE
 70
       1
  9
$MAXACTVP
 70
      16
  9
$PINSBASE
 10
0.0
 20
0.0
 30
0.0
  9
$PLIMCHECK
 70
       0
  9
$PEXTMIN
 10
1.00000000E+20
 20
1.00000000E+20
 30
1.00000000E+20
  9
$PEXTMAX
 10
-1.00000000E+20
 20
-1.00000000E+20
 30
-1.00000000E+20
  9
$PLIMMIN
 10
0.0
 20
0.0
  9
$PLIMMAX
 10
12.0
 20
9.0
  9
$UNITMODE
 70
       0
  9
$VISRETAIN
 70
       0
  9
$PLINEGEN
 70
       1
  9
$PSLTSCALE
 70
       0
  9
$TREEDEPTH
 70
    3020
  9
$PICKSTYLE
 70
       1
  9
$CMLSTYLE
  2
STANDARD
  9
$CMLJUST
 70
       0
  9
$CMLSCALE
 40
1.0
  9
$PROXYGRAPHICS
 70
       0
  9
$MEASUREMENT
 70
       0
  0
ENDSEC
  0
SECTION
  2
CLASSES
  0
CLASS
  1
LWPOLYLINE
  2
AcDbPolyline
  3
"AutoCAD"
 90
        0
280
       0
281
       1
  0
CLASS
  1
IMAGE
  2
AcDbRasterImage
  3
ISM
 90
      127
280
       0
281
       1
  0
CLASS
  1
OLE2FRAME
  2
AcDbOle2Frame
  3
""
 90
        0
280
       0
281
       1
  0
CLASS
  1
HATCH
  2
AcDbHatch
  3
"ACAD_SEDONA"
 90
        0
280
       0
281
       1
  0
CLASS
  1
DICTIONARYVAR
  2
AcDbDictionaryVar
  3
"AutoCAD"
 90
        0
280
       0
281
       0
  0
CLASS
  1
RASTERVARIABLES
  2
AcDbRasterVariables
  3
ISM
 90
        0
280
       0
281
       0
  0
CLASS
  1
IMAGEDEF
  2
AcDbRasterImageDef
  3
ISM
 90
        0
280
       0
281
       0
  0
CLASS
  1
IMAGEDEF_REACTOR
  2
AcDbRasterImageDefReactor
  3
ISM
 90
        1
280
       0
281
       0
  0
CLASS
  1
IDBUFFER
  2
AcDbIdBuffer
  3
"Acad"
 90
        0
280
       0
281
       0
  0
CLASS
  1
SPATIAL_FILTER
  2
AcDbSpatialFilter
  3
"Acad"
 90
        0
280
       0
281
       0
  0
CLASS
  1
XRECORD
  2
AcDbXrecord
  3
"<Built In>"
 90
        0
280
       0
281
       0
  0
CLASS
  1
SORTENTSTABLE
  2
AcDbSortentsTable
  3
"AutoCAD"
 90
        0
280
       0
281
       0
  0
CLASS
  1
LAYER_INDEX
  2
AcDbLayerIndex
  3
"Acad"
 90
        0
280
       0
281
       0
  0
CLASS
  1
SPATIAL_INDEX
  2
AcDbSpatialIndex
  3
"Acad"
 90
        0
280
       0
281
       0
  0
CLASS
  1
OBJECT_PTR
  2
CAseDLPNTableRecord
  3
"ASE-LPNTableRecord"
 90
        1
280
       0
281
       0
  0
CLASS
  1
LAYOUT
  2
AcDbLayout
  3
"AutoCAD 2000"
 90
        1
280
       0
281
       0
  0
CLASS
  1
PLOTSETTINGS
  2
AcDbPlotSettings
  3
"AutoCAD 2000"
 90
        1
280
       0
281
       0
  0
CLASS
  1
ACDBDICTIONARYWDFLT
  2
AcDbDictionaryWithDefault
  3
"AutoCAD 2000"
 90
        1
280
       0
281
       0
  0
CLASS
  1
ACDBPLACEHOLDER
  2
AcDbPlaceHolder
  3
"AutoCAD 2000"
 90
        1
280
       0
281
       0
  0
CLASS
  1
VBA_PROJECT
  2
AcDbVbaProject
  3
"acadvba"
 90
        1
280
       0
281
       0
  0
CLASS
  1
WIPEOUT
  2
AcDbWipeout
  3
WipeOut|AutoCAD Express Tool|expresstools@autodesk.com
 90
      127
280
       0
281
       1
  0
CLASS
  1
WIPEOUTVARIABLES
  2
AcDbWipeoutVariables
  3
WipeOut|AutoCAD Express Tool|expresstools@autodesk.com
 90
        0
280
       0
281
       0
  0
CLASS
  1
RTEXT
  2
RText
  3
RText|AutoCAD Express Tool|expresstools@autodesk.com
 90
        0
280
       0
281
       1
  0
CLASS
  1
ARCALIGNEDTEXT
  2
AcDbArcAlignedText
  3
ATEXT|AutoCAD Express Tool|expresstools@autodesk.com
 90
        0
280
       0
281
       1
  0
ENDSEC
  0
SECTION
  2
TABLES
  0
TABLE
  2
VPORT
  5
7
100
AcDbSymbolTable
 70
       1
  0
VPORT
  5
15
100
AcDbSymbolTableRecord
100
AcDbViewportTableRecord
  2
*ACTIVE
 70
       0
 10
0.0
 20
0.0
 11
1.0
 21
1.0
 12
0.0
 22
-2.5
 13
0.0
 23
0.0
 14
1.0
 24
1.0
 15
0.0
 25
0.0
 16
0.0
 26
0.0
 36
1.0
 17
0.0
 27
0.0
 37
0.0
 40
103.2546794
 41
2.43803815
 42
50.0
 43
0.0
 44
0.0
 50
0.0
 51
0.0
 71
       0
 72
     100
 73
       1
 74
       1
 75
       0
 76
       0
 77
       0
 78
       0
  0
ENDTAB
  0
TABLE
  2
LTYPE
  5
4
100
AcDbSymbolTable
 70
      30
  0
LTYPE
  5
11
100
AcDbSymbolTableRecord
100
AcDbLinetypeTableRecord
  2
BYBLOCK
 70
      64
  3

 72
      65
 73
       0
 40
0.0
  0
LTYPE
  5
12
100
AcDbSymbolTableRecord
100
AcDbLinetypeTableRecord
  2
BYLAYER
 70
      64
  3

 72
      65
 73
       0
 40
0.0
  0
LTYPE
  5
13
100
AcDbSymbolTableRecord
100
AcDbLinetypeTableRecord
  2
CONTINUOUS
 70
      64
  3
Solid line
 72
      65
 73
       0
 40
0.0
  0
LTYPE
  5
1D
100
AcDbSymbolTableRecord
100
AcDbLinetypeTableRecord
  2
HIDDENX2
 70
      64
  3
CADPAC LINETYPE
 72
      65
 73
       2
 40
9.47722722
 49
7.10792041
 74
       0
 49
-2.3693068
 74
       0
  0
LTYPE
  5
1E
100
AcDbSymbolTableRecord
100
AcDbLinetypeTableRecord
  2
HIDDEN
 70
      64
  3
CADPAC LINETYPE
 72
      65
 73
       2
 40
7.10792041
 49
4.73861361
 74
       0
 49
-2.3693068
 74
       0
  0
LTYPE
  5
1F
100
AcDbSymbolTableRecord
100
AcDbLinetypeTableRecord
  2
HIDDEN2
 70
      64
  3
CADPAC LINETYPE
 72
      65
 73
       2
 40
5.92326701
 49
3.55396021
 74
       0
 49
-2.3693068
 74
       0
  0
LTYPE
  5
20
100
AcDbSymbolTableRecord
100
AcDbLinetypeTableRecord
  2
DASHED
 70
      64
  3
CADPAC LINETYPE
 72
      65
 73
       2
 40
7.10792041
 49
4.73861361
 74
       0
 49
-2.3693068
 74
       0
  0
LTYPE
  5
21
100
AcDbSymbolTableRecord
100
AcDbLinetypeTableRecord
  2
DASHED2
 70
      64
  3
CADPAC LINETYPE
 72
      65
 73
       2
 40
5.33094031
 49
3.55396021
 74
       0
 49
-1.7769801
 74
       0
  0
LTYPE
  5
22
100
AcDbSymbolTableRecord
100
AcDbLinetypeTableRecord
  2
DASHEDX2
 70
      64
  3
CADPAC LINETYPE
 72
      65
 73
       2
 40
10.66188062
 49
7.10792041
 74
       0
 49
-3.55396021
 74
       0
  0
LTYPE
  5
23
100
AcDbSymbolTableRecord
100
AcDbLinetypeTableRecord
  2
DOTX2
 70
      64
  3
CADPAC LINETYPE
 72
      65
 73
       2
 40
2.96163351
 49
0.0
 74
       0
 49
-2.96163351
 74
       0
  0
LTYPE
  5
24
100
AcDbSymbolTableRecord
100
AcDbLinetypeTableRecord
  2
DOT
 70
      64
  3
CADPAC LINETYPE
 72
      65
 73
       2
 40
2.3693068
 49
0.0
 74
       0
 49
-2.3693068
 74
       0
  0
LTYPE
  5
25
100
AcDbSymbolTableRecord
100
AcDbLinetypeTableRecord
  2
DOT2
 70
      64
  3
CADPAC LINETYPE
 72
      65
 73
       2
 40
1.7769801
 49
0.0
 74
       0
 49
-1.7769801
 74
       0
  0
LTYPE
  5
26
100
AcDbSymbolTableRecord
100
AcDbLinetypeTableRecord
  2
CENTERX2
 70
      64
  3
CADPAC LINETYPE
 72
      65
 73
       4
 40
14.21584083
 49
5.92326701
 74
       0
 49
-2.96163351
 74
       0
 49
2.3693068
 74
       0
 49
-2.96163351
 74
       0
  0
LTYPE
  5
27
100
AcDbSymbolTableRecord
100
AcDbLinetypeTableRecord
  2
CENTER
 70
      64
  3
CADPAC LINETYPE
 72
      65
 73
       4
 40
10.8988113
 49
4.73861361
 74
       0
 49
-2.3693068
 74
       0
 49
1.42158408
 74
       0
 49
-2.3693068
 74
       0
  0
LTYPE
  5
28
100
AcDbSymbolTableRecord
100
AcDbLinetypeTableRecord
  2
CENTER2
 70
      64
  3
CADPAC LINETYPE
 72
      65
 73
       4
 40
7.58178177
 49
3.55396021
 74
       0
 49
-1.7769801
 74
       0
 49
0.47386136
 74
       0
 49
-1.7769801
 74
       0
  0
LTYPE
  5
29
100
AcDbSymbolTableRecord
100
AcDbLinetypeTableRecord
  2
DASHDOTX2
 70
      64
  3
CADPAC LINETYPE
 72
      65
 73
       4
 40
11.84653402
 49
5.92326701
 74
       0
 49
-2.96163351
 74
       0
 49
0.0
 74
       0
 49
-2.96163351
 74
       0
  0
LTYPE
  5
2A
100
AcDbSymbolTableRecord
100
AcDbLinetypeTableRecord
  2
DASHDOT
 70
      64
  3
CADPAC LINETYPE
 72
      65
 73
       4
 40
9.47722722
 49
4.73861361
 74
       0
 49
-2.3693068
 74
       0
 49
0.0
 74
       0
 49
-2.3693068
 74
       0
  0
LTYPE
  5
2B
100
AcDbSymbolTableRecord
100
AcDbLinetypeTableRecord
  2
DASHDOT2
 70
      64
  3
CADPAC LINETYPE
 72
      65
 73
       4
 40
7.10792041
 49
3.55396021
 74
       0
 49
-1.7769801
 74
       0
 49
0.0
 74
       0
 49
-1.7769801
 74
       0
  0
LTYPE
  5
2C
100
AcDbSymbolTableRecord
100
AcDbLinetypeTableRecord
  2
DIVIDEX2
 70
      64
  3
CADPAC LINETYPE
 72
      65
 73
       6
 40
14.80816753
 49
5.92326701
 74
       0
 49
-2.96163351
 74
       0
 49
0.0
 74
       0
 49
-2.96163351
 74
       0
 49
0.0
 74
       0
 49
-2.96163351
 74
       0
  0
LTYPE
  5
2D
100
AcDbSymbolTableRecord
100
AcDbLinetypeTableRecord
  2
DIVIDE
 70
      64
  3
CADPAC LINETYPE
 72
      65
 73
       6
 40
11.84653402
 49
4.73861361
 74
       0
 49
-2.3693068
 74
       0
 49
0.0
 74
       0
 49
-2.3693068
 74
       0
 49
0.0
 74
       0
 49
-2.3693068
 74
       0
  0
LTYPE
  5
2E
100
AcDbSymbolTableRecord
100
AcDbLinetypeTableRecord
  2
DIVIDE2
 70
      64
  3
CADPAC LINETYPE
 72
      65
 73
       6
 40
8.88490052
 49
3.55396021
 74
       0
 49
-1.7769801
 74
       0
 49
0.0
 74
       0
 49
-1.7769801
 74
       0
 49
0.0
 74
       0
 49
-1.7769801
 74
       0
  0
LTYPE
  5
2F
100
AcDbSymbolTableRecord
100
AcDbLinetypeTableRecord
  2
BORDERX2
 70
      64
  3
CADPAC LINETYPE
 72
      65
 73
       6
 40
20.73143454
 49
5.92326701
 74
       0
 49
-2.96163351
 74
       0
 49
5.92326701
 74
       0
 49
-2.96163351
 74
       0
 49
0.0
 74
       0
 49
-2.96163351
 74
       0
  0
LTYPE
  5
30
100
AcDbSymbolTableRecord
100
AcDbLinetypeTableRecord
  2
BORDER
 70
      64
  3
CADPAC LINETYPE
 72
      65
 73
       6
 40
16.58514763
 49
4.73861361
 74
       0
 49
-2.3693068
 74
       0
 49
4.73861361
 74
       0
 49
-2.3693068
 74
       0
 49
0.0
 74
       0
 49
-2.3693068
 74
       0
  0
LTYPE
  5
31
100
AcDbSymbolTableRecord
100
AcDbLinetypeTableRecord
  2
BORDER2
 70
      64
  3
CADPAC LINETYPE
 72
      65
 73
       6
 40
12.43886072
 49
3.55396021
 74
       0
 49
-1.7769801
 74
       0
 49
3.55396021
 74
       0
 49
-1.7769801
 74
       0
 49
0.0
 74
       0
 49
-1.7769801
 74
       0
  0
LTYPE
  5
32
100
AcDbSymbolTableRecord
100
AcDbLinetypeTableRecord
  2
PHANTOMX2
 70
      64
  3
CADPAC LINETYPE
 72
      65
 73
       6
 40
17.76980103
 49
5.92326701
 74
       0
 49
-2.3693068
 74
       0
 49
2.3693068
 74
       0
 49
-2.3693068
 74
       0
 49
2.3693068
 74
       0
 49
-2.3693068
 74
       0
  0
LTYPE
  5
33
100
AcDbSymbolTableRecord
100
AcDbLinetypeTableRecord
  2
PHANTOM
 70
      64
  3
CADPAC LINETYPE
 72
      65
 73
       6
 40
14.68970219
 49
4.73861361
 74
       0
 49
-2.3693068
 74
       0
 49
1.42158408
 74
       0
 49
-2.3693068
 74
       0
 49
1.42158408
 74
       0
 49
-2.3693068
 74
       0
  0
LTYPE
  5
34
100
AcDbSymbolTableRecord
100
AcDbLinetypeTableRecord
  2
PHANTOM2
 70
      64
  3
CADPAC LINETYPE
 72
      65
 73
       6
 40
12.55732606
 49
3.55396021
 74
       0
 49
-2.3693068
 74
       0
 49
0.94772272
 74
       0
 49
-2.3693068
 74
       0
 49
0.94772272
 74
       0
 49
-2.3693068
 74
       0
  0
LTYPE
  5
35
100
AcDbSymbolTableRecord
100
AcDbLinetypeTableRecord
  2
ACAD_ISO06W100
 70
      64
  3
CADPAC LINETYPE
 72
      65
 73
       8
 40
15.99282093
 49
5.92326701
 74
       0
 49
-2.96163351
 74
       0
 49
0.0
 74
       0
 49
-2.3693068
 74
       0
 49
0.0
 74
       0
 49
-2.3693068
 74
       0
 49
0.0
 74
       0
 49
-2.3693068
 74
       0
  0
LTYPE
  5
36
100
AcDbSymbolTableRecord
100
AcDbLinetypeTableRecord
  2
ACAD_ISO13W100
 70
      64
  3
CADPAC LINETYPE
 72
      65
 73
       8
 40
18.95445443
 49
4.73861361
 74
       0
 49
-2.3693068
 74
       0
 49
4.73861361
 74
       0
 49
-2.3693068
 74
       0
 49
0.0
 74
       0
 49
-2.3693068
 74
       0
 49
0.0
 74
       0
 49
-2.3693068
 74
       0
  0
LTYPE
  5
37
100
AcDbSymbolTableRecord
100
AcDbLinetypeTableRecord
  2
ACAD_ISO14W100
 70
      64
  3
CADPAC LINETYPE
 72
      65
 73
       8
 40
14.21584083
 49
4.73861361
 74
       0
 49
-2.3693068
 74
       0
 49
0.0
 74
       0
 49
-2.3693068
 74
       0
 49
0.0
 74
       0
 49
-2.3693068
 74
       0
 49
0.0
 74
       0
 49
-2.3693068
 74
       0
  0
ENDTAB
  0
TABLE
  2
LAYER
  5
2
100
AcDbSymbolTable
 70
       3
  0
LAYER
  5
14
100
AcDbSymbolTableRecord
100
AcDbLayerTableRecord
  2
0
 70
       0
 62
       7
  6
CONTINUOUS
  0
LAYER
  5
38
100
AcDbSymbolTableRecord
100
AcDbLayerTableRecord
  2
SLD-0
 70
       0
 62
       7
  6
CONTINUOUS
  0
LAYER
  5
39
100
AcDbSymbolTableRecord
100
AcDbLayerTableRecord
  2
レイヤー_1
 70
       0
 62
       7
  6
CONTINUOUS
  0
ENDTAB
  0
TABLE
  2
STYLE
  5
3
100
AcDbSymbolTable
 70
       1
  0
STYLE
  5
17
100
AcDbSymbolTableRecord
100
AcDbTextStyleTableRecord
  2
STANDARD
 70
       0
 40
0.0
 41
1.0
 50
0.0
 71
       0
 42
10.0
  3
txt.shx
  4
bigfont.shx
  0
ENDTAB
  0
TABLE
  2
VIEW
  5
5
100
AcDbSymbolTable
 70
       1
  0
VIEW
  5
3A
100
AcDbSymbolTableRecord
100
AcDbViewTableRecord
  2
QQQQ
 70
       0
 40
103.2546794
 10
0.0
 20
-2.5
 41
251.73884795
 11
0.0
 21
0.0
 31
1.0
 12
100.0
 22
100.0
 32
0.0
 42
50.0
 43
0.0
 44
0.0
 50
0.0
 71
       0
  0
ENDTAB
  0
TABLE
  2
UCS
  5
6
100
AcDbSymbolTable
 70
       0
  0
ENDTAB
  0
TABLE
  2
APPID
  5
8
100
AcDbSymbolTable
 70
       1
  0
APPID
  5
16
100
AcDbSymbolTableRecord
100
AcDbRegAppTableRecord
  2
ACAD
 70
       0
  0
ENDTAB
  0
TABLE
  2
DIMSTYLE
  5
9
100
AcDbSymbolTable
 70
       1
  0
DIMSTYLE
105
18
100
AcDbSymbolTableRecord
100
AcDbDimStyleTableRecord
  2
STANDARD
 70
       0
  3

  4

  5

  6

  7

 40
1.0
 41
0.18
 42
0.0625
 43
0.38
 44
0.18
 45
0.0
 46
0.0
 47
0.0
 48
0.0
 71
       0
 72
       0
 73
       1
 74
       1
 75
       0
 76
       0
 77
       0
 78
       0
140
0.18
141
0.09
142
0.0
143
25.4
144
1.0
145
0.0
146
1.0
147
0.09
170
       0
171
       2
172
       0
173
       0
174
       0
175
       0
176
       0
177
       0
178
       0
270
       2
271
       4
272
       4
273
       2
274
       2
275
       0
280
       0
281
       0
282
       0
283
       1
284
       0
285
       0
286
       0
287
       0
288
       0
340
17
  0
ENDTAB
  0
TABLE
  2
BLOCK_RECORD
  5
1
100
AcDbSymbolTable
 70
       0
  0
BLOCK_RECORD
  5
A
100
AcDbSymbolTableRecord
100
AcDbBlockTableRecord
  2
*MODEL_SPACE
  0
BLOCK_RECORD
  5
B
100
AcDbSymbolTableRecord
100
AcDbBlockTableRecord
  2
*PAPER_SPACE
  0
ENDTAB
  0
ENDSEC
  0
SECTION
  2
BLOCKS
  0
BLOCK
  5
D
100
AcDbEntity
  8
0
100
AcDbBlockBegin
  2
*MODEL_SPACE
 70
       0
 10
0.0
 20
0.0
 30
0.0
  3
*MODEL_SPACE
  1

  0
ENDBLK
  5
E
100
AcDbEntity
  8
0
100
AcDbBlockEnd
  0
BLOCK
  5
F
100
AcDbEntity
 67
       1
  8
0
100
AcDbBlockBegin
  2
*PAPER_SPACE
 70
       0
 10
0.0
 20
0.0
 30
0.0
  3
*PAPER_SPACE
  1

  0
ENDBLK
  5
10
100
AcDbEntity
 67
       1
  8
0
100
AcDbBlockEnd
  0
ENDSEC
  0
SECTION
  2
ENTITIES
  0
LINE
  5
3B
100
AcDbEntity
  8
レイヤー_1
  6
CONTINUOUS
 62
       3
100
AcDbLine
 10
-92.90784843
 20
18.21254525
 30
0.0
 11
-100.90667113
 21
18.21254525
 31
0.0
  0
LINE
  5
3C
100
AcDbEntity
  8
レイヤー_1
  6
CONTINUOUS
 62
       3
100
AcDbLine
 10
-100.90667113
 20
10.21441157
 30
0.0
 11
-92.90784843
 21
10.21441157
 31
0.0
  0
LINE
  5
3D
100
AcDbEntity
  8
レイヤー_1
  6
CONTINUOUS
 62
       3
100
AcDbLine
 10
-12.58544719
 20
-9.7619746
 30
0.0
 11
-11.58568048
 21
-9.7619746
 31
0.0
  0
LINE
  5
3E
100
AcDbEntity
  8
レイヤー_1
  6
CONTINUOUS
 62
       3
100
AcDbLine
 10
-11.58568048
 20
-9.7619746
 30
0.0
 11
-11.58568048
 21
38.22613846
 31
0.0
  0
LINE
  5
3F
100
AcDbEntity
  8
レイヤー_1
  6
CONTINUOUS
 62
       3
100
AcDbLine
 10
-11.58568048
 20
38.22613846
 30
0.0
 11
-12.58544719
 21
38.22613846
 31
0.0
  0
LINE
  5
40
100
AcDbEntity
  8
レイヤー_1
  6
CONTINUOUS
 62
       3
100
AcDbLine
 10
-12.58544719
 20
38.22613846
 30
0.0
 11
-12.58544719
 21
-9.7619746
 31
0.0
  0
LINE
  5
41
100
AcDbEntity
  8
レイヤー_1
  6
CONTINUOUS
 62
       3
100
AcDbLine
 10
3.90898097
 20
44.22157439
 30
0.0
 11
3.90898097
 21
-13.77172123
 31
0.0
  0
LINE
  5
42
100
AcDbEntity
  8
レイヤー_1
  6
CONTINUOUS
 62
       3
100
AcDbLine
 10
3.90898097
 20
-13.77172123
 30
0.0
 11
5.91568535
 21
-15.77842561
 31
0.0
  0
LINE
  5
43
100
AcDbEntity
  8
レイヤー_1
  6
CONTINUOUS
 62
       3
100
AcDbLine
 10
-93.6571567
 20
10.21441157
 30
0.0
 11
-93.6571567
 21
18.21254525
 31
0.0
  0
LINE
  5
44
100
AcDbEntity
  8
レイヤー_1
  6
CONTINUOUS
 62
       3
100
AcDbLine
 10
-100.15667384
 20
18.21254525
 30
0.0
 11
-100.15667384
 21
10.21441157
 31
0.0
  0
LINE
  5
45
100
AcDbEntity
  8
レイヤー_1
  6
CONTINUOUS
 62
       3
100
AcDbLine
 10
-92.90784843
 20
28.21021235
 30
0.0
 11
-100.90667113
 21
28.21021235
 31
0.0
  0
LINE
  5
46
100
AcDbEntity
  8
レイヤー_1
  6
CONTINUOUS
 62
       3
100
AcDbLine
 10
-100.90667113
 20
20.21207867
 30
0.0
 11
-92.90784843
 21
20.21207867
 31
0.0
  0
LINE
  5
47
100
AcDbEntity
  8
レイヤー_1
  6
CONTINUOUS
 62
       3
100
AcDbLine
 10
-93.6571567
 20
20.21207867
 30
0.0
 11
-93.6571567
 21
28.21021235
 31
0.0
  0
LINE
  5
48
100
AcDbEntity
  8
レイヤー_1
  6
CONTINUOUS
 62
       3
100
AcDbLine
 10
-100.15667384
 20
28.21021235
 30
0.0
 11
-100.15667384
 21
20.21207867
 31
0.0
  0
LINE
  5
49
100
AcDbEntity
  8
レイヤー_1
  6
CONTINUOUS
 62
       3
100
AcDbLine
 10
-100.90667113
 20
30.20974577
 30
0.0
 11
-92.90784843
 21
30.20974577
 31
0.0
  0
LINE
  5
4A
100
AcDbEntity
  8
レイヤー_1
  6
CONTINUOUS
 62
       3
100
AcDbLine
 10
-93.6571567
 20
30.20974577
 30
0.0
 11
-93.6571567
 21
38.20787945
 31
0.0
  0
LINE
  5
4B
100
AcDbEntity
  8
レイヤー_1
  6
CONTINUOUS
 62
       3
100
AcDbLine
 10
-100.15667384
 20
38.20787945
 30
0.0
 11
-100.15667384
 21
30.20974577
 31
0.0
  0
LINE
  5
4C
100
AcDbEntity
  8
レイヤー_1
  6
CONTINUOUS
 62
       3
100
AcDbLine
 10
-92.90784843
 20
8.21487815
 30
0.0
 11
-100.90667113
 21
8.21487815
 31
0.0
  0
LINE
  5
4D
100
AcDbEntity
  8
レイヤー_1
  6
CONTINUOUS
 62
       3
100
AcDbLine
 10
-100.90667113
 20
0.21674448
 30
0.0
 11
-92.90784843
 21
0.21674448
 31
0.0
  0
LINE
  5
4E
100
AcDbEntity
  8
レイヤー_1
  6
CONTINUOUS
 62
       3
100
AcDbLine
 10
-93.6571567
 20
0.21674448
 30
0.0
 11
-93.6571567
 21
8.21487815
 31
0.0
  0
LINE
  5
4F
100
AcDbEntity
  8
レイヤー_1
  6
CONTINUOUS
 62
       3
100
AcDbLine
 10
-100.15667384
 20
8.21487815
 30
0.0
 11
-100.15667384
 21
0.21674448
 31
0.0
  0
LINE
  5
50
100
AcDbEntity
  8
レイヤー_1
  6
CONTINUOUS
 62
       3
100
AcDbLine
 10
-92.90784843
 20
-1.78278894
 30
0.0
 11
-100.90667113
 21
-1.78278894
 31
0.0
  0
LINE
  5
51
100
AcDbEntity
  8
レイヤー_1
  6
CONTINUOUS
 62
       3
100
AcDbLine
 10
-100.90667113
 20
-9.78057811
 30
0.0
 11
-92.90784843
 21
-9.78057811
 31
0.0
  0
LINE
  5
52
100
AcDbEntity
  8
レイヤー_1
  6
CONTINUOUS
 62
       3
100
AcDbLine
 10
-92.90784843
 20
-9.78057811
 30
0.0
 11
-92.90784843
 21
38.20787945
 31
0.0
  0
LINE
  5
53
100
AcDbEntity
  8
レイヤー_1
  6
CONTINUOUS
 62
       3
100
AcDbLine
 10
-92.90784843
 20
38.20787945
 30
0.0
 11
-100.90667113
 21
38.20787945
 31
0.0
  0
LINE
  5
54
100
AcDbEntity
  8
レイヤー_1
  6
CONTINUOUS
 62
       3
100
AcDbLine
 10
-100.90667113
 20
38.20787945
 30
0.0
 11
-100.90667113
 21
-9.78057811
 31
0.0
  0
LINE
  5
55
100
AcDbEntity
  8
レイヤー_1
  6
CONTINUOUS
 62
       3
100
AcDbLine
 10
-93.6571567
 20
-9.78057811
 30
0.0
 11
-93.6571567
 21
-1.78209992
 31
0.0
  0
LINE
  5
56
100
AcDbEntity
  8
レイヤー_1
  6
CONTINUOUS
 62
       3
100
AcDbLine
 10
-100.15667384
 20
-1.78209992
 30
0.0
 11
-100.15667384
 21
-9.78057811
 31
0.0
  0
LINE
  5
57
100
AcDbEntity
  8
レイヤー_1
  6
CONTINUOUS
 62
       3
100
AcDbLine
 10
-100.90667113
 20
-6.78093347
 30
0.0
 11
-99.63887599
 21
-6.78093347
 31
0.0
  0
LINE
  5
58
100
AcDbEntity
  8
レイヤー_1
  6
CONTINUOUS
 62
       3
100
AcDbLine
 10
-99.63887599
 20
-6.78093347
 30
0.0
 11
-99.63887599
 21
-4.78140005
 31
0.0
  0
LINE
  5
59
100
AcDbEntity
  8
レイヤー_1
  6
CONTINUOUS
 62
       3
100
AcDbLine
 10
-99.63887599
 20
-4.78140005
 30
0.0
 11
-100.90667113
 21
-4.78140005
 31
0.0
  0
LINE
  5
5A
100
AcDbEntity
  8
レイヤー_1
  6
CONTINUOUS
 62
       3
100
AcDbLine
 10
-94.18287827
 20
-6.78093347
 30
0.0
 11
-92.91473862
 21
-6.78093347
 31
0.0
  0
LINE
  5
5B
100
AcDbEntity
  8
レイヤー_1
  6
CONTINUOUS
 62
       3
100
AcDbLine
 10
-92.91473862
 20
-6.78093347
 30
0.0
 11
-92.91473862
 21
-4.78140005
 31
0.0
  0
LINE
  5
5C
100
AcDbEntity
  8
レイヤー_1
  6
CONTINUOUS
 62
       3
100
AcDbLine
 10
-92.91473862
 20
-4.78140005
 30
0.0
 11
-94.18287827
 21
-4.78140005
 31
0.0
  0
LINE
  5
5D
100
AcDbEntity
  8
レイヤー_1
  6
CONTINUOUS
 62
       3
100
AcDbLine
 10
-94.18287827
 20
-4.78140005
 30
0.0
 11
-94.18287827
 21
-6.78093347
 31
0.0
  0
LINE
  5
5E
100
AcDbEntity
  8
レイヤー_1
  6
CONTINUOUS
 62
       3
100
AcDbLine
 10
-100.90667113
 20
33.2090459
 30
0.0
 11
-99.63887599
 21
33.2090459
 31
0.0
  0
LINE
  5
5F
100
AcDbEntity
  8
レイヤー_1
  6
CONTINUOUS
 62
       3
100
AcDbLine
 10
-99.63887599
 20
33.2090459
 30
0.0
 11
-99.63887599
 21
35.20857932
 31
0.0
  0
LINE
  5
60
100
AcDbEntity
  8
レイヤー_1
  6
CONTINUOUS
 62
       3
100
AcDbLine
 10
-99.63887599
 20
35.20857932
 30
0.0
 11
-100.90667113
 21
35.20857932
 31
0.0
  0
LINE
  5
61
100
AcDbEntity
  8
レイヤー_1
  6
CONTINUOUS
 62
       3
100
AcDbLine
 10
-94.18287827
 20
33.2090459
 30
0.0
 11
-92.91473862
 21
33.2090459
 31
0.0
  0
LINE
  5
62
100
AcDbEntity
  8
レイヤー_1
  6
CONTINUOUS
 62
       3
100
AcDbLine
 10
-92.91473862
 20
33.2090459
 30
0.0
 11
-92.91473862
 21
35.20857932
 31
0.0
  0
LINE
  5
63
100
AcDbEntity
  8
レイヤー_1
  6
CONTINUOUS
 62
       3
100
AcDbLine
 10
-92.91473862
 20
35.20857932
 30
0.0
 11
-94.18287827
 21
35.20857932
 31
0.0
  0
LINE
  5
64
100
AcDbEntity
  8
レイヤー_1
  6
CONTINUOUS
 62
       3
100
AcDbLine
 10
-94.18287827
 20
35.20857932
 30
0.0
 11
-94.18287827
 21
33.2090459
 31
0.0
  0
LINE
  5
65
100
AcDbEntity
  8
レイヤー_1
  6
CONTINUOUS
 62
       3
100
AcDbLine
 10
-61.91129082
 20
18.21254525
 30
0.0
 11
-69.91011352
 21
18.21254525
 31
0.0
  0
LINE
  5
66
100
AcDbEntity
  8
レイヤー_1
  6
CONTINUOUS
 62
       3
100
AcDbLine
 10
-69.91011352
 20
10.21441157
 30
0.0
 11
-61.91129082
 21
10.21441157
 31
0.0
  0
LINE
  5
67
100
AcDbEntity
  8
レイヤー_1
  6
CONTINUOUS
 62
       3
100
AcDbLine
 10
-62.66128811
 20
10.21441157
 30
0.0
 11
-62.66128811
 21
18.21254525
 31
0.0
  0
LINE
  5
68
100
AcDbEntity
  8
レイヤー_1
  6
CONTINUOUS
 62
       3
100
AcDbLine
 10
-69.16080525
 20
18.21254525
 30
0.0
 11
-69.16080525
 21
10.21441157
 31
0.0
  0
LINE
  5
69
100
AcDbEntity
  8
レイヤー_1
  6
CONTINUOUS
 62
       3
100
AcDbLine
 10
-61.91129082
 20
28.21021235
 30
0.0
 11
-69.91011352
 21
28.21021235
 31
0.0
  0
LINE
  5
6A
100
AcDbEntity
  8
レイヤー_1
  6
CONTINUOUS
 62
       3
100
AcDbLine
 10
-69.91011352
 20
20.21207867
 30
0.0
 11
-61.91129082
 21
20.21207867
 31
0.0
  0
LINE
  5
6B
100
AcDbEntity
  8
レイヤー_1
  6
CONTINUOUS
 62
       3
100
AcDbLine
 10
-62.66128811
 20
20.21207867
 30
0.0
 11
-62.66128811
 21
28.21021235
 31
0.0
  0
LINE
  5
6C
100
AcDbEntity
  8
レイヤー_1
  6
CONTINUOUS
 62
       3
100
AcDbLine
 10
-69.16080525
 20
28.21021235
 30
0.0
 11
-69.16080525
 21
20.21207867
 31
0.0
  0
LINE
  5
6D
100
AcDbEntity
  8
レイヤー_1
  6
CONTINUOUS
 62
       3
100
AcDbLine
 10
-69.91011352
 20
30.20974577
 30
0.0
 11
-61.91129082
 21
30.20974577
 31
0.0
  0
LINE
  5
6E
100
AcDbEntity
  8
レイヤー_1
  6
CONTINUOUS
 62
       3
100
AcDbLine
 10
-62.66128811
 20
30.20974577
 30
0.0
 11
-62.66128811
 21
38.20787945
 31
0.0
  0
LINE
  5
6F
100
AcDbEntity
  8
レイヤー_1
  6
CONTINUOUS
 62
       3
100
AcDbLine
 10
-69.16080525
 20
38.20787945
 30
0.0
 11
-69.16080525
 21
30.20974577
 31
0.0
  0
LINE
  5
70
100
AcDbEntity
  8
レイヤー_1
  6
CONTINUOUS
 62
       3
100
AcDbLine
 10
-61.91129082
 20
8.21487815
 30
0.0
 11
-69.91011352
 21
8.21487815
 31
0.0
  0
LINE
  5
71
100
AcDbEntity
  8
レイヤー_1
  6
CONTINUOUS
 62
       3
100
AcDbLine
 10
-69.91011352
 20
38.20719043
 30
0.0
 11
-61.91129082
 21
38.20719043
 31
0.0
  0
LINE
  5
72
100
AcDbEntity
  8
レイヤー_1
  6
CONTINUOUS
 62
       3
100
AcDbLine
 10
-61.91129082
 20
38.20719043
 30
0.0
 11
-61.91129082
 21
0.21674448
 31
0.0
  0
LINE
  5
73
100
AcDbEntity
  8
レイヤー_1
  6
CONTINUOUS
 62
       3
100
AcDbLine
 10
-61.91129082
 20
0.21674448
 30
0.0
 11
-69.91011352
 21
0.21674448
 31
0.0
  0
LINE
  5
74
100
AcDbEntity
  8
レイヤー_1
  6
CONTINUOUS
 62
       3
100
AcDbLine
 10
-69.91011352
 20
0.21674448
 30
0.0
 11
-69.91011352
 21
38.20719043
 31
0.0
  0
LINE
  5
75
100
AcDbEntity
  8
レイヤー_1
  6
CONTINUOUS
 62
       3
100
AcDbLine
 10
-62.66128811
 20
0.21674448
 30
0.0
 11
-62.66128811
 21
8.21487815
 31
0.0
  0
LINE
  5
76
100
AcDbEntity
  8
レイヤー_1
  6
CONTINUOUS
 62
       3
100
AcDbLine
 10
-69.16080525
 20
8.21487815
 30
0.0
 11
-69.16080525
 21
0.21674448
 31
0.0
  0
LINE
  5
77
100
AcDbEntity
  8
レイヤー_1
  6
CONTINUOUS
 62
       3
100
AcDbLine
 10
-69.91011352
 20
3.21604461
 30
0.0
 11
-68.64231838
 21
3.21604461
 31
0.0
  0
LINE
  5
78
100
AcDbEntity
  8
レイヤー_1
  6
CONTINUOUS
 62
       3
100
AcDbLine
 10
-68.64231838
 20
3.21604461
 30
0.0
 11
-68.64231838
 21
5.21557802
 31
0.0
  0
LINE
  5
79
100
AcDbEntity
  8
レイヤー_1
  6
CONTINUOUS
 62
       3
100
AcDbLine
 10
-68.64231838
 20
5.21557802
 30
0.0
 11
-69.91011352
 21
5.21557802
 31
0.0
  0
LINE
  5
7A
100
AcDbEntity
  8
レイヤー_1
  6
CONTINUOUS
 62
       3
100
AcDbLine
 10
-63.18632066
 20
3.21604461
 30
0.0
 11
-61.91852552
 21
3.21604461
 31
0.0
  0
LINE
  5
7B
100
AcDbEntity
  8
レイヤー_1
  6
CONTINUOUS
 62
       3
100
AcDbLine
 10
-61.91852552
 20
3.21604461
 30
0.0
 11
-61.91852552
 21
5.21557802
 31
0.0
  0
LINE
  5
7C
100
AcDbEntity
  8
レイヤー_1
  6
CONTINUOUS
 62
       3
100
AcDbLine
 10
-61.91852552
 20
5.21557802
 30
0.0
 11
-63.18632066
 21
5.21557802
 31
0.0
  0
LINE
  5
7D
100
AcDbEntity
  8
レイヤー_1
  6
CONTINUOUS
 62
       3
100
AcDbLine
 10
-63.18632066
 20
5.21557802
 30
0.0
 11
-63.18632066
 21
3.21604461
 31
0.0
  0
LINE
  5
7E
100
AcDbEntity
  8
レイヤー_1
  6
CONTINUOUS
 62
       3
100
AcDbLine
 10
-69.91011352
 20
33.2090459
 30
0.0
 11
-68.64231838
 21
33.2090459
 31
0.0
  0
LINE
  5
7F
100
AcDbEntity
  8
レイヤー_1
  6
CONTINUOUS
 62
       3
100
AcDbLine
 10
-68.64231838
 20
33.2090459
 30
0.0
 11
-68.64231838
 21
35.20857932
 31
0.0
  0
LINE
  5
80
100
AcDbEntity
  8
レイヤー_1
  6
CONTINUOUS
 62
       3
100
AcDbLine
 10
-68.64231838
 20
35.20857932
 30
0.0
 11
-69.91011352
 21
35.20857932
 31
0.0
  0
LINE
  5
81
100
AcDbEntity
  8
レイヤー_1
  6
CONTINUOUS
 62
       3
100
AcDbLine
 10
-63.18632066
 20
33.2090459
 30
0.0
 11
-61.91852552
 21
33.2090459
 31
0.0
  0
LINE
  5
82
100
AcDbEntity
  8
レイヤー_1
  6
CONTINUOUS
 62
       3
100
AcDbLine
 10
-61.91852552
 20
33.2090459
 30
0.0
 11
-61.91852552
 21
35.20857932
 31
0.0
  0
LINE
  5
83
100
AcDbEntity
  8
レイヤー_1
  6
CONTINUOUS
 62
       3
100
AcDbLine
 10
-61.91852552
 20
35.20857932
 30
0.0
 11
-63.18632066
 21
35.20857932
 31
0.0
  0
LINE
  5
84
100
AcDbEntity
  8
レイヤー_1
  6
CONTINUOUS
 62
       3
100
AcDbLine
 10
-63.18632066
 20
35.20857932
 30
0.0
 11
-63.18632066
 21
33.2090459
 31
0.0
  0
LINE
  5
85
100
AcDbEntity
  8
レイヤー_1
  6
CONTINUOUS
 62
       3
100
AcDbLine
 10
-3.089386
 20
18.21599035
 30
0.0
 11
-3.089386
 21
10.21372255
 31
0.0
  0
LINE
  5
86
100
AcDbEntity
  8
レイヤー_1
  6
CONTINUOUS
 62
       3
100
AcDbLine
 10
-3.089386
 20
8.21901227
 30
0.0
 11
-3.089386
 21
0.21605546
 31
0.0
  0
LINE
  5
87
100
AcDbEntity
  8
レイヤー_1
  6
CONTINUOUS
 62
       3
100
AcDbLine
 10
-4.58938057
 20
18.21599035
 30
0.0
 11
-4.58938057
 21
10.21372255
 31
0.0
  0
LINE
  5
88
100
AcDbEntity
  8
レイヤー_1
  6
CONTINUOUS
 62
       3
100
AcDbLine
 10
-3.089386
 20
28.21365745
 30
0.0
 11
-3.089386
 21
20.21138965
 31
0.0
  0
LINE
  5
89
100
AcDbEntity
  8
レイヤー_1
  6
CONTINUOUS
 62
       3
100
AcDbLine
 10
-4.57835627
 20
16.95956402
 30
0.0
 11
-6.08937514
 21
16.95956402
 31
0.0
  0
LINE
  5
8A
100
AcDbEntity
  8
レイヤー_1
  6
CONTINUOUS
 62
       3
100
AcDbLine
 10
-6.08937514
 20
16.95956402
 30
0.0
 11
-6.08937514
 21
11.27205589
 31
0.0
  0
LINE
  5
8B
100
AcDbEntity
  8
レイヤー_1
  6
CONTINUOUS
 62
       3
100
AcDbLine
 10
-6.08937514
 20
11.27205589
 30
0.0
 11
-4.57835627
 21
11.27205589
 31
0.0
  0
LINE
  5
8C
100
AcDbEntity
  8
レイヤー_1
  6
CONTINUOUS
 62
       3
100
AcDbLine
 10
-4.58938057
 20
28.21365745
 30
0.0
 11
-4.58938057
 21
20.21138965
 31
0.0
  0
LINE
  5
8D
100
AcDbEntity
  8
レイヤー_1
  6
CONTINUOUS
 62
       3
100
AcDbLine
 10
-4.57835627
 20
26.95723112
 30
0.0
 11
-6.08937514
 21
26.95723112
 31
0.0
  0
LINE
  5
8E
100
AcDbEntity
  8
レイヤー_1
  6
CONTINUOUS
 62
       3
100
AcDbLine
 10
-6.08937514
 20
26.95723112
 30
0.0
 11
-6.08937514
 21
21.26903397
 31
0.0
  0
LINE
  5
8F
100
AcDbEntity
  8
レイヤー_1
  6
CONTINUOUS
 62
       3
100
AcDbLine
 10
-6.08937514
 20
21.26903397
 30
0.0
 11
-4.57835627
 21
21.26903397
 31
0.0
  0
LINE
  5
90
100
AcDbEntity
  8
レイヤー_1
  6
CONTINUOUS
 62
       3
100
AcDbLine
 10
-4.58938057
 20
8.21901227
 30
0.0
 11
-4.58938057
 21
6.71832868
 31
0.0
  0
LINE
  5
91
100
AcDbEntity
  8
レイヤー_1
  6
CONTINUOUS
 62
       3
100
AcDbLine
 10
-4.58938057
 20
6.71832868
 30
0.0
 11
-8.58844741
 21
5.21971214
 31
0.0
  0
LINE
  5
92
100
AcDbEntity
  8
レイヤー_1
  6
CONTINUOUS
 62
       3
100
AcDbLine
 10
-8.58844741
 20
5.21971214
 30
0.0
 11
-14.09101903
 21
5.21971214
 31
0.0
  0
LINE
  5
93
100
AcDbEntity
  8
レイヤー_1
  6
CONTINUOUS
 62
       3
100
AcDbLine
 10
-14.09101903
 20
3.22017872
 30
0.0
 11
-8.58844741
 21
3.22017872
 31
0.0
  0
LINE
  5
94
100
AcDbEntity
  8
レイヤー_1
  6
CONTINUOUS
 62
       3
100
AcDbLine
 10
-8.58844741
 20
3.22017872
 30
0.0
 11
-4.58938057
 21
1.71605003
 31
0.0
  0
LINE
  5
95
100
AcDbEntity
  8
レイヤー_1
  6
CONTINUOUS
 62
       3
100
AcDbLine
 10
-4.58938057
 20
1.71605003
 30
0.0
 11
-4.58938057
 21
0.21605546
 31
0.0
  0
LINE
  5
96
100
AcDbEntity
  8
レイヤー_1
  6
CONTINUOUS
 62
       3
100
AcDbLine
 10
-4.58938057
 20
-1.77865483
 30
0.0
 11
-4.58938057
 21
-3.27933842
 31
0.0
  0
LINE
  5
97
100
AcDbEntity
  8
レイヤー_1
  6
CONTINUOUS
 62
       3
100
AcDbLine
 10
-4.58938057
 20
-3.27933842
 30
0.0
 11
-8.58844741
 21
-4.77795496
 31
0.0
  0
LINE
  5
98
100
AcDbEntity
  8
レイヤー_1
  6
CONTINUOUS
 62
       3
100
AcDbLine
 10
-8.58844741
 20
-4.77795496
 30
0.0
 11
-14.09101903
 21
-4.77795496
 31
0.0
  0
LINE
  5
99
100
AcDbEntity
  8
レイヤー_1
  6
CONTINUOUS
 62
       3
100
AcDbLine
 10
-14.09101903
 20
-6.77748838
 30
0.0
 11
-8.58844741
 21
-6.77748838
 31
0.0
  0
LINE
  5
9A
100
AcDbEntity
  8
レイヤー_1
  6
CONTINUOUS
 62
       3
100
AcDbLine
 10
-8.58844741
 20
-6.77748838
 30
0.0
 11
-4.58938057
 21
-8.28196158
 31
0.0
  0
LINE
  5
9B
100
AcDbEntity
  8
レイヤー_1
  6
CONTINUOUS
 62
       3
100
AcDbLine
 10
-4.58938057
 20
-8.28196158
 30
0.0
 11
-4.58938057
 21
-9.75921852
 31
0.0
  0
LINE
  5
9C
100
AcDbEntity
  8
レイヤー_1
  6
CONTINUOUS
 62
       3
100
AcDbLine
 10
-4.58938057
 20
-9.75921852
 30
0.0
 11
-0.09008587
 21
-9.75921852
 31
0.0
  0
LINE
  5
9D
100
AcDbEntity
  8
レイヤー_1
  6
CONTINUOUS
 62
       3
100
AcDbLine
 10
-4.58938057
 20
30.20905675
 30
0.0
 11
-4.58938057
 21
31.70836231
 31
0.0
  0
LINE
  5
9E
100
AcDbEntity
  8
レイヤー_1
  6
CONTINUOUS
 62
       3
100
AcDbLine
 10
-4.58938057
 20
31.70836231
 30
0.0
 11
-8.58844741
 21
33.212491
 31
0.0
  0
LINE
  5
9F
100
AcDbEntity
  8
レイヤー_1
  6
CONTINUOUS
 62
       3
100
AcDbLine
 10
-8.58844741
 20
33.212491
 30
0.0
 11
-14.09101903
 21
33.212491
 31
0.0
  0
LINE
  5
A0
100
AcDbEntity
  8
レイヤー_1
  6
CONTINUOUS
 62
       3
100
AcDbLine
 10
-14.09101903
 20
35.21202441
 30
0.0
 11
-8.58844741
 21
35.21202441
 31
0.0
  0
LINE
  5
A1
100
AcDbEntity
  8
レイヤー_1
  6
CONTINUOUS
 62
       3
100
AcDbLine
 10
-8.58844741
 20
35.21202441
 30
0.0
 11
-4.58938057
 21
36.71064095
 31
0.0
  0
LINE
  5
A2
100
AcDbEntity
  8
レイヤー_1
  6
CONTINUOUS
 62
       3
100
AcDbLine
 10
-4.58938057
 20
36.71064095
 30
0.0
 11
-4.58938057
 21
38.21132454
 31
0.0
  0
LINE
  5
A3
100
AcDbEntity
  8
レイヤー_1
  6
CONTINUOUS
 62
       3
100
AcDbLine
 10
-4.58938057
 20
38.21132454
 30
0.0
 11
-0.09008587
 21
38.21132454
 31
0.0
  0
LINE
  5
A4
100
AcDbEntity
  8
レイヤー_1
  6
CONTINUOUS
 62
       3
100
AcDbLine
 10
-3.089386
 20
38.21132454
 30
0.0
 11
-3.089386
 21
30.20836773
 31
0.0
  0
LINE
  5
A5
100
AcDbEntity
  8
レイヤー_1
  6
CONTINUOUS
 62
       3
100
AcDbLine
 10
3.90898097
 20
38.21855924
 30
0.0
 11
-0.09008587
 21
38.21855924
 31
0.0
  0
LINE
  5
A6
100
AcDbEntity
  8
レイヤー_1
  6
CONTINUOUS
 62
       3
100
AcDbLine
 10
-0.09008587
 20
38.21855924
 30
0.0
 11
-0.09008587
 21
30.22042557
 31
0.0
  0
LINE
  5
A7
100
AcDbEntity
  8
レイヤー_1
  6
CONTINUOUS
 62
       3
100
AcDbLine
 10
-0.09008587
 20
30.22042557
 30
0.0
 11
-11.58843656
 21
30.22042557
 31
0.0
  0
LINE
  5
A8
100
AcDbEntity
  8
レイヤー_1
  6
CONTINUOUS
 62
       3
100
AcDbLine
 10
-11.58843656
 20
28.21365745
 30
0.0
 11
-0.09008587
 21
28.21365745
 31
0.0
  0
LINE
  5
A9
100
AcDbEntity
  8
レイヤー_1
  6
CONTINUOUS
 62
       3
100
AcDbLine
 10
-0.09008587
 20
28.21365745
 30
0.0
 11
-0.09008587
 21
20.22344749
 31
0.0
  0
LINE
  5
AA
100
AcDbEntity
  8
レイヤー_1
  6
CONTINUOUS
 62
       3
100
AcDbLine
 10
-0.09008587
 20
20.22344749
 30
0.0
 11
-11.58843656
 21
20.22344749
 31
0.0
  0
LINE
  5
AB
100
AcDbEntity
  8
レイヤー_1
  6
CONTINUOUS
 62
       3
100
AcDbLine
 10
-11.58843656
 20
18.21599035
 30
0.0
 11
-0.09008587
 21
18.21599035
 31
0.0
  0
LINE
  5
AC
100
AcDbEntity
  8
レイヤー_1
  6
CONTINUOUS
 62
       3
100
AcDbLine
 10
-0.09008587
 20
18.21599035
 30
0.0
 11
-0.09008587
 21
10.22543588
 31
0.0
  0
LINE
  5
AD
100
AcDbEntity
  8
レイヤー_1
  6
CONTINUOUS
 62
       3
100
AcDbLine
 10
-0.09008587
 20
10.22543588
 30
0.0
 11
-11.58843656
 21
10.22543588
 31
0.0
  0
LINE
  5
AE
100
AcDbEntity
  8
レイヤー_1
  6
CONTINUOUS
 62
       3
100
AcDbLine
 10
-11.58843656
 20
8.21901227
 30
0.0
 11
-0.09008587
 21
8.21901227
 31
0.0
  0
LINE
  5
AF
100
AcDbEntity
  8
レイヤー_1
  6
CONTINUOUS
 62
       3
100
AcDbLine
 10
-0.09008587
 20
8.21901227
 30
0.0
 11
-0.09008587
 21
0.21605546
 31
0.0
  0
LINE
  5
B0
100
AcDbEntity
  8
レイヤー_1
  6
CONTINUOUS
 62
       3
100
AcDbLine
 10
-3.089386
 20
-1.77865483
 30
0.0
 11
-3.089386
 21
-9.78195615
 31
0.0
  0
LINE
  5
B1
100
AcDbEntity
  8
レイヤー_1
  6
CONTINUOUS
 62
       3
100
AcDbLine
 10
3.90898097
 20
0.22776878
 30
0.0
 11
-11.58843656
 21
0.22776878
 31
0.0
  0
LINE
  5
B2
100
AcDbEntity
  8
レイヤー_1
  6
CONTINUOUS
 62
       3
100
AcDbLine
 10
-11.58843656
 20
-1.77865483
 30
0.0
 11
-0.09008587
 21
-1.77865483
 31
0.0
  0
LINE
  5
B3
100
AcDbEntity
  8
レイヤー_1
  6
CONTINUOUS
 62
       3
100
AcDbLine
 10
-0.09008587
 20
-1.77865483
 30
0.0
 11
-0.09008587
 21
-9.77678851
 31
0.0
  0
LINE
  5
B4
100
AcDbEntity
  8
レイヤー_1
  6
CONTINUOUS
 62
       3
100
AcDbLine
 10
-0.09008587
 20
-9.77678851
 30
0.0
 11
3.90898097
 21
-9.77678851
 31
0.0
  0
LINE
  5
B5
100
AcDbEntity
  8
レイヤー_1
  6
CONTINUOUS
 62
       3
100
AcDbLine
 10
-11.58843656
 20
-1.77865483
 30
0.0
 11
-12.58131308
 21
-1.77865483
 31
0.0
  0
LINE
  5
B6
100
AcDbEntity
  8
レイヤー_1
  6
CONTINUOUS
 62
       3
100
AcDbLine
 10
-95.46686536
 20
11.73989985
 30
0.0
 11
-95.22545679
 21
11.89565639
 31
0.0
  0
LINE
  5
B7
100
AcDbEntity
  8
レイヤー_1
  6
CONTINUOUS
 62
       3
100
AcDbLine
 10
-95.22545679
 20
11.89565639
 30
0.0
 11
-95.00490913
 21
12.07127461
 31
0.0
  0
LINE
  5
B8
100
AcDbEntity
  8
レイヤー_1
  6
CONTINUOUS
 62
       3
100
AcDbLine
 10
-95.00490913
 20
12.07127461
 30
0.0
 11
-94.80572286
 21
12.26488595
 31
0.0
  0
LINE
  5
B9
100
AcDbEntity
  8
レイヤー_1
  6
CONTINUOUS
 62
       3
100
AcDbLine
 10
-94.80572286
 20
12.26488595
 30
0.0
 11
-94.62839851
 21
12.47462182
 31
0.0
  0
LINE
  5
BA
100
AcDbEntity
  8
レイヤー_1
  6
CONTINUOUS
 62
       3
100
AcDbLine
 10
-94.62839851
 20
12.47462182
 30
0.0
 11
-94.47343656
 21
12.69861363
 31
0.0
  0
LINE
  5
BB
100
AcDbEntity
  8
レイヤー_1
  6
CONTINUOUS
 62
       3
100
AcDbLine
 10
-94.47343656
 20
12.69861363
 30
0.0
 11
-94.34133752
 21
12.93499281
 31
0.0
  0
LINE
  5
BC
100
AcDbEntity
  8
レイヤー_1
  6
CONTINUOUS
 62
       3
100
AcDbLine
 10
-94.34133752
 20
12.93499281
 30
0.0
 11
-94.23260191
 21
13.18189078
 31
0.0
  0
LINE
  5
BD
100
AcDbEntity
  8
レイヤー_1
  6
CONTINUOUS
 62
       3
100
AcDbLine
 10
-94.23260191
 20
13.18189078
 30
0.0
 11
-94.14773021
 21
13.43743894
 31
0.0
  0
LINE
  5
BE
100
AcDbEntity
  8
レイヤー_1
  6
CONTINUOUS
 62
       3
100
AcDbLine
 10
-94.14773021
 20
13.43743894
 30
0.0
 11
-94.08722295
 21
13.69976873
 31
0.0
  0
LINE
  5
BF
100
AcDbEntity
  8
レイヤー_1
  6
CONTINUOUS
 62
       3
100
AcDbLine
 10
-94.08722295
 20
13.69976873
 30
0.0
 11
-94.05158062
 21
13.96701155
 31
0.0
  0
LINE
  5
C0
100
AcDbEntity
  8
レイヤー_1
  6
CONTINUOUS
 62
       3
100
AcDbLine
 10
-94.05158062
 20
13.96701155
 30
0.0
 11
-94.04130372
 21
14.23729882
 31
0.0
  0
LINE
  5
C1
100
AcDbEntity
  8
レイヤー_1
  6
CONTINUOUS
 62
       3
100
AcDbLine
 10
-94.04130372
 20
14.23729882
 30
0.0
 11
-94.05689277
 21
14.50876197
 31
0.0
  0
LINE
  5
C2
100
AcDbEntity
  8
レイヤー_1
  6
CONTINUOUS
 62
       3
100
AcDbLine
 10
-94.05689277
 20
14.50876197
 30
0.0
 11
-94.09884826
 21
14.77953241
 31
0.0
  0
LINE
  5
C3
100
AcDbEntity
  8
レイヤー_1
  6
CONTINUOUS
 62
       3
100
AcDbLine
 10
-94.09884826
 20
14.77953241
 30
0.0
 11
-94.1676707
 21
15.04774155
 31
0.0
  0
LINE
  5
C4
100
AcDbEntity
  8
レイヤー_1
  6
CONTINUOUS
 62
       3
100
AcDbLine
 10
-94.1676707
 20
15.04774155
 30
0.0
 11
-94.26386059
 21
15.31152082
 31
0.0
  0
LINE
  5
C5
100
AcDbEntity
  8
レイヤー_1
  6
CONTINUOUS
 62
       3
100
AcDbLine
 10
-94.26386059
 20
15.31152082
 30
0.0
 11
-94.38791845
 21
15.56900164
 31
0.0
  0
LINE
  5
C6
100
AcDbEntity
  8
レイヤー_1
  6
CONTINUOUS
 62
       3
100
AcDbLine
 10
-94.38791845
 20
15.56900164
 30
0.0
 11
-94.53823254
 21
15.81507025
 31
0.0
  0
LINE
  5
C7
100
AcDbEntity
  8
レイヤー_1
  6
CONTINUOUS
 62
       3
100
AcDbLine
 10
-94.53823254
 20
15.81507025
 30
0.0
 11
-94.70907811
 21
16.04077163
 31
0.0
  0
LINE
  5
C8
100
AcDbEntity
  8
レイヤー_1
  6
CONTINUOUS
 62
       3
100
AcDbLine
 10
-94.70907811
 20
16.04077163
 30
0.0
 11
-94.89839538
 21
16.24525071
 31
0.0
  0
LINE
  5
C9
100
AcDbEntity
  8
レイヤー_1
  6
CONTINUOUS
 62
       3
100
AcDbLine
 10
-94.89839538
 20
16.24525071
 30
0.0
 11
-95.10431336
 21
16.42800602
 31
0.0
  0
LINE
  5
CA
100
AcDbEntity
  8
レイヤー_1
  6
CONTINUOUS
 62
       3
100
AcDbLine
 10
-95.10431336
 20
16.42800602
 30
0.0
 11
-95.32496105
 21
16.58853609
 31
0.0
  0
LINE
  5
CB
100
AcDbEntity
  8
レイヤー_1
  6
CONTINUOUS
 62
       3
100
AcDbLine
 10
-95.32496105
 20
16.58853609
 30
0.0
 11
-95.55846747
 21
16.72633944
 31
0.0
  0
LINE
  5
CC
100
AcDbEntity
  8
レイヤー_1
  6
CONTINUOUS
 62
       3
100
AcDbLine
 10
-95.55846747
 20
16.72633944
 30
0.0
 11
-95.80296162
 21
16.84091462
 31
0.0
  0
LINE
  5
CD
100
AcDbEntity
  8
レイヤー_1
  6
CONTINUOUS
 62
       3
100
AcDbLine
 10
-95.80296162
 20
16.84091462
 30
0.0
 11
-96.05657252
 21
16.93176016
 31
0.0
  0
LINE
  5
CE
100
AcDbEntity
  8
レイヤー_1
  6
CONTINUOUS
 62
       3
100
AcDbLine
 10
-96.05657252
 20
16.93176016
 30
0.0
 11
-96.31742917
 21
16.99837459
 31
0.0
  0
LINE
  5
CF
100
AcDbEntity
  8
レイヤー_1
  6
CONTINUOUS
 62
       3
100
AcDbLine
 10
-96.31742917
 20
16.99837459
 30
0.0
 11
-96.58366058
 21
17.04025643
 31
0.0
  0
LINE
  5
D0
100
AcDbEntity
  8
レイヤー_1
  6
CONTINUOUS
 62
       3
100
AcDbLine
 10
-96.58366058
 20
17.04025643
 30
0.0
 11
-96.85339577
 21
17.05690422
 31
0.0
  0
LINE
  5
D1
100
AcDbEntity
  8
レイヤー_1
  6
CONTINUOUS
 62
       3
100
AcDbLine
 10
-96.85339577
 20
17.05690422
 30
0.0
 11
-97.12476374
 21
17.0478165
 31
0.0
  0
LINE
  5
D2
100
AcDbEntity
  8
レイヤー_1
  6
CONTINUOUS
 62
       3
100
AcDbLine
 10
-97.12476374
 20
17.0478165
 30
0.0
 11
-97.3958935
 21
17.0124918
 31
0.0
  0
LINE
  5
D3
100
AcDbEntity
  8
レイヤー_1
  6
CONTINUOUS
 62
       3
100
AcDbLine
 10
-97.3958935
 20
17.0124918
 30
0.0
 11
-97.66491405
 21
16.95042864
 31
0.0
  0
LINE
  5
D4
100
AcDbEntity
  8
レイヤー_1
  6
CONTINUOUS
 62
       3
100
AcDbLine
 10
-97.66491405
 20
16.95042864
 30
0.0
 11
-97.92995442
 21
16.86112556
 31
0.0
  0
LINE
  5
D5
100
AcDbEntity
  8
レイヤー_1
  6
CONTINUOUS
 62
       3
100
AcDbLine
 10
-97.92995442
 20
16.86112556
 30
0.0
 11
-98.18914361
 21
16.7440811
 31
0.0
  0
LINE
  5
D6
100
AcDbEntity
  8
レイヤー_1
  6
CONTINUOUS
 62
       3
100
AcDbLine
 10
-98.18914361
 20
16.7440811
 30
0.0
 11
-98.43920911
 21
16.59966061
 31
0.0
  0
LINE
  5
D7
100
AcDbEntity
  8
レイヤー_1
  6
CONTINUOUS
 62
       3
100
AcDbLine
 10
-98.43920911
 20
16.59966061
 30
0.0
 11
-98.67019402
 21
16.43364194
 31
0.0
  0
LINE
  5
D8
100
AcDbEntity
  8
レイヤー_1
  6
CONTINUOUS
 62
       3
100
AcDbLine
 10
-98.67019402
 20
16.43364194
 30
0.0
 11
-98.8800756
 21
16.24872212
 31
0.0
  0
LINE
  5
D9
100
AcDbEntity
  8
レイヤー_1
  6
CONTINUOUS
 62
       3
100
AcDbLine
 10
-98.8800756
 20
16.24872212
 30
0.0
 11
-99.06835335
 21
16.04676636
 31
0.0
  0
LINE
  5
DA
100
AcDbEntity
  8
レイヤー_1
  6
CONTINUOUS
 62
       3
100
AcDbLine
 10
-99.06835335
 20
16.04676636
 30
0.0
 11
-99.23452678
 21
15.82963987
 31
0.0
  0
LINE
  5
DB
100
AcDbEntity
  8
レイヤー_1
  6
CONTINUOUS
 62
       3
100
AcDbLine
 10
-99.23452678
 20
15.82963987
 30
0.0
 11
-99.37809537
 21
15.59920787
 31
0.0
  0
LINE
  5
DC
100
AcDbEntity
  8
レイヤー_1
  6
CONTINUOUS
 62
       3
100
AcDbLine
 10
-99.37809537
 20
15.59920787
 30
0.0
 11
-99.49855863
 21
15.35733555
 31
0.0
  0
LINE
  5
DD
100
AcDbEntity
  8
レイヤー_1
  6
CONTINUOUS
 62
       3
100
AcDbLine
 10
-99.49855863
 20
15.35733555
 30
0.0
 11
-99.59541604
 21
15.10588814
 31
0.0
  0
LINE
  5
DE
100
AcDbEntity
  8
レイヤー_1
  6
CONTINUOUS
 62
       3
100
AcDbLine
 10
-99.59541604
 20
15.10588814
 30
0.0
 11
-99.6681671
 21
14.84673084
 31
0.0
  0
LINE
  5
DF
100
AcDbEntity
  8
レイヤー_1
  6
CONTINUOUS
 62
       3
100
AcDbLine
 10
-99.6681671
 20
14.84673084
 30
0.0
 11
-99.71631131
 21
14.58172886
 31
0.0
  0
LINE
  5
E0
100
AcDbEntity
  8
レイヤー_1
  6
CONTINUOUS
 62
       3
100
AcDbLine
 10
-99.71631131
 20
14.58172886
 30
0.0
 11
-99.73934817
 21
14.31274741
 31
0.0
  0
LINE
  5
E1
100
AcDbEntity
  8
レイヤー_1
  6
CONTINUOUS
 62
       3
100
AcDbLine
 10
-99.73934817
 20
14.31274741
 30
0.0
 11
-99.73677716
 21
14.0416517
 31
0.0
  0
LINE
  5
E2
100
AcDbEntity
  8
レイヤー_1
  6
CONTINUOUS
 62
       3
100
AcDbLine
 10
-99.73677716
 20
14.0416517
 30
0.0
 11
-99.70809779
 21
13.77030694
 31
0.0
  0
LINE
  5
E3
100
AcDbEntity
  8
レイヤー_1
  6
CONTINUOUS
 62
       3
100
AcDbLine
 10
-99.70809779
 20
13.77030694
 30
0.0
 11
-99.65280955
 21
13.50057835
 31
0.0
  0
LINE
  5
E4
100
AcDbEntity
  8
レイヤー_1
  6
CONTINUOUS
 62
       3
100
AcDbLine
 10
-99.65280955
 20
13.50057835
 30
0.0
 11
-99.57041193
 21
13.23433113
 31
0.0
  0
LINE
  5
E5
100
AcDbEntity
  8
レイヤー_1
  6
CONTINUOUS
 62
       3
100
AcDbLine
 10
-99.57041193
 20
13.23433113
 30
0.0
 11
-99.46040444
 21
12.97343049
 31
0.0
  0
LINE
  5
E6
100
AcDbEntity
  8
レイヤー_1
  6
CONTINUOUS
 62
       3
100
AcDbLine
 10
-99.46040444
 20
12.97343049
 30
0.0
 11
-99.32245711
 21
12.72015224
 31
0.0
  0
LINE
  5
E7
100
AcDbEntity
  8
レイヤー_1
  6
CONTINUOUS
 62
       3
100
AcDbLine
 10
-99.32245711
 20
12.72015224
 30
0.0
 11
-99.16139203
 21
12.48408564
 31
0.0
  0
LINE
  5
E8
100
AcDbEntity
  8
レイヤー_1
  6
CONTINUOUS
 62
       3
100
AcDbLine
 10
-99.16139203
 20
12.48408564
 30
0.0
 11
-98.9809613
 21
12.26898339
 31
0.0
  0
LINE
  5
E9
100
AcDbEntity
  8
レイヤー_1
  6
CONTINUOUS
 62
       3
100
AcDbLine
 10
-98.9809613
 20
12.26898339
 30
0.0
 11
-98.78303159
 21
12.07534742
 31
0.0
  0
LINE
  5
EA
100
AcDbEntity
  8
レイヤー_1
  6
CONTINUOUS
 62
       3
100
AcDbLine
 10
-98.78303159
 20
12.07534742
 30
0.0
 11
-98.56946954
 21
11.90367971
 31
0.0
  0
LINE
  5
EB
100
AcDbEntity
  8
レイヤー_1
  6
CONTINUOUS
 62
       3
100
AcDbLine
 10
-98.56946954
 20
11.90367971
 30
0.0
 11
-98.34214181
 21
11.75448219
 31
0.0
  0
LINE
  5
EC
100
AcDbEntity
  8
レイヤー_1
  6
CONTINUOUS
 62
       3
100
AcDbLine
 10
-98.34214181
 20
11.75448219
 30
0.0
 11
-98.10291506
 21
11.62825681
 31
0.0
  0
LINE
  5
ED
100
AcDbEntity
  8
レイヤー_1
  6
CONTINUOUS
 62
       3
100
AcDbLine
 10
-98.10291506
 20
11.62825681
 30
0.0
 11
-97.85365594
 21
11.52550552
 31
0.0
  0
LINE
  5
EE
100
AcDbEntity
  8
レイヤー_1
  6
CONTINUOUS
 62
       3
100
AcDbLine
 10
-97.85365594
 20
11.52550552
 30
0.0
 11
-97.5962311
 21
11.44673028
 31
0.0
  0
LINE
  5
EF
100
AcDbEntity
  8
レイヤー_1
  6
CONTINUOUS
 62
       3
100
AcDbLine
 10
-97.5962311
 20
11.44673028
 30
0.0
 11
-97.33250721
 21
11.39243303
 31
0.0
  0
LINE
  5
F0
100
AcDbEntity
  8
レイヤー_1
  6
CONTINUOUS
 62
       3
100
AcDbLine
 10
-97.33250721
 20
11.39243303
 30
0.0
 11
-97.06435091
 21
11.36311573
 31
0.0
  0
LINE
  5
F1
100
AcDbEntity
  8
レイヤー_1
  6
CONTINUOUS
 62
       3
100
AcDbLine
 10
-97.06435091
 20
11.36311573
 30
0.0
 11
-96.79362886
 21
11.35928031
 31
0.0
  0
LINE
  5
F2
100
AcDbEntity
  8
レイヤー_1
  6
CONTINUOUS
 62
       3
100
AcDbLine
 10
-96.79362886
 20
11.35928031
 30
0.0
 11
-96.52220773
 21
11.38142874
 31
0.0
  0
LINE
  5
F3
100
AcDbEntity
  8
レイヤー_1
  6
CONTINUOUS
 62
       3
100
AcDbLine
 10
-96.52220773
 20
11.38142874
 30
0.0
 11
-96.25195415
 21
11.43006296
 31
0.0
  0
LINE
  5
F4
100
AcDbEntity
  8
レイヤー_1
  6
CONTINUOUS
 62
       3
100
AcDbLine
 10
-96.25195415
 20
11.43006296
 30
0.0
 11
-95.98473479
 21
11.50568492
 31
0.0
  0
LINE
  5
F5
100
AcDbEntity
  8
レイヤー_1
  6
CONTINUOUS
 62
       3
100
AcDbLine
 10
-95.98473479
 20
11.50568492
 30
0.0
 11
-95.72241631
 21
11.60879657
 31
0.0
  0
LINE
  5
F6
100
AcDbEntity
  8
レイヤー_1
  6
CONTINUOUS
 62
       3
100
AcDbLine
 10
-95.72241631
 20
11.60879657
 30
0.0
 11
-95.46686536
 21
11.73989985
 31
0.0
  0
LINE
  5
F7
100
AcDbEntity
  8
レイヤー_1
  6
CONTINUOUS
 62
       3
100
AcDbLine
 10
-95.46686536
 20
21.73756695
 30
0.0
 11
-95.22545679
 21
21.89332332
 31
0.0
  0
LINE
  5
F8
100
AcDbEntity
  8
レイヤー_1
  6
CONTINUOUS
 62
       3
100
AcDbLine
 10
-95.22545679
 20
21.89332332
 30
0.0
 11
-95.00490913
 21
22.06894043
 31
0.0
  0
LINE
  5
F9
100
AcDbEntity
  8
レイヤー_1
  6
CONTINUOUS
 62
       3
100
AcDbLine
 10
-95.00490913
 20
22.06894043
 30
0.0
 11
-94.80572286
 21
22.26254871
 31
0.0
  0
LINE
  5
FA
100
AcDbEntity
  8
レイヤー_1
  6
CONTINUOUS
 62
       3
100
AcDbLine
 10
-94.80572286
 20
22.26254871
 30
0.0
 11
-94.62839851
 21
22.47227864
 31
0.0
  0
LINE
  5
FB
100
AcDbEntity
  8
レイヤー_1
  6
CONTINUOUS
 62
       3
100
AcDbLine
 10
-94.62839851
 20
22.47227864
 30
0.0
 11
-94.47343656
 21
22.69626066
 31
0.0
  0
LINE
  5
FC
100
AcDbEntity
  8
レイヤー_1
  6
CONTINUOUS
 62
       3
100
AcDbLine
 10
-94.47343656
 20
22.69626066
 30
0.0
 11
-94.34133752
 21
22.93262523
 31
0.0
  0
LINE
  5
FD
100
AcDbEntity
  8
レイヤー_1
  6
CONTINUOUS
 62
       3
100
AcDbLine
 10
-94.34133752
 20
22.93262523
 30
0.0
 11
-94.23260191
 21
23.1795028
 31
0.0
  0
LINE
  5
FE
100
AcDbEntity
  8
レイヤー_1
  6
CONTINUOUS
 62
       3
100
AcDbLine
 10
-94.23260191
 20
23.1795028
 30
0.0
 11
-94.14773021
 21
23.43502383
 31
0.0
  0
LINE
  5
FF
100
AcDbEntity
  8
レイヤー_1
  6
CONTINUOUS
 62
       3
100
AcDbLine
 10
-94.14773021
 20
23.43502383
 30
0.0
 11
-94.08722295
 21
23.69731877
 31
0.0
  0
LINE
  5
100
100
AcDbEntity
  8
レイヤー_1
  6
CONTINUOUS
 62
       3
100
AcDbLine
 10
-94.08722295
 20
23.69731877
 30
0.0
 11
-94.05158062
 21
23.96451807
 31
0.0
  0
LINE
  5
101
100
AcDbEntity
  8
レイヤー_1
  6
CONTINUOUS
 62
       3
100
AcDbLine
 10
-94.05158062
 20
23.96451807
 30
0.0
 11
-94.04130372
 21
24.2347522
 31
0.0
  0
LINE
  5
102
100
AcDbEntity
  8
レイヤー_1
  6
CONTINUOUS
 62
       3
100
AcDbLine
 10
-94.04130372
 20
24.2347522
 30
0.0
 11
-94.05689277
 21
24.5061516
 31
0.0
  0
LINE
  5
103
100
AcDbEntity
  8
レイヤー_1
  6
CONTINUOUS
 62
       3
100
AcDbLine
 10
-94.05689277
 20
24.5061516
 30
0.0
 11
-94.09884826
 21
24.77684673
 31
0.0
  0
LINE
  5
104
100
AcDbEntity
  8
レイヤー_1
  6
CONTINUOUS
 62
       3
100
AcDbLine
 10
-94.09884826
 20
24.77684673
 30
0.0
 11
-94.1676707
 21
25.04496804
 31
0.0
  0
LINE
  5
105
100
AcDbEntity
  8
レイヤー_1
  6
CONTINUOUS
 62
       3
100
AcDbLine
 10
-94.1676707
 20
25.04496804
 30
0.0
 11
-94.26386059
 21
25.30864599
 31
0.0
  0
LINE
  5
106
100
AcDbEntity
  8
レイヤー_1
  6
CONTINUOUS
 62
       3
100
AcDbLine
 10
-94.26386059
 20
25.30864599
 30
0.0
 11
-94.38791845
 21
25.56601103
 31
0.0
  0
LINE
  5
107
100
AcDbEntity
  8
レイヤー_1
  6
CONTINUOUS
 62
       3
100
AcDbLine
 10
-94.38791845
 20
25.56601103
 30
0.0
 11
-94.53823254
 21
25.81213933
 31
0.0
  0
LINE
  5
108
100
AcDbEntity
  8
レイヤー_1
  6
CONTINUOUS
 62
       3
100
AcDbLine
 10
-94.53823254
 20
25.81213933
 30
0.0
 11
-94.70907811
 21
26.03794834
 31
0.0
  0
LINE
  5
109
100
AcDbEntity
  8
レイヤー_1
  6
CONTINUOUS
 62
       3
100
AcDbLine
 10
-94.70907811
 20
26.03794834
 30
0.0
 11
-94.89839538
 21
26.2425194
 31
0.0
  0
LINE
  5
10A
100
AcDbEntity
  8
レイヤー_1
  6
CONTINUOUS
 62
       3
100
AcDbLine
 10
-94.89839538
 20
26.2425194
 30
0.0
 11
-95.10431336
 21
26.42535103
 31
0.0
  0
LINE
  5
10B
100
AcDbEntity
  8
レイヤー_1
  6
CONTINUOUS
 62
       3
100
AcDbLine
 10
-95.10431336
 20
26.42535103
 30
0.0
 11
-95.32496105
 21
26.58594176
 31
0.0
  0
LINE
  5
10C
100
AcDbEntity
  8
レイヤー_1
  6
CONTINUOUS
 62
       3
100
AcDbLine
 10
-95.32496105
 20
26.58594176
 30
0.0
 11
-95.55846747
 21
26.72379013
 31
0.0
  0
LINE
  5
10D
100
AcDbEntity
  8
レイヤー_1
  6
CONTINUOUS
 62
       3
100
AcDbLine
 10
-95.55846747
 20
26.72379013
 30
0.0
 11
-95.80296162
 21
26.83839467
 31
0.0
  0
LINE
  5
10E
100
AcDbEntity
  8
レイヤー_1
  6
CONTINUOUS
 62
       3
100
AcDbLine
 10
-95.80296162
 20
26.83839467
 30
0.0
 11
-96.05657252
 21
26.9292539
 31
0.0
  0
LINE
  5
10F
100
AcDbEntity
  8
レイヤー_1
  6
CONTINUOUS
 62
       3
100
AcDbLine
 10
-96.05657252
 20
26.9292539
 30
0.0
 11
-96.31742917
 21
26.99586637
 31
0.0
  0
LINE
  5
110
100
AcDbEntity
  8
レイヤー_1
  6
CONTINUOUS
 62
       3
100
AcDbLine
 10
-96.31742917
 20
26.99586637
 30
0.0
 11
-96.58366058
 21
27.0377306
 31
0.0
  0
LINE
  5
111
100
AcDbEntity
  8
レイヤー_1
  6
CONTINUOUS
 62
       3
100
AcDbLine
 10
-96.58366058
 20
27.0377306
 30
0.0
 11
-96.85339577
 21
27.05434513
 31
0.0
  0
LINE
  5
112
100
AcDbEntity
  8
レイヤー_1
  6
CONTINUOUS
 62
       3
100
AcDbLine
 10
-96.85339577
 20
27.05434513
 30
0.0
 11
-97.12476374
 21
27.04520848
 31
0.0
  0
LINE
  5
113
100
AcDbEntity
  8
レイヤー_1
  6
CONTINUOUS
 62
       3
100
AcDbLine
 10
-97.12476374
 20
27.04520848
 30
0.0
 11
-97.3958935
 21
27.0098192
 31
0.0
  0
LINE
  5
114
100
AcDbEntity
  8
レイヤー_1
  6
CONTINUOUS
 62
       3
100
AcDbLine
 10
-97.3958935
 20
27.0098192
 30
0.0
 11
-97.66491405
 21
26.9476758
 31
0.0
  0
LINE
  5
115
100
AcDbEntity
  8
レイヤー_1
  6
CONTINUOUS
 62
       3
100
AcDbLine
 10
-97.66491405
 20
26.9476758
 30
0.0
 11
-97.92995442
 21
26.85827684
 31
0.0
  0
LINE
  5
116
100
AcDbEntity
  8
レイヤー_1
  6
CONTINUOUS
 62
       3
100
AcDbLine
 10
-97.92995442
 20
26.85827684
 30
0.0
 11
-98.18914361
 21
26.74112082
 31
0.0
  0
LINE
  5
117
100
AcDbEntity
  8
レイヤー_1
  6
CONTINUOUS
 62
       3
100
AcDbLine
 10
-98.18914361
 20
26.74112082
 30
0.0
 11
-98.43920911
 21
26.59669847
 31
0.0
  0
LINE
  5
118
100
AcDbEntity
  8
レイヤー_1
  6
CONTINUOUS
 62
       3
100
AcDbLine
 10
-98.43920911
 20
26.59669847
 30
0.0
 11
-98.67019402
 21
26.43077804
 31
0.0
  0
LINE
  5
119
100
AcDbEntity
  8
レイヤー_1
  6
CONTINUOUS
 62
       3
100
AcDbLine
 10
-98.67019402
 20
26.43077804
 30
0.0
 11
-98.8800756
 21
26.24593165
 31
0.0
  0
LINE
  5
11A
100
AcDbEntity
  8
レイヤー_1
  6
CONTINUOUS
 62
       3
100
AcDbLine
 10
-98.8800756
 20
26.24593165
 30
0.0
 11
-99.06835335
 21
26.04402885
 31
0.0
  0
LINE
  5
11B
100
AcDbEntity
  8
レイヤー_1
  6
CONTINUOUS
 62
       3
100
AcDbLine
 10
-99.06835335
 20
26.04402885
 30
0.0
 11
-99.23452678
 21
25.82693918
 31
0.0
  0
LINE
  5
11C
100
AcDbEntity
  8
レイヤー_1
  6
CONTINUOUS
 62
       3
100
AcDbLine
 10
-99.23452678
 20
25.82693918
 30
0.0
 11
-99.37809537
 21
25.5965322
 31
0.0
  0
LINE
  5
11D
100
AcDbEntity
  8
レイヤー_1
  6
CONTINUOUS
 62
       3
100
AcDbLine
 10
-99.37809537
 20
25.5965322
 30
0.0
 11
-99.49855863
 21
25.35467743
 31
0.0
  0
LINE
  5
11E
100
AcDbEntity
  8
レイヤー_1
  6
CONTINUOUS
 62
       3
100
AcDbLine
 10
-99.49855863
 20
25.35467743
 30
0.0
 11
-99.59541604
 21
25.10324444
 31
0.0
  0
LINE
  5
11F
100
AcDbEntity
  8
レイヤー_1
  6
CONTINUOUS
 62
       3
100
AcDbLine
 10
-99.59541604
 20
25.10324444
 30
0.0
 11
-99.6681671
 21
24.84410276
 31
0.0
  0
LINE
  5
120
100
AcDbEntity
  8
レイヤー_1
  6
CONTINUOUS
 62
       3
100
AcDbLine
 10
-99.6681671
 20
24.84410276
 30
0.0
 11
-99.71631131
 21
24.57912195
 31
0.0
  0
LINE
  5
121
100
AcDbEntity
  8
レイヤー_1
  6
CONTINUOUS
 62
       3
100
AcDbLine
 10
-99.71631131
 20
24.57912195
 30
0.0
 11
-99.73934817
 21
24.31017154
 31
0.0
  0
LINE
  5
122
100
AcDbEntity
  8
レイヤー_1
  6
CONTINUOUS
 62
       3
100
AcDbLine
 10
-99.73934817
 20
24.31017154
 30
0.0
 11
-99.73677716
 21
24.03912108
 31
0.0
  0
LINE
  5
123
100
AcDbEntity
  8
レイヤー_1
  6
CONTINUOUS
 62
       3
100
AcDbLine
 10
-99.73677716
 20
24.03912108
 30
0.0
 11
-99.70809779
 21
23.76784013
 31
0.0
  0
LINE
  5
124
100
AcDbEntity
  8
レイヤー_1
  6
CONTINUOUS
 62
       3
100
AcDbLine
 10
-99.70809779
 20
23.76784013
 30
0.0
 11
-99.65280955
 21
23.49819821
 31
0.0
  0
LINE
  5
125
100
AcDbEntity
  8
レイヤー_1
  6
CONTINUOUS
 62
       3
100
AcDbLine
 10
-99.65280955
 20
23.49819821
 30
0.0
 11
-99.57041193
 21
23.23206489
 31
0.0
  0
LINE
  5
126
100
AcDbEntity
  8
レイヤー_1
  6
CONTINUOUS
 62
       3
100
AcDbLine
 10
-99.57041193
 20
23.23206489
 30
0.0
 11
-99.46040444
 21
22.9713097
 31
0.0
  0
LINE
  5
127
100
AcDbEntity
  8
レイヤー_1
  6
CONTINUOUS
 62
       3
100
AcDbLine
 10
-99.46040444
 20
22.9713097
 30
0.0
 11
-99.32245711
 21
22.71811736
 31
0.0
  0
LINE
  5
128
100
AcDbEntity
  8
レイヤー_1
  6
CONTINUOUS
 62
       3
100
AcDbLine
 10
-99.32245711
 20
22.71811736
 30
0.0
 11
-99.16139203
 21
22.48188822
 31
0.0
  0
LINE
  5
129
100
AcDbEntity
  8
レイヤー_1
  6
CONTINUOUS
 62
       3
100
AcDbLine
 10
-99.16139203
 20
22.48188822
 30
0.0
 11
-98.9809613
 21
22.26665835
 31
0.0
  0
LINE
  5
12A
100
AcDbEntity
  8
レイヤー_1
  6
CONTINUOUS
 62
       3
100
AcDbLine
 10
-98.9809613
 20
22.26665835
 30
0.0
 11
-98.78303159
 21
22.07292633
 31
0.0
  0
LINE
  5
12B
100
AcDbEntity
  8
レイヤー_1
  6
CONTINUOUS
 62
       3
100
AcDbLine
 10
-98.78303159
 20
22.07292633
 30
0.0
 11
-98.56946954
 21
21.90119073
 31
0.0
  0
LINE
  5
12C
100
AcDbEntity
  8
レイヤー_1
  6
CONTINUOUS
 62
       3
100
AcDbLine
 10
-98.56946954
 20
21.90119073
 30
0.0
 11
-98.34214181
 21
21.75195013
 31
0.0
  0
LINE
  5
12D
100
AcDbEntity
  8
レイヤー_1
  6
CONTINUOUS
 62
       3
100
AcDbLine
 10
-98.34214181
 20
21.75195013
 30
0.0
 11
-98.10291506
 21
21.62570312
 31
0.0
  0
LINE
  5
12E
100
AcDbEntity
  8
レイヤー_1
  6
CONTINUOUS
 62
       3
100
AcDbLine
 10
-98.10291506
 20
21.62570312
 30
0.0
 11
-97.85365594
 21
21.52294826
 31
0.0
  0
LINE
  5
12F
100
AcDbEntity
  8
レイヤー_1
  6
CONTINUOUS
 62
       3
100
AcDbLine
 10
-97.85365594
 20
21.52294826
 30
0.0
 11
-97.5962311
 21
21.44418414
 31
0.0
  0
LINE
  5
130
100
AcDbEntity
  8
レイヤー_1
  6
CONTINUOUS
 62
       3
100
AcDbLine
 10
-97.5962311
 20
21.44418414
 30
0.0
 11
-97.33250721
 21
21.38990933
 31
0.0
  0
LINE
  5
131
100
AcDbEntity
  8
レイヤー_1
  6
CONTINUOUS
 62
       3
100
AcDbLine
 10
-97.33250721
 20
21.38990933
 30
0.0
 11
-97.06435091
 21
21.36062241
 31
0.0
  0
LINE
  5
132
100
AcDbEntity
  8
レイヤー_1
  6
CONTINUOUS
 62
       3
100
AcDbLine
 10
-97.06435091
 20
21.36062241
 30
0.0
 11
-96.79362886
 21
21.35682196
 31
0.0
  0
LINE
  5
133
100
AcDbEntity
  8
レイヤー_1
  6
CONTINUOUS
 62
       3
100
AcDbLine
 10
-96.79362886
 20
21.35682196
 30
0.0
 11
-96.52220773
 21
21.37900656
 31
0.0
  0
LINE
  5
134
100
AcDbEntity
  8
レイヤー_1
  6
CONTINUOUS
 62
       3
100
AcDbLine
 10
-96.52220773
 20
21.37900656
 30
0.0
 11
-96.25195415
 21
21.42767478
 31
0.0
  0
LINE
  5
135
100
AcDbEntity
  8
レイヤー_1
  6
CONTINUOUS
 62
       3
100
AcDbLine
 10
-96.25195415
 20
21.42767478
 30
0.0
 11
-95.98473479
 21
21.5033252
 31
0.0
  0
LINE
  5
136
100
AcDbEntity
  8
レイヤー_1
  6
CONTINUOUS
 62
       3
100
AcDbLine
 10
-95.98473479
 20
21.5033252
 30
0.0
 11
-95.72241631
 21
21.6064564
 31
0.0
  0
LINE
  5
137
100
AcDbEntity
  8
レイヤー_1
  6
CONTINUOUS
 62
       3
100
AcDbLine
 10
-95.72241631
 20
21.6064564
 30
0.0
 11
-95.46686536
 21
21.73756695
 31
0.0
  0
LINE
  5
138
100
AcDbEntity
  8
レイヤー_1
  6
CONTINUOUS
 62
       3
100
AcDbLine
 10
-95.46686536
 20
1.74188825
 30
0.0
 11
-95.22545679
 21
1.89770087
 31
0.0
  0
LINE
  5
139
100
AcDbEntity
  8
レイヤー_1
  6
CONTINUOUS
 62
       3
100
AcDbLine
 10
-95.22545679
 20
1.89770087
 30
0.0
 11
-95.00490913
 21
2.07336147
 31
0.0
  0
LINE
  5
13A
100
AcDbEntity
  8
レイヤー_1
  6
CONTINUOUS
 62
       3
100
AcDbLine
 10
-95.00490913
 20
2.07336147
 30
0.0
 11
-94.80572286
 21
2.26700337
 31
0.0
  0
LINE
  5
13B
100
AcDbEntity
  8
レイヤー_1
  6
CONTINUOUS
 62
       3
100
AcDbLine
 10
-94.80572286
 20
2.26700337
 30
0.0
 11
-94.62839851
 21
2.47675992
 31
0.0
  0
LINE
  5
13C
100
AcDbEntity
  8
レイヤー_1
  6
CONTINUOUS
 62
       3
100
AcDbLine
 10
-94.62839851
 20
2.47675992
 30
0.0
 11
-94.47343656
 21
2.70076448
 31
0.0
  0
LINE
  5
13D
100
AcDbEntity
  8
レイヤー_1
  6
CONTINUOUS
 62
       3
100
AcDbLine
 10
-94.47343656
 20
2.70076448
 30
0.0
 11
-94.34133752
 21
2.93715038
 31
0.0
  0
LINE
  5
13E
100
AcDbEntity
  8
レイヤー_1
  6
CONTINUOUS
 62
       3
100
AcDbLine
 10
-94.34133752
 20
2.93715038
 30
0.0
 11
-94.23260191
 21
3.18405097
 31
0.0
  0
LINE
  5
13F
100
AcDbEntity
  8
レイヤー_1
  6
CONTINUOUS
 62
       3
100
AcDbLine
 10
-94.23260191
 20
3.18405097
 30
0.0
 11
-94.14773021
 21
3.43959959
 31
0.0
  0
LINE
  5
140
100
AcDbEntity
  8
レイヤー_1
  6
CONTINUOUS
 62
       3
100
AcDbLine
 10
-94.14773021
 20
3.43959959
 30
0.0
 11
-94.08722295
 21
3.70192959
 31
0.0
  0
LINE
  5
141
100
AcDbEntity
  8
レイヤー_1
  6
CONTINUOUS
 62
       3
100
AcDbLine
 10
-94.08722295
 20
3.70192959
 30
0.0
 11
-94.05158062
 21
3.96917431
 31
0.0
  0
LINE
  5
142
100
AcDbEntity
  8
レイヤー_1
  6
CONTINUOUS
 62
       3
100
AcDbLine
 10
-94.05158062
 20
3.96917431
 30
0.0
 11
-94.04130372
 21
4.2394671
 31
0.0
  0
LINE
  5
143
100
AcDbEntity
  8
レイヤー_1
  6
CONTINUOUS
 62
       3
100
AcDbLine
 10
-94.04130372
 20
4.2394671
 30
0.0
 11
-94.05689277
 21
4.5109413
 31
0.0
  0
LINE
  5
144
100
AcDbEntity
  8
レイヤー_1
  6
CONTINUOUS
 62
       3
100
AcDbLine
 10
-94.05689277
 20
4.5109413
 30
0.0
 11
-94.09884826
 21
4.78173026
 31
0.0
  0
LINE
  5
145
100
AcDbEntity
  8
レイヤー_1
  6
CONTINUOUS
 62
       3
100
AcDbLine
 10
-94.09884826
 20
4.78173026
 30
0.0
 11
-94.1676707
 21
5.04996732
 31
0.0
  0
LINE
  5
146
100
AcDbEntity
  8
レイヤー_1
  6
CONTINUOUS
 62
       3
100
AcDbLine
 10
-94.1676707
 20
5.04996732
 30
0.0
 11
-94.26386059
 21
5.31378583
 31
0.0
  0
LINE
  5
147
100
AcDbEntity
  8
レイヤー_1
  6
CONTINUOUS
 62
       3
100
AcDbLine
 10
-94.26386059
 20
5.31378583
 30
0.0
 11
-94.38791845
 21
5.57131912
 31
0.0
  0
LINE
  5
148
100
AcDbEntity
  8
レイヤー_1
  6
CONTINUOUS
 62
       3
100
AcDbLine
 10
-94.38791845
 20
5.57131912
 30
0.0
 11
-94.53823254
 21
5.81740315
 31
0.0
  0
LINE
  5
149
100
AcDbEntity
  8
レイヤー_1
  6
CONTINUOUS
 62
       3
100
AcDbLine
 10
-94.53823254
 20
5.81740315
 30
0.0
 11
-94.70907811
 21
6.04310453
 31
0.0
  0
LINE
  5
14A
100
AcDbEntity
  8
レイヤー_1
  6
CONTINUOUS
 62
       3
100
AcDbLine
 10
-94.70907811
 20
6.04310453
 30
0.0
 11
-94.89839538
 21
6.24758361
 31
0.0
  0
LINE
  5
14B
100
AcDbEntity
  8
レイヤー_1
  6
CONTINUOUS
 62
       3
100
AcDbLine
 10
-94.89839538
 20
6.24758361
 30
0.0
 11
-95.10431336
 21
6.43033892
 31
0.0
  0
LINE
  5
14C
100
AcDbEntity
  8
レイヤー_1
  6
CONTINUOUS
 62
       3
100
AcDbLine
 10
-95.10431336
 20
6.43033892
 30
0.0
 11
-95.32496105
 21
6.59086899
 31
0.0
  0
LINE
  5
14D
100
AcDbEntity
  8
レイヤー_1
  6
CONTINUOUS
 62
       3
100
AcDbLine
 10
-95.32496105
 20
6.59086899
 30
0.0
 11
-95.55846747
 21
6.72867235
 31
0.0
  0
LINE
  5
14E
100
AcDbEntity
  8
レイヤー_1
  6
CONTINUOUS
 62
       3
100
AcDbLine
 10
-95.55846747
 20
6.72867235
 30
0.0
 11
-95.80296162
 21
6.84324753
 31
0.0
  0
LINE
  5
14F
100
AcDbEntity
  8
レイヤー_1
  6
CONTINUOUS
 62
       3
100
AcDbLine
 10
-95.80296162
 20
6.84324753
 30
0.0
 11
-96.05657252
 21
6.93409306
 31
0.0
  0
LINE
  5
150
100
AcDbEntity
  8
レイヤー_1
  6
CONTINUOUS
 62
       3
100
AcDbLine
 10
-96.05657252
 20
6.93409306
 30
0.0
 11
-96.31742917
 21
7.00070749
 31
0.0
  0
LINE
  5
151
100
AcDbEntity
  8
レイヤー_1
  6
CONTINUOUS
 62
       3
100
AcDbLine
 10
-96.31742917
 20
7.00070749
 30
0.0
 11
-96.58366058
 21
7.04258933
 31
0.0
  0
LINE
  5
152
100
AcDbEntity
  8
レイヤー_1
  6
CONTINUOUS
 62
       3
100
AcDbLine
 10
-96.58366058
 20
7.04258933
 30
0.0
 11
-96.85339577
 21
7.05923713
 31
0.0
  0
LINE
  5
153
100
AcDbEntity
  8
レイヤー_1
  6
CONTINUOUS
 62
       3
100
AcDbLine
 10
-96.85339577
 20
7.05923713
 30
0.0
 11
-97.12476374
 21
7.05014941
 31
0.0
  0
LINE
  5
154
100
AcDbEntity
  8
レイヤー_1
  6
CONTINUOUS
 62
       3
100
AcDbLine
 10
-97.12476374
 20
7.05014941
 30
0.0
 11
-97.3958935
 21
7.0148247
 31
0.0
  0
LINE
  5
155
100
AcDbEntity
  8
レイヤー_1
  6
CONTINUOUS
 62
       3
100
AcDbLine
 10
-97.3958935
 20
7.0148247
 30
0.0
 11
-97.66491405
 21
6.95276154
 31
0.0
  0
LINE
  5
156
100
AcDbEntity
  8
レイヤー_1
  6
CONTINUOUS
 62
       3
100
AcDbLine
 10
-97.66491405
 20
6.95276154
 30
0.0
 11
-97.92995442
 21
6.86345847
 31
0.0
  0
LINE
  5
157
100
AcDbEntity
  8
レイヤー_1
  6
CONTINUOUS
 62
       3
100
AcDbLine
 10
-97.92995442
 20
6.86345847
 30
0.0
 11
-98.18914361
 21
6.746414
 31
0.0
  0
LINE
  5
158
100
AcDbEntity
  8
レイヤー_1
  6
CONTINUOUS
 62
       3
100
AcDbLine
 10
-98.18914361
 20
6.746414
 30
0.0
 11
-98.43920911
 21
6.60205326
 31
0.0
  0
LINE
  5
159
100
AcDbEntity
  8
レイヤー_1
  6
CONTINUOUS
 62
       3
100
AcDbLine
 10
-98.43920911
 20
6.60205326
 30
0.0
 11
-98.67019402
 21
6.43613205
 31
0.0
  0
LINE
  5
15A
100
AcDbEntity
  8
レイヤー_1
  6
CONTINUOUS
 62
       3
100
AcDbLine
 10
-98.67019402
 20
6.43613205
 30
0.0
 11
-98.8800756
 21
6.25128271
 31
0.0
  0
LINE
  5
15B
100
AcDbEntity
  8
レイヤー_1
  6
CONTINUOUS
 62
       3
100
AcDbLine
 10
-98.8800756
 20
6.25128271
 30
0.0
 11
-99.06835335
 21
6.04937335
 31
0.0
  0
LINE
  5
15C
100
AcDbEntity
  8
レイヤー_1
  6
CONTINUOUS
 62
       3
100
AcDbLine
 10
-99.06835335
 20
6.04937335
 30
0.0
 11
-99.23452678
 21
5.83227206
 31
0.0
  0
LINE
  5
15D
100
AcDbEntity
  8
レイヤー_1
  6
CONTINUOUS
 62
       3
100
AcDbLine
 10
-99.23452678
 20
5.83227206
 30
0.0
 11
-99.37809537
 21
5.60184695
 31
0.0
  0
LINE
  5
15E
100
AcDbEntity
  8
レイヤー_1
  6
CONTINUOUS
 62
       3
100
AcDbLine
 10
-99.37809537
 20
5.60184695
 30
0.0
 11
-99.49855863
 21
5.35996611
 31
0.0
  0
LINE
  5
15F
100
AcDbEntity
  8
レイヤー_1
  6
CONTINUOUS
 62
       3
100
AcDbLine
 10
-99.49855863
 20
5.35996611
 30
0.0
 11
-99.59541604
 21
5.10849765
 31
0.0
  0
LINE
  5
160
100
AcDbEntity
  8
レイヤー_1
  6
CONTINUOUS
 62
       3
100
AcDbLine
 10
-99.59541604
 20
5.10849765
 30
0.0
 11
-99.6681671
 21
4.84930967
 31
0.0
  0
LINE
  5
161
100
AcDbEntity
  8
レイヤー_1
  6
CONTINUOUS
 62
       3
100
AcDbLine
 10
-99.6681671
 20
4.84930967
 30
0.0
 11
-99.71631131
 21
4.58427027
 31
0.0
  0
LINE
  5
162
100
AcDbEntity
  8
レイヤー_1
  6
CONTINUOUS
 62
       3
100
AcDbLine
 10
-99.71631131
 20
4.58427027
 30
0.0
 11
-99.73934817
 21
4.31524754
 31
0.0
  0
LINE
  5
163
100
AcDbEntity
  8
レイヤー_1
  6
CONTINUOUS
 62
       3
100
AcDbLine
 10
-99.73934817
 20
4.31524754
 30
0.0
 11
-99.73677716
 21
4.04410959
 31
0.0
  0
LINE
  5
164
100
AcDbEntity
  8
レイヤー_1
  6
CONTINUOUS
 62
       3
100
AcDbLine
 10
-99.73677716
 20
4.04410959
 30
0.0
 11
-99.70809779
 21
3.77272452
 31
0.0
  0
LINE
  5
165
100
AcDbEntity
  8
レイヤー_1
  6
CONTINUOUS
 62
       3
100
AcDbLine
 10
-99.70809779
 20
3.77272452
 30
0.0
 11
-99.65280955
 21
3.50296043
 31
0.0
  0
LINE
  5
166
100
AcDbEntity
  8
レイヤー_1
  6
CONTINUOUS
 62
       3
100
AcDbLine
 10
-99.65280955
 20
3.50296043
 30
0.0
 11
-99.57041193
 21
3.23668542
 31
0.0
  0
LINE
  5
167
100
AcDbEntity
  8
レイヤー_1
  6
CONTINUOUS
 62
       3
100
AcDbLine
 10
-99.57041193
 20
3.23668542
 30
0.0
 11
-99.46040444
 21
2.97576759
 31
0.0
  0
LINE
  5
168
100
AcDbEntity
  8
レイヤー_1
  6
CONTINUOUS
 62
       3
100
AcDbLine
 10
-99.46040444
 20
2.97576759
 30
0.0
 11
-99.32245711
 21
2.72248514
 31
0.0
  0
LINE
  5
169
100
AcDbEntity
  8
レイヤー_1
  6
CONTINUOUS
 62
       3
100
AcDbLine
 10
-99.32245711
 20
2.72248514
 30
0.0
 11
-99.16139203
 21
2.48641839
 31
0.0
  0
LINE
  5
16A
100
AcDbEntity
  8
レイヤー_1
  6
CONTINUOUS
 62
       3
100
AcDbLine
 10
-99.16139203
 20
2.48641839
 30
0.0
 11
-98.9809613
 21
2.27131537
 31
0.0
  0
LINE
  5
16B
100
AcDbEntity
  8
レイヤー_1
  6
CONTINUOUS
 62
       3
100
AcDbLine
 10
-98.9809613
 20
2.27131537
 30
0.0
 11
-98.78303159
 21
2.07767757
 31
0.0
  0
LINE
  5
16C
100
AcDbEntity
  8
レイヤー_1
  6
CONTINUOUS
 62
       3
100
AcDbLine
 10
-98.78303159
 20
2.07767757
 30
0.0
 11
-98.56946954
 21
1.90600645
 31
0.0
  0
LINE
  5
16D
100
AcDbEntity
  8
レイヤー_1
  6
CONTINUOUS
 62
       3
100
AcDbLine
 10
-98.56946954
 20
1.90600645
 30
0.0
 11
-98.34214181
 21
1.75680347
 31
0.0
  0
LINE
  5
16E
100
AcDbEntity
  8
レイヤー_1
  6
CONTINUOUS
 62
       3
100
AcDbLine
 10
-98.34214181
 20
1.75680347
 30
0.0
 11
-98.10291506
 21
1.63057011
 31
0.0
  0
LINE
  5
16F
100
AcDbEntity
  8
レイヤー_1
  6
CONTINUOUS
 62
       3
100
AcDbLine
 10
-98.10291506
 20
1.63057011
 30
0.0
 11
-97.85365594
 21
1.52780783
 31
0.0
  0
LINE
  5
170
100
AcDbEntity
  8
レイヤー_1
  6
CONTINUOUS
 62
       3
100
AcDbLine
 10
-97.85365594
 20
1.52780783
 30
0.0
 11
-97.5962311
 21
1.4490181
 31
0.0
  0
LINE
  5
171
100
AcDbEntity
  8
レイヤー_1
  6
CONTINUOUS
 62
       3
100
AcDbLine
 10
-97.5962311
 20
1.4490181
 30
0.0
 11
-97.33250721
 21
1.39470239
 31
0.0
  0
LINE
  5
172
100
AcDbEntity
  8
レイヤー_1
  6
CONTINUOUS
 62
       3
100
AcDbLine
 10
-97.33250721
 20
1.39470239
 30
0.0
 11
-97.06435091
 21
1.36536217
 31
0.0
  0
LINE
  5
173
100
AcDbEntity
  8
レイヤー_1
  6
CONTINUOUS
 62
       3
100
AcDbLine
 10
-97.06435091
 20
1.36536217
 30
0.0
 11
-96.79362886
 21
1.3614989
 31
0.0
  0
LINE
  5
174
100
AcDbEntity
  8
レイヤー_1
  6
CONTINUOUS
 62
       3
100
AcDbLine
 10
-96.79362886
 20
1.3614989
 30
0.0
 11
-96.52220773
 21
1.38361405
 31
0.0
  0
LINE
  5
175
100
AcDbEntity
  8
レイヤー_1
  6
CONTINUOUS
 62
       3
100
AcDbLine
 10
-96.52220773
 20
1.38361405
 30
0.0
 11
-96.25195415
 21
1.4322091
 31
0.0
  0
LINE
  5
176
100
AcDbEntity
  8
レイヤー_1
  6
CONTINUOUS
 62
       3
100
AcDbLine
 10
-96.25195415
 20
1.4322091
 30
0.0
 11
-95.98473479
 21
1.5077855
 31
0.0
  0
LINE
  5
177
100
AcDbEntity
  8
レイヤー_1
  6
CONTINUOUS
 62
       3
100
AcDbLine
 10
-95.98473479
 20
1.5077855
 30
0.0
 11
-95.72241631
 21
1.61084473
 31
0.0
  0
LINE
  5
178
100
AcDbEntity
  8
レイヤー_1
  6
CONTINUOUS
 62
       3
100
AcDbLine
 10
-95.72241631
 20
1.61084473
 30
0.0
 11
-95.46686536
 21
1.74188825
 31
0.0
  0
LINE
  5
179
100
AcDbEntity
  8
レイヤー_1
  6
CONTINUOUS
 62
       3
100
AcDbLine
 10
-95.90577052
 20
-7.51267175
 30
0.0
 11
-95.7367233
 21
-7.40358953
 31
0.0
  0
LINE
  5
17A
100
AcDbEntity
  8
レイヤー_1
  6
CONTINUOUS
 62
       3
100
AcDbLine
 10
-95.7367233
 20
-7.40358953
 30
0.0
 11
-95.58229513
 21
-7.28061289
 31
0.0
  0
LINE
  5
17B
100
AcDbEntity
  8
レイヤー_1
  6
CONTINUOUS
 62
       3
100
AcDbLine
 10
-95.58229513
 20
-7.28061289
 30
0.0
 11
-95.44283476
 21
-7.14504922
 31
0.0
  0
LINE
  5
17C
100
AcDbEntity
  8
レイヤー_1
  6
CONTINUOUS
 62
       3
100
AcDbLine
 10
-95.44283476
 20
-7.14504922
 30
0.0
 11
-95.31869096
 21
-6.99820588
 31
0.0
  0
LINE
  5
17D
100
AcDbEntity
  8
レイヤー_1
  6
CONTINUOUS
 62
       3
100
AcDbLine
 10
-95.31869096
 20
-6.99820588
 30
0.0
 11
-95.21021249
 21
-6.84139027
 31
0.0
  0
LINE
  5
17E
100
AcDbEntity
  8
レイヤー_1
  6
CONTINUOUS
 62
       3
100
AcDbLine
 10
-95.21021249
 20
-6.84139027
 30
0.0
 11
-95.11774811
 21
-6.67590977
 31
0.0
  0
LINE
  5
17F
100
AcDbEntity
  8
レイヤー_1
  6
CONTINUOUS
 62
       3
100
AcDbLine
 10
-95.11774811
 20
-6.67590977
 30
0.0
 11
-95.0416466
 21
-6.50307176
 31
0.0
  0
LINE
  5
180
100
AcDbEntity
  8
レイヤー_1
  6
CONTINUOUS
 62
       3
100
AcDbLine
 10
-95.0416466
 20
-6.50307176
 30
0.0
 11
-94.98225671
 21
-6.32418361
 31
0.0
  0
LINE
  5
181
100
AcDbEntity
  8
レイヤー_1
  6
CONTINUOUS
 62
       3
100
AcDbLine
 10
-94.98225671
 20
-6.32418361
 30
0.0
 11
-94.9399272
 21
-6.14055272
 31
0.0
  0
LINE
  5
182
100
AcDbEntity
  8
レイヤー_1
  6
CONTINUOUS
 62
       3
100
AcDbLine
 10
-94.9399272
 20
-6.14055272
 30
0.0
 11
-94.91500685
 21
-5.95348646
 31
0.0
  0
LINE
  5
183
100
AcDbEntity
  8
レイヤー_1
  6
CONTINUOUS
 62
       3
100
AcDbLine
 10
-94.91500685
 20
-5.95348646
 30
0.0
 11
-94.90784441
 21
-5.76429221
 31
0.0
  0
LINE
  5
184
100
AcDbEntity
  8
レイヤー_1
  6
CONTINUOUS
 62
       3
100
AcDbLine
 10
-94.90784441
 20
-5.76429221
 30
0.0
 11
-94.91878864
 21
-5.57427735
 31
0.0
  0
LINE
  5
185
100
AcDbEntity
  8
レイヤー_1
  6
CONTINUOUS
 62
       3
100
AcDbLine
 10
-94.91878864
 20
-5.57427735
 30
0.0
 11
-94.94818832
 21
-5.38474927
 31
0.0
  0
LINE
  5
186
100
AcDbEntity
  8
レイヤー_1
  6
CONTINUOUS
 62
       3
100
AcDbLine
 10
-94.94818832
 20
-5.38474927
 30
0.0
 11
-94.9963922
 21
-5.19701535
 31
0.0
  0
LINE
  5
187
100
AcDbEntity
  8
レイヤー_1
  6
CONTINUOUS
 62
       3
100
AcDbLine
 10
-94.9963922
 20
-5.19701535
 30
0.0
 11
-95.06374904
 21
-5.01238297
 31
0.0
  0
LINE
  5
188
100
AcDbEntity
  8
レイヤー_1
  6
CONTINUOUS
 62
       3
100
AcDbLine
 10
-95.06374904
 20
-5.01238297
 30
0.0
 11
-95.15060762
 21
-4.8321595
 31
0.0
  0
LINE
  5
189
100
AcDbEntity
  8
レイヤー_1
  6
CONTINUOUS
 62
       3
100
AcDbLine
 10
-95.15060762
 20
-4.8321595
 30
0.0
 11
-95.25591381
 21
-4.65989448
 31
0.0
  0
LINE
  5
18A
100
AcDbEntity
  8
レイヤー_1
  6
CONTINUOUS
 62
       3
100
AcDbLine
 10
-95.25591381
 20
-4.65989448
 30
0.0
 11
-95.37559362
 21
-4.50188727
 31
0.0
  0
LINE
  5
18B
100
AcDbEntity
  8
レイヤー_1
  6
CONTINUOUS
 62
       3
100
AcDbLine
 10
-95.37559362
 20
-4.50188727
 30
0.0
 11
-95.50818034
 21
-4.35874671
 31
0.0
  0
LINE
  5
18C
100
AcDbEntity
  8
レイヤー_1
  6
CONTINUOUS
 62
       3
100
AcDbLine
 10
-95.50818034
 20
-4.35874671
 30
0.0
 11
-95.65236705
 21
-4.23082252
 31
0.0
  0
LINE
  5
18D
100
AcDbEntity
  8
レイヤー_1
  6
CONTINUOUS
 62
       3
100
AcDbLine
 10
-95.65236705
 20
-4.23082252
 30
0.0
 11
-95.80684686
 21
-4.11846443
 31
0.0
  0
LINE
  5
18E
100
AcDbEntity
  8
レイヤー_1
  6
CONTINUOUS
 62
       3
100
AcDbLine
 10
-95.80684686
 20
-4.11846443
 30
0.0
 11
-95.97031287
 21
-4.02202216
 31
0.0
  0
LINE
  5
18F
100
AcDbEntity
  8
レイヤー_1
  6
CONTINUOUS
 62
       3
100
AcDbLine
 10
-95.97031287
 20
-4.02202216
 30
0.0
 11
-96.14145818
 21
-3.94184545
 31
0.0
  0
LINE
  5
190
100
AcDbEntity
  8
レイヤー_1
  6
CONTINUOUS
 62
       3
100
AcDbLine
 10
-96.14145818
 20
-3.94184545
 30
0.0
 11
-96.31897589
 21
-3.87828401
 31
0.0
  0
LINE
  5
191
100
AcDbEntity
  8
レイヤー_1
  6
CONTINUOUS
 62
       3
100
AcDbLine
 10
-96.31897589
 20
-3.87828401
 30
0.0
 11
-96.50155909
 21
-3.83168759
 31
0.0
  0
LINE
  5
192
100
AcDbEntity
  8
レイヤー_1
  6
CONTINUOUS
 62
       3
100
AcDbLine
 10
-96.50155909
 20
-3.83168759
 30
0.0
 11
-96.6879009
 21
-3.80240589
 31
0.0
  0
LINE
  5
193
100
AcDbEntity
  8
レイヤー_1
  6
CONTINUOUS
 62
       3
100
AcDbLine
 10
-96.6879009
 20
-3.80240589
 30
0.0
 11
-96.87669441
 21
-3.79078866
 31
0.0
  0
LINE
  5
194
100
AcDbEntity
  8
レイヤー_1
  6
CONTINUOUS
 62
       3
100
AcDbLine
 10
-96.87669441
 20
-3.79078866
 30
0.0
 11
-97.06663273
 21
-3.79718561
 31
0.0
  0
LINE
  5
195
100
AcDbEntity
  8
レイヤー_1
  6
CONTINUOUS
 62
       3
100
AcDbLine
 10
-97.06663273
 20
-3.79718561
 30
0.0
 11
-97.25640894
 21
-3.82194648
 31
0.0
  0
LINE
  5
196
100
AcDbEntity
  8
レイヤー_1
  6
CONTINUOUS
 62
       3
100
AcDbLine
 10
-97.25640894
 20
-3.82194648
 30
0.0
 11
-97.44471616
 21
-3.86542098
 31
0.0
  0
LINE
  5
197
100
AcDbEntity
  8
レイヤー_1
  6
CONTINUOUS
 62
       3
100
AcDbLine
 10
-97.44471616
 20
-3.86542098
 30
0.0
 11
-97.63024748
 21
-3.92795886
 31
0.0
  0
LINE
  5
198
100
AcDbEntity
  8
レイヤー_1
  6
CONTINUOUS
 62
       3
100
AcDbLine
 10
-97.63024748
 20
-3.92795886
 30
0.0
 11
-97.811696
 21
-4.00990983
 31
0.0
  0
LINE
  5
199
100
AcDbEntity
  8
レイヤー_1
  6
CONTINUOUS
 62
       3
100
AcDbLine
 10
-97.811696
 20
-4.00990983
 30
0.0
 11
-97.98671847
 21
-4.11096628
 31
0.0
  0
LINE
  5
19A
100
AcDbEntity
  8
レイヤー_1
  6
CONTINUOUS
 62
       3
100
AcDbLine
 10
-97.98671847
 20
-4.11096628
 30
0.0
 11
-98.14833923
 21
-4.2271031
 31
0.0
  0
LINE
  5
19B
100
AcDbEntity
  8
レイヤー_1
  6
CONTINUOUS
 62
       3
100
AcDbLine
 10
-98.14833923
 20
-4.2271031
 30
0.0
 11
-98.29519498
 21
-4.35648775
 31
0.0
  0
LINE
  5
19C
100
AcDbEntity
  8
レイヤー_1
  6
CONTINUOUS
 62
       3
100
AcDbLine
 10
-98.29519498
 20
-4.35648775
 30
0.0
 11
-98.42693504
 21
-4.49781237
 31
0.0
  0
LINE
  5
19D
100
AcDbEntity
  8
レイヤー_1
  6
CONTINUOUS
 62
       3
100
AcDbLine
 10
-98.42693504
 20
-4.49781237
 30
0.0
 11
-98.54320872
 21
-4.6497691
 31
0.0
  0
LINE
  5
19E
100
AcDbEntity
  8
レイヤー_1
  6
CONTINUOUS
 62
       3
100
AcDbLine
 10
-98.54320872
 20
-4.6497691
 30
0.0
 11
-98.64366532
 21
-4.81105007
 31
0.0
  0
LINE
  5
19F
100
AcDbEntity
  8
レイヤー_1
  6
CONTINUOUS
 62
       3
100
AcDbLine
 10
-98.64366532
 20
-4.81105007
 30
0.0
 11
-98.72795416
 21
-4.98034743
 31
0.0
  0
LINE
  5
1A0
100
AcDbEntity
  8
レイヤー_1
  6
CONTINUOUS
 62
       3
100
AcDbLine
 10
-98.72795416
 20
-4.98034743
 30
0.0
 11
-98.79572454
 21
-5.1563533
 31
0.0
  0
LINE
  5
1A1
100
AcDbEntity
  8
レイヤー_1
  6
CONTINUOUS
 62
       3
100
AcDbLine
 10
-98.79572454
 20
-5.1563533
 30
0.0
 11
-98.84662578
 21
-5.33775983
 31
0.0
  0
LINE
  5
1A2
100
AcDbEntity
  8
レイヤー_1
  6
CONTINUOUS
 62
       3
100
AcDbLine
 10
-98.84662578
 20
-5.33775983
 30
0.0
 11
-98.88030719
 21
-5.52325915
 31
0.0
  0
LINE
  5
1A3
100
AcDbEntity
  8
レイヤー_1
  6
CONTINUOUS
 62
       3
100
AcDbLine
 10
-98.88030719
 20
-5.52325915
 30
0.0
 11
-98.89641807
 21
-5.7115434
 31
0.0
  0
LINE
  5
1A4
100
AcDbEntity
  8
レイヤー_1
  6
CONTINUOUS
 62
       3
100
AcDbLine
 10
-98.89641807
 20
-5.7115434
 30
0.0
 11
-98.89460774
 21
-5.90130472
 31
0.0
  0
LINE
  5
1A5
100
AcDbEntity
  8
レイヤー_1
  6
CONTINUOUS
 62
       3
100
AcDbLine
 10
-98.89460774
 20
-5.90130472
 30
0.0
 11
-98.8745255
 21
-6.09123524
 31
0.0
  0
LINE
  5
1A6
100
AcDbEntity
  8
レイヤー_1
  6
CONTINUOUS
 62
       3
100
AcDbLine
 10
-98.8745255
 20
-6.09123524
 30
0.0
 11
-98.83582066
 21
-6.2800271
 31
0.0
  0
LINE
  5
1A7
100
AcDbEntity
  8
レイヤー_1
  6
CONTINUOUS
 62
       3
100
AcDbLine
 10
-98.83582066
 20
-6.2800271
 30
0.0
 11
-98.77814254
 21
-6.46637243
 31
0.0
  0
LINE
  5
1A8
100
AcDbEntity
  8
レイヤー_1
  6
CONTINUOUS
 62
       3
100
AcDbLine
 10
-98.77814254
 20
-6.46637243
 30
0.0
 11
-98.70114044
 21
-6.64896338
 31
0.0
  0
LINE
  5
1A9
100
AcDbEntity
  8
レイヤー_1
  6
CONTINUOUS
 62
       3
100
AcDbLine
 10
-98.70114044
 20
-6.64896338
 30
0.0
 11
-98.60460008
 21
-6.82623846
 31
0.0
  0
LINE
  5
1AA
100
AcDbEntity
  8
レイヤー_1
  6
CONTINUOUS
 62
       3
100
AcDbLine
 10
-98.60460008
 20
-6.82623846
 30
0.0
 11
-98.49192169
 21
-6.9915588
 31
0.0
  0
LINE
  5
1AB
100
AcDbEntity
  8
レイヤー_1
  6
CONTINUOUS
 62
       3
100
AcDbLine
 10
-98.49192169
 20
-6.9915588
 30
0.0
 11
-98.36567572
 21
-7.14220001
 31
0.0
  0
LINE
  5
1AC
100
AcDbEntity
  8
レイヤー_1
  6
CONTINUOUS
 62
       3
100
AcDbLine
 10
-98.36567572
 20
-7.14220001
 30
0.0
 11
-98.22716957
 21
-7.27780995
 31
0.0
  0
LINE
  5
1AD
100
AcDbEntity
  8
レイヤー_1
  6
CONTINUOUS
 62
       3
100
AcDbLine
 10
-98.22716957
 20
-7.27780995
 30
0.0
 11
-98.0777106
 21
-7.39803648
 31
0.0
  0
LINE
  5
1AE
100
AcDbEntity
  8
レイヤー_1
  6
CONTINUOUS
 62
       3
100
AcDbLine
 10
-98.0777106
 20
-7.39803648
 30
0.0
 11
-97.9186062
 21
-7.50252747
 31
0.0
  0
LINE
  5
1AF
100
AcDbEntity
  8
レイヤー_1
  6
CONTINUOUS
 62
       3
100
AcDbLine
 10
-97.9186062
 20
-7.50252747
 30
0.0
 11
-97.75116375
 21
-7.59093078
 31
0.0
  0
LINE
  5
1B0
100
AcDbEntity
  8
レイヤー_1
  6
CONTINUOUS
 62
       3
100
AcDbLine
 10
-97.75116375
 20
-7.59093078
 30
0.0
 11
-97.57669064
 21
-7.66289427
 31
0.0
  0
LINE
  5
1B1
100
AcDbEntity
  8
レイヤー_1
  6
CONTINUOUS
 62
       3
100
AcDbLine
 10
-97.57669064
 20
-7.66289427
 30
0.0
 11
-97.39649424
 21
-7.71806582
 31
0.0
  0
LINE
  5
1B2
100
AcDbEntity
  8
レイヤー_1
  6
CONTINUOUS
 62
       3
100
AcDbLine
 10
-97.39649424
 20
-7.71806582
 30
0.0
 11
-97.21188194
 21
-7.75609328
 31
0.0
  0
LINE
  5
1B3
100
AcDbEntity
  8
レイヤー_1
  6
CONTINUOUS
 62
       3
100
AcDbLine
 10
-97.21188194
 20
-7.75609328
 30
0.0
 11
-97.02416111
 21
-7.77662452
 31
0.0
  0
LINE
  5
1B4
100
AcDbEntity
  8
レイヤー_1
  6
CONTINUOUS
 62
       3
100
AcDbLine
 10
-97.02416111
 20
-7.77662452
 30
0.0
 11
-96.83463914
 21
-7.77930741
 31
0.0
  0
LINE
  5
1B5
100
AcDbEntity
  8
レイヤー_1
  6
CONTINUOUS
 62
       3
100
AcDbLine
 10
-96.83463914
 20
-7.77930741
 30
0.0
 11
-96.64462341
 21
-7.7637898
 31
0.0
  0
LINE
  5
1B6
100
AcDbEntity
  8
レイヤー_1
  6
CONTINUOUS
 62
       3
100
AcDbLine
 10
-96.64462341
 20
-7.7637898
 30
0.0
 11
-96.45542131
 21
-7.72971957
 31
0.0
  0
LINE
  5
1B7
100
AcDbEntity
  8
レイヤー_1
  6
CONTINUOUS
 62
       3
100
AcDbLine
 10
-96.45542131
 20
-7.72971957
 30
0.0
 11
-96.2683402
 21
-7.67674457
 31
0.0
  0
LINE
  5
1B8
100
AcDbEntity
  8
レイヤー_1
  6
CONTINUOUS
 62
       3
100
AcDbLine
 10
-96.2683402
 20
-7.67674457
 30
0.0
 11
-96.08468748
 21
-7.60451268
 31
0.0
  0
LINE
  5
1B9
100
AcDbEntity
  8
レイヤー_1
  6
CONTINUOUS
 62
       3
100
AcDbLine
 10
-96.08468748
 20
-7.60451268
 30
0.0
 11
-95.90577052
 21
-7.51267175
 31
0.0
  0
LINE
  5
1BA
100
AcDbEntity
  8
レイヤー_1
  6
CONTINUOUS
 62
       3
100
AcDbLine
 10
-95.90577052
 20
32.47730762
 30
0.0
 11
-95.7367233
 21
32.58644961
 31
0.0
  0
LINE
  5
1BB
100
AcDbEntity
  8
レイヤー_1
  6
CONTINUOUS
 62
       3
100
AcDbLine
 10
-95.7367233
 20
32.58644961
 30
0.0
 11
-95.58229513
 21
32.70947867
 31
0.0
  0
LINE
  5
1BC
100
AcDbEntity
  8
レイヤー_1
  6
CONTINUOUS
 62
       3
100
AcDbLine
 10
-95.58229513
 20
32.70947867
 30
0.0
 11
-95.44283476
 21
32.84508791
 31
0.0
  0
LINE
  5
1BD
100
AcDbEntity
  8
レイヤー_1
  6
CONTINUOUS
 62
       3
100
AcDbLine
 10
-95.44283476
 20
32.84508791
 30
0.0
 11
-95.31869096
 21
32.99197041
 31
0.0
  0
LINE
  5
1BE
100
AcDbEntity
  8
レイヤー_1
  6
CONTINUOUS
 62
       3
100
AcDbLine
 10
-95.31869096
 20
32.99197041
 30
0.0
 11
-95.21021249
 21
33.1488193
 31
0.0
  0
LINE
  5
1BF
100
AcDbEntity
  8
レイヤー_1
  6
CONTINUOUS
 62
       3
100
AcDbLine
 10
-95.21021249
 20
33.1488193
 30
0.0
 11
-95.11774811
 21
33.31432765
 31
0.0
  0
LINE
  5
1C0
100
AcDbEntity
  8
レイヤー_1
  6
CONTINUOUS
 62
       3
100
AcDbLine
 10
-95.11774811
 20
33.31432765
 30
0.0
 11
-95.0416466
 21
33.48718858
 31
0.0
  0
LINE
  5
1C1
100
AcDbEntity
  8
レイヤー_1
  6
CONTINUOUS
 62
       3
100
AcDbLine
 10
-95.0416466
 20
33.48718858
 30
0.0
 11
-94.98225671
 21
33.66609519
 31
0.0
  0
LINE
  5
1C2
100
AcDbEntity
  8
レイヤー_1
  6
CONTINUOUS
 62
       3
100
AcDbLine
 10
-94.98225671
 20
33.66609519
 30
0.0
 11
-94.9399272
 21
33.84974057
 31
0.0
  0
LINE
  5
1C3
100
AcDbEntity
  8
レイヤー_1
  6
CONTINUOUS
 62
       3
100
AcDbLine
 10
-94.9399272
 20
33.84974057
 30
0.0
 11
-94.91500685
 21
34.03681782
 31
0.0
  0
LINE
  5
1C4
100
AcDbEntity
  8
レイヤー_1
  6
CONTINUOUS
 62
       3
100
AcDbLine
 10
-94.91500685
 20
34.03681782
 30
0.0
 11
-94.90784441
 21
34.22602006
 31
0.0
  0
LINE
  5
1C5
100
AcDbEntity
  8
レイヤー_1
  6
CONTINUOUS
 62
       3
100
AcDbLine
 10
-94.90784441
 20
34.22602006
 30
0.0
 11
-94.91878864
 21
34.41604037
 31
0.0
  0
LINE
  5
1C6
100
AcDbEntity
  8
レイヤー_1
  6
CONTINUOUS
 62
       3
100
AcDbLine
 10
-94.91878864
 20
34.41604037
 30
0.0
 11
-94.94818832
 21
34.60557185
 31
0.0
  0
LINE
  5
1C7
100
AcDbEntity
  8
レイヤー_1
  6
CONTINUOUS
 62
       3
100
AcDbLine
 10
-94.94818832
 20
34.60557185
 30
0.0
 11
-94.9963922
 21
34.79330762
 31
0.0
  0
LINE
  5
1C8
100
AcDbEntity
  8
レイヤー_1
  6
CONTINUOUS
 62
       3
100
AcDbLine
 10
-94.9963922
 20
34.79330762
 30
0.0
 11
-95.06374904
 21
34.97794076
 31
0.0
  0
LINE
  5
1C9
100
AcDbEntity
  8
レイヤー_1
  6
CONTINUOUS
 62
       3
100
AcDbLine
 10
-95.06374904
 20
34.97794076
 30
0.0
 11
-95.15060762
 21
35.15816438
 31
0.0
  0
LINE
  5
1CA
100
AcDbEntity
  8
レイヤー_1
  6
CONTINUOUS
 62
       3
100
AcDbLine
 10
-95.15060762
 20
35.15816438
 30
0.0
 11
-95.25591381
 21
35.33038597
 31
0.0
  0
LINE
  5
1CB
100
AcDbEntity
  8
レイヤー_1
  6
CONTINUOUS
 62
       3
100
AcDbLine
 10
-95.25591381
 20
35.33038597
 30
0.0
 11
-95.37559362
 21
35.48834756
 31
0.0
  0
LINE
  5
1CC
100
AcDbEntity
  8
レイヤー_1
  6
CONTINUOUS
 62
       3
100
AcDbLine
 10
-95.37559362
 20
35.48834756
 30
0.0
 11
-95.50818034
 21
35.63145479
 31
0.0
  0
LINE
  5
1CD
100
AcDbEntity
  8
レイヤー_1
  6
CONTINUOUS
 62
       3
100
AcDbLine
 10
-95.50818034
 20
35.63145479
 30
0.0
 11
-95.65236705
 21
35.759356
 31
0.0
  0
LINE
  5
1CE
100
AcDbEntity
  8
レイヤー_1
  6
CONTINUOUS
 62
       3
100
AcDbLine
 10
-95.65236705
 20
35.759356
 30
0.0
 11
-95.80684686
 21
35.87169955
 31
0.0
  0
LINE
  5
1CF
100
AcDbEntity
  8
レイヤー_1
  6
CONTINUOUS
 62
       3
100
AcDbLine
 10
-95.80684686
 20
35.87169955
 30
0.0
 11
-95.97031287
 21
35.96813377
 31
0.0
  0
LINE
  5
1D0
100
AcDbEntity
  8
レイヤー_1
  6
CONTINUOUS
 62
       3
100
AcDbLine
 10
-95.97031287
 20
35.96813377
 30
0.0
 11
-96.14145818
 21
36.04830701
 31
0.0
  0
LINE
  5
1D1
100
AcDbEntity
  8
レイヤー_1
  6
CONTINUOUS
 62
       3
100
AcDbLine
 10
-96.14145818
 20
36.04830701
 30
0.0
 11
-96.31897589
 21
36.11186763
 31
0.0
  0
LINE
  5
1D2
100
AcDbEntity
  8
レイヤー_1
  6
CONTINUOUS
 62
       3
100
AcDbLine
 10
-96.31897589
 20
36.11186763
 30
0.0
 11
-96.50155909
 21
36.15846396
 31
0.0
  0
LINE
  5
1D3
100
AcDbEntity
  8
レイヤー_1
  6
CONTINUOUS
 62
       3
100
AcDbLine
 10
-96.50155909
 20
36.15846396
 30
0.0
 11
-96.6879009
 21
36.18774436
 31
0.0
  0
LINE
  5
1D4
100
AcDbEntity
  8
レイヤー_1
  6
CONTINUOUS
 62
       3
100
AcDbLine
 10
-96.6879009
 20
36.18774436
 30
0.0
 11
-96.87669441
 21
36.19935716
 31
0.0
  0
LINE
  5
1D5
100
AcDbEntity
  8
レイヤー_1
  6
CONTINUOUS
 62
       3
100
AcDbLine
 10
-96.87669441
 20
36.19935716
 30
0.0
 11
-97.06663273
 21
36.19295072
 31
0.0
  0
LINE
  5
1D6
100
AcDbEntity
  8
レイヤー_1
  6
CONTINUOUS
 62
       3
100
AcDbLine
 10
-97.06663273
 20
36.19295072
 30
0.0
 11
-97.25640894
 21
36.16817338
 31
0.0
  0
LINE
  5
1D7
100
AcDbEntity
  8
レイヤー_1
  6
CONTINUOUS
 62
       3
100
AcDbLine
 10
-97.25640894
 20
36.16817338
 30
0.0
 11
-97.44471616
 21
36.12467349
 31
0.0
  0
LINE
  5
1D8
100
AcDbEntity
  8
レイヤー_1
  6
CONTINUOUS
 62
       3
100
AcDbLine
 10
-97.44471616
 20
36.12467349
 30
0.0
 11
-97.63024748
 21
36.06209939
 31
0.0
  0
LINE
  5
1D9
100
AcDbEntity
  8
レイヤー_1
  6
CONTINUOUS
 62
       3
100
AcDbLine
 10
-97.63024748
 20
36.06209939
 30
0.0
 11
-97.811696
 21
35.98009943
 31
0.0
  0
LINE
  5
1DA
100
AcDbEntity
  8
レイヤー_1
  6
CONTINUOUS
 62
       3
100
AcDbLine
 10
-97.811696
 20
35.98009943
 30
0.0
 11
-97.98671847
 21
35.87904393
 31
0.0
  0
LINE
  5
1DB
100
AcDbEntity
  8
レイヤー_1
  6
CONTINUOUS
 62
       3
100
AcDbLine
 10
-97.98671847
 20
35.87904393
 30
0.0
 11
-98.14833923
 21
35.76296315
 31
0.0
  0
LINE
  5
1DC
100
AcDbEntity
  8
レイヤー_1
  6
CONTINUOUS
 62
       3
100
AcDbLine
 10
-98.14833923
 20
35.76296315
 30
0.0
 11
-98.29519498
 21
35.63362742
 31
0.0
  0
LINE
  5
1DD
100
AcDbEntity
  8
レイヤー_1
  6
CONTINUOUS
 62
       3
100
AcDbLine
 10
-98.29519498
 20
35.63362742
 30
0.0
 11
-98.42693504
 21
35.49234511
 31
0.0
  0
LINE
  5
1DE
100
AcDbEntity
  8
レイヤー_1
  6
CONTINUOUS
 62
       3
100
AcDbLine
 10
-98.42693504
 20
35.49234511
 30
0.0
 11
-98.54320872
 21
35.34042454
 31
0.0
  0
LINE
  5
1DF
100
AcDbEntity
  8
レイヤー_1
  6
CONTINUOUS
 62
       3
100
AcDbLine
 10
-98.54320872
 20
35.34042454
 30
0.0
 11
-98.64366532
 21
35.17917407
 31
0.0
  0
LINE
  5
1E0
100
AcDbEntity
  8
レイヤー_1
  6
CONTINUOUS
 62
       3
100
AcDbLine
 10
-98.64366532
 20
35.17917407
 30
0.0
 11
-98.72795416
 21
35.00990204
 31
0.0
  0
LINE
  5
1E1
100
AcDbEntity
  8
レイヤー_1
  6
CONTINUOUS
 62
       3
100
AcDbLine
 10
-98.72795416
 20
35.00990204
 30
0.0
 11
-98.79572454
 21
34.8339168
 31
0.0
  0
LINE
  5
1E2
100
AcDbEntity
  8
レイヤー_1
  6
CONTINUOUS
 62
       3
100
AcDbLine
 10
-98.79572454
 20
34.8339168
 30
0.0
 11
-98.84662578
 21
34.65252668
 31
0.0
  0
LINE
  5
1E3
100
AcDbEntity
  8
レイヤー_1
  6
CONTINUOUS
 62
       3
100
AcDbLine
 10
-98.84662578
 20
34.65252668
 30
0.0
 11
-98.88030719
 21
34.46704004
 31
0.0
  0
LINE
  5
1E4
100
AcDbEntity
  8
レイヤー_1
  6
CONTINUOUS
 62
       3
100
AcDbLine
 10
-98.88030719
 20
34.46704004
 30
0.0
 11
-98.89641807
 21
34.27876522
 31
0.0
  0
LINE
  5
1E5
100
AcDbEntity
  8
レイヤー_1
  6
CONTINUOUS
 62
       3
100
AcDbLine
 10
-98.89641807
 20
34.27876522
 30
0.0
 11
-98.89460774
 21
34.08901056
 31
0.0
  0
LINE
  5
1E6
100
AcDbEntity
  8
レイヤー_1
  6
CONTINUOUS
 62
       3
100
AcDbLine
 10
-98.89460774
 20
34.08901056
 30
0.0
 11
-98.8745255
 21
33.89908441
 31
0.0
  0
LINE
  5
1E7
100
AcDbEntity
  8
レイヤー_1
  6
CONTINUOUS
 62
       3
100
AcDbLine
 10
-98.8745255
 20
33.89908441
 30
0.0
 11
-98.83582066
 21
33.71029512
 31
0.0
  0
LINE
  5
1E8
100
AcDbEntity
  8
レイヤー_1
  6
CONTINUOUS
 62
       3
100
AcDbLine
 10
-98.83582066
 20
33.71029512
 30
0.0
 11
-98.77814254
 21
33.52395102
 31
0.0
  0
LINE
  5
1E9
100
AcDbEntity
  8
レイヤー_1
  6
CONTINUOUS
 62
       3
100
AcDbLine
 10
-98.77814254
 20
33.52395102
 30
0.0
 11
-98.70114044
 21
33.34136046
 31
0.0
  0
LINE
  5
1EA
100
AcDbEntity
  8
レイヤー_1
  6
CONTINUOUS
 62
       3
100
AcDbLine
 10
-98.70114044
 20
33.34136046
 30
0.0
 11
-98.60460008
 21
33.16408542
 31
0.0
  0
LINE
  5
1EB
100
AcDbEntity
  8
レイヤー_1
  6
CONTINUOUS
 62
       3
100
AcDbLine
 10
-98.60460008
 20
33.16408542
 30
0.0
 11
-98.49192169
 21
32.99876492
 31
0.0
  0
LINE
  5
1EC
100
AcDbEntity
  8
レイヤー_1
  6
CONTINUOUS
 62
       3
100
AcDbLine
 10
-98.49192169
 20
32.99876492
 30
0.0
 11
-98.36567572
 21
32.84812296
 31
0.0
  0
LINE
  5
1ED
100
AcDbEntity
  8
レイヤー_1
  6
CONTINUOUS
 62
       3
100
AcDbLine
 10
-98.36567572
 20
32.84812296
 30
0.0
 11
-98.22716957
 21
32.71251118
 31
0.0
  0
LINE
  5
1EE
100
AcDbEntity
  8
レイヤー_1
  6
CONTINUOUS
 62
       3
100
AcDbLine
 10
-98.22716957
 20
32.71251118
 30
0.0
 11
-98.0777106
 21
32.59228124
 31
0.0
  0
LINE
  5
1EF
100
AcDbEntity
  8
レイヤー_1
  6
CONTINUOUS
 62
       3
100
AcDbLine
 10
-98.0777106
 20
32.59228124
 30
0.0
 11
-97.9186062
 21
32.4877848
 31
0.0
  0
LINE
  5
1F0
100
AcDbEntity
  8
レイヤー_1
  6
CONTINUOUS
 62
       3
100
AcDbLine
 10
-97.9186062
 20
32.4877848
 30
0.0
 11
-97.75116375
 21
32.39937351
 31
0.0
  0
LINE
  5
1F1
100
AcDbEntity
  8
レイヤー_1
  6
CONTINUOUS
 62
       3
100
AcDbLine
 10
-97.75116375
 20
32.39937351
 30
0.0
 11
-97.57669064
 21
32.32739902
 31
0.0
  0
LINE
  5
1F2
100
AcDbEntity
  8
レイヤー_1
  6
CONTINUOUS
 62
       3
100
AcDbLine
 10
-97.57669064
 20
32.32739902
 30
0.0
 11
-97.39649424
 21
32.27221298
 31
0.0
  0
LINE
  5
1F3
100
AcDbEntity
  8
レイヤー_1
  6
CONTINUOUS
 62
       3
100
AcDbLine
 10
-97.39649424
 20
32.27221298
 30
0.0
 11
-97.21188194
 21
32.23416706
 31
0.0
  0
LINE
  5
1F4
100
AcDbEntity
  8
レイヤー_1
  6
CONTINUOUS
 62
       3
100
AcDbLine
 10
-97.21188194
 20
32.23416706
 30
0.0
 11
-97.02416111
 21
32.2136129
 31
0.0
  0
LINE
  5
1F5
100
AcDbEntity
  8
レイヤー_1
  6
CONTINUOUS
 62
       3
100
AcDbLine
 10
-97.02416111
 20
32.2136129
 30
0.0
 11
-96.83463914
 21
32.21090216
 31
0.0
  0
LINE
  5
1F6
100
AcDbEntity
  8
レイヤー_1
  6
CONTINUOUS
 62
       3
100
AcDbLine
 10
-96.83463914
 20
32.21090216
 30
0.0
 11
-96.64462341
 21
32.2263865
 31
0.0
  0
LINE
  5
1F7
100
AcDbEntity
  8
レイヤー_1
  6
CONTINUOUS
 62
       3
100
AcDbLine
 10
-96.64462341
 20
32.2263865
 30
0.0
 11
-96.45542131
 21
32.26041755
 31
0.0
  0
LINE
  5
1F8
100
AcDbEntity
  8
レイヤー_1
  6
CONTINUOUS
 62
       3
100
AcDbLine
 10
-96.45542131
 20
32.26041755
 30
0.0
 11
-96.2683402
 21
32.31334699
 31
0.0
  0
LINE
  5
1F9
100
AcDbEntity
  8
レイヤー_1
  6
CONTINUOUS
 62
       3
100
AcDbLine
 10
-96.2683402
 20
32.31334699
 30
0.0
 11
-96.08468748
 21
32.38552646
 31
0.0
  0
LINE
  5
1FA
100
AcDbEntity
  8
レイヤー_1
  6
CONTINUOUS
 62
       3
100
AcDbLine
 10
-96.08468748
 20
32.38552646
 30
0.0
 11
-95.90577052
 21
32.47730762
 31
0.0
  0
LINE
  5
1FB
100
AcDbEntity
  8
レイヤー_1
  6
CONTINUOUS
 62
       3
100
AcDbLine
 10
-64.47030775
 20
11.73989985
 30
0.0
 11
-64.22890286
 21
11.89565639
 31
0.0
  0
LINE
  5
1FC
100
AcDbEntity
  8
レイヤー_1
  6
CONTINUOUS
 62
       3
100
AcDbLine
 10
-64.22890286
 20
11.89565639
 30
0.0
 11
-64.00836525
 21
12.07127461
 31
0.0
  0
LINE
  5
1FD
100
AcDbEntity
  8
レイヤー_1
  6
CONTINUOUS
 62
       3
100
AcDbLine
 10
-64.00836525
 20
12.07127461
 30
0.0
 11
-63.80919398
 21
12.26488595
 31
0.0
  0
LINE
  5
1FE
100
AcDbEntity
  8
レイヤー_1
  6
CONTINUOUS
 62
       3
100
AcDbLine
 10
-63.80919398
 20
12.26488595
 30
0.0
 11
-63.6318881
 21
12.47462182
 31
0.0
  0
LINE
  5
1FF
100
AcDbEntity
  8
レイヤー_1
  6
CONTINUOUS
 62
       3
100
AcDbLine
 10
-63.6318881
 20
12.47462182
 30
0.0
 11
-63.47694669
 21
12.69861363
 31
0.0
  0
LINE
  5
200
100
AcDbEntity
  8
レイヤー_1
  6
CONTINUOUS
 62
       3
100
AcDbLine
 10
-63.47694669
 20
12.69861363
 30
0.0
 11
-63.34486879
 21
12.93499281
 31
0.0
  0
LINE
  5
201
100
AcDbEntity
  8
レイヤー_1
  6
CONTINUOUS
 62
       3
100
AcDbLine
 10
-63.34486879
 20
12.93499281
 30
0.0
 11
-63.23615347
 21
13.18189078
 31
0.0
  0
LINE
  5
202
100
AcDbEntity
  8
レイヤー_1
  6
CONTINUOUS
 62
       3
100
AcDbLine
 10
-63.23615347
 20
13.18189078
 30
0.0
 11
-63.15129978
 21
13.43743894
 31
0.0
  0
LINE
  5
203
100
AcDbEntity
  8
レイヤー_1
  6
CONTINUOUS
 62
       3
100
AcDbLine
 10
-63.15129978
 20
13.43743894
 30
0.0
 11
-63.09080678
 21
13.69976873
 31
0.0
  0
LINE
  5
204
100
AcDbEntity
  8
レイヤー_1
  6
CONTINUOUS
 62
       3
100
AcDbLine
 10
-63.09080678
 20
13.69976873
 30
0.0
 11
-63.05517354
 21
13.96701155
 31
0.0
  0
LINE
  5
205
100
AcDbEntity
  8
レイヤー_1
  6
CONTINUOUS
 62
       3
100
AcDbLine
 10
-63.05517354
 20
13.96701155
 30
0.0
 11
-63.04489912
 21
14.23729882
 31
0.0
  0
LINE
  5
206
100
AcDbEntity
  8
レイヤー_1
  6
CONTINUOUS
 62
       3
100
AcDbLine
 10
-63.04489912
 20
14.23729882
 30
0.0
 11
-63.06048256
 21
14.50876197
 31
0.0
  0
LINE
  5
207
100
AcDbEntity
  8
レイヤー_1
  6
CONTINUOUS
 62
       3
100
AcDbLine
 10
-63.06048256
 20
14.50876197
 30
0.0
 11
-63.10242294
 21
14.77953241
 31
0.0
  0
LINE
  5
208
100
AcDbEntity
  8
レイヤー_1
  6
CONTINUOUS
 62
       3
100
AcDbLine
 10
-63.10242294
 20
14.77953241
 30
0.0
 11
-63.17121931
 21
15.04774155
 31
0.0
  0
LINE
  5
209
100
AcDbEntity
  8
レイヤー_1
  6
CONTINUOUS
 62
       3
100
AcDbLine
 10
-63.17121931
 20
15.04774155
 30
0.0
 11
-63.26737073
 21
15.31152082
 31
0.0
  0
LINE
  5
20A
100
AcDbEntity
  8
レイヤー_1
  6
CONTINUOUS
 62
       3
100
AcDbLine
 10
-63.26737073
 20
15.31152082
 30
0.0
 11
-63.39137625
 21
15.56900164
 31
0.0
  0
LINE
  5
20B
100
AcDbEntity
  8
レイヤー_1
  6
CONTINUOUS
 62
       3
100
AcDbLine
 10
-63.39137625
 20
15.56900164
 30
0.0
 11
-63.5418052
 21
15.81507025
 31
0.0
  0
LINE
  5
20C
100
AcDbEntity
  8
レイヤー_1
  6
CONTINUOUS
 62
       3
100
AcDbLine
 10
-63.5418052
 20
15.81507025
 30
0.0
 11
-63.71278723
 21
16.04077163
 31
0.0
  0
LINE
  5
20D
100
AcDbEntity
  8
レイヤー_1
  6
CONTINUOUS
 62
       3
100
AcDbLine
 10
-63.71278723
 20
16.04077163
 30
0.0
 11
-63.90220326
 21
16.24525071
 31
0.0
  0
LINE
  5
20E
100
AcDbEntity
  8
レイヤー_1
  6
CONTINUOUS
 62
       3
100
AcDbLine
 10
-63.90220326
 20
16.24525071
 30
0.0
 11
-64.1081876
 21
16.42800602
 31
0.0
  0
LINE
  5
20F
100
AcDbEntity
  8
レイヤー_1
  6
CONTINUOUS
 62
       3
100
AcDbLine
 10
-64.1081876
 20
16.42800602
 30
0.0
 11
-64.32887456
 21
16.58853609
 31
0.0
  0
LINE
  5
210
100
AcDbEntity
  8
レイヤー_1
  6
CONTINUOUS
 62
       3
100
AcDbLine
 10
-64.32887456
 20
16.58853609
 30
0.0
 11
-64.56239845
 21
16.72633944
 31
0.0
  0
LINE
  5
211
100
AcDbEntity
  8
レイヤー_1
  6
CONTINUOUS
 62
       3
100
AcDbLine
 10
-64.56239845
 20
16.72633944
 30
0.0
 11
-64.80689358
 21
16.84091462
 31
0.0
  0
LINE
  5
212
100
AcDbEntity
  8
レイヤー_1
  6
CONTINUOUS
 62
       3
100
AcDbLine
 10
-64.80689358
 20
16.84091462
 30
0.0
 11
-65.06049425
 21
16.93176016
 31
0.0
  0
LINE
  5
213
100
AcDbEntity
  8
レイヤー_1
  6
CONTINUOUS
 62
       3
100
AcDbLine
 10
-65.06049425
 20
16.93176016
 30
0.0
 11
-65.32133477
 21
16.99837459
 31
0.0
  0
LINE
  5
214
100
AcDbEntity
  8
レイヤー_1
  6
CONTINUOUS
 62
       3
100
AcDbLine
 10
-65.32133477
 20
16.99837459
 30
0.0
 11
-65.58754946
 21
17.04025643
 31
0.0
  0
LINE
  5
215
100
AcDbEntity
  8
レイヤー_1
  6
CONTINUOUS
 62
       3
100
AcDbLine
 10
-65.58754946
 20
17.04025643
 30
0.0
 11
-65.85727261
 21
17.05690422
 31
0.0
  0
LINE
  5
216
100
AcDbEntity
  8
レイヤー_1
  6
CONTINUOUS
 62
       3
100
AcDbLine
 10
-65.85727261
 20
17.05690422
 30
0.0
 11
-66.12863854
 21
17.0478165
 31
0.0
  0
LINE
  5
217
100
AcDbEntity
  8
レイヤー_1
  6
CONTINUOUS
 62
       3
100
AcDbLine
 10
-66.12863854
 20
17.0478165
 30
0.0
 11
-66.39978156
 21
17.0124918
 31
0.0
  0
LINE
  5
218
100
AcDbEntity
  8
レイヤー_1
  6
CONTINUOUS
 62
       3
100
AcDbLine
 10
-66.39978156
 20
17.0124918
 30
0.0
 11
-66.66883597
 21
16.95042864
 31
0.0
  0
LINE
  5
219
100
AcDbEntity
  8
レイヤー_1
  6
CONTINUOUS
 62
       3
100
AcDbLine
 10
-66.66883597
 20
16.95042864
 30
0.0
 11
-66.93393608
 21
16.86112556
 31
0.0
  0
LINE
  5
21A
100
AcDbEntity
  8
レイヤー_1
  6
CONTINUOUS
 62
       3
100
AcDbLine
 10
-66.93393608
 20
16.86112556
 30
0.0
 11
-67.1932162
 21
16.7440811
 31
0.0
  0
LINE
  5
21B
100
AcDbEntity
  8
レイヤー_1
  6
CONTINUOUS
 62
       3
100
AcDbLine
 10
-67.1932162
 20
16.7440811
 30
0.0
 11
-67.44336943
 21
16.59966061
 31
0.0
  0
LINE
  5
21C
100
AcDbEntity
  8
レイヤー_1
  6
CONTINUOUS
 62
       3
100
AcDbLine
 10
-67.44336943
 20
16.59966061
 30
0.0
 11
-67.67439549
 21
16.43364194
 31
0.0
  0
LINE
  5
21D
100
AcDbEntity
  8
レイヤー_1
  6
CONTINUOUS
 62
       3
100
AcDbLine
 10
-67.67439549
 20
16.43364194
 30
0.0
 11
-67.88429764
 21
16.24872212
 31
0.0
  0
LINE
  5
21E
100
AcDbEntity
  8
レイヤー_1
  6
CONTINUOUS
 62
       3
100
AcDbLine
 10
-67.88429764
 20
16.24872212
 30
0.0
 11
-68.0725773
 21
16.04676636
 31
0.0
  0
LINE
  5
21F
100
AcDbEntity
  8
レイヤー_1
  6
CONTINUOUS
 62
       3
100
AcDbLine
 10
-68.0725773
 20
16.04676636
 30
0.0
 11
-68.23873589
 21
15.82963987
 31
0.0
  0
LINE
  5
220
100
AcDbEntity
  8
レイヤー_1
  6
CONTINUOUS
 62
       3
100
AcDbLine
 10
-68.23873589
 20
15.82963987
 30
0.0
 11
-68.38227483
 21
15.59920787
 31
0.0
  0
LINE
  5
221
100
AcDbEntity
  8
レイヤー_1
  6
CONTINUOUS
 62
       3
100
AcDbLine
 10
-68.38227483
 20
15.59920787
 30
0.0
 11
-68.50269555
 21
15.35733555
 31
0.0
  0
LINE
  5
222
100
AcDbEntity
  8
レイヤー_1
  6
CONTINUOUS
 62
       3
100
AcDbLine
 10
-68.50269555
 20
15.35733555
 30
0.0
 11
-68.59949947
 21
15.10588814
 31
0.0
  0
LINE
  5
223
100
AcDbEntity
  8
レイヤー_1
  6
CONTINUOUS
 62
       3
100
AcDbLine
 10
-68.59949947
 20
15.10588814
 30
0.0
 11
-68.672188
 21
14.84673084
 31
0.0
  0
LINE
  5
224
100
AcDbEntity
  8
レイヤー_1
  6
CONTINUOUS
 62
       3
100
AcDbLine
 10
-68.672188
 20
14.84673084
 30
0.0
 11
-68.72026258
 21
14.58172886
 31
0.0
  0
LINE
  5
225
100
AcDbEntity
  8
レイヤー_1
  6
CONTINUOUS
 62
       3
100
AcDbLine
 10
-68.72026258
 20
14.58172886
 30
0.0
 11
-68.74322462
 21
14.31274741
 31
0.0
  0
LINE
  5
226
100
AcDbEntity
  8
レイヤー_1
  6
CONTINUOUS
 62
       3
100
AcDbLine
 10
-68.74322462
 20
14.31274741
 30
0.0
 11
-68.74057555
 21
14.0416517
 31
0.0
  0
LINE
  5
227
100
AcDbEntity
  8
レイヤー_1
  6
CONTINUOUS
 62
       3
100
AcDbLine
 10
-68.74057555
 20
14.0416517
 30
0.0
 11
-68.71181679
 21
13.77030694
 31
0.0
  0
LINE
  5
228
100
AcDbEntity
  8
レイヤー_1
  6
CONTINUOUS
 62
       3
100
AcDbLine
 10
-68.71181679
 20
13.77030694
 30
0.0
 11
-68.65644976
 21
13.50057835
 31
0.0
  0
LINE
  5
229
100
AcDbEntity
  8
レイヤー_1
  6
CONTINUOUS
 62
       3
100
AcDbLine
 10
-68.65644976
 20
13.50057835
 30
0.0
 11
-68.57397589
 21
13.23433113
 31
0.0
  0
LINE
  5
22A
100
AcDbEntity
  8
レイヤー_1
  6
CONTINUOUS
 62
       3
100
AcDbLine
 10
-68.57397589
 20
13.23433113
 30
0.0
 11
-68.46389659
 21
12.97343049
 31
0.0
  0
LINE
  5
22B
100
AcDbEntity
  8
レイヤー_1
  6
CONTINUOUS
 62
       3
100
AcDbLine
 10
-68.46389659
 20
12.97343049
 30
0.0
 11
-68.32593081
 21
12.72015224
 31
0.0
  0
LINE
  5
22C
100
AcDbEntity
  8
レイヤー_1
  6
CONTINUOUS
 62
       3
100
AcDbLine
 10
-68.32593081
 20
12.72015224
 30
0.0
 11
-68.16498119
 21
12.48408564
 31
0.0
  0
LINE
  5
22D
100
AcDbEntity
  8
レイヤー_1
  6
CONTINUOUS
 62
       3
100
AcDbLine
 10
-68.16498119
 20
12.48408564
 30
0.0
 11
-67.98465027
 21
12.26898339
 31
0.0
  0
LINE
  5
22E
100
AcDbEntity
  8
レイヤー_1
  6
CONTINUOUS
 62
       3
100
AcDbLine
 10
-67.98465027
 20
12.26898339
 30
0.0
 11
-67.78680471
 21
12.07534742
 31
0.0
  0
LINE
  5
22F
100
AcDbEntity
  8
レイヤー_1
  6
CONTINUOUS
 62
       3
100
AcDbLine
 10
-67.78680471
 20
12.07534742
 30
0.0
 11
-67.57331115
 21
11.90367971
 31
0.0
  0
LINE
  5
230
100
AcDbEntity
  8
レイヤー_1
  6
CONTINUOUS
 62
       3
100
AcDbLine
 10
-67.57331115
 20
11.90367971
 30
0.0
 11
-67.34603626
 21
11.75448219
 31
0.0
  0
LINE
  5
231
100
AcDbEntity
  8
レイヤー_1
  6
CONTINUOUS
 62
       3
100
AcDbLine
 10
-67.34603626
 20
11.75448219
 30
0.0
 11
-67.10684669
 21
11.62825681
 31
0.0
  0
LINE
  5
232
100
AcDbEntity
  8
レイヤー_1
  6
CONTINUOUS
 62
       3
100
AcDbLine
 10
-67.10684669
 20
11.62825681
 30
0.0
 11
-66.8576091
 21
11.52550552
 31
0.0
  0
LINE
  5
233
100
AcDbEntity
  8
レイヤー_1
  6
CONTINUOUS
 62
       3
100
AcDbLine
 10
-66.8576091
 20
11.52550552
 30
0.0
 11
-66.60019013
 21
11.44673028
 31
0.0
  0
LINE
  5
234
100
AcDbEntity
  8
レイヤー_1
  6
CONTINUOUS
 62
       3
100
AcDbLine
 10
-66.60019013
 20
11.44673028
 30
0.0
 11
-66.33645645
 21
11.39243303
 31
0.0
  0
LINE
  5
235
100
AcDbEntity
  8
レイヤー_1
  6
CONTINUOUS
 62
       3
100
AcDbLine
 10
-66.33645645
 20
11.39243303
 30
0.0
 11
-66.06827472
 21
11.36311573
 31
0.0
  0
LINE
  5
236
100
AcDbEntity
  8
レイヤー_1
  6
CONTINUOUS
 62
       3
100
AcDbLine
 10
-66.06827472
 20
11.36311573
 30
0.0
 11
-65.79751157
 21
11.35928031
 31
0.0
  0
LINE
  5
237
100
AcDbEntity
  8
レイヤー_1
  6
CONTINUOUS
 62
       3
100
AcDbLine
 10
-65.79751157
 20
11.35928031
 30
0.0
 11
-65.52603368
 21
11.38142874
 31
0.0
  0
LINE
  5
238
100
AcDbEntity
  8
レイヤー_1
  6
CONTINUOUS
 62
       3
100
AcDbLine
 10
-65.52603368
 20
11.38142874
 30
0.0
 11
-65.2557077
 21
11.43006296
 31
0.0
  0
LINE
  5
239
100
AcDbEntity
  8
レイヤー_1
  6
CONTINUOUS
 62
       3
100
AcDbLine
 10
-65.2557077
 20
11.43006296
 30
0.0
 11
-64.98840028
 21
11.50568492
 31
0.0
  0
LINE
  5
23A
100
AcDbEntity
  8
レイヤー_1
  6
CONTINUOUS
 62
       3
100
AcDbLine
 10
-64.98840028
 20
11.50568492
 30
0.0
 11
-64.72597808
 21
11.60879657
 31
0.0
  0
LINE
  5
23B
100
AcDbEntity
  8
レイヤー_1
  6
CONTINUOUS
 62
       3
100
AcDbLine
 10
-64.72597808
 20
11.60879657
 30
0.0
 11
-64.47030775
 21
11.73989985
 31
0.0
  0
LINE
  5
23C
100
AcDbEntity
  8
レイヤー_1
  6
CONTINUOUS
 62
       3
100
AcDbLine
 10
-64.47030775
 20
21.73756695
 30
0.0
 11
-64.22890286
 21
21.89332332
 31
0.0
  0
LINE
  5
23D
100
AcDbEntity
  8
レイヤー_1
  6
CONTINUOUS
 62
       3
100
AcDbLine
 10
-64.22890286
 20
21.89332332
 30
0.0
 11
-64.00836525
 21
22.06894043
 31
0.0
  0
LINE
  5
23E
100
AcDbEntity
  8
レイヤー_1
  6
CONTINUOUS
 62
       3
100
AcDbLine
 10
-64.00836525
 20
22.06894043
 30
0.0
 11
-63.80919398
 21
22.26254871
 31
0.0
  0
LINE
  5
23F
100
AcDbEntity
  8
レイヤー_1
  6
CONTINUOUS
 62
       3
100
AcDbLine
 10
-63.80919398
 20
22.26254871
 30
0.0
 11
-63.6318881
 21
22.47227864
 31
0.0
  0
LINE
  5
240
100
AcDbEntity
  8
レイヤー_1
  6
CONTINUOUS
 62
       3
100
AcDbLine
 10
-63.6318881
 20
22.47227864
 30
0.0
 11
-63.47694669
 21
22.69626066
 31
0.0
  0
LINE
  5
241
100
AcDbEntity
  8
レイヤー_1
  6
CONTINUOUS
 62
       3
100
AcDbLine
 10
-63.47694669
 20
22.69626066
 30
0.0
 11
-63.34486879
 21
22.93262523
 31
0.0
  0
LINE
  5
242
100
AcDbEntity
  8
レイヤー_1
  6
CONTINUOUS
 62
       3
100
AcDbLine
 10
-63.34486879
 20
22.93262523
 30
0.0
 11
-63.23615347
 21
23.1795028
 31
0.0
  0
LINE
  5
243
100
AcDbEntity
  8
レイヤー_1
  6
CONTINUOUS
 62
       3
100
AcDbLine
 10
-63.23615347
 20
23.1795028
 30
0.0
 11
-63.15129978
 21
23.43502383
 31
0.0
  0
LINE
  5
244
100
AcDbEntity
  8
レイヤー_1
  6
CONTINUOUS
 62
       3
100
AcDbLine
 10
-63.15129978
 20
23.43502383
 30
0.0
 11
-63.09080678
 21
23.69731877
 31
0.0
  0
LINE
  5
245
100
AcDbEntity
  8
レイヤー_1
  6
CONTINUOUS
 62
       3
100
AcDbLine
 10
-63.09080678
 20
23.69731877
 30
0.0
 11
-63.05517354
 21
23.96451807
 31
0.0
  0
LINE
  5
246
100
AcDbEntity
  8
レイヤー_1
  6
CONTINUOUS
 62
       3
100
AcDbLine
 10
-63.05517354
 20
23.96451807
 30
0.0
 11
-63.04489912
 21
24.2347522
 31
0.0
  0
LINE
  5
247
100
AcDbEntity
  8
レイヤー_1
  6
CONTINUOUS
 62
       3
100
AcDbLine
 10
-63.04489912
 20
24.2347522
 30
0.0
 11
-63.06048256
 21
24.5061516
 31
0.0
  0
LINE
  5
248
100
AcDbEntity
  8
レイヤー_1
  6
CONTINUOUS
 62
       3
100
AcDbLine
 10
-63.06048256
 20
24.5061516
 30
0.0
 11
-63.10242294
 21
24.77684673
 31
0.0
  0
LINE
  5
249
100
AcDbEntity
  8
レイヤー_1
  6
CONTINUOUS
 62
       3
100
AcDbLine
 10
-63.10242294
 20
24.77684673
 30
0.0
 11
-63.17121931
 21
25.04496804
 31
0.0
  0
LINE
  5
24A
100
AcDbEntity
  8
レイヤー_1
  6
CONTINUOUS
 62
       3
100
AcDbLine
 10
-63.17121931
 20
25.04496804
 30
0.0
 11
-63.26737073
 21
25.30864599
 31
0.0
  0
LINE
  5
24B
100
AcDbEntity
  8
レイヤー_1
  6
CONTINUOUS
 62
       3
100
AcDbLine
 10
-63.26737073
 20
25.30864599
 30
0.0
 11
-63.39137625
 21
25.56601103
 31
0.0
  0
LINE
  5
24C
100
AcDbEntity
  8
レイヤー_1
  6
CONTINUOUS
 62
       3
100
AcDbLine
 10
-63.39137625
 20
25.56601103
 30
0.0
 11
-63.5418052
 21
25.81213933
 31
0.0
  0
LINE
  5
24D
100
AcDbEntity
  8
レイヤー_1
  6
CONTINUOUS
 62
       3
100
AcDbLine
 10
-63.5418052
 20
25.81213933
 30
0.0
 11
-63.71278723
 21
26.03794834
 31
0.0
  0
LINE
  5
24E
100
AcDbEntity
  8
レイヤー_1
  6
CONTINUOUS
 62
       3
100
AcDbLine
 10
-63.71278723
 20
26.03794834
 30
0.0
 11
-63.90220326
 21
26.2425194
 31
0.0
  0
LINE
  5
24F
100
AcDbEntity
  8
レイヤー_1
  6
CONTINUOUS
 62
       3
100
AcDbLine
 10
-63.90220326
 20
26.2425194
 30
0.0
 11
-64.1081876
 21
26.42535103
 31
0.0
  0
LINE
  5
250
100
AcDbEntity
  8
レイヤー_1
  6
CONTINUOUS
 62
       3
100
AcDbLine
 10
-64.1081876
 20
26.42535103
 30
0.0
 11
-64.32887456
 21
26.58594176
 31
0.0
  0
LINE
  5
251
100
AcDbEntity
  8
レイヤー_1
  6
CONTINUOUS
 62
       3
100
AcDbLine
 10
-64.32887456
 20
26.58594176
 30
0.0
 11
-64.56239845
 21
26.72379013
 31
0.0
  0
LINE
  5
252
100
AcDbEntity
  8
レイヤー_1
  6
CONTINUOUS
 62
       3
100
AcDbLine
 10
-64.56239845
 20
26.72379013
 30
0.0
 11
-64.80689358
 21
26.83839467
 31
0.0
  0
LINE
  5
253
100
AcDbEntity
  8
レイヤー_1
  6
CONTINUOUS
 62
       3
100
AcDbLine
 10
-64.80689358
 20
26.83839467
 30
0.0
 11
-65.06049425
 21
26.9292539
 31
0.0
  0
LINE
  5
254
100
AcDbEntity
  8
レイヤー_1
  6
CONTINUOUS
 62
       3
100
AcDbLine
 10
-65.06049425
 20
26.9292539
 30
0.0
 11
-65.32133477
 21
26.99586637
 31
0.0
  0
LINE
  5
255
100
AcDbEntity
  8
レイヤー_1
  6
CONTINUOUS
 62
       3
100
AcDbLine
 10
-65.32133477
 20
26.99586637
 30
0.0
 11
-65.58754946
 21
27.0377306
 31
0.0
  0
LINE
  5
256
100
AcDbEntity
  8
レイヤー_1
  6
CONTINUOUS
 62
       3
100
AcDbLine
 10
-65.58754946
 20
27.0377306
 30
0.0
 11
-65.85727261
 21
27.05434513
 31
0.0
  0
LINE
  5
257
100
AcDbEntity
  8
レイヤー_1
  6
CONTINUOUS
 62
       3
100
AcDbLine
 10
-65.85727261
 20
27.05434513
 30
0.0
 11
-66.12863854
 21
27.04520848
 31
0.0
  0
LINE
  5
258
100
AcDbEntity
  8
レイヤー_1
  6
CONTINUOUS
 62
       3
100
AcDbLine
 10
-66.12863854
 20
27.04520848
 30
0.0
 11
-66.39978156
 21
27.0098192
 31
0.0
  0
LINE
  5
259
100
AcDbEntity
  8
レイヤー_1
  6
CONTINUOUS
 62
       3
100
AcDbLine
 10
-66.39978156
 20
27.0098192
 30
0.0
 11
-66.66883597
 21
26.9476758
 31
0.0
  0
LINE
  5
25A
100
AcDbEntity
  8
レイヤー_1
  6
CONTINUOUS
 62
       3
100
AcDbLine
 10
-66.66883597
 20
26.9476758
 30
0.0
 11
-66.93393608
 21
26.85827684
 31
0.0
  0
LINE
  5
25B
100
AcDbEntity
  8
レイヤー_1
  6
CONTINUOUS
 62
       3
100
AcDbLine
 10
-66.93393608
 20
26.85827684
 30
0.0
 11
-67.1932162
 21
26.74112082
 31
0.0
  0
LINE
  5
25C
100
AcDbEntity
  8
レイヤー_1
  6
CONTINUOUS
 62
       3
100
AcDbLine
 10
-67.1932162
 20
26.74112082
 30
0.0
 11
-67.44336943
 21
26.59669847
 31
0.0
  0
LINE
  5
25D
100
AcDbEntity
  8
レイヤー_1
  6
CONTINUOUS
 62
       3
100
AcDbLine
 10
-67.44336943
 20
26.59669847
 30
0.0
 11
-67.67439549
 21
26.43077804
 31
0.0
  0
LINE
  5
25E
100
AcDbEntity
  8
レイヤー_1
  6
CONTINUOUS
 62
       3
100
AcDbLine
 10
-67.67439549
 20
26.43077804
 30
0.0
 11
-67.88429764
 21
26.24593165
 31
0.0
  0
LINE
  5
25F
100
AcDbEntity
  8
レイヤー_1
  6
CONTINUOUS
 62
       3
100
AcDbLine
 10
-67.88429764
 20
26.24593165
 30
0.0
 11
-68.0725773
 21
26.04402885
 31
0.0
  0
LINE
  5
260
100
AcDbEntity
  8
レイヤー_1
  6
CONTINUOUS
 62
       3
100
AcDbLine
 10
-68.0725773
 20
26.04402885
 30
0.0
 11
-68.23873589
 21
25.82693918
 31
0.0
  0
LINE
  5
261
100
AcDbEntity
  8
レイヤー_1
  6
CONTINUOUS
 62
       3
100
AcDbLine
 10
-68.23873589
 20
25.82693918
 30
0.0
 11
-68.38227483
 21
25.5965322
 31
0.0
  0
LINE
  5
262
100
AcDbEntity
  8
レイヤー_1
  6
CONTINUOUS
 62
       3
100
AcDbLine
 10
-68.38227483
 20
25.5965322
 30
0.0
 11
-68.50269555
 21
25.35467743
 31
0.0
  0
LINE
  5
263
100
AcDbEntity
  8
レイヤー_1
  6
CONTINUOUS
 62
       3
100
AcDbLine
 10
-68.50269555
 20
25.35467743
 30
0.0
 11
-68.59949947
 21
25.10324444
 31
0.0
  0
LINE
  5
264
100
AcDbEntity
  8
レイヤー_1
  6
CONTINUOUS
 62
       3
100
AcDbLine
 10
-68.59949947
 20
25.10324444
 30
0.0
 11
-68.672188
 21
24.84410276
 31
0.0
  0
LINE
  5
265
100
AcDbEntity
  8
レイヤー_1
  6
CONTINUOUS
 62
       3
100
AcDbLine
 10
-68.672188
 20
24.84410276
 30
0.0
 11
-68.72026258
 21
24.57912195
 31
0.0
  0
LINE
  5
266
100
AcDbEntity
  8
レイヤー_1
  6
CONTINUOUS
 62
       3
100
AcDbLine
 10
-68.72026258
 20
24.57912195
 30
0.0
 11
-68.74322462
 21
24.31017154
 31
0.0
  0
LINE
  5
267
100
AcDbEntity
  8
レイヤー_1
  6
CONTINUOUS
 62
       3
100
AcDbLine
 10
-68.74322462
 20
24.31017154
 30
0.0
 11
-68.74057555
 21
24.03912108
 31
0.0
  0
LINE
  5
268
100
AcDbEntity
  8
レイヤー_1
  6
CONTINUOUS
 62
       3
100
AcDbLine
 10
-68.74057555
 20
24.03912108
 30
0.0
 11
-68.71181679
 21
23.76784013
 31
0.0
  0
LINE
  5
269
100
AcDbEntity
  8
レイヤー_1
  6
CONTINUOUS
 62
       3
100
AcDbLine
 10
-68.71181679
 20
23.76784013
 30
0.0
 11
-68.65644976
 21
23.49819821
 31
0.0
  0
LINE
  5
26A
100
AcDbEntity
  8
レイヤー_1
  6
CONTINUOUS
 62
       3
100
AcDbLine
 10
-68.65644976
 20
23.49819821
 30
0.0
 11
-68.57397589
 21
23.23206489
 31
0.0
  0
LINE
  5
26B
100
AcDbEntity
  8
レイヤー_1
  6
CONTINUOUS
 62
       3
100
AcDbLine
 10
-68.57397589
 20
23.23206489
 30
0.0
 11
-68.46389659
 21
22.9713097
 31
0.0
  0
LINE
  5
26C
100
AcDbEntity
  8
レイヤー_1
  6
CONTINUOUS
 62
       3
100
AcDbLine
 10
-68.46389659
 20
22.9713097
 30
0.0
 11
-68.32593081
 21
22.71811736
 31
0.0
  0
LINE
  5
26D
100
AcDbEntity
  8
レイヤー_1
  6
CONTINUOUS
 62
       3
100
AcDbLine
 10
-68.32593081
 20
22.71811736
 30
0.0
 11
-68.16498119
 21
22.48188822
 31
0.0
  0
LINE
  5
26E
100
AcDbEntity
  8
レイヤー_1
  6
CONTINUOUS
 62
       3
100
AcDbLine
 10
-68.16498119
 20
22.48188822
 30
0.0
 11
-67.98465027
 21
22.26665835
 31
0.0
  0
LINE
  5
26F
100
AcDbEntity
  8
レイヤー_1
  6
CONTINUOUS
 62
       3
100
AcDbLine
 10
-67.98465027
 20
22.26665835
 30
0.0
 11
-67.78680471
 21
22.07292633
 31
0.0
  0
LINE
  5
270
100
AcDbEntity
  8
レイヤー_1
  6
CONTINUOUS
 62
       3
100
AcDbLine
 10
-67.78680471
 20
22.07292633
 30
0.0
 11
-67.57331115
 21
21.90119073
 31
0.0
  0
LINE
  5
271
100
AcDbEntity
  8
レイヤー_1
  6
CONTINUOUS
 62
       3
100
AcDbLine
 10
-67.57331115
 20
21.90119073
 30
0.0
 11
-67.34603626
 21
21.75195013
 31
0.0
  0
LINE
  5
272
100
AcDbEntity
  8
レイヤー_1
  6
CONTINUOUS
 62
       3
100
AcDbLine
 10
-67.34603626
 20
21.75195013
 30
0.0
 11
-67.10684669
 21
21.62570312
 31
0.0
  0
LINE
  5
273
100
AcDbEntity
  8
レイヤー_1
  6
CONTINUOUS
 62
       3
100
AcDbLine
 10
-67.10684669
 20
21.62570312
 30
0.0
 11
-66.8576091
 21
21.52294826
 31
0.0
  0
LINE
  5
274
100
AcDbEntity
  8
レイヤー_1
  6
CONTINUOUS
 62
       3
100
AcDbLine
 10
-66.8576091
 20
21.52294826
 30
0.0
 11
-66.60019013
 21
21.44418414
 31
0.0
  0
LINE
  5
275
100
AcDbEntity
  8
レイヤー_1
  6
CONTINUOUS
 62
       3
100
AcDbLine
 10
-66.60019013
 20
21.44418414
 30
0.0
 11
-66.33645645
 21
21.38990933
 31
0.0
  0
LINE
  5
276
100
AcDbEntity
  8
レイヤー_1
  6
CONTINUOUS
 62
       3
100
AcDbLine
 10
-66.33645645
 20
21.38990933
 30
0.0
 11
-66.06827472
 21
21.36062241
 31
0.0
  0
LINE
  5
277
100
AcDbEntity
  8
レイヤー_1
  6
CONTINUOUS
 62
       3
100
AcDbLine
 10
-66.06827472
 20
21.36062241
 30
0.0
 11
-65.79751157
 21
21.35682196
 31
0.0
  0
LINE
  5
278
100
AcDbEntity
  8
レイヤー_1
  6
CONTINUOUS
 62
       3
100
AcDbLine
 10
-65.79751157
 20
21.35682196
 30
0.0
 11
-65.52603368
 21
21.37900656
 31
0.0
  0
LINE
  5
279
100
AcDbEntity
  8
レイヤー_1
  6
CONTINUOUS
 62
       3
100
AcDbLine
 10
-65.52603368
 20
21.37900656
 30
0.0
 11
-65.2557077
 21
21.42767478
 31
0.0
  0
LINE
  5
27A
100
AcDbEntity
  8
レイヤー_1
  6
CONTINUOUS
 62
       3
100
AcDbLine
 10
-65.2557077
 20
21.42767478
 30
0.0
 11
-64.98840028
 21
21.5033252
 31
0.0
  0
LINE
  5
27B
100
AcDbEntity
  8
レイヤー_1
  6
CONTINUOUS
 62
       3
100
AcDbLine
 10
-64.98840028
 20
21.5033252
 30
0.0
 11
-64.72597808
 21
21.6064564
 31
0.0
  0
LINE
  5
27C
100
AcDbEntity
  8
レイヤー_1
  6
CONTINUOUS
 62
       3
100
AcDbLine
 10
-64.72597808
 20
21.6064564
 30
0.0
 11
-64.47030775
 21
21.73756695
 31
0.0
  0
LINE
  5
27D
100
AcDbEntity
  8
レイヤー_1
  6
CONTINUOUS
 62
       3
100
AcDbLine
 10
-64.90921291
 20
2.48499534
 30
0.0
 11
-64.74027772
 21
2.59395803
 31
0.0
  0
LINE
  5
27E
100
AcDbEntity
  8
レイヤー_1
  6
CONTINUOUS
 62
       3
100
AcDbLine
 10
-64.74027772
 20
2.59395803
 30
0.0
 11
-64.58593316
 21
2.71682983
 31
0.0
  0
LINE
  5
27F
100
AcDbEntity
  8
レイヤー_1
  6
CONTINUOUS
 62
       3
100
AcDbLine
 10
-64.58593316
 20
2.71682983
 30
0.0
 11
-64.44653086
 21
2.85230239
 31
0.0
  0
LINE
  5
280
100
AcDbEntity
  8
レイヤー_1
  6
CONTINUOUS
 62
       3
100
AcDbLine
 10
-64.44653086
 20
2.85230239
 30
0.0
 11
-64.3224225
 21
2.99906737
 31
0.0
  0
LINE
  5
281
100
AcDbEntity
  8
レイヤー_1
  6
CONTINUOUS
 62
       3
100
AcDbLine
 10
-64.3224225
 20
2.99906737
 30
0.0
 11
-64.21395971
 21
3.15581643
 31
0.0
  0
LINE
  5
282
100
AcDbEntity
  8
レイヤー_1
  6
CONTINUOUS
 62
       3
100
AcDbLine
 10
-64.21395971
 20
3.15581643
 30
0.0
 11
-64.12149417
 21
3.32124123
 31
0.0
  0
LINE
  5
283
100
AcDbEntity
  8
レイヤー_1
  6
CONTINUOUS
 62
       3
100
AcDbLine
 10
-64.12149417
 20
3.32124123
 30
0.0
 11
-64.04537751
 21
3.49403341
 31
0.0
  0
LINE
  5
284
100
AcDbEntity
  8
レイヤー_1
  6
CONTINUOUS
 62
       3
100
AcDbLine
 10
-64.04537751
 20
3.49403341
 30
0.0
 11
-63.98596139
 21
3.67288463
 31
0.0
  0
LINE
  5
285
100
AcDbEntity
  8
レイヤー_1
  6
CONTINUOUS
 62
       3
100
AcDbLine
 10
-63.98596139
 20
3.67288463
 30
0.0
 11
-63.94359748
 21
3.85648655
 31
0.0
  0
LINE
  5
286
100
AcDbEntity
  8
レイヤー_1
  6
CONTINUOUS
 62
       3
100
AcDbLine
 10
-63.94359748
 20
3.85648655
 30
0.0
 11
-63.91863741
 21
4.04353082
 31
0.0
  0
LINE
  5
287
100
AcDbEntity
  8
レイヤー_1
  6
CONTINUOUS
 62
       3
100
AcDbLine
 10
-63.91863741
 20
4.04353082
 30
0.0
 11
-63.91143285
 21
4.23270911
 31
0.0
  0
LINE
  5
288
100
AcDbEntity
  8
レイヤー_1
  6
CONTINUOUS
 62
       3
100
AcDbLine
 10
-63.91143285
 20
4.23270911
 30
0.0
 11
-63.92233544
 21
4.42271305
 31
0.0
  0
LINE
  5
289
100
AcDbEntity
  8
レイヤー_1
  6
CONTINUOUS
 62
       3
100
AcDbLine
 10
-63.92233544
 20
4.42271305
 30
0.0
 11
-63.95169685
 21
4.61223432
 31
0.0
  0
LINE
  5
28A
100
AcDbEntity
  8
レイヤー_1
  6
CONTINUOUS
 62
       3
100
AcDbLine
 10
-63.95169685
 20
4.61223432
 30
0.0
 11
-63.99986873
 21
4.79996456
 31
0.0
  0
LINE
  5
28B
100
AcDbEntity
  8
レイヤー_1
  6
CONTINUOUS
 62
       3
100
AcDbLine
 10
-63.99986873
 20
4.79996456
 30
0.0
 11
-64.06720272
 21
4.98459543
 31
0.0
  0
LINE
  5
28C
100
AcDbEntity
  8
レイヤー_1
  6
CONTINUOUS
 62
       3
100
AcDbLine
 10
-64.06720272
 20
4.98459543
 30
0.0
 11
-64.15405049
 21
5.16481858
 31
0.0
  0
LINE
  5
28D
100
AcDbEntity
  8
レイヤー_1
  6
CONTINUOUS
 62
       3
100
AcDbLine
 10
-64.15405049
 20
5.16481858
 30
0.0
 11
-64.2593562
 21
5.33708787
 31
0.0
  0
LINE
  5
28E
100
AcDbEntity
  8
レイヤー_1
  6
CONTINUOUS
 62
       3
100
AcDbLine
 10
-64.2593562
 20
5.33708787
 30
0.0
 11
-64.37903601
 21
5.49511306
 31
0.0
  0
LINE
  5
28F
100
AcDbEntity
  8
レイヤー_1
  6
CONTINUOUS
 62
       3
100
AcDbLine
 10
-64.37903601
 20
5.49511306
 30
0.0
 11
-64.51162273
 21
5.63828389
 31
0.0
  0
LINE
  5
290
100
AcDbEntity
  8
レイヤー_1
  6
CONTINUOUS
 62
       3
100
AcDbLine
 10
-64.51162273
 20
5.63828389
 30
0.0
 11
-64.65580944
 21
5.7662487
 31
0.0
  0
LINE
  5
291
100
AcDbEntity
  8
レイヤー_1
  6
CONTINUOUS
 62
       3
100
AcDbLine
 10
-64.65580944
 20
5.7662487
 30
0.0
 11
-64.81028925
 21
5.87865585
 31
0.0
  0
LINE
  5
292
100
AcDbEntity
  8
レイヤー_1
  6
CONTINUOUS
 62
       3
100
AcDbLine
 10
-64.81028925
 20
5.87865585
 30
0.0
 11
-64.97375526
 21
5.97515367
 31
0.0
  0
LINE
  5
293
100
AcDbEntity
  8
レイヤー_1
  6
CONTINUOUS
 62
       3
100
AcDbLine
 10
-64.97375526
 20
5.97515367
 30
0.0
 11
-65.14490057
 21
6.05539052
 31
0.0
  0
LINE
  5
294
100
AcDbEntity
  8
レイヤー_1
  6
CONTINUOUS
 62
       3
100
AcDbLine
 10
-65.14490057
 20
6.05539052
 30
0.0
 11
-65.32241828
 21
6.11901474
 31
0.0
  0
LINE
  5
295
100
AcDbEntity
  8
レイヤー_1
  6
CONTINUOUS
 62
       3
100
AcDbLine
 10
-65.32241828
 20
6.11901474
 30
0.0
 11
-65.50500148
 21
6.16567467
 31
0.0
  0
LINE
  5
296
100
AcDbEntity
  8
レイヤー_1
  6
CONTINUOUS
 62
       3
100
AcDbLine
 10
-65.50500148
 20
6.16567467
 30
0.0
 11
-65.69134329
 21
6.19501867
 31
0.0
  0
LINE
  5
297
100
AcDbEntity
  8
レイヤー_1
  6
CONTINUOUS
 62
       3
100
AcDbLine
 10
-65.69134329
 20
6.19501867
 30
0.0
 11
-65.8801368
 21
6.20669508
 31
0.0
  0
LINE
  5
298
100
AcDbEntity
  8
レイヤー_1
  6
CONTINUOUS
 62
       3
100
AcDbLine
 10
-65.8801368
 20
6.20669508
 30
0.0
 11
-66.07007512
 21
6.20035224
 31
0.0
  0
LINE
  5
299
100
AcDbEntity
  8
レイヤー_1
  6
CONTINUOUS
 62
       3
100
AcDbLine
 10
-66.07007512
 20
6.20035224
 30
0.0
 11
-66.25985133
 21
6.1756385
 31
0.0
  0
LINE
  5
29A
100
AcDbEntity
  8
レイヤー_1
  6
CONTINUOUS
 62
       3
100
AcDbLine
 10
-66.25985133
 20
6.1756385
 30
0.0
 11
-66.44815855
 21
6.13220221
 31
0.0
  0
LINE
  5
29B
100
AcDbEntity
  8
レイヤー_1
  6
CONTINUOUS
 62
       3
100
AcDbLine
 10
-66.44815855
 20
6.13220221
 30
0.0
 11
-66.63368987
 21
6.06969171
 31
0.0
  0
LINE
  5
29C
100
AcDbEntity
  8
レイヤー_1
  6
CONTINUOUS
 62
       3
100
AcDbLine
 10
-66.63368987
 20
6.06969171
 30
0.0
 11
-66.81513839
 21
5.98775535
 31
0.0
  0
LINE
  5
29D
100
AcDbEntity
  8
レイヤー_1
  6
CONTINUOUS
 62
       3
100
AcDbLine
 10
-66.81513839
 20
5.98775535
 30
0.0
 11
-66.99019263
 21
5.88664108
 31
0.0
  0
LINE
  5
29E
100
AcDbEntity
  8
レイヤー_1
  6
CONTINUOUS
 62
       3
100
AcDbLine
 10
-66.99019263
 20
5.88664108
 30
0.0
 11
-67.15187621
 21
5.77040707
 31
0.0
  0
LINE
  5
29F
100
AcDbEntity
  8
レイヤー_1
  6
CONTINUOUS
 62
       3
100
AcDbLine
 10
-67.15187621
 20
5.77040707
 30
0.0
 11
-67.29879261
 21
5.64095292
 31
0.0
  0
LINE
  5
2A0
100
AcDbEntity
  8
レイヤー_1
  6
CONTINUOUS
 62
       3
100
AcDbLine
 10
-67.29879261
 20
5.64095292
 30
0.0
 11
-67.43058971
 21
5.49958409
 31
0.0
  0
LINE
  5
2A1
100
AcDbEntity
  8
レイヤー_1
  6
CONTINUOUS
 62
       3
100
AcDbLine
 10
-67.43058971
 20
5.49958409
 30
0.0
 11
-67.54691537
 21
5.34760603
 31
0.0
  0
LINE
  5
2A2
100
AcDbEntity
  8
レイヤー_1
  6
CONTINUOUS
 62
       3
100
AcDbLine
 10
-67.54691537
 20
5.34760603
 30
0.0
 11
-67.64741745
 21
5.18632421
 31
0.0
  0
LINE
  5
2A3
100
AcDbEntity
  8
レイヤー_1
  6
CONTINUOUS
 62
       3
100
AcDbLine
 10
-67.64741745
 20
5.18632421
 30
0.0
 11
-67.73174381
 21
5.01704406
 31
0.0
  0
LINE
  5
2A4
100
AcDbEntity
  8
レイヤー_1
  6
CONTINUOUS
 62
       3
100
AcDbLine
 10
-67.73174381
 20
5.01704406
 30
0.0
 11
-67.79954234
 21
4.84107106
 31
0.0
  0
LINE
  5
2A5
100
AcDbEntity
  8
レイヤー_1
  6
CONTINUOUS
 62
       3
100
AcDbLine
 10
-67.79954234
 20
4.84107106
 30
0.0
 11
-67.85046087
 21
4.65971064
 31
0.0
  0
LINE
  5
2A6
100
AcDbEntity
  8
レイヤー_1
  6
CONTINUOUS
 62
       3
100
AcDbLine
 10
-67.85046087
 20
4.65971064
 30
0.0
 11
-67.88414729
 21
4.47426827
 31
0.0
  0
LINE
  5
2A7
100
AcDbEntity
  8
レイヤー_1
  6
CONTINUOUS
 62
       3
100
AcDbLine
 10
-67.88414729
 20
4.47426827
 30
0.0
 11
-67.90024946
 21
4.28604941
 31
0.0
  0
LINE
  5
2A8
100
AcDbEntity
  8
レイヤー_1
  6
CONTINUOUS
 62
       3
100
AcDbLine
 10
-67.90024946
 20
4.28604941
 30
0.0
 11
-67.89841523
 21
4.0963595
 31
0.0
  0
LINE
  5
2A9
100
AcDbEntity
  8
レイヤー_1
  6
CONTINUOUS
 62
       3
100
AcDbLine
 10
-67.89841523
 20
4.0963595
 30
0.0
 11
-67.87829248
 21
3.90650399
 31
0.0
  0
LINE
  5
2AA
100
AcDbEntity
  8
レイヤー_1
  6
CONTINUOUS
 62
       3
100
AcDbLine
 10
-67.87829248
 20
3.90650399
 30
0.0
 11
-67.83952907
 21
3.71778836
 31
0.0
  0
LINE
  5
2AB
100
AcDbEntity
  8
レイヤー_1
  6
CONTINUOUS
 62
       3
100
AcDbLine
 10
-67.83952907
 20
3.71778836
 30
0.0
 11
-67.78177287
 21
3.53151804
 31
0.0
  0
LINE
  5
2AC
100
AcDbEntity
  8
レイヤー_1
  6
CONTINUOUS
 62
       3
100
AcDbLine
 10
-67.78177287
 20
3.53151804
 30
0.0
 11
-67.70467173
 21
3.34899849
 31
0.0
  0
LINE
  5
2AD
100
AcDbEntity
  8
レイヤー_1
  6
CONTINUOUS
 62
       3
100
AcDbLine
 10
-67.70467173
 20
3.34899849
 30
0.0
 11
-67.60804248
 21
3.17177291
 31
0.0
  0
LINE
  5
2AE
100
AcDbEntity
  8
レイヤー_1
  6
CONTINUOUS
 62
       3
100
AcDbLine
 10
-67.60804248
 20
3.17177291
 30
0.0
 11
-67.49536408
 21
3.006447
 31
0.0
  0
LINE
  5
2AF
100
AcDbEntity
  8
レイヤー_1
  6
CONTINUOUS
 62
       3
100
AcDbLine
 10
-67.49536408
 20
3.006447
 30
0.0
 11
-67.36911812
 21
2.85579361
 31
0.0
  0
LINE
  5
2B0
100
AcDbEntity
  8
レイヤー_1
  6
CONTINUOUS
 62
       3
100
AcDbLine
 10
-67.36911812
 20
2.85579361
 30
0.0
 11
-67.23061196
 21
2.72016583
 31
0.0
  0
LINE
  5
2B1
100
AcDbEntity
  8
レイヤー_1
  6
CONTINUOUS
 62
       3
100
AcDbLine
 10
-67.23061196
 20
2.72016583
 30
0.0
 11
-67.08115299
 21
2.59991676
 31
0.0
  0
LINE
  5
2B2
100
AcDbEntity
  8
レイヤー_1
  6
CONTINUOUS
 62
       3
100
AcDbLine
 10
-67.08115299
 20
2.59991676
 30
0.0
 11
-66.92204859
 21
2.4953995
 31
0.0
  0
LINE
  5
2B3
100
AcDbEntity
  8
レイヤー_1
  6
CONTINUOUS
 62
       3
100
AcDbLine
 10
-66.92204859
 20
2.4953995
 30
0.0
 11
-66.75460614
 21
2.40696715
 31
0.0
  0
LINE
  5
2B4
100
AcDbEntity
  8
レイヤー_1
  6
CONTINUOUS
 62
       3
100
AcDbLine
 10
-66.75460614
 20
2.40696715
 30
0.0
 11
-66.58013303
 21
2.3349728
 31
0.0
  0
LINE
  5
2B5
100
AcDbEntity
  8
レイヤー_1
  6
CONTINUOUS
 62
       3
100
AcDbLine
 10
-66.58013303
 20
2.3349728
 30
0.0
 11
-66.39993663
 21
2.27976956
 31
0.0
  0
LINE
  5
2B6
100
AcDbEntity
  8
レイヤー_1
  6
CONTINUOUS
 62
       3
100
AcDbLine
 10
-66.39993663
 20
2.27976956
 30
0.0
 11
-66.21532433
 21
2.24171053
 31
0.0
  0
LINE
  5
2B7
100
AcDbEntity
  8
レイヤー_1
  6
CONTINUOUS
 62
       3
100
AcDbLine
 10
-66.21532433
 20
2.24171053
 30
0.0
 11
-66.0276035
 21
2.2211488
 31
0.0
  0
LINE
  5
2B8
100
AcDbEntity
  8
レイヤー_1
  6
CONTINUOUS
 62
       3
100
AcDbLine
 10
-66.0276035
 20
2.2211488
 30
0.0
 11
-65.83808153
 21
2.21843747
 31
0.0
  0
LINE
  5
2B9
100
AcDbEntity
  8
レイヤー_1
  6
CONTINUOUS
 62
       3
100
AcDbLine
 10
-65.83808153
 20
2.21843747
 30
0.0
 11
-65.6480658
 21
2.23392965
 31
0.0
  0
LINE
  5
2BA
100
AcDbEntity
  8
レイヤー_1
  6
CONTINUOUS
 62
       3
100
AcDbLine
 10
-65.6480658
 20
2.23392965
 30
0.0
 11
-65.4588637
 21
2.26797842
 31
0.0
  0
LINE
  5
2BB
100
AcDbEntity
  8
レイヤー_1
  6
CONTINUOUS
 62
       3
100
AcDbLine
 10
-65.4588637
 20
2.26797842
 30
0.0
 11
-65.27178259
 21
2.3209369
 31
0.0
  0
LINE
  5
2BC
100
AcDbEntity
  8
レイヤー_1
  6
CONTINUOUS
 62
       3
100
AcDbLine
 10
-65.27178259
 20
2.3209369
 30
0.0
 11
-65.08812987
 21
2.39315817
 31
0.0
  0
LINE
  5
2BD
100
AcDbEntity
  8
レイヤー_1
  6
CONTINUOUS
 62
       3
100
AcDbLine
 10
-65.08812987
 20
2.39315817
 30
0.0
 11
-64.90921291
 21
2.48499534
 31
0.0
  0
LINE
  5
2BE
100
AcDbEntity
  8
レイヤー_1
  6
CONTINUOUS
 62
       3
100
AcDbLine
 10
-64.90921291
 20
32.47730762
 30
0.0
 11
-64.74027772
 21
32.58644961
 31
0.0
  0
LINE
  5
2BF
100
AcDbEntity
  8
レイヤー_1
  6
CONTINUOUS
 62
       3
100
AcDbLine
 10
-64.74027772
 20
32.58644961
 30
0.0
 11
-64.58593316
 21
32.70947867
 31
0.0
  0
LINE
  5
2C0
100
AcDbEntity
  8
レイヤー_1
  6
CONTINUOUS
 62
       3
100
AcDbLine
 10
-64.58593316
 20
32.70947867
 30
0.0
 11
-64.44653086
 21
32.84508791
 31
0.0
  0
LINE
  5
2C1
100
AcDbEntity
  8
レイヤー_1
  6
CONTINUOUS
 62
       3
100
AcDbLine
 10
-64.44653086
 20
32.84508791
 30
0.0
 11
-64.3224225
 21
32.99197041
 31
0.0
  0
LINE
  5
2C2
100
AcDbEntity
  8
レイヤー_1
  6
CONTINUOUS
 62
       3
100
AcDbLine
 10
-64.3224225
 20
32.99197041
 30
0.0
 11
-64.21395971
 21
33.1488193
 31
0.0
  0
LINE
  5
2C3
100
AcDbEntity
  8
レイヤー_1
  6
CONTINUOUS
 62
       3
100
AcDbLine
 10
-64.21395971
 20
33.1488193
 30
0.0
 11
-64.12149417
 21
33.31432765
 31
0.0
  0
LINE
  5
2C4
100
AcDbEntity
  8
レイヤー_1
  6
CONTINUOUS
 62
       3
100
AcDbLine
 10
-64.12149417
 20
33.31432765
 30
0.0
 11
-64.04537751
 21
33.48718858
 31
0.0
  0
LINE
  5
2C5
100
AcDbEntity
  8
レイヤー_1
  6
CONTINUOUS
 62
       3
100
AcDbLine
 10
-64.04537751
 20
33.48718858
 30
0.0
 11
-63.98596139
 21
33.66609519
 31
0.0
  0
LINE
  5
2C6
100
AcDbEntity
  8
レイヤー_1
  6
CONTINUOUS
 62
       3
100
AcDbLine
 10
-63.98596139
 20
33.66609519
 30
0.0
 11
-63.94359748
 21
33.84974057
 31
0.0
  0
LINE
  5
2C7
100
AcDbEntity
  8
レイヤー_1
  6
CONTINUOUS
 62
       3
100
AcDbLine
 10
-63.94359748
 20
33.84974057
 30
0.0
 11
-63.91863741
 21
34.03681782
 31
0.0
  0
LINE
  5
2C8
100
AcDbEntity
  8
レイヤー_1
  6
CONTINUOUS
 62
       3
100
AcDbLine
 10
-63.91863741
 20
34.03681782
 30
0.0
 11
-63.91143285
 21
34.22602006
 31
0.0
  0
LINE
  5
2C9
100
AcDbEntity
  8
レイヤー_1
  6
CONTINUOUS
 62
       3
100
AcDbLine
 10
-63.91143285
 20
34.22602006
 30
0.0
 11
-63.92233544
 21
34.41604037
 31
0.0
  0
LINE
  5
2CA
100
AcDbEntity
  8
レイヤー_1
  6
CONTINUOUS
 62
       3
100
AcDbLine
 10
-63.92233544
 20
34.41604037
 30
0.0
 11
-63.95169685
 21
34.60557185
 31
0.0
  0
LINE
  5
2CB
100
AcDbEntity
  8
レイヤー_1
  6
CONTINUOUS
 62
       3
100
AcDbLine
 10
-63.95169685
 20
34.60557185
 30
0.0
 11
-63.99986873
 21
34.79330762
 31
0.0
  0
LINE
  5
2CC
100
AcDbEntity
  8
レイヤー_1
  6
CONTINUOUS
 62
       3
100
AcDbLine
 10
-63.99986873
 20
34.79330762
 30
0.0
 11
-64.06720272
 21
34.97794076
 31
0.0
  0
LINE
  5
2CD
100
AcDbEntity
  8
レイヤー_1
  6
CONTINUOUS
 62
       3
100
AcDbLine
 10
-64.06720272
 20
34.97794076
 30
0.0
 11
-64.15405049
 21
35.15816438
 31
0.0
  0
LINE
  5
2CE
100
AcDbEntity
  8
レイヤー_1
  6
CONTINUOUS
 62
       3
100
AcDbLine
 10
-64.15405049
 20
35.15816438
 30
0.0
 11
-64.2593562
 21
35.33038597
 31
0.0
  0
LINE
  5
2CF
100
AcDbEntity
  8
レイヤー_1
  6
CONTINUOUS
 62
       3
100
AcDbLine
 10
-64.2593562
 20
35.33038597
 30
0.0
 11
-64.37903601
 21
35.48834756
 31
0.0
  0
LINE
  5
2D0
100
AcDbEntity
  8
レイヤー_1
  6
CONTINUOUS
 62
       3
100
AcDbLine
 10
-64.37903601
 20
35.48834756
 30
0.0
 11
-64.51162273
 21
35.63145479
 31
0.0
  0
LINE
  5
2D1
100
AcDbEntity
  8
レイヤー_1
  6
CONTINUOUS
 62
       3
100
AcDbLine
 10
-64.51162273
 20
35.63145479
 30
0.0
 11
-64.65580944
 21
35.759356
 31
0.0
  0
LINE
  5
2D2
100
AcDbEntity
  8
レイヤー_1
  6
CONTINUOUS
 62
       3
100
AcDbLine
 10
-64.65580944
 20
35.759356
 30
0.0
 11
-64.81028925
 21
35.87169955
 31
0.0
  0
LINE
  5
2D3
100
AcDbEntity
  8
レイヤー_1
  6
CONTINUOUS
 62
       3
100
AcDbLine
 10
-64.81028925
 20
35.87169955
 30
0.0
 11
-64.97375526
 21
35.96813377
 31
0.0
  0
LINE
  5
2D4
100
AcDbEntity
  8
レイヤー_1
  6
CONTINUOUS
 62
       3
100
AcDbLine
 10
-64.97375526
 20
35.96813377
 30
0.0
 11
-65.14490057
 21
36.04830701
 31
0.0
  0
LINE
  5
2D5
100
AcDbEntity
  8
レイヤー_1
  6
CONTINUOUS
 62
       3
100
AcDbLine
 10
-65.14490057
 20
36.04830701
 30
0.0
 11
-65.32241828
 21
36.11186763
 31
0.0
  0
LINE
  5
2D6
100
AcDbEntity
  8
レイヤー_1
  6
CONTINUOUS
 62
       3
100
AcDbLine
 10
-65.32241828
 20
36.11186763
 30
0.0
 11
-65.50500148
 21
36.15846396
 31
0.0
  0
LINE
  5
2D7
100
AcDbEntity
  8
レイヤー_1
  6
CONTINUOUS
 62
       3
100
AcDbLine
 10
-65.50500148
 20
36.15846396
 30
0.0
 11
-65.69134329
 21
36.18774436
 31
0.0
  0
LINE
  5
2D8
100
AcDbEntity
  8
レイヤー_1
  6
CONTINUOUS
 62
       3
100
AcDbLine
 10
-65.69134329
 20
36.18774436
 30
0.0
 11
-65.8801368
 21
36.19935716
 31
0.0
  0
LINE
  5
2D9
100
AcDbEntity
  8
レイヤー_1
  6
CONTINUOUS
 62
       3
100
AcDbLine
 10
-65.8801368
 20
36.19935716
 30
0.0
 11
-66.07007512
 21
36.19295072
 31
0.0
  0
LINE
  5
2DA
100
AcDbEntity
  8
レイヤー_1
  6
CONTINUOUS
 62
       3
100
AcDbLine
 10
-66.07007512
 20
36.19295072
 30
0.0
 11
-66.25985133
 21
36.16817338
 31
0.0
  0
LINE
  5
2DB
100
AcDbEntity
  8
レイヤー_1
  6
CONTINUOUS
 62
       3
100
AcDbLine
 10
-66.25985133
 20
36.16817338
 30
0.0
 11
-66.44815855
 21
36.12467349
 31
0.0
  0
LINE
  5
2DC
100
AcDbEntity
  8
レイヤー_1
  6
CONTINUOUS
 62
       3
100
AcDbLine
 10
-66.44815855
 20
36.12467349
 30
0.0
 11
-66.63368987
 21
36.06209939
 31
0.0
  0
LINE
  5
2DD
100
AcDbEntity
  8
レイヤー_1
  6
CONTINUOUS
 62
       3
100
AcDbLine
 10
-66.63368987
 20
36.06209939
 30
0.0
 11
-66.81513839
 21
35.98009943
 31
0.0
  0
LINE
  5
2DE
100
AcDbEntity
  8
レイヤー_1
  6
CONTINUOUS
 62
       3
100
AcDbLine
 10
-66.81513839
 20
35.98009943
 30
0.0
 11
-66.99019263
 21
35.87904393
 31
0.0
  0
LINE
  5
2DF
100
AcDbEntity
  8
レイヤー_1
  6
CONTINUOUS
 62
       3
100
AcDbLine
 10
-66.99019263
 20
35.87904393
 30
0.0
 11
-67.15187621
 21
35.76296315
 31
0.0
  0
LINE
  5
2E0
100
AcDbEntity
  8
レイヤー_1
  6
CONTINUOUS
 62
       3
100
AcDbLine
 10
-67.15187621
 20
35.76296315
 30
0.0
 11
-67.29879261
 21
35.63362742
 31
0.0
  0
LINE
  5
2E1
100
AcDbEntity
  8
レイヤー_1
  6
CONTINUOUS
 62
       3
100
AcDbLine
 10
-67.29879261
 20
35.63362742
 30
0.0
 11
-67.43058971
 21
35.49234511
 31
0.0
  0
LINE
  5
2E2
100
AcDbEntity
  8
レイヤー_1
  6
CONTINUOUS
 62
       3
100
AcDbLine
 10
-67.43058971
 20
35.49234511
 30
0.0
 11
-67.54691537
 21
35.34042454
 31
0.0
  0
LINE
  5
2E3
100
AcDbEntity
  8
レイヤー_1
  6
CONTINUOUS
 62
       3
100
AcDbLine
 10
-67.54691537
 20
35.34042454
 30
0.0
 11
-67.64741745
 21
35.17917407
 31
0.0
  0
LINE
  5
2E4
100
AcDbEntity
  8
レイヤー_1
  6
CONTINUOUS
 62
       3
100
AcDbLine
 10
-67.64741745
 20
35.17917407
 30
0.0
 11
-67.73174381
 21
35.00990204
 31
0.0
  0
LINE
  5
2E5
100
AcDbEntity
  8
レイヤー_1
  6
CONTINUOUS
 62
       3
100
AcDbLine
 10
-67.73174381
 20
35.00990204
 30
0.0
 11
-67.79954234
 21
34.8339168
 31
0.0
  0
LINE
  5
2E6
100
AcDbEntity
  8
レイヤー_1
  6
CONTINUOUS
 62
       3
100
AcDbLine
 10
-67.79954234
 20
34.8339168
 30
0.0
 11
-67.85046087
 21
34.65252668
 31
0.0
  0
LINE
  5
2E7
100
AcDbEntity
  8
レイヤー_1
  6
CONTINUOUS
 62
       3
100
AcDbLine
 10
-67.85046087
 20
34.65252668
 30
0.0
 11
-67.88414729
 21
34.46704004
 31
0.0
  0
LINE
  5
2E8
100
AcDbEntity
  8
レイヤー_1
  6
CONTINUOUS
 62
       3
100
AcDbLine
 10
-67.88414729
 20
34.46704004
 30
0.0
 11
-67.90024946
 21
34.27876522
 31
0.0
  0
LINE
  5
2E9
100
AcDbEntity
  8
レイヤー_1
  6
CONTINUOUS
 62
       3
100
AcDbLine
 10
-67.90024946
 20
34.27876522
 30
0.0
 11
-67.89841523
 21
34.08901056
 31
0.0
  0
LINE
  5
2EA
100
AcDbEntity
  8
レイヤー_1
  6
CONTINUOUS
 62
       3
100
AcDbLine
 10
-67.89841523
 20
34.08901056
 30
0.0
 11
-67.87829248
 21
33.89908441
 31
0.0
  0
LINE
  5
2EB
100
AcDbEntity
  8
レイヤー_1
  6
CONTINUOUS
 62
       3
100
AcDbLine
 10
-67.87829248
 20
33.89908441
 30
0.0
 11
-67.83952907
 21
33.71029512
 31
0.0
  0
LINE
  5
2EC
100
AcDbEntity
  8
レイヤー_1
  6
CONTINUOUS
 62
       3
100
AcDbLine
 10
-67.83952907
 20
33.71029512
 30
0.0
 11
-67.78177287
 21
33.52395102
 31
0.0
  0
LINE
  5
2ED
100
AcDbEntity
  8
レイヤー_1
  6
CONTINUOUS
 62
       3
100
AcDbLine
 10
-67.78177287
 20
33.52395102
 30
0.0
 11
-67.70467173
 21
33.34136046
 31
0.0
  0
LINE
  5
2EE
100
AcDbEntity
  8
レイヤー_1
  6
CONTINUOUS
 62
       3
100
AcDbLine
 10
-67.70467173
 20
33.34136046
 30
0.0
 11
-67.60804248
 21
33.16408542
 31
0.0
  0
LINE
  5
2EF
100
AcDbEntity
  8
レイヤー_1
  6
CONTINUOUS
 62
       3
100
AcDbLine
 10
-67.60804248
 20
33.16408542
 30
0.0
 11
-67.49536408
 21
32.99876492
 31
0.0
  0
LINE
  5
2F0
100
AcDbEntity
  8
レイヤー_1
  6
CONTINUOUS
 62
       3
100
AcDbLine
 10
-67.49536408
 20
32.99876492
 30
0.0
 11
-67.36911812
 21
32.84812296
 31
0.0
  0
LINE
  5
2F1
100
AcDbEntity
  8
レイヤー_1
  6
CONTINUOUS
 62
       3
100
AcDbLine
 10
-67.36911812
 20
32.84812296
 30
0.0
 11
-67.23061196
 21
32.71251118
 31
0.0
  0
LINE
  5
2F2
100
AcDbEntity
  8
レイヤー_1
  6
CONTINUOUS
 62
       3
100
AcDbLine
 10
-67.23061196
 20
32.71251118
 30
0.0
 11
-67.08115299
 21
32.59228124
 31
0.0
  0
LINE
  5
2F3
100
AcDbEntity
  8
レイヤー_1
  6
CONTINUOUS
 62
       3
100
AcDbLine
 10
-67.08115299
 20
32.59228124
 30
0.0
 11
-66.92204859
 21
32.4877848
 31
0.0
  0
LINE
  5
2F4
100
AcDbEntity
  8
レイヤー_1
  6
CONTINUOUS
 62
       3
100
AcDbLine
 10
-66.92204859
 20
32.4877848
 30
0.0
 11
-66.75460614
 21
32.39937351
 31
0.0
  0
LINE
  5
2F5
100
AcDbEntity
  8
レイヤー_1
  6
CONTINUOUS
 62
       3
100
AcDbLine
 10
-66.75460614
 20
32.39937351
 30
0.0
 11
-66.58013303
 21
32.32739902
 31
0.0
  0
LINE
  5
2F6
100
AcDbEntity
  8
レイヤー_1
  6
CONTINUOUS
 62
       3
100
AcDbLine
 10
-66.58013303
 20
32.32739902
 30
0.0
 11
-66.39993663
 21
32.27221298
 31
0.0
  0
LINE
  5
2F7
100
AcDbEntity
  8
レイヤー_1
  6
CONTINUOUS
 62
       3
100
AcDbLine
 10
-66.39993663
 20
32.27221298
 30
0.0
 11
-66.21532433
 21
32.23416706
 31
0.0
  0
LINE
  5
2F8
100
AcDbEntity
  8
レイヤー_1
  6
CONTINUOUS
 62
       3
100
AcDbLine
 10
-66.21532433
 20
32.23416706
 30
0.0
 11
-66.0276035
 21
32.2136129
 31
0.0
  0
LINE
  5
2F9
100
AcDbEntity
  8
レイヤー_1
  6
CONTINUOUS
 62
       3
100
AcDbLine
 10
-66.0276035
 20
32.2136129
 30
0.0
 11
-65.83808153
 21
32.21090216
 31
0.0
  0
LINE
  5
2FA
100
AcDbEntity
  8
レイヤー_1
  6
CONTINUOUS
 62
       3
100
AcDbLine
 10
-65.83808153
 20
32.21090216
 30
0.0
 11
-65.6480658
 21
32.2263865
 31
0.0
  0
LINE
  5
2FB
100
AcDbEntity
  8
レイヤー_1
  6
CONTINUOUS
 62
       3
100
AcDbLine
 10
-65.6480658
 20
32.2263865
 30
0.0
 11
-65.4588637
 21
32.26041755
 31
0.0
  0
LINE
  5
2FC
100
AcDbEntity
  8
レイヤー_1
  6
CONTINUOUS
 62
       3
100
AcDbLine
 10
-65.4588637
 20
32.26041755
 30
0.0
 11
-65.27178259
 21
32.31334699
 31
0.0
  0
LINE
  5
2FD
100
AcDbEntity
  8
レイヤー_1
  6
CONTINUOUS
 62
       3
100
AcDbLine
 10
-65.27178259
 20
32.31334699
 30
0.0
 11
-65.08812987
 21
32.38552646
 31
0.0
  0
LINE
  5
2FE
100
AcDbEntity
  8
レイヤー_1
  6
CONTINUOUS
 62
       3
100
AcDbLine
 10
-65.08812987
 20
32.38552646
 30
0.0
 11
-64.90921291
 21
32.47730762
 31
0.0
  0
LINE
  5
2FF
100
AcDbEntity
  8
レイヤー_1
  6
CONTINUOUS
 62
       3
100
AcDbLine
 10
-6.0769728
 20
16.96989931
 30
0.0
 11
-6.33905291
 21
16.95757848
 31
0.0
  0
LINE
  5
300
100
AcDbEntity
  8
レイヤー_1
  6
CONTINUOUS
 62
       3
100
AcDbLine
 10
-6.33905291
 20
16.95757848
 30
0.0
 11
-6.58551296
 21
16.92134698
 31
0.0
  0
LINE
  5
301
100
AcDbEntity
  8
レイヤー_1
  6
CONTINUOUS
 62
       3
100
AcDbLine
 10
-6.58551296
 20
16.92134698
 30
0.0
 11
-6.81637841
 21
16.86230135
 31
0.0
  0
LINE
  5
302
100
AcDbEntity
  8
レイヤー_1
  6
CONTINUOUS
 62
       3
100
AcDbLine
 10
-6.81637841
 20
16.86230135
 30
0.0
 11
-7.03167471
 21
16.78153809
 31
0.0
  0
LINE
  5
303
100
AcDbEntity
  8
レイヤー_1
  6
CONTINUOUS
 62
       3
100
AcDbLine
 10
-7.03167471
 20
16.78153809
 30
0.0
 11
-7.23142731
 21
16.68015372
 31
0.0
  0
LINE
  5
304
100
AcDbEntity
  8
レイヤー_1
  6
CONTINUOUS
 62
       3
100
AcDbLine
 10
-7.23142731
 20
16.68015372
 30
0.0
 11
-7.41566168
 21
16.55924476
 31
0.0
  0
LINE
  5
305
100
AcDbEntity
  8
レイヤー_1
  6
CONTINUOUS
 62
       3
100
AcDbLine
 10
-7.41566168
 20
16.55924476
 30
0.0
 11
-7.58440327
 21
16.41990773
 31
0.0
  0
LINE
  5
306
100
AcDbEntity
  8
レイヤー_1
  6
CONTINUOUS
 62
       3
100
AcDbLine
 10
-7.58440327
 20
16.41990773
 30
0.0
 11
-7.73767753
 21
16.26323914
 31
0.0
  0
LINE
  5
307
100
AcDbEntity
  8
レイヤー_1
  6
CONTINUOUS
 62
       3
100
AcDbLine
 10
-7.73767753
 20
16.26323914
 30
0.0
 11
-7.87550992
 21
16.09033551
 31
0.0
  0
LINE
  5
308
100
AcDbEntity
  8
レイヤー_1
  6
CONTINUOUS
 62
       3
100
AcDbLine
 10
-7.87550992
 20
16.09033551
 30
0.0
 11
-7.9979259
 21
15.90229335
 31
0.0
  0
LINE
  5
309
100
AcDbEntity
  8
レイヤー_1
  6
CONTINUOUS
 62
       3
100
AcDbLine
 10
-7.9979259
 20
15.90229335
 30
0.0
 11
-8.10495092
 21
15.70020918
 31
0.0
  0
LINE
  5
30A
100
AcDbEntity
  8
レイヤー_1
  6
CONTINUOUS
 62
       3
100
AcDbLine
 10
-8.10495092
 20
15.70020918
 30
0.0
 11
-8.19661044
 21
15.48517952
 31
0.0
  0
LINE
  5
30B
100
AcDbEntity
  8
レイヤー_1
  6
CONTINUOUS
 62
       3
100
AcDbLine
 10
-8.19661044
 20
15.48517952
 30
0.0
 11
-8.2729299
 21
15.25830089
 31
0.0
  0
LINE
  5
30C
100
AcDbEntity
  8
レイヤー_1
  6
CONTINUOUS
 62
       3
100
AcDbLine
 10
-8.2729299
 20
15.25830089
 30
0.0
 11
-8.33393478
 21
15.0206698
 31
0.0
  0
LINE
  5
30D
100
AcDbEntity
  8
レイヤー_1
  6
CONTINUOUS
 62
       3
100
AcDbLine
 10
-8.33393478
 20
15.0206698
 30
0.0
 11
-8.37965052
 21
14.77338276
 31
0.0
  0
LINE
  5
30E
100
AcDbEntity
  8
レイヤー_1
  6
CONTINUOUS
 62
       3
100
AcDbLine
 10
-8.37965052
 20
14.77338276
 30
0.0
 11
-8.41010257
 21
14.51753631
 31
0.0
  0
LINE
  5
30F
100
AcDbEntity
  8
レイヤー_1
  6
CONTINUOUS
 62
       3
100
AcDbLine
 10
-8.41010257
 20
14.51753631
 30
0.0
 11
-8.42531641
 21
14.25422694
 31
0.0
  0
LINE
  5
310
100
AcDbEntity
  8
レイヤー_1
  6
CONTINUOUS
 62
       3
100
AcDbLine
 10
-8.42531641
 20
14.25422694
 30
0.0
 11
-8.42531641
 21
13.9860082
 31
0.0
  0
LINE
  5
311
100
AcDbEntity
  8
レイヤー_1
  6
CONTINUOUS
 62
       3
100
AcDbLine
 10
-8.42531641
 20
13.9860082
 30
0.0
 11
-8.41010257
 21
13.72271782
 31
0.0
  0
LINE
  5
312
100
AcDbEntity
  8
レイヤー_1
  6
CONTINUOUS
 62
       3
100
AcDbLine
 10
-8.41010257
 20
13.72271782
 30
0.0
 11
-8.37965052
 21
13.46690714
 31
0.0
  0
LINE
  5
313
100
AcDbEntity
  8
レイヤー_1
  6
CONTINUOUS
 62
       3
100
AcDbLine
 10
-8.37965052
 20
13.46690714
 30
0.0
 11
-8.33393478
 21
13.21967034
 31
0.0
  0
LINE
  5
314
100
AcDbEntity
  8
レイヤー_1
  6
CONTINUOUS
 62
       3
100
AcDbLine
 10
-8.33393478
 20
13.21967034
 30
0.0
 11
-8.2729299
 21
12.98210163
 31
0.0
  0
LINE
  5
315
100
AcDbEntity
  8
レイヤー_1
  6
CONTINUOUS
 62
       3
100
AcDbLine
 10
-8.2729299
 20
12.98210163
 30
0.0
 11
-8.19661044
 21
12.75529522
 31
0.0
  0
LINE
  5
316
100
AcDbEntity
  8
レイヤー_1
  6
CONTINUOUS
 62
       3
100
AcDbLine
 10
-8.19661044
 20
12.75529522
 30
0.0
 11
-8.10495092
 21
12.5403453
 31
0.0
  0
LINE
  5
317
100
AcDbEntity
  8
レイヤー_1
  6
CONTINUOUS
 62
       3
100
AcDbLine
 10
-8.10495092
 20
12.5403453
 30
0.0
 11
-7.9979259
 21
12.33834609
 31
0.0
  0
LINE
  5
318
100
AcDbEntity
  8
レイヤー_1
  6
CONTINUOUS
 62
       3
100
AcDbLine
 10
-7.9979259
 20
12.33834609
 30
0.0
 11
-7.87550992
 21
12.15039177
 31
0.0
  0
LINE
  5
319
100
AcDbEntity
  8
レイヤー_1
  6
CONTINUOUS
 62
       3
100
AcDbLine
 10
-7.87550992
 20
12.15039177
 30
0.0
 11
-7.73767753
 21
11.97757655
 31
0.0
  0
LINE
  5
31A
100
AcDbEntity
  8
レイヤー_1
  6
CONTINUOUS
 62
       3
100
AcDbLine
 10
-7.73767753
 20
11.97757655
 30
0.0
 11
-7.58440327
 21
11.82099465
 31
0.0
  0
LINE
  5
31B
100
AcDbEntity
  8
レイヤー_1
  6
CONTINUOUS
 62
       3
100
AcDbLine
 10
-7.58440327
 20
11.82099465
 30
0.0
 11
-7.41566168
 21
11.68174025
 31
0.0
  0
LINE
  5
31C
100
AcDbEntity
  8
レイヤー_1
  6
CONTINUOUS
 62
       3
100
AcDbLine
 10
-7.41566168
 20
11.68174025
 30
0.0
 11
-7.23142731
 21
11.56090756
 31
0.0
  0
LINE
  5
31D
100
AcDbEntity
  8
レイヤー_1
  6
CONTINUOUS
 62
       3
100
AcDbLine
 10
-7.23142731
 20
11.56090756
 30
0.0
 11
-7.03167471
 21
11.45959078
 31
0.0
  0
LINE
  5
31E
100
AcDbEntity
  8
レイヤー_1
  6
CONTINUOUS
 62
       3
100
AcDbLine
 10
-7.03167471
 20
11.45959078
 30
0.0
 11
-6.81637841
 21
11.37888412
 31
0.0
  0
LINE
  5
31F
100
AcDbEntity
  8
レイヤー_1
  6
CONTINUOUS
 62
       3
100
AcDbLine
 10
-6.81637841
 20
11.37888412
 30
0.0
 11
-6.58551296
 21
11.31988178
 31
0.0
  0
LINE
  5
320
100
AcDbEntity
  8
レイヤー_1
  6
CONTINUOUS
 62
       3
100
AcDbLine
 10
-6.58551296
 20
11.31988178
 30
0.0
 11
-6.33905291
 21
11.28367796
 31
0.0
  0
LINE
  5
321
100
AcDbEntity
  8
レイヤー_1
  6
CONTINUOUS
 62
       3
100
AcDbLine
 10
-6.33905291
 20
11.28367796
 30
0.0
 11
-6.0769728
 21
11.27136687
 31
0.0
  0
LINE
  5
322
100
AcDbEntity
  8
レイヤー_1
  6
CONTINUOUS
 62
       3
100
AcDbLine
 10
-6.0769728
 20
26.96687739
 30
0.0
 11
-6.33905291
 21
26.95456629
 31
0.0
  0
LINE
  5
323
100
AcDbEntity
  8
レイヤー_1
  6
CONTINUOUS
 62
       3
100
AcDbLine
 10
-6.33905291
 20
26.95456629
 30
0.0
 11
-6.58551296
 21
26.91836247
 31
0.0
  0
LINE
  5
324
100
AcDbEntity
  8
レイヤー_1
  6
CONTINUOUS
 62
       3
100
AcDbLine
 10
-6.58551296
 20
26.91836247
 30
0.0
 11
-6.81637841
 21
26.85936013
 31
0.0
  0
LINE
  5
325
100
AcDbEntity
  8
レイヤー_1
  6
CONTINUOUS
 62
       3
100
AcDbLine
 10
-6.81637841
 20
26.85936013
 30
0.0
 11
-7.03167471
 21
26.77865348
 31
0.0
  0
LINE
  5
326
100
AcDbEntity
  8
レイヤー_1
  6
CONTINUOUS
 62
       3
100
AcDbLine
 10
-7.03167471
 20
26.77865348
 30
0.0
 11
-7.23142731
 21
26.6773367
 31
0.0
  0
LINE
  5
327
100
AcDbEntity
  8
レイヤー_1
  6
CONTINUOUS
 62
       3
100
AcDbLine
 10
-7.23142731
 20
26.6773367
 30
0.0
 11
-7.41566168
 21
26.55650401
 31
0.0
  0
LINE
  5
328
100
AcDbEntity
  8
レイヤー_1
  6
CONTINUOUS
 62
       3
100
AcDbLine
 10
-7.41566168
 20
26.55650401
 30
0.0
 11
-7.58440327
 21
26.41724961
 31
0.0
  0
LINE
  5
329
100
AcDbEntity
  8
レイヤー_1
  6
CONTINUOUS
 62
       3
100
AcDbLine
 10
-7.58440327
 20
26.41724961
 30
0.0
 11
-7.73767753
 21
26.2606677
 31
0.0
  0
LINE
  5
32A
100
AcDbEntity
  8
レイヤー_1
  6
CONTINUOUS
 62
       3
100
AcDbLine
 10
-7.73767753
 20
26.2606677
 30
0.0
 11
-7.87550992
 21
26.08785249
 31
0.0
  0
LINE
  5
32B
100
AcDbEntity
  8
レイヤー_1
  6
CONTINUOUS
 62
       3
100
AcDbLine
 10
-7.87550992
 20
26.08785249
 30
0.0
 11
-7.9979259
 21
25.89989817
 31
0.0
  0
LINE
  5
32C
100
AcDbEntity
  8
レイヤー_1
  6
CONTINUOUS
 62
       3
100
AcDbLine
 10
-7.9979259
 20
25.89989817
 30
0.0
 11
-8.10495092
 21
25.69789895
 31
0.0
  0
LINE
  5
32D
100
AcDbEntity
  8
レイヤー_1
  6
CONTINUOUS
 62
       3
100
AcDbLine
 10
-8.10495092
 20
25.69789895
 30
0.0
 11
-8.19661044
 21
25.48294904
 31
0.0
  0
LINE
  5
32E
100
AcDbEntity
  8
レイヤー_1
  6
CONTINUOUS
 62
       3
100
AcDbLine
 10
-8.19661044
 20
25.48294904
 30
0.0
 11
-8.2729299
 21
25.25614262
 31
0.0
  0
LINE
  5
32F
100
AcDbEntity
  8
レイヤー_1
  6
CONTINUOUS
 62
       3
100
AcDbLine
 10
-8.2729299
 20
25.25614262
 30
0.0
 11
-8.33393478
 21
25.01857392
 31
0.0
  0
LINE
  5
330
100
AcDbEntity
  8
レイヤー_1
  6
CONTINUOUS
 62
       3
100
AcDbLine
 10
-8.33393478
 20
25.01857392
 30
0.0
 11
-8.37965052
 21
24.77133712
 31
0.0
  0
LINE
  5
331
100
AcDbEntity
  8
レイヤー_1
  6
CONTINUOUS
 62
       3
100
AcDbLine
 10
-8.37965052
 20
24.77133712
 30
0.0
 11
-8.41010257
 21
24.51552644
 31
0.0
  0
LINE
  5
332
100
AcDbEntity
  8
レイヤー_1
  6
CONTINUOUS
 62
       3
100
AcDbLine
 10
-8.41010257
 20
24.51552644
 30
0.0
 11
-8.42531641
 21
24.25223606
 31
0.0
  0
LINE
  5
333
100
AcDbEntity
  8
レイヤー_1
  6
CONTINUOUS
 62
       3
100
AcDbLine
 10
-8.42531641
 20
24.25223606
 30
0.0
 11
-8.42531641
 21
23.98399111
 31
0.0
  0
LINE
  5
334
100
AcDbEntity
  8
レイヤー_1
  6
CONTINUOUS
 62
       3
100
AcDbLine
 10
-8.42531641
 20
23.98399111
 30
0.0
 11
-8.41010257
 21
23.72064822
 31
0.0
  0
LINE
  5
335
100
AcDbEntity
  8
レイヤー_1
  6
CONTINUOUS
 62
       3
100
AcDbLine
 10
-8.41010257
 20
23.72064822
 30
0.0
 11
-8.37965052
 21
23.46479119
 31
0.0
  0
LINE
  5
336
100
AcDbEntity
  8
レイヤー_1
  6
CONTINUOUS
 62
       3
100
AcDbLine
 10
-8.37965052
 20
23.46479119
 30
0.0
 11
-8.33393478
 21
23.21751383
 31
0.0
  0
LINE
  5
337
100
AcDbEntity
  8
レイヤー_1
  6
CONTINUOUS
 62
       3
100
AcDbLine
 10
-8.33393478
 20
23.21751383
 30
0.0
 11
-8.2729299
 21
22.97990996
 31
0.0
  0
LINE
  5
338
100
AcDbEntity
  8
レイヤー_1
  6
CONTINUOUS
 62
       3
100
AcDbLine
 10
-8.2729299
 20
22.97990996
 30
0.0
 11
-8.19661044
 21
22.7530734
 31
0.0
  0
LINE
  5
339
100
AcDbEntity
  8
レイヤー_1
  6
CONTINUOUS
 62
       3
100
AcDbLine
 10
-8.19661044
 20
22.7530734
 30
0.0
 11
-8.10495092
 21
22.53809796
 31
0.0
  0
LINE
  5
33A
100
AcDbEntity
  8
レイヤー_1
  6
CONTINUOUS
 62
       3
100
AcDbLine
 10
-8.10495092
 20
22.53809796
 30
0.0
 11
-7.9979259
 21
22.33607747
 31
0.0
  0
LINE
  5
33B
100
AcDbEntity
  8
レイヤー_1
  6
CONTINUOUS
 62
       3
100
AcDbLine
 10
-7.9979259
 20
22.33607747
 30
0.0
 11
-7.87550992
 21
22.14810573
 31
0.0
  0
LINE
  5
33C
100
AcDbEntity
  8
レイヤー_1
  6
CONTINUOUS
 62
       3
100
AcDbLine
 10
-7.87550992
 20
22.14810573
 30
0.0
 11
-7.73767753
 21
21.97527656
 31
0.0
  0
LINE
  5
33D
100
AcDbEntity
  8
レイヤー_1
  6
CONTINUOUS
 62
       3
100
AcDbLine
 10
-7.73767753
 20
21.97527656
 30
0.0
 11
-7.58440327
 21
21.81868379
 31
0.0
  0
LINE
  5
33E
100
AcDbEntity
  8
レイヤー_1
  6
CONTINUOUS
 62
       3
100
AcDbLine
 10
-7.58440327
 20
21.81868379
 30
0.0
 11
-7.41566168
 21
21.67942123
 31
0.0
  0
LINE
  5
33F
100
AcDbEntity
  8
レイヤー_1
  6
CONTINUOUS
 62
       3
100
AcDbLine
 10
-7.41566168
 20
21.67942123
 30
0.0
 11
-7.23142731
 21
21.55858269
 31
0.0
  0
LINE
  5
340
100
AcDbEntity
  8
レイヤー_1
  6
CONTINUOUS
 62
       3
100
AcDbLine
 10
-7.23142731
 20
21.55858269
 30
0.0
 11
-7.03167471
 21
21.457262
 31
0.0
  0
LINE
  5
341
100
AcDbEntity
  8
レイヤー_1
  6
CONTINUOUS
 62
       3
100
AcDbLine
 10
-7.03167471
 20
21.457262
 30
0.0
 11
-6.81637841
 21
21.37655296
 31
0.0
  0
LINE
  5
342
100
AcDbEntity
  8
レイヤー_1
  6
CONTINUOUS
 62
       3
100
AcDbLine
 10
-6.81637841
 20
21.37655296
 30
0.0
 11
-6.58551296
 21
21.3175494
 31
0.0
  0
LINE
  5
343
100
AcDbEntity
  8
レイヤー_1
  6
CONTINUOUS
 62
       3
100
AcDbLine
 10
-6.58551296
 20
21.3175494
 30
0.0
 11
-6.33905291
 21
21.28134513
 31
0.0
  0
LINE
  5
344
100
AcDbEntity
  8
レイヤー_1
  6
CONTINUOUS
 62
       3
100
AcDbLine
 10
-6.33905291
 20
21.28134513
 30
0.0
 11
-6.0769728
 21
21.26903397
 31
0.0
  0
LINE
  5
345
100
AcDbEntity
  8
SLD-0
  6
CONTINUOUS
 62
       3
100
AcDbLine
 10
5.91568535
 20
-15.77842561
 30
0.0
 11
113.90898097
 21
-15.77842561
 31
0.0
  0
LINE
  5
346
100
AcDbEntity
  8
SLD-0
  6
CONTINUOUS
 62
       3
100
AcDbLine
 10
113.90898097
 20
44.22157439
 30
0.0
 11
113.90898097
 21
-15.77842561
 31
0.0
  0
LINE
  5
347
100
AcDbEntity
  8
SLD-0
  6
CONTINUOUS
 62
       3
100
AcDbLine
 10
3.90898097
 20
44.22157439
 30
0.0
 11
113.90898097
 21
44.22157439
 31
0.0
  0
LINE
  5
348
100
AcDbEntity
  8
SLD-0
  6
CONTINUOUS
 62
       3
100
AcDbLine
 10
111.90898097
 20
44.21440343
 30
0.0
 11
111.90898097
 21
-15.77125465
 31
0.0
  0
LINE
  5
349
100
AcDbEntity
  8
SLD-0
  6
CONTINUOUS
 62
       3
100
AcDbLine
 10
-103.90898097
 20
44.22157439
 30
0.0
 11
-103.90898097
 21
-15.77842561
 31
0.0
  0
LINE
  5
34A
100
AcDbEntity
  8
SLD-0
  6
CONTINUOUS
 62
       3
100
AcDbLine
 10
-58.90898097
 20
44.22157439
 30
0.0
 11
-58.90898097
 21
-15.77842561
 31
0.0
  0
LINE
  5
34B
100
AcDbEntity
  8
SLD-0
  6
CONTINUOUS
 62
       3
100
AcDbLine
 10
-101.90898097
 20
44.22157439
 30
0.0
 11
-101.90898097
 21
-15.77842561
 31
0.0
  0
LINE
  5
34C
100
AcDbEntity
  8
SLD-0
  6
CONTINUOUS
 62
       3
100
AcDbLine
 10
-113.90898097
 20
42.72157439
 30
0.0
 11
-113.90898097
 21
37.72157439
 31
0.0
  0
LINE
  5
34D
100
AcDbEntity
  8
SLD-0
  6
CONTINUOUS
 62
       3
100
AcDbLine
 10
-60.90898097
 20
44.22157439
 30
0.0
 11
-60.90898097
 21
-15.77842561
 31
0.0
  0
LINE
  5
34E
100
AcDbEntity
  8
SLD-0
  6
CONTINUOUS
 62
       3
100
AcDbLine
 10
-14.09101903
 20
5.21971214
 30
0.0
 11
-14.09101903
 21
3.22017872
 31
0.0
  0
LINE
  5
34F
100
AcDbEntity
  8
SLD-0
  6
CONTINUOUS
 62
       3
100
AcDbLine
 10
-14.09101903
 20
-4.77795496
 30
0.0
 11
-14.09101903
 21
-6.77748838
 31
0.0
  0
LINE
  5
350
100
AcDbEntity
  8
SLD-0
  6
CONTINUOUS
 62
       3
100
AcDbLine
 10
-112.40898097
 20
-15.77842561
 30
0.0
 11
-50.40898097
 21
-15.77842561
 31
0.0
  0
LINE
  5
351
100
AcDbEntity
  8
SLD-0
  6
CONTINUOUS
 62
       3
100
AcDbLine
 10
-112.40898097
 20
44.22157439
 30
0.0
 11
-50.40898097
 21
44.22157439
 31
0.0
  0
LINE
  5
352
100
AcDbEntity
  8
SLD-0
  6
CONTINUOUS
 62
       3
100
AcDbLine
 10
-112.40898097
 20
32.22157439
 30
0.0
 11
-109.90898097
 21
32.22157439
 31
0.0
  0
LINE
  5
353
100
AcDbEntity
  8
SLD-0
  6
CONTINUOUS
 62
       3
100
AcDbLine
 10
-112.40898097
 20
36.22157439
 30
0.0
 11
-109.90898097
 21
36.22157439
 31
0.0
  0
LINE
  5
354
100
AcDbEntity
  8
SLD-0
  6
CONTINUOUS
 62
       3
100
AcDbLine
 10
-113.90898097
 20
37.72157439
 30
0.0
 11
-112.40898097
 21
36.22157439
 31
0.0
  0
LINE
  5
355
100
AcDbEntity
  8
SLD-0
  6
CONTINUOUS
 62
       3
100
AcDbLine
 10
-113.90898097
 20
30.72157439
 30
0.0
 11
-112.40898097
 21
32.22157439
 31
0.0
  0
LINE
  5
356
100
AcDbEntity
  8
SLD-0
  6
CONTINUOUS
 62
       3
100
AcDbLine
 10
-112.40898097
 20
44.22157439
 30
0.0
 11
-113.90898097
 21
42.72157439
 31
0.0
  0
LINE
  5
357
100
AcDbEntity
  8
SLD-0
  6
CONTINUOUS
 62
       3
100
AcDbLine
 10
-113.90898097
 20
30.72157439
 30
0.0
 11
-113.90898097
 21
-2.27842561
 31
0.0
  0
LINE
  5
358
100
AcDbEntity
  8
SLD-0
  6
CONTINUOUS
 62
       3
100
AcDbLine
 10
-14.09101903
 20
35.21202441
 30
0.0
 11
-14.09101903
 21
33.212491
 31
0.0
  0
ARC
  5
359
100
AcDbEntity
  8
SLD-0
  6
CONTINUOUS
 62
       3
100
AcDbCircle
 10
-109.90898097
 20
34.22157439
 30
0.0
 40
2.0
100
AcDbArc
 50
270.0
 51
450.0
  0
LINE
  5
35A
100
AcDbEntity
  8
SLD-0
  6
CONTINUOUS
 62
       3
100
AcDbLine
 10
-48.90898097
 20
30.72157439
 30
0.0
 11
-48.90898097
 21
-2.27842561
 31
0.0
  0
LINE
  5
35B
100
AcDbEntity
  8
SLD-0
  6
CONTINUOUS
 62
       3
100
AcDbLine
 10
-48.90898097
 20
-14.27842561
 30
0.0
 11
-48.90898097
 21
-9.27842561
 31
0.0
  0
LINE
  5
35C
100
AcDbEntity
  8
SLD-0
  6
CONTINUOUS
 62
       3
100
AcDbLine
 10
-50.40898097
 20
-3.77842561
 30
0.0
 11
-52.90898097
 21
-3.77842561
 31
0.0
  0
LINE
  5
35D
100
AcDbEntity
  8
SLD-0
  6
CONTINUOUS
 62
       3
100
AcDbLine
 10
-112.40898097
 20
-15.77842561
 30
0.0
 11
-113.90898097
 21
-14.27842561
 31
0.0
  0
LINE
  5
35E
100
AcDbEntity
  8
SLD-0
  6
CONTINUOUS
 62
       3
100
AcDbLine
 10
-50.40898097
 20
-7.77842561
 30
0.0
 11
-52.90898097
 21
-7.77842561
 31
0.0
  0
LINE
  5
35F
100
AcDbEntity
  8
SLD-0
  6
CONTINUOUS
 62
       3
100
AcDbLine
 10
-48.90898097
 20
-9.27842561
 30
0.0
 11
-50.40898097
 21
-7.77842561
 31
0.0
  0
LINE
  5
360
100
AcDbEntity
  8
SLD-0
  6
CONTINUOUS
 62
       3
100
AcDbLine
 10
-113.90898097
 20
-2.27842561
 30
0.0
 11
-112.40898097
 21
-3.77842561
 31
0.0
  0
LINE
  5
361
100
AcDbEntity
  8
SLD-0
  6
CONTINUOUS
 62
       3
100
AcDbLine
 10
-113.90898097
 20
-9.27842561
 30
0.0
 11
-112.40898097
 21
-7.77842561
 31
0.0
  0
LINE
  5
362
100
AcDbEntity
  8
SLD-0
  6
CONTINUOUS
 62
       3
100
AcDbLine
 10
-112.40898097
 20
-7.77842561
 30
0.0
 11
-109.90898097
 21
-7.77842561
 31
0.0
  0
LINE
  5
363
100
AcDbEntity
  8
SLD-0
  6
CONTINUOUS
 62
       3
100
AcDbLine
 10
-112.40898097
 20
-3.77842561
 30
0.0
 11
-109.90898097
 21
-3.77842561
 31
0.0
  0
LINE
  5
364
100
AcDbEntity
  8
SLD-0
  6
CONTINUOUS
 62
       3
100
AcDbLine
 10
-113.90898097
 20
-14.27842561
 30
0.0
 11
-113.90898097
 21
-9.27842561
 31
0.0
  0
LINE
  5
365
100
AcDbEntity
  8
SLD-0
  6
CONTINUOUS
 62
       3
100
AcDbLine
 10
-48.90898097
 20
-2.27842561
 30
0.0
 11
-50.40898097
 21
-3.77842561
 31
0.0
  0
LINE
  5
366
100
AcDbEntity
  8
SLD-0
  6
CONTINUOUS
 62
       3
100
AcDbLine
 10
-50.40898097
 20
44.22157439
 30
0.0
 11
-48.90898097
 21
42.72157439
 31
0.0
  0
LINE
  5
367
100
AcDbEntity
  8
SLD-0
  6
CONTINUOUS
 62
       3
100
AcDbLine
 10
-48.90898097
 20
30.72157439
 30
0.0
 11
-50.40898097
 21
32.22157439
 31
0.0
  0
LINE
  5
368
100
AcDbEntity
  8
SLD-0
  6
CONTINUOUS
 62
       3
100
AcDbLine
 10
-48.90898097
 20
37.72157439
 30
0.0
 11
-50.40898097
 21
36.22157439
 31
0.0
  0
LINE
  5
369
100
AcDbEntity
  8
SLD-0
  6
CONTINUOUS
 62
       3
100
AcDbLine
 10
-50.40898097
 20
-15.77842561
 30
0.0
 11
-48.90898097
 21
-14.27842561
 31
0.0
  0
LINE
  5
36A
100
AcDbEntity
  8
SLD-0
  6
CONTINUOUS
 62
       3
100
AcDbLine
 10
-50.40898097
 20
36.22157439
 30
0.0
 11
-52.90898097
 21
36.22157439
 31
0.0
  0
LINE
  5
36B
100
AcDbEntity
  8
SLD-0
  6
CONTINUOUS
 62
       3
100
AcDbLine
 10
-50.40898097
 20
32.22157439
 30
0.0
 11
-52.90898097
 21
32.22157439
 31
0.0
  0
LINE
  5
36C
100
AcDbEntity
  8
SLD-0
  6
CONTINUOUS
 62
       3
100
AcDbLine
 10
-48.90898097
 20
42.72157439
 30
0.0
 11
-48.90898097
 21
37.72157439
 31
0.0
  0
ARC
  5
36D
100
AcDbEntity
  8
SLD-0
  6
CONTINUOUS
 62
       3
100
AcDbCircle
 10
-109.90898097
 20
-5.77842561
 30
0.0
 40
2.0
100
AcDbArc
 50
270.0
 51
450.0
  0
ARC
  5
36E
100
AcDbEntity
  8
SLD-0
  6
CONTINUOUS
 62
       3
100
AcDbCircle
 10
-52.90898097
 20
-5.77842561
 30
0.0
 40
2.0
100
AcDbArc
 50
90.0
 51
270.0
  0
ARC
  5
36F
100
AcDbEntity
  8
SLD-0
  6
CONTINUOUS
 62
       3
100
AcDbCircle
 10
-52.90898097
 20
34.22157439
 30
0.0
 40
2.0
100
AcDbArc
 50
90.0
 51
270.0
  0
TEXT
  5
370
100
AcDbEntity
  8
SLD-0
 62
       3
100
AcDbText
 10
86.96145248
 20
-49.22157439
 30
0.0
 40
10.0
  1
000
 72
       5
 11
116.96145248
 21
-49.22157439
 31
0.0
100
AcDbText
  0
ENDSEC
  0
SECTION
  2
OBJECTS
  0
DICTIONARY
  5
19
100
AcDbDictionary
  3
ACAD_GROUP
350
1A
  3
ACAD_MLINESTYLE
350
1B
  0
DICTIONARY
  5
1A
102
{ACAD_REACTORS
330
19
102
}
100
AcDbDictionary
  0
DICTIONARY
  5
1B
102
{ACAD_REACTORS
330
19
102
}
100
AcDbDictionary
  3
STANDARD
350
1C
  0
MLINESTYLE
  5
1C
102
{ACAD_REACTORS
330
1B
102
}
100
AcDbMlineStyle
  2
STANDARD
 70
       0
  3

 62
       0
 51
90.0
 52
90.0
 71
       2
 49
0.5
 62
     256
  6
BYLAYER
 49
-0.5
 62
     256
  6
BYLAYER
  0
ENDSEC
  0
EOF
