  0
SECTION
  2
HEADER
  9
$ACADVER
  1
AC1014
  9
$ACADMAINTVER
 70
       0
  9
$DWGCODEPAGE
  3
ANSI_932
  9
$INSBASE
 10
0.0
 20
0.0
 30
0.0
  9
$EXTMIN
 10
-109.98
 20
-79.07256252
 30
0.0
  9
$EXTMAX
 10
109.98
 20
77.26109722
 30
0.0
  9
$LIMMIN
 10
-116.85375
 20
-83.95798939
  9
$LIMMAX
 10
116.85375
 20
82.14652409
  9
$ORTHOMODE
 70
       0
  9
$REGENMODE
 70
       1
  9
$FILLMODE
 70
       1
  9
$QTEXTMODE
 70
       0
  9
$MIRRTEXT
 70
       1
  9
$DRAGMODE
 70
       2
  9
$LTSCALE
 40
1.0
  9
$OSMODE
 70
       0
  9
$ATTMODE
 70
       1
  9
$TEXTSIZE
 40
0.2
  9
$TRACEWID
 40
0.05
  9
$TEXTSTYLE
  7
STANDARD
  9
$CLAYER
  8
0
  9
$CELTYPE
  6
CONTINUOUS
  9
$CECOLOR
 62
     256
  9
$CELTSCALE
 40
1.0
  9
$DELOBJ
 70
       1
  9
$DISPSILH
 70
       0
  9
$DIMSCALE
 40
1.0
  9
$DIMASZ
 40
0.18
  9
$DIMEXO
 40
0.0625
  9
$DIMDLI
 40
0.38
  9
$DIMRND
 40
0.0
  9
$DIMDLE
 40
0.0
  9
$DIMEXE
 40
0.18
  9
$DIMTP
 40
0.0
  9
$DIMTM
 40
0.0
  9
$DIMTXT
 40
0.18
  9
$DIMCEN
 40
0.09
  9
$DIMTSZ
 40
0.0
  9
$DIMTOL
 70
       0
  9
$DIMLIM
 70
       0
  9
$DIMTIH
 70
       1
  9
$DIMTOH
 70
       1
  9
$DIMSE1
 70
       0
  9
$DIMSE2
 70
       0
  9
$DIMTAD
 70
       0
  9
$DIMZIN
 70
       0
  9
$DIMBLK
  1

  9
$DIMASO
 70
       1
  9
$DIMSHO
 70
       1
  9
$DIMPOST
  1

  9
$DIMAPOST
  1

  9
$DIMALT
 70
       0
  9
$DIMALTD
 70
       2
  9
$DIMALTF
 40
25.4
  9
$DIMLFAC
 40
1.0
  9
$DIMTOFL
 70
       0
  9
$DIMTVP
 40
0.0
  9
$DIMTIX
 70
       0
  9
$DIMSOXD
 70
       0
  9
$DIMSAH
 70
       0
  9
$DIMBLK1
  1

  9
$DIMBLK2
  1

  9
$DIMSTYLE
  2
STANDARD
  9
$DIMCLRD
 70
       0
  9
$DIMCLRE
 70
       0
  9
$DIMCLRT
 70
       0
  9
$DIMTFAC
 40
1.0
  9
$DIMGAP
 40
0.09
  9
$DIMJUST
 70
       0
  9
$DIMSD1
 70
       0
  9
$DIMSD2
 70
       0
  9
$DIMTOLJ
 70
       1
  9
$DIMTZIN
 70
       0
  9
$DIMALTZ
 70
       0
  9
$DIMALTTZ
 70
       0
  9
$DIMFIT
 70
       3
  9
$DIMUPT
 70
       0
  9
$DIMUNIT
 70
       2
  9
$DIMDEC
 70
       4
  9
$DIMTDEC
 70
       4
  9
$DIMALTU
 70
       2
  9
$DIMALTTD
 70
       2
  9
$DIMTXSTY
  7
STANDARD
  9
$DIMAUNIT
 70
       0
  9
$LUNITS
 70
       2
  9
$LUPREC
 70
       4
  9
$SKETCHINC
 40
0.1
  9
$FILLETRAD
 40
0.0
  9
$AUNITS
 70
       0
  9
$AUPREC
 70
       0
  9
$MENU
  1
acad
  9
$ELEVATION
 40
0.0
  9
$PELEVATION
 40
0.0
  9
$THICKNESS
 40
0.0
  9
$LIMCHECK
 70
       0
  9
$BLIPMODE
 70
       1
  9
$CHAMFERA
 40
0.0
  9
$CHAMFERB
 40
0.0
  9
$CHAMFERC
 40
0.0
  9
$CHAMFERD
 40
0.0
  9
$SKPOLY
 70
       0
  9
$TDCREATE
 40
0.000000000
  9
$TDUPDATE
 40
0.000000000
  9
$TDINDWG
 40
0.0000000000
  9
$TDUSRTIMER
 40
0.0000000000
  9
$USRTIMER
 70
       1
  9
$ANGBASE
 50
0.0
  9
$ANGDIR
 70
       0
  9
$PDMODE
 70
       0
  9
$PDSIZE
 40
1.0
  9
$PLINEWID
 40
0.0
  9
$COORDS
 70
       1
  9
$SPLFRAME
 70
       0
  9
$SPLINETYPE
 70
       6
  9
$SPLINESEGS
 70
       8
  9
$ATTDIA
 70
       0
  9
$ATTREQ
 70
       1
  9
$HANDLING
 70
       1
  9
$HANDSEED
  5
DA
  9
$SURFTAB1
 70
       6
  9
$SURFTAB2
 70
       6
  9
$SURFTYPE
 70
       6
  9
$SURFU
 70
       6
  9
$SURFV
 70
       6
  9
$UCSNAME
  2

  9
$UCSORG
 10
0.0
 20
0.0
 30
0.0
  9
$UCSXDIR
 10
1.0
 20
0.0
 30
0.0
  9
$UCSYDIR
 10
0.0
 20
1.0
 30
0.0
  9
$PUCSNAME
  2

  9
$PUCSORG
 10
0.0
 20
0.0
 30
0.0
  9
$PUCSXDIR
 10
1.0
 20
0.0
 30
0.0
  9
$PUCSYDIR
 10
0.0
 20
1.0
 30
0.0
  9
$USERI1
 70
       0
  9
$USERI2
 70
       0
  9
$USERI3
 70
       0
  9
$USERI4
 70
       0
  9
$USERI5
 70
       0
  9
$USERR1
 40
0.0
  9
$USERR2
 40
0.0
  9
$USERR3
 40
0.0
  9
$USERR4
 40
0.0
  9
$USERR5
 40
0.0
  9
$WORLDVIEW
 70
       1
  9
$SHADEDGE
 70
       3
  9
$SHADEDIF
 70
      70
  9
$TILEMODE
 70
       1
  9
$MAXACTVP
 70
      16
  9
$PINSBASE
 10
0.0
 20
0.0
 30
0.0
  9
$PLIMCHECK
 70
       0
  9
$PEXTMIN
 10
1.00000000E+20
 20
1.00000000E+20
 30
1.00000000E+20
  9
$PEXTMAX
 10
-1.00000000E+20
 20
-1.00000000E+20
 30
-1.00000000E+20
  9
$PLIMMIN
 10
0.0
 20
0.0
  9
$PLIMMAX
 10
12.0
 20
9.0
  9
$UNITMODE
 70
       0
  9
$VISRETAIN
 70
       0
  9
$PLINEGEN
 70
       1
  9
$PSLTSCALE
 70
       0
  9
$TREEDEPTH
 70
    3020
  9
$PICKSTYLE
 70
       1
  9
$CMLSTYLE
  2
STANDARD
  9
$CMLJUST
 70
       0
  9
$CMLSCALE
 40
1.0
  9
$PROXYGRAPHICS
 70
       0
  9
$MEASUREMENT
 70
       0
  0
ENDSEC
  0
SECTION
  2
CLASSES
  0
CLASS
  1
LWPOLYLINE
  2
AcDbPolyline
  3
"AutoCAD"
 90
        0
280
       0
281
       1
  0
CLASS
  1
IMAGE
  2
AcDbRasterImage
  3
ISM
 90
      127
280
       0
281
       1
  0
CLASS
  1
OLE2FRAME
  2
AcDbOle2Frame
  3
""
 90
        0
280
       0
281
       1
  0
CLASS
  1
HATCH
  2
AcDbHatch
  3
"ACAD_SEDONA"
 90
        0
280
       0
281
       1
  0
CLASS
  1
DICTIONARYVAR
  2
AcDbDictionaryVar
  3
"AutoCAD"
 90
        0
280
       0
281
       0
  0
CLASS
  1
RASTERVARIABLES
  2
AcDbRasterVariables
  3
ISM
 90
        0
280
       0
281
       0
  0
CLASS
  1
IMAGEDEF
  2
AcDbRasterImageDef
  3
ISM
 90
        0
280
       0
281
       0
  0
CLASS
  1
IMAGEDEF_REACTOR
  2
AcDbRasterImageDefReactor
  3
ISM
 90
        1
280
       0
281
       0
  0
CLASS
  1
IDBUFFER
  2
AcDbIdBuffer
  3
"Acad"
 90
        0
280
       0
281
       0
  0
CLASS
  1
SPATIAL_FILTER
  2
AcDbSpatialFilter
  3
"Acad"
 90
        0
280
       0
281
       0
  0
CLASS
  1
XRECORD
  2
AcDbXrecord
  3
"<Built In>"
 90
        0
280
       0
281
       0
  0
CLASS
  1
SORTENTSTABLE
  2
AcDbSortentsTable
  3
"AutoCAD"
 90
        0
280
       0
281
       0
  0
CLASS
  1
LAYER_INDEX
  2
AcDbLayerIndex
  3
"Acad"
 90
        0
280
       0
281
       0
  0
CLASS
  1
SPATIAL_INDEX
  2
AcDbSpatialIndex
  3
"Acad"
 90
        0
280
       0
281
       0
  0
CLASS
  1
OBJECT_PTR
  2
CAseDLPNTableRecord
  3
"ASE-LPNTableRecord"
 90
        1
280
       0
281
       0
  0
CLASS
  1
LAYOUT
  2
AcDbLayout
  3
"AutoCAD 2000"
 90
        1
280
       0
281
       0
  0
CLASS
  1
PLOTSETTINGS
  2
AcDbPlotSettings
  3
"AutoCAD 2000"
 90
        1
280
       0
281
       0
  0
CLASS
  1
ACDBDICTIONARYWDFLT
  2
AcDbDictionaryWithDefault
  3
"AutoCAD 2000"
 90
        1
280
       0
281
       0
  0
CLASS
  1
ACDBPLACEHOLDER
  2
AcDbPlaceHolder
  3
"AutoCAD 2000"
 90
        1
280
       0
281
       0
  0
CLASS
  1
VBA_PROJECT
  2
AcDbVbaProject
  3
"acadvba"
 90
        1
280
       0
281
       0
  0
CLASS
  1
WIPEOUT
  2
AcDbWipeout
  3
WipeOut|AutoCAD Express Tool|expresstools@autodesk.com
 90
      127
280
       0
281
       1
  0
CLASS
  1
WIPEOUTVARIABLES
  2
AcDbWipeoutVariables
  3
WipeOut|AutoCAD Express Tool|expresstools@autodesk.com
 90
        0
280
       0
281
       0
  0
CLASS
  1
RTEXT
  2
RText
  3
RText|AutoCAD Express Tool|expresstools@autodesk.com
 90
        0
280
       0
281
       1
  0
CLASS
  1
ARCALIGNEDTEXT
  2
AcDbArcAlignedText
  3
ATEXT|AutoCAD Express Tool|expresstools@autodesk.com
 90
        0
280
       0
281
       1
  0
ENDSEC
  0
SECTION
  2
TABLES
  0
TABLE
  2
VPORT
  5
7
100
AcDbSymbolTable
 70
       1
  0
VPORT
  5
15
100
AcDbSymbolTableRecord
100
AcDbViewportTableRecord
  2
*ACTIVE
 70
       0
 10
0.0
 20
0.0
 11
1.0
 21
1.0
 12
0.0
 22
-0.90573265
 13
0.0
 23
0.0
 14
1.0
 24
1.0
 15
0.0
 25
0.0
 16
0.0
 26
0.0
 36
1.0
 17
0.0
 27
0.0
 37
0.0
 40
166.10451348
 41
1.40699067
 42
50.0
 43
0.0
 44
0.0
 50
0.0
 51
0.0
 71
       0
 72
     100
 73
       1
 74
       1
 75
       0
 76
       0
 77
       0
 78
       0
  0
ENDTAB
  0
TABLE
  2
LTYPE
  5
4
100
AcDbSymbolTable
 70
      30
  0
LTYPE
  5
11
100
AcDbSymbolTableRecord
100
AcDbLinetypeTableRecord
  2
BYBLOCK
 70
      64
  3

 72
      65
 73
       0
 40
0.0
  0
LTYPE
  5
12
100
AcDbSymbolTableRecord
100
AcDbLinetypeTableRecord
  2
BYLAYER
 70
      64
  3

 72
      65
 73
       0
 40
0.0
  0
LTYPE
  5
13
100
AcDbSymbolTableRecord
100
AcDbLinetypeTableRecord
  2
CONTINUOUS
 70
      64
  3
Solid line
 72
      65
 73
       0
 40
0.0
  0
LTYPE
  5
1D
100
AcDbSymbolTableRecord
100
AcDbLinetypeTableRecord
  2
HIDDENX2
 70
      64
  3
CADPAC LINETYPE
 72
      65
 73
       2
 40
8.7984
 49
6.5988
 74
       0
 49
-2.1996
 74
       0
  0
LTYPE
  5
1E
100
AcDbSymbolTableRecord
100
AcDbLinetypeTableRecord
  2
HIDDEN
 70
      64
  3
CADPAC LINETYPE
 72
      65
 73
       2
 40
6.5988
 49
4.3992
 74
       0
 49
-2.1996
 74
       0
  0
LTYPE
  5
1F
100
AcDbSymbolTableRecord
100
AcDbLinetypeTableRecord
  2
HIDDEN2
 70
      64
  3
CADPAC LINETYPE
 72
      65
 73
       2
 40
5.499
 49
3.2994
 74
       0
 49
-2.1996
 74
       0
  0
LTYPE
  5
20
100
AcDbSymbolTableRecord
100
AcDbLinetypeTableRecord
  2
DASHED
 70
      64
  3
CADPAC LINETYPE
 72
      65
 73
       2
 40
6.5988
 49
4.3992
 74
       0
 49
-2.1996
 74
       0
  0
LTYPE
  5
21
100
AcDbSymbolTableRecord
100
AcDbLinetypeTableRecord
  2
DASHED2
 70
      64
  3
CADPAC LINETYPE
 72
      65
 73
       2
 40
4.9491
 49
3.2994
 74
       0
 49
-1.6497
 74
       0
  0
LTYPE
  5
22
100
AcDbSymbolTableRecord
100
AcDbLinetypeTableRecord
  2
DASHEDX2
 70
      64
  3
CADPAC LINETYPE
 72
      65
 73
       2
 40
9.8982
 49
6.5988
 74
       0
 49
-3.2994
 74
       0
  0
LTYPE
  5
23
100
AcDbSymbolTableRecord
100
AcDbLinetypeTableRecord
  2
DOTX2
 70
      64
  3
CADPAC LINETYPE
 72
      65
 73
       2
 40
2.7495
 49
0.0
 74
       0
 49
-2.7495
 74
       0
  0
LTYPE
  5
24
100
AcDbSymbolTableRecord
100
AcDbLinetypeTableRecord
  2
DOT
 70
      64
  3
CADPAC LINETYPE
 72
      65
 73
       2
 40
2.1996
 49
0.0
 74
       0
 49
-2.1996
 74
       0
  0
LTYPE
  5
25
100
AcDbSymbolTableRecord
100
AcDbLinetypeTableRecord
  2
DOT2
 70
      64
  3
CADPAC LINETYPE
 72
      65
 73
       2
 40
1.6497
 49
0.0
 74
       0
 49
-1.6497
 74
       0
  0
LTYPE
  5
26
100
AcDbSymbolTableRecord
100
AcDbLinetypeTableRecord
  2
CENTERX2
 70
      64
  3
CADPAC LINETYPE
 72
      65
 73
       4
 40
13.1976
 49
5.499
 74
       0
 49
-2.7495
 74
       0
 49
2.1996
 74
       0
 49
-2.7495
 74
       0
  0
LTYPE
  5
27
100
AcDbSymbolTableRecord
100
AcDbLinetypeTableRecord
  2
CENTER
 70
      64
  3
CADPAC LINETYPE
 72
      65
 73
       4
 40
10.11816
 49
4.3992
 74
       0
 49
-2.1996
 74
       0
 49
1.31976
 74
       0
 49
-2.1996
 74
       0
  0
LTYPE
  5
28
100
AcDbSymbolTableRecord
100
AcDbLinetypeTableRecord
  2
CENTER2
 70
      64
  3
CADPAC LINETYPE
 72
      65
 73
       4
 40
7.03872
 49
3.2994
 74
       0
 49
-1.6497
 74
       0
 49
0.43992
 74
       0
 49
-1.6497
 74
       0
  0
LTYPE
  5
29
100
AcDbSymbolTableRecord
100
AcDbLinetypeTableRecord
  2
DASHDOTX2
 70
      64
  3
CADPAC LINETYPE
 72
      65
 73
       4
 40
10.998
 49
5.499
 74
       0
 49
-2.7495
 74
       0
 49
0.0
 74
       0
 49
-2.7495
 74
       0
  0
LTYPE
  5
2A
100
AcDbSymbolTableRecord
100
AcDbLinetypeTableRecord
  2
DASHDOT
 70
      64
  3
CADPAC LINETYPE
 72
      65
 73
       4
 40
8.7984
 49
4.3992
 74
       0
 49
-2.1996
 74
       0
 49
0.0
 74
       0
 49
-2.1996
 74
       0
  0
LTYPE
  5
2B
100
AcDbSymbolTableRecord
100
AcDbLinetypeTableRecord
  2
DASHDOT2
 70
      64
  3
CADPAC LINETYPE
 72
      65
 73
       4
 40
6.5988
 49
3.2994
 74
       0
 49
-1.6497
 74
       0
 49
0.0
 74
       0
 49
-1.6497
 74
       0
  0
LTYPE
  5
2C
100
AcDbSymbolTableRecord
100
AcDbLinetypeTableRecord
  2
DIVIDEX2
 70
      64
  3
CADPAC LINETYPE
 72
      65
 73
       6
 40
13.7475
 49
5.499
 74
       0
 49
-2.7495
 74
       0
 49
0.0
 74
       0
 49
-2.7495
 74
       0
 49
0.0
 74
       0
 49
-2.7495
 74
       0
  0
LTYPE
  5
2D
100
AcDbSymbolTableRecord
100
AcDbLinetypeTableRecord
  2
DIVIDE
 70
      64
  3
CADPAC LINETYPE
 72
      65
 73
       6
 40
10.998
 49
4.3992
 74
       0
 49
-2.1996
 74
       0
 49
0.0
 74
       0
 49
-2.1996
 74
       0
 49
0.0
 74
       0
 49
-2.1996
 74
       0
  0
LTYPE
  5
2E
100
AcDbSymbolTableRecord
100
AcDbLinetypeTableRecord
  2
DIVIDE2
 70
      64
  3
CADPAC LINETYPE
 72
      65
 73
       6
 40
8.2485
 49
3.2994
 74
       0
 49
-1.6497
 74
       0
 49
0.0
 74
       0
 49
-1.6497
 74
       0
 49
0.0
 74
       0
 49
-1.6497
 74
       0
  0
LTYPE
  5
2F
100
AcDbSymbolTableRecord
100
AcDbLinetypeTableRecord
  2
BORDERX2
 70
      64
  3
CADPAC LINETYPE
 72
      65
 73
       6
 40
19.2465
 49
5.499
 74
       0
 49
-2.7495
 74
       0
 49
5.499
 74
       0
 49
-2.7495
 74
       0
 49
0.0
 74
       0
 49
-2.7495
 74
       0
  0
LTYPE
  5
30
100
AcDbSymbolTableRecord
100
AcDbLinetypeTableRecord
  2
BORDER
 70
      64
  3
CADPAC LINETYPE
 72
      65
 73
       6
 40
15.3972
 49
4.3992
 74
       0
 49
-2.1996
 74
       0
 49
4.3992
 74
       0
 49
-2.1996
 74
       0
 49
0.0
 74
       0
 49
-2.1996
 74
       0
  0
LTYPE
  5
31
100
AcDbSymbolTableRecord
100
AcDbLinetypeTableRecord
  2
BORDER2
 70
      64
  3
CADPAC LINETYPE
 72
      65
 73
       6
 40
11.5479
 49
3.2994
 74
       0
 49
-1.6497
 74
       0
 49
3.2994
 74
       0
 49
-1.6497
 74
       0
 49
0.0
 74
       0
 49
-1.6497
 74
       0
  0
LTYPE
  5
32
100
AcDbSymbolTableRecord
100
AcDbLinetypeTableRecord
  2
PHANTOMX2
 70
      64
  3
CADPAC LINETYPE
 72
      65
 73
       6
 40
16.497
 49
5.499
 74
       0
 49
-2.1996
 74
       0
 49
2.1996
 74
       0
 49
-2.1996
 74
       0
 49
2.1996
 74
       0
 49
-2.1996
 74
       0
  0
LTYPE
  5
33
100
AcDbSymbolTableRecord
100
AcDbLinetypeTableRecord
  2
PHANTOM
 70
      64
  3
CADPAC LINETYPE
 72
      65
 73
       6
 40
13.63752
 49
4.3992
 74
       0
 49
-2.1996
 74
       0
 49
1.31976
 74
       0
 49
-2.1996
 74
       0
 49
1.31976
 74
       0
 49
-2.1996
 74
       0
  0
LTYPE
  5
34
100
AcDbSymbolTableRecord
100
AcDbLinetypeTableRecord
  2
PHANTOM2
 70
      64
  3
CADPAC LINETYPE
 72
      65
 73
       6
 40
11.65788
 49
3.2994
 74
       0
 49
-2.1996
 74
       0
 49
0.87984
 74
       0
 49
-2.1996
 74
       0
 49
0.87984
 74
       0
 49
-2.1996
 74
       0
  0
LTYPE
  5
35
100
AcDbSymbolTableRecord
100
AcDbLinetypeTableRecord
  2
ACAD_ISO06W100
 70
      64
  3
CADPAC LINETYPE
 72
      65
 73
       8
 40
14.8473
 49
5.499
 74
       0
 49
-2.7495
 74
       0
 49
0.0
 74
       0
 49
-2.1996
 74
       0
 49
0.0
 74
       0
 49
-2.1996
 74
       0
 49
0.0
 74
       0
 49
-2.1996
 74
       0
  0
LTYPE
  5
36
100
AcDbSymbolTableRecord
100
AcDbLinetypeTableRecord
  2
ACAD_ISO13W100
 70
      64
  3
CADPAC LINETYPE
 72
      65
 73
       8
 40
17.5968
 49
4.3992
 74
       0
 49
-2.1996
 74
       0
 49
4.3992
 74
       0
 49
-2.1996
 74
       0
 49
0.0
 74
       0
 49
-2.1996
 74
       0
 49
0.0
 74
       0
 49
-2.1996
 74
       0
  0
LTYPE
  5
37
100
AcDbSymbolTableRecord
100
AcDbLinetypeTableRecord
  2
ACAD_ISO14W100
 70
      64
  3
CADPAC LINETYPE
 72
      65
 73
       8
 40
13.1976
 49
4.3992
 74
       0
 49
-2.1996
 74
       0
 49
0.0
 74
       0
 49
-2.1996
 74
       0
 49
0.0
 74
       0
 49
-2.1996
 74
       0
 49
0.0
 74
       0
 49
-2.1996
 74
       0
  0
ENDTAB
  0
TABLE
  2
LAYER
  5
2
100
AcDbSymbolTable
 70
       4
  0
LAYER
  5
14
100
AcDbSymbolTableRecord
100
AcDbLayerTableRecord
  2
0
 70
       0
 62
       7
  6
CONTINUOUS
  0
LAYER
  5
38
100
AcDbSymbolTableRecord
100
AcDbLayerTableRecord
  2
SLD-0_0
 70
       0
 62
       7
  6
CONTINUOUS
  0
LAYER
  5
39
100
AcDbSymbolTableRecord
100
AcDbLayerTableRecord
  2
SLD-0
 70
       0
 62
       7
  6
CONTINUOUS
  0
LAYER
  5
3A
100
AcDbSymbolTableRecord
100
AcDbLayerTableRecord
  2
LAYER0004
 70
       0
 62
       7
  6
CONTINUOUS
  0
ENDTAB
  0
TABLE
  2
STYLE
  5
3
100
AcDbSymbolTable
 70
       1
  0
STYLE
  5
17
100
AcDbSymbolTableRecord
100
AcDbTextStyleTableRecord
  2
STANDARD
 70
       0
 40
0.0
 41
1.0
 50
0.0
 71
       0
 42
8.0
  3
txt.shx
  4
bigfont.shx
  0
ENDTAB
  0
TABLE
  2
VIEW
  5
5
100
AcDbSymbolTable
 70
       1
  0
VIEW
  5
3B
100
AcDbSymbolTableRecord
100
AcDbViewTableRecord
  2
QQQQ
 70
       0
 40
166.10451348
 10
0.0
 20
-0.90573265
 41
233.70750001
 11
0.0
 21
0.0
 31
1.0
 12
100.0
 22
100.0
 32
0.0
 42
50.0
 43
0.0
 44
0.0
 50
0.0
 71
       0
  0
ENDTAB
  0
TABLE
  2
UCS
  5
6
100
AcDbSymbolTable
 70
       0
  0
ENDTAB
  0
TABLE
  2
APPID
  5
8
100
AcDbSymbolTable
 70
       1
  0
APPID
  5
16
100
AcDbSymbolTableRecord
100
AcDbRegAppTableRecord
  2
ACAD
 70
       0
  0
ENDTAB
  0
TABLE
  2
DIMSTYLE
  5
9
100
AcDbSymbolTable
 70
       1
  0
DIMSTYLE
105
18
100
AcDbSymbolTableRecord
100
AcDbDimStyleTableRecord
  2
STANDARD
 70
       0
  3

  4

  5

  6

  7

 40
1.0
 41
0.18
 42
0.0625
 43
0.38
 44
0.18
 45
0.0
 46
0.0
 47
0.0
 48
0.0
 71
       0
 72
       0
 73
       1
 74
       1
 75
       0
 76
       0
 77
       0
 78
       0
140
0.18
141
0.09
142
0.0
143
25.4
144
1.0
145
0.0
146
1.0
147
0.09
170
       0
171
       2
172
       0
173
       0
174
       0
175
       0
176
       0
177
       0
178
       0
270
       2
271
       4
272
       4
273
       2
274
       2
275
       0
280
       0
281
       0
282
       0
283
       1
284
       0
285
       0
286
       0
287
       0
288
       0
340
17
  0
ENDTAB
  0
TABLE
  2
BLOCK_RECORD
  5
1
100
AcDbSymbolTable
 70
       0
  0
BLOCK_RECORD
  5
A
100
AcDbSymbolTableRecord
100
AcDbBlockTableRecord
  2
*MODEL_SPACE
  0
BLOCK_RECORD
  5
B
100
AcDbSymbolTableRecord
100
AcDbBlockTableRecord
  2
*PAPER_SPACE
  0
ENDTAB
  0
ENDSEC
  0
SECTION
  2
BLOCKS
  0
BLOCK
  5
D
100
AcDbEntity
  8
0
100
AcDbBlockBegin
  2
*MODEL_SPACE
 70
       0
 10
0.0
 20
0.0
 30
0.0
  3
*MODEL_SPACE
  1

  0
ENDBLK
  5
E
100
AcDbEntity
  8
0
100
AcDbBlockEnd
  0
BLOCK
  5
F
100
AcDbEntity
 67
       1
  8
0
100
AcDbBlockBegin
  2
*PAPER_SPACE
 70
       0
 10
0.0
 20
0.0
 30
0.0
  3
*PAPER_SPACE
  1

  0
ENDBLK
  5
10
100
AcDbEntity
 67
       1
  8
0
100
AcDbBlockEnd
  0
ENDSEC
  0
SECTION
  2
ENTITIES
  0
LINE
  5
3C
100
AcDbEntity
  8
SLD-0
  6
CONTINUOUS
 62
       3
100
AcDbLine
 10
-93.85481556
 20
-21.80209212
 30
0.0
 11
-20.14518445
 21
-21.80209212
 31
0.0
  0
LINE
  5
3D
100
AcDbEntity
  8
SLD-0
  6
CONTINUOUS
 62
       3
100
AcDbLine
 10
93.65
 20
-45.72153505
 30
0.0
 11
93.65
 21
-48.91267359
 31
0.0
  0
LINE
  5
3E
100
AcDbEntity
  8
SLD-0
  6
CONTINUOUS
 62
       3
100
AcDbLine
 10
-19.8464601
 20
-20.30024215
 30
0.0
 11
-18.42
 21
-20.30024215
 31
0.0
  0
LINE
  5
3F
100
AcDbEntity
  8
SLD-0
  6
CONTINUOUS
 62
       3
100
AcDbLine
 10
-19.8464601
 20
-19.66846169
 30
0.0
 11
-19.8464601
 21
-20.30024215
 31
0.0
  0
LINE
  5
40
100
AcDbEntity
  8
SLD-0
  6
CONTINUOUS
 62
       3
100
AcDbLine
 10
-94.1535399
 20
-19.66846169
 30
0.0
 11
-94.1535399
 21
-20.30024215
 31
0.0
  0
LINE
  5
41
100
AcDbEntity
  8
SLD-0
  6
CONTINUOUS
 62
       3
100
AcDbLine
 10
-94.1535399
 20
-20.30024215
 30
0.0
 11
-95.62
 21
-20.30024215
 31
0.0
  0
LINE
  5
42
100
AcDbEntity
  8
SLD-0
  6
CONTINUOUS
 62
       3
100
AcDbLine
 10
68.9551583
 20
22.92644822
 30
0.0
 11
70.75
 21
22.92644822
 31
0.0
  0
LINE
  5
43
100
AcDbEntity
  8
SLD-0
  6
CONTINUOUS
 62
       3
100
AcDbLine
 10
-9.75
 20
-20.19253948
 30
0.0
 11
-9.74999994
 21
-43.54598002
 31
0.0
  0
LINE
  5
44
100
AcDbEntity
  8
SLD-0
  6
CONTINUOUS
 62
       3
100
AcDbLine
 10
-20.14518445
 20
-21.80209212
 30
0.0
 11
-19.8464601
 21
-20.30024215
 31
0.0
  0
LINE
  5
45
100
AcDbEntity
  8
SLD-0
  6
CONTINUOUS
 62
       3
100
AcDbLine
 10
-20.25
 20
-19.21251401
 30
0.0
 11
-19.8464601
 21
-19.66846169
 31
0.0
  0
LINE
  5
46
100
AcDbEntity
  8
SLD-0
  6
CONTINUOUS
 62
       3
100
AcDbLine
 10
-10.43130114
 20
-19.66846169
 30
0.0
 11
-9.75
 21
-20.19253948
 31
0.0
  0
LINE
  5
47
100
AcDbEntity
  8
SLD-0
  6
CONTINUOUS
 62
       3
100
AcDbLine
 10
-19.8464601
 20
-19.66846169
 30
0.0
 11
-10.43130114
 21
-19.66846169
 31
0.0
  0
LINE
  5
48
100
AcDbEntity
  8
SLD-0
  6
CONTINUOUS
 62
       3
100
AcDbLine
 10
-94.1535399
 20
-20.30024215
 30
0.0
 11
-93.85481556
 21
-21.80209212
 31
0.0
  0
LINE
  5
49
100
AcDbEntity
  8
SLD-0
  6
CONTINUOUS
 62
       3
100
AcDbLine
 10
-93.75
 20
-19.21251401
 30
0.0
 11
-94.1535399
 21
-19.66846169
 31
0.0
  0
LINE
  5
4A
100
AcDbEntity
  8
SLD-0
  6
CONTINUOUS
 62
       3
100
AcDbLine
 10
-93.75
 20
-19.21251401
 30
0.0
 11
-20.25
 21
-19.21251401
 31
0.0
  0
LINE
  5
4B
100
AcDbEntity
  8
SLD-0
  6
CONTINUOUS
 62
       3
100
AcDbLine
 10
-101.06869887
 20
-19.66846169
 30
0.0
 11
-94.1535399
 21
-19.66846169
 31
0.0
  0
LINE
  5
4C
100
AcDbEntity
  8
SLD-0
  6
CONTINUOUS
 62
       3
100
AcDbLine
 10
-9.75
 20
-20.19253948
 30
0.0
 11
-7.75
 21
-20.19253948
 31
0.0
  0
LINE
  5
4D
100
AcDbEntity
  8
SLD-0
  6
CONTINUOUS
 62
       3
100
AcDbLine
 10
-101.75
 20
-20.19253948
 30
0.0
 11
-101.06869887
 21
-19.66846169
 31
0.0
  0
LINE
  5
4E
100
AcDbEntity
  8
SLD-0
  6
CONTINUOUS
 62
       3
100
AcDbLine
 10
-55.68816909
 20
-45.29471742
 30
0.0
 11
-55.78598818
 21
-45.29471742
 31
0.0
  0
LINE
  5
4F
100
AcDbEntity
  8
SLD-0
  6
CONTINUOUS
 62
       3
100
AcDbLine
 10
-15.91
 20
55.0978294
 30
0.0
 11
-15.91
 21
46.39349705
 31
0.0
  0
LINE
  5
50
100
AcDbEntity
  8
SLD-0
  6
CONTINUOUS
 62
       3
100
AcDbLine
 10
-95.59
 20
46.39349705
 30
0.0
 11
-95.59
 21
55.0978294
 31
0.0
  0
LINE
  5
51
100
AcDbEntity
  8
SLD-0
  6
CONTINUOUS
 62
       3
100
AcDbLine
 10
-101.75
 20
-20.19253948
 30
0.0
 11
-101.75
 21
-43.54598004
 31
0.0
  0
LINE
  5
52
100
AcDbEntity
  8
SLD-0
  6
CONTINUOUS
 62
       3
100
AcDbLine
 10
-105.75
 20
50.0978294
 30
0.0
 11
-105.75
 21
-18.19253948
 31
0.0
  0
LINE
  5
53
100
AcDbEntity
  8
SLD-0
  6
CONTINUOUS
 62
       3
100
AcDbLine
 10
-5.75
 20
50.30746052
 30
0.0
 11
-5.75
 21
-18.19253948
 31
0.0
  0
LINE
  5
54
100
AcDbEntity
  8
SLD-0
  6
CONTINUOUS
 62
       3
100
AcDbLine
 10
-103.75
 20
-20.19253948
 30
0.0
 11
-101.75
 21
-20.19253948
 31
0.0
  0
LINE
  5
55
100
AcDbEntity
  8
SLD-0
  6
CONTINUOUS
 62
       3
100
AcDbLine
 10
-15.87999993
 20
-39.69253946
 30
0.0
 11
-23.54999993
 21
-39.69253946
 31
0.0
  0
LINE
  5
56
100
AcDbEntity
  8
SLD-0
  6
CONTINUOUS
 62
       3
100
AcDbLine
 10
-18.42
 20
-29.69253948
 30
0.0
 11
-15.88
 21
-29.69253948
 31
0.0
  0
LINE
  5
57
100
AcDbEntity
  8
SLD-0
  6
CONTINUOUS
 62
       3
100
AcDbLine
 10
-95.62
 20
-30.69253948
 30
0.0
 11
-93.08
 21
-30.69253948
 31
0.0
  0
LINE
  5
58
100
AcDbEntity
  8
SLD-0
  6
CONTINUOUS
 62
       3
100
AcDbLine
 10
-95.62
 20
-30.69253948
 30
0.0
 11
-95.62
 21
-20.30024215
 31
0.0
  0
LINE
  5
59
100
AcDbEntity
  8
SLD-0
  6
CONTINUOUS
 62
       3
100
AcDbLine
 10
-93.08
 20
-30.69253948
 30
0.0
 11
-93.08
 21
-40.29253948
 31
0.0
  0
LINE
  5
5A
100
AcDbEntity
  8
SLD-0
  6
CONTINUOUS
 62
       3
100
AcDbLine
 10
-18.42
 20
-29.69253948
 30
0.0
 11
-18.42
 21
-20.30024215
 31
0.0
  0
LINE
  5
5B
100
AcDbEntity
  8
SLD-0
  6
CONTINUOUS
 62
       3
100
AcDbLine
 10
-15.88
 20
-40.29253948
 30
0.0
 11
-15.88
 21
-29.69253948
 31
0.0
  0
LINE
  5
5C
100
AcDbEntity
  8
SLD-0
  6
CONTINUOUS
 62
       3
100
AcDbLine
 10
-16.88
 20
-41.29253948
 30
0.0
 11
-23.55
 21
-41.29253948
 31
0.0
  0
LINE
  5
5D
100
AcDbEntity
  8
SLD-0
  6
CONTINUOUS
 62
       3
100
AcDbLine
 10
-103.75
 20
-18.93475278
 30
0.0
 11
-97.83513485
 21
-18.93475278
 31
0.0
  0
LINE
  5
5E
100
AcDbEntity
  8
SLD-0
  6
CONTINUOUS
 62
       3
100
AcDbLine
 10
-13.65
 20
-18.93475278
 30
0.0
 11
-7.75
 21
-18.93475278
 31
0.0
  0
LINE
  5
5F
100
AcDbEntity
  8
SLD-0
  6
CONTINUOUS
 62
       3
100
AcDbLine
 10
97.75
 20
-49.60202778
 30
0.0
 11
97.75
 21
-43.54598005
 31
0.0
  0
LINE
  5
60
100
AcDbEntity
  8
SLD-0
  6
CONTINUOUS
 62
       3
100
AcDbLine
 10
97.75
 20
-49.60202778
 30
0.0
 11
94.12383202
 21
-49.41198836
 31
0.0
  0
LINE
  5
61
100
AcDbEntity
  8
SLD-0
  6
CONTINUOUS
 62
       3
100
AcDbLine
 10
93.65
 20
-45.72153505
 30
0.0
 11
85.69766404
 21
-45.30477078
 31
0.0
  0
LINE
  5
62
100
AcDbEntity
  8
SLD-0
  6
CONTINUOUS
 62
       3
100
AcDbLine
 10
84.75
 20
-44.30614125
 30
0.0
 11
84.75
 21
-19.66846169
 31
0.0
  0
LINE
  5
63
100
AcDbEntity
  8
SLD-0
  6
CONTINUOUS
 62
       3
100
AcDbLine
 10
64.75
 20
-18.6203061
 30
0.0
 11
94.75
 21
-20.19253948
 31
0.0
  0
LINE
  5
64
100
AcDbEntity
  8
SLD-0
  6
CONTINUOUS
 62
       3
100
AcDbLine
 10
90.75
 20
42.83651845
 30
0.0
 11
71.69360509
 21
41.7601219
 31
0.0
  0
LINE
  5
65
100
AcDbEntity
  8
SLD-0
  6
CONTINUOUS
 62
       3
100
AcDbLine
 10
94.75
 20
55.30746052
 30
0.0
 11
94.75
 21
-20.15197276
 31
0.0
  0
LINE
  5
66
100
AcDbEntity
  8
SLD-0
  6
CONTINUOUS
 62
       3
100
AcDbLine
 10
90.75
 20
42.83651845
 30
0.0
 11
90.75
 21
54.14886484
 31
0.0
  0
LINE
  5
67
100
AcDbEntity
  8
SLD-0
  6
CONTINUOUS
 62
       3
100
AcDbLine
 10
90.75
 20
46.39349705
 30
0.0
 11
74.75
 21
45.77036775
 31
0.0
  0
LINE
  5
68
100
AcDbEntity
  8
SLD-0
  6
CONTINUOUS
 62
       3
100
AcDbLine
 10
74.75
 20
45.77036775
 30
0.0
 11
74.75
 21
50.46344667
 31
0.0
  0
LINE
  5
69
100
AcDbEntity
  8
SLD-0
  6
CONTINUOUS
 62
       3
100
AcDbLine
 10
78.54065617
 20
54.45796481
 30
0.0
 11
94.75
 21
55.30746052
 31
0.0
  0
LINE
  5
6A
100
AcDbEntity
  8
SLD-0
  6
CONTINUOUS
 62
       3
100
AcDbLine
 10
-93.75
 20
-21.80209212
 30
0.0
 11
-93.75
 21
-19.21251401
 31
0.0
  0
LINE
  5
6B
100
AcDbEntity
  8
SLD-0
  6
CONTINUOUS
 62
       3
100
AcDbLine
 10
-20.25
 20
-21.80209212
 30
0.0
 11
-20.25
 21
-19.21251401
 31
0.0
  0
LINE
  5
6C
100
AcDbEntity
  8
SLD-0
  6
CONTINUOUS
 62
       3
100
AcDbLine
 10
-24.54999993
 20
-42.69253949
 30
0.0
 11
-32.94999993
 21
-42.69253949
 31
0.0
  0
LINE
  5
6D
100
AcDbEntity
  8
SLD-0
  6
CONTINUOUS
 62
       3
100
AcDbLine
 10
-33.94999993
 20
-39.69253949
 30
0.0
 11
-33.94999993
 21
-41.69253949
 31
0.0
  0
LINE
  5
6E
100
AcDbEntity
  8
SLD-0
  6
CONTINUOUS
 62
       3
100
AcDbLine
 10
-23.54999993
 20
-39.69253946
 30
0.0
 11
-23.54999993
 21
-41.69253949
 31
0.0
  0
LINE
  5
6F
100
AcDbEntity
  8
SLD-0
  6
CONTINUOUS
 62
       3
100
AcDbLine
 10
-33.94999993
 20
-39.69253949
 30
0.0
 11
-77.54999993
 21
-39.69253949
 31
0.0
  0
LINE
  5
70
100
AcDbEntity
  8
SLD-0
  6
CONTINUOUS
 62
       3
100
AcDbLine
 10
-33.95
 20
-41.29253948
 30
0.0
 11
-77.55
 21
-41.29253948
 31
0.0
  0
LINE
  5
71
100
AcDbEntity
  8
SLD-0
  6
CONTINUOUS
 62
       3
100
AcDbLine
 10
-78.54999993
 20
-42.69253949
 30
0.0
 11
-86.94999993
 21
-42.69253949
 31
0.0
  0
LINE
  5
72
100
AcDbEntity
  8
SLD-0
  6
CONTINUOUS
 62
       3
100
AcDbLine
 10
-77.54999993
 20
-41.69253949
 30
0.0
 11
-77.54999993
 21
-39.69253949
 31
0.0
  0
LINE
  5
73
100
AcDbEntity
  8
SLD-0
  6
CONTINUOUS
 62
       3
100
AcDbLine
 10
-87.94999993
 20
-41.69253949
 30
0.0
 11
-87.94999993
 21
-39.69253949
 31
0.0
  0
LINE
  5
74
100
AcDbEntity
  8
SLD-0
  6
CONTINUOUS
 62
       3
100
AcDbLine
 10
-87.94999993
 20
-39.69253949
 30
0.0
 11
-93.07999993
 21
-39.69253949
 31
0.0
  0
LINE
  5
75
100
AcDbEntity
  8
SLD-0
  6
CONTINUOUS
 62
       3
100
AcDbLine
 10
-87.95
 20
-41.29253948
 30
0.0
 11
-92.08
 21
-41.29253948
 31
0.0
  0
LINE
  5
76
100
AcDbEntity
  8
SLD-0
  6
CONTINUOUS
 62
       3
100
AcDbLine
 10
-100.75
 20
55.30746052
 30
0.0
 11
-10.75
 21
55.30746052
 31
0.0
  0
LINE
  5
77
100
AcDbEntity
  8
SLD-0
  6
CONTINUOUS
 62
       3
100
AcDbLine
 10
71.69766405
 20
51.3571255
 30
0.0
 11
74.89332431
 21
51.52460295
 31
0.0
  0
LINE
  5
78
100
AcDbEntity
  8
SLD-0
  6
CONTINUOUS
 62
       3
100
AcDbLine
 10
70.75
 20
50.35849596
 30
0.0
 11
70.75
 21
-18.93475277
 31
0.0
  0
LINE
  5
79
100
AcDbEntity
  8
SLD-0
  6
CONTINUOUS
 62
       3
100
AcDbLine
 10
97.75
 20
-43.54598005
 30
0.0
 11
94.75
 21
-20.15197276
 31
0.0
  0
LINE
  5
7A
100
AcDbEntity
  8
SLD-0
  6
CONTINUOUS
 62
       3
100
AcDbLine
 10
98.75
 20
-43.58654677
 30
0.0
 11
95.75
 21
-20.19253948
 31
0.0
  0
LINE
  5
7B
100
AcDbEntity
  8
SLD-0
  6
CONTINUOUS
 62
       3
100
AcDbLine
 10
100.75
 20
-49.28764054
 30
0.0
 11
100.75
 21
-49.49721221
 31
0.0
  0
LINE
  5
7C
100
AcDbEntity
  8
SLD-0
  6
CONTINUOUS
 62
       3
100
AcDbLine
 10
98.75000001
 20
-49.39245609
 30
0.0
 11
104.80233596
 21
-49.0752666
 31
0.0
  0
LINE
  5
7D
100
AcDbEntity
  8
SLD-0
  6
CONTINUOUS
 62
       3
100
AcDbLine
 10
95.75
 20
55.30746052
 30
0.0
 11
104.80233595
 21
54.8330477
 31
0.0
  0
LINE
  5
7E
100
AcDbEntity
  8
SLD-0
  6
CONTINUOUS
 62
       3
100
AcDbLine
 10
105.75
 20
53.83441816
 30
0.0
 11
105.75
 21
27.05746052
 31
0.0
  0
LINE
  5
7F
100
AcDbEntity
  8
SLD-0
  6
CONTINUOUS
 62
       3
100
AcDbLine
 10
95.75
 20
55.30746052
 30
0.0
 11
95.75
 21
-20.19253948
 31
0.0
  0
LINE
  5
80
100
AcDbEntity
  8
SLD-0
  6
CONTINUOUS
 62
       3
100
AcDbLine
 10
102.75
 20
27.05746052
 30
0.0
 11
105.75
 21
27.05746052
 31
0.0
  0
LINE
  5
81
100
AcDbEntity
  8
SLD-0
  6
CONTINUOUS
 62
       3
100
AcDbLine
 10
103.88123299
 20
25.55746052
 30
0.0
 11
103.75
 21
27.05746052
 31
0.0
  0
LINE
  5
82
100
AcDbEntity
  8
SLD-0
  6
CONTINUOUS
 62
       3
100
AcDbLine
 10
103.88123299
 20
25.55746052
 30
0.0
 11
104.25
 21
25.55746052
 31
0.0
  0
LINE
  5
83
100
AcDbEntity
  8
SLD-0
  6
CONTINUOUS
 62
       3
100
AcDbLine
 10
104.25
 20
25.55746052
 30
0.0
 11
105.75
 21
27.05746052
 31
0.0
  0
LINE
  5
84
100
AcDbEntity
  8
SLD-0
  6
CONTINUOUS
 62
       3
100
AcDbLine
 10
102.75
 20
27.05746052
 30
0.0
 11
102.75
 21
-8.44253948
 31
0.0
  0
LINE
  5
85
100
AcDbEntity
  8
SLD-0
  6
CONTINUOUS
 62
       3
100
AcDbLine
 10
102.75
 20
-8.44253948
 30
0.0
 11
105.75
 21
-8.44253948
 31
0.0
  0
LINE
  5
86
100
AcDbEntity
  8
SLD-0
  6
CONTINUOUS
 62
       3
100
AcDbLine
 10
105.75
 20
-8.44253948
 30
0.0
 11
105.75
 21
-62.49253948
 31
0.0
  0
LINE
  5
87
100
AcDbEntity
  8
SLD-0
  6
CONTINUOUS
 62
       3
100
AcDbLine
 10
98.75
 20
-49.60202777
 30
0.0
 11
100.75
 21
-49.49721221
 31
0.0
  0
LINE
  5
88
100
AcDbEntity
  8
SLD-0
  6
CONTINUOUS
 62
       3
100
AcDbLine
 10
98.75
 20
-43.58654677
 30
0.0
 11
98.75
 21
-49.60202777
 31
0.0
  0
LINE
  5
89
100
AcDbEntity
  8
SLD-0
  6
CONTINUOUS
 62
       3
100
AcDbLine
 10
95.75
 20
-20.19253948
 30
0.0
 11
105.75
 21
-19.66846169
 31
0.0
  0
LINE
  5
8A
100
AcDbEntity
  8
SLD-0
  6
CONTINUOUS
 62
       3
100
AcDbLine
 10
95.75
 20
54.80746052
 30
0.0
 11
94.75
 21
54.75505274
 31
0.0
  0
LINE
  5
8B
100
AcDbEntity
  8
SLD-0
  6
CONTINUOUS
 62
       3
100
AcDbLine
 10
97.75
 20
-49.04961999
 30
0.0
 11
98.75
 21
-49.10202777
 31
0.0
  0
ARC
  5
8C
100
AcDbEntity
  8
SLD-0
  6
CONTINUOUS
 62
       3
100
AcDbCircle
 10
-55.75000014
 20
490.30746052
 30
0.0
 40
540.0
100
AcDbArc
 50
268.08978683
 51
268.95094272
  0
ARC
  5
8D
100
AcDbEntity
  8
SLD-0
  6
CONTINUOUS
 62
       3
100
AcDbCircle
 10
-55.74999992
 20
129.70528256
 30
0.0
 40
180.0
100
AcDbArc
 50
255.43982598
 51
264.26082945
  0
ARC
  5
8E
100
AcDbEntity
  8
SLD-0
  6
CONTINUOUS
 62
       3
100
AcDbCircle
 10
-55.75
 20
-58.79471742
 30
0.0
 40
13.5
100
AcDbArc
 50
42.9171397
 51
137.08286033
  0
ARC
  5
8F
100
AcDbEntity
  8
SLD-0
  6
CONTINUOUS
 62
       3
100
AcDbCircle
 10
-55.75
 20
-83.69253948
 30
0.0
 40
135.0
100
AcDbArc
 50
68.55107747
 51
111.44892253
  0
ARC
  5
90
100
AcDbEntity
  8
SLD-0
  6
CONTINUOUS
 62
       3
100
AcDbCircle
 10
-55.74256743
 20
-731.4698251
 30
0.0
 40
713.77728566
100
AcDbArc
 50
86.61921644
 51
93.38078356
  0
ARC
  5
91
100
AcDbEntity
  8
SLD-0
  6
CONTINUOUS
 62
       3
100
AcDbCircle
 10
-55.75000014
 20
490.30746052
 30
0.0
 40
540.0
100
AcDbArc
 50
271.04905731
 51
271.91021317
  0
ARC
  5
92
100
AcDbEntity
  8
SLD-0
  6
CONTINUOUS
 62
       3
100
AcDbCircle
 10
-55.74999992
 20
129.70528256
 30
0.0
 40
179.99999996
100
AcDbArc
 50
275.73917041
 51
284.56017402
  0
CIRCLE
  5
93
100
AcDbEntity
  8
SLD-0
  6
CONTINUOUS
 62
       3
100
AcDbCircle
 10
-10.75
 20
50.30746052
 30
0.0
 40
2.5
  0
CIRCLE
  5
94
100
AcDbEntity
  8
SLD-0
  6
CONTINUOUS
 62
       3
100
AcDbCircle
 10
-100.75
 20
50.30746052
 30
0.0
 40
2.5
  0
ARC
  5
95
100
AcDbEntity
  8
SLD-0
  6
CONTINUOUS
 62
       3
100
AcDbCircle
 10
-24.54999993
 20
-41.69253949
 30
0.0
 40
1.0
100
AcDbArc
 50
270.0
 51
360.0
  0
ARC
  5
96
100
AcDbEntity
  8
SLD-0
  6
CONTINUOUS
 62
       3
100
AcDbCircle
 10
-32.94999993
 20
-41.69253949
 30
0.0
 40
1.0
100
AcDbArc
 50
180.0
 51
270.0
  0
ARC
  5
97
100
AcDbEntity
  8
SLD-0
  6
CONTINUOUS
 62
       3
100
AcDbCircle
 10
-78.54999993
 20
-41.69253949
 30
0.0
 40
1.0
100
AcDbArc
 50
270.0
 51
360.0
  0
ARC
  5
98
100
AcDbEntity
  8
SLD-0
  6
CONTINUOUS
 62
       3
100
AcDbCircle
 10
-86.94999993
 20
-41.69253949
 30
0.0
 40
1.0
100
AcDbArc
 50
180.0
 51
270.0
  0
ARC
  5
99
100
AcDbEntity
  8
SLD-0
  6
CONTINUOUS
 62
       3
100
AcDbCircle
 10
94.15
 20
-48.91267359
 30
0.0
 40
0.5
100
AcDbArc
 50
180.0
 51
266.9999998
  0
ARC
  5
9A
100
AcDbEntity
  8
SLD-0
  6
CONTINUOUS
 62
       3
100
AcDbCircle
 10
71.75
 20
40.76171336
 30
0.0
 40
1.0
100
AcDbArc
 50
93.23290553
 51
180.0
  0
ARC
  5
9B
100
AcDbEntity
  8
SLD-0
  6
CONTINUOUS
 62
       3
100
AcDbCircle
 10
-10.74999995
 20
-43.54598002
 30
0.0
 40
1.0
100
AcDbArc
 50
284.56017531
 51
360.00000013
  0
ARC
  5
9C
100
AcDbEntity
  8
SLD-0
  6
CONTINUOUS
 62
       3
100
AcDbCircle
 10
-100.75
 20
-43.54598004
 30
0.0
 40
1.0
100
AcDbArc
 50
179.99999975
 51
255.43982986
  0
ARC
  5
9D
100
AcDbEntity
  8
SLD-0
  6
CONTINUOUS
 62
       3
100
AcDbCircle
 10
-10.75
 20
50.30746052
 30
0.0
 40
5.0
100
AcDbArc
 50
0.0
 51
90.0
  0
ARC
  5
9E
100
AcDbEntity
  8
SLD-0
  6
CONTINUOUS
 62
       3
100
AcDbCircle
 10
-100.75
 20
50.30746052
 30
0.0
 40
5.0
100
AcDbArc
 50
90.0
 51
180.0
  0
ARC
  5
9F
100
AcDbEntity
  8
SLD-0
  6
CONTINUOUS
 62
       3
100
AcDbCircle
 10
-16.88
 20
-40.29253948
 30
0.0
 40
1.0
100
AcDbArc
 50
270.0
 51
360.0
  0
ARC
  5
A0
100
AcDbEntity
  8
SLD-0
  6
CONTINUOUS
 62
       3
100
AcDbCircle
 10
-92.08
 20
-40.29253948
 30
0.0
 40
1.0
100
AcDbArc
 50
180.0
 51
270.0
  0
ARC
  5
A1
100
AcDbEntity
  8
SLD-0
  6
CONTINUOUS
 62
       3
100
AcDbCircle
 10
-7.75
 20
-18.19253948
 30
0.0
 40
2.0
100
AcDbArc
 50
270.0
 51
360.0
  0
ARC
  5
A2
100
AcDbEntity
  8
SLD-0
  6
CONTINUOUS
 62
       3
100
AcDbCircle
 10
-103.75
 20
-18.19253948
 30
0.0
 40
2.0
100
AcDbArc
 50
180.0
 51
270.0
  0
ARC
  5
A3
100
AcDbEntity
  8
SLD-0
  6
CONTINUOUS
 62
       3
100
AcDbCircle
 10
-7.75
 20
-16.93475278
 30
0.0
 40
2.0
100
AcDbArc
 50
270.0
 51
360.0
  0
ARC
  5
A4
100
AcDbEntity
  8
SLD-0
  6
CONTINUOUS
 62
       3
100
AcDbCircle
 10
-103.75
 20
-16.93475278
 30
0.0
 40
2.0
100
AcDbArc
 50
180.0
 51
270.0
  0
ARC
  5
A5
100
AcDbEntity
  8
SLD-0
  6
CONTINUOUS
 62
       3
100
AcDbCircle
 10
85.75
 20
-44.30614125
 30
0.0
 40
1.0
100
AcDbArc
 50
180.0
 51
266.99999977
  0
ARC
  5
A6
100
AcDbEntity
  8
SLD-0
  6
CONTINUOUS
 62
       3
100
AcDbCircle
 10
91.75
 20
54.14886484
 30
0.0
 40
1.0
100
AcDbArc
 50
93.0
 51
180.0
  0
ARC
  5
A7
100
AcDbEntity
  8
SLD-0
  6
CONTINUOUS
 62
       3
100
AcDbCircle
 10
78.75
 20
50.46344667
 30
0.0
 40
4.0
100
AcDbArc
 50
93.00000007
 51
180.0
  0
ARC
  5
A8
100
AcDbEntity
  8
SLD-0
  6
CONTINUOUS
 62
       3
100
AcDbCircle
 10
71.75
 20
50.35849596
 30
0.0
 40
1.0
100
AcDbArc
 50
93.0
 51
180.0
  0
ARC
  5
A9
100
AcDbEntity
  8
SLD-0
  6
CONTINUOUS
 62
       3
100
AcDbCircle
 10
-104.75
 20
41.02714622
 30
0.0
 40
1.0
100
AcDbArc
 50
111.44892293
 51
180.0
  0
ARC
  5
AA
100
AcDbEntity
  8
SLD-0
  6
CONTINUOUS
 62
       3
100
AcDbCircle
 10
-6.75
 20
41.02714622
 30
0.0
 40
1.0
100
AcDbArc
 50
0.0
 51
68.55107707
  0
ARC
  5
AB
100
AcDbEntity
  8
SLD-0
  6
CONTINUOUS
 62
       3
100
AcDbCircle
 10
104.75000001
 20
-48.07663708
 30
0.0
 40
0.99999999
100
AcDbArc
 50
272.99999966
 51
360.0
  0
ARC
  5
AC
100
AcDbEntity
  8
SLD-0
  6
CONTINUOUS
 62
       3
100
AcDbCircle
 10
104.75
 20
53.83441816
 30
0.0
 40
1.0
100
AcDbArc
 50
0.0
 51
87.00000037
  0
LINE
  5
AD
100
AcDbEntity
  8
SLD-0
  6
CENTERX2
 62
       3
100
AcDbLine
 10
-55.75
 20
74.25468069
 30
0.0
 11
-55.75
 21
-74.25468069
 31
0.0
  0
LINE
  5
AE
100
AcDbEntity
  8
SLD-0_0
  6
CONTINUOUS
 62
       3
100
AcDbLine
 10
-55.75
 20
62.31448939
 30
0.0
 11
-55.75
 21
55.30746052
 31
0.0
  0
LINE
  5
AF
100
AcDbEntity
  8
SLD-0_0
  6
CONTINUOUS
 62
       3
100
AcDbLine
 10
-50.9834965
 20
64.30746052
 30
0.0
 11
-29.82957042
 21
64.30746052
 31
0.0
  0
LINE
  5
B0
100
AcDbEntity
  8
SLD-0_0
  6
CONTINUOUS
 62
       3
100
AcDbLine
 10
90.25
 20
64.30746052
 30
0.0
 11
90.25
 21
55.07162551
 31
0.0
  0
LINE
  5
B1
100
AcDbEntity
  8
SLD-0_0
  6
CONTINUOUS
 62
       3
100
AcDbLine
 10
-85.56992734
 20
64.30746052
 30
0.0
 11
-60.25335965
 21
64.30746052
 31
0.0
  0
LINE
  5
B2
100
AcDbEntity
  8
SLD-0_0
  6
CONTINUOUS
 62
       3
100
AcDbLine
 10
78.25
 20
64.30746052
 30
0.0
 11
78.25
 21
54.43207364
 31
0.0
  0
LINE
  5
B3
100
AcDbEntity
  8
SLD-0_0
  6
CONTINUOUS
 62
       3
100
AcDbLine
 10
78.25
 20
64.30746052
 30
0.0
 11
90.25
 21
64.30746052
 31
0.0
  0
LINE
  5
B4
100
AcDbEntity
  8
SLD-0_0
  6
CONTINUOUS
 62
       3
100
AcDbLine
 10
99.45
 20
-60.89253948
 30
0.0
 11
99.45
 21
-62.49253948
 31
0.0
  0
LINE
  5
B5
100
AcDbEntity
  8
SLD-0_0
  6
CONTINUOUS
 62
       3
100
AcDbLine
 10
102.25
 20
-49.20902887
 30
0.0
 11
102.25
 21
-60.89253948
 31
0.0
  0
LINE
  5
B6
100
AcDbEntity
  8
SLD-0_0
  6
CONTINUOUS
 62
       3
100
AcDbLine
 10
99.45
 20
-62.49253948
 30
0.0
 11
105.75
 21
-62.49253948
 31
0.0
  0
LINE
  5
B7
100
AcDbEntity
  8
SLD-0_0
  6
CONTINUOUS
 62
       3
100
AcDbLine
 10
99.45
 20
-60.89253948
 30
0.0
 11
102.25
 21
-60.89253948
 31
0.0
  0
ARC
  5
B8
100
AcDbEntity
  8
SLD-0_0
  6
CONTINUOUS
 62
       3
100
AcDbCircle
 10
-55.74974649
 20
-16.08687577
 30
0.0
 40
42.34575178
100
AcDbArc
 50
356.14377876
 51
426.61234767
  0
ARC
  5
B9
100
AcDbEntity
  8
SLD-0_0
  6
CONTINUOUS
 62
       3
100
AcDbCircle
 10
265.13295712
 20
-17.91589435
 30
0.0
 40
200.38419523
100
AcDbArc
 50
168.23955782
 51
180.20141261
  0
ELLIPSE
  5
BA
100
AcDbEntity
  8
SLD-0_0
  6
CONTINUOUS
 62
       3
100
AcDbEllipse
 10
-55.68206998
 20
32.80746154
 30
0.0
 11
-34.199999996171215
 21
-0.0005117509344643
 31
0.0
210
0.0
220
0.0
230
1.0
 40
0.33625721
 41
0.0
 42
6.2831853071796004
  0
LINE
  5
BB
100
AcDbEntity
  8
0
  6
CONTINUOUS
 62
       3
100
AcDbLine
 10
-85.57094138
 20
62.31448939
 30
0.0
 11
-90.07328699
 21
62.31448939
 31
0.0
  0
LINE
  5
BC
100
AcDbEntity
  8
0
  6
CONTINUOUS
 62
       3
100
AcDbLine
 10
-60.25335965
 20
55.30746052
 30
0.0
 11
-60.25335965
 21
64.30746052
 31
0.0
  0
LINE
  5
BD
100
AcDbEntity
  8
0
  6
CONTINUOUS
 62
       3
100
AcDbLine
 10
-85.56992734
 20
64.30746052
 30
0.0
 11
-85.56992734
 21
55.30746052
 31
0.0
  0
LINE
  5
BE
100
AcDbEntity
  8
0
  6
CONTINUOUS
 62
       3
100
AcDbLine
 10
65.74984522
 20
-30.71934589
 30
0.0
 11
70.25421891
 21
-30.71934589
 31
0.0
  0
LINE
  5
BF
100
AcDbEntity
  8
0
  6
CONTINUOUS
 62
       3
100
AcDbLine
 10
70.25421891
 20
-20.52873278
 30
0.0
 11
70.25421891
 21
-36.83097585
 31
0.0
  0
LINE
  5
C0
100
AcDbEntity
  8
0
  6
CONTINUOUS
 62
       3
100
AcDbLine
 10
70.25421891
 20
-36.83097585
 30
0.0
 11
81.2616427
 21
-36.83097585
 31
0.0
  0
LINE
  5
C1
100
AcDbEntity
  8
0
  6
CONTINUOUS
 62
       3
100
AcDbLine
 10
-90.07328699
 20
62.31448939
 30
0.0
 11
-90.07328699
 21
55.30746052
 31
0.0
  0
LINE
  5
C2
100
AcDbEntity
  8
0
  6
CONTINUOUS
 62
       3
100
AcDbLine
 10
-50.9834965
 20
64.30746052
 30
0.0
 11
-50.9834965
 21
55.30746052
 31
0.0
  0
LINE
  5
C3
100
AcDbEntity
  8
0
  6
CONTINUOUS
 62
       3
100
AcDbLine
 10
-60.25335965
 20
63.31433461
 30
0.0
 11
-85.56992734
 21
63.31433461
 31
0.0
  0
LINE
  5
C4
100
AcDbEntity
  8
0
  6
CONTINUOUS
 62
       3
100
AcDbLine
 10
-40.40653346
 20
56.55878811
 30
0.0
 11
-29.83058446
 21
56.55878811
 31
0.0
  0
LINE
  5
C5
100
AcDbEntity
  8
0
  6
CONTINUOUS
 62
       3
100
AcDbLine
 10
-55.75
 20
62.31448939
 30
0.0
 11
-60.25335965
 21
62.31448939
 31
0.0
  0
LINE
  5
C6
100
AcDbEntity
  8
0
  6
CONTINUOUS
 62
       3
100
AcDbLine
 10
-40.40653346
 20
63.31433461
 30
0.0
 11
-50.9834965
 21
63.31433461
 31
0.0
  0
LINE
  5
C7
100
AcDbEntity
  8
0
  6
CONTINUOUS
 62
       3
100
AcDbLine
 10
-29.83058446
 20
63.31433461
 30
0.0
 11
-40.40653346
 21
63.31433461
 31
0.0
  0
LINE
  5
C8
100
AcDbEntity
  8
0
  6
CONTINUOUS
 62
       3
100
AcDbLine
 10
-50.9834965
 20
56.55878811
 30
0.0
 11
-40.40653346
 21
56.55878811
 31
0.0
  0
LINE
  5
C9
100
AcDbEntity
  8
0
  6
CONTINUOUS
 62
       3
100
AcDbLine
 10
-85.56992734
 20
56.55878811
 30
0.0
 11
-60.25335965
 21
56.55878811
 31
0.0
  0
LINE
  5
CA
100
AcDbEntity
  8
0
  6
CONTINUOUS
 62
       3
100
AcDbLine
 10
81.2616427
 20
-20.52873278
 30
0.0
 11
70.25421891
 21
-20.52873278
 31
0.0
  0
LINE
  5
CB
100
AcDbEntity
  8
0
  6
CONTINUOUS
 62
       3
100
AcDbLine
 10
81.2616427
 20
-19.87112667
 30
0.0
 11
65.74984522
 21
-19.87112667
 31
0.0
  0
LINE
  5
CC
100
AcDbEntity
  8
0
  6
CONTINUOUS
 62
       3
100
AcDbLine
 10
-29.82957042
 20
55.30746052
 30
0.0
 11
-29.82957042
 21
64.30746052
 31
0.0
  0
LINE
  5
CD
100
AcDbEntity
  8
0
  6
CONTINUOUS
 62
       3
100
AcDbLine
 10
65.74984522
 20
-19.87112667
 30
0.0
 11
65.74984522
 21
-30.71934589
 31
0.0
  0
LINE
  5
CE
100
AcDbEntity
  8
0
  6
CONTINUOUS
 62
       3
100
AcDbLine
 10
81.2616427
 20
-19.48564463
 30
0.0
 11
81.2616427
 21
-38.65980024
 31
0.0
  0
LINE
  5
CF
100
AcDbEntity
  8
0
  6
CONTINUOUS
 62
       3
100
AcDbLine
 10
81.2616427
 20
-38.65980024
 30
0.0
 11
84.76312905
 21
-38.65980024
 31
0.0
  0
ARC
  5
D0
100
AcDbEntity
  8
0
  6
CONTINUOUS
 62
       3
100
AcDbCircle
 10
-55.74974649
 20
-16.08687577
 30
0.0
 40
42.34575178
100
AcDbArc
 50
113.32787728
 51
183.85622123
  0
LINE
  5
D1
100
AcDbEntity
  8
LAYER0004
  6
CONTINUOUS
 62
       3
100
AcDbLine
 10
-68.54626771
 20
-60.89253948
 30
0.0
 11
-68.54626771
 21
-49.54090294
 31
0.0
  0
LINE
  5
D2
100
AcDbEntity
  8
LAYER0004
  6
CONTINUOUS
 62
       3
100
AcDbLine
 10
-42.94626771
 20
-49.54090294
 30
0.0
 11
-42.94626771
 21
-60.89253948
 31
0.0
  0
LINE
  5
D3
100
AcDbEntity
  8
LAYER0004
  6
CONTINUOUS
 62
       3
100
AcDbLine
 10
-37.79626771
 20
-62.49253948
 30
0.0
 11
-37.79626771
 21
-49.39399723
 31
0.0
  0
LINE
  5
D4
100
AcDbEntity
  8
LAYER0004
  6
CONTINUOUS
 62
       3
100
AcDbLine
 10
-73.69626771
 20
-62.49253948
 30
0.0
 11
-37.79626771
 21
-62.49253948
 31
0.0
  0
LINE
  5
D5
100
AcDbEntity
  8
LAYER0004
  6
CONTINUOUS
 62
       3
100
AcDbLine
 10
-73.69626771
 20
-60.89253948
 30
0.0
 11
-37.79626771
 21
-60.89253948
 31
0.0
  0
LINE
  5
D6
100
AcDbEntity
  8
LAYER0004
  6
CONTINUOUS
 62
       3
100
AcDbLine
 10
-73.69626771
 20
-62.49253948
 30
0.0
 11
-73.69626771
 21
-49.39424549
 31
0.0
  0
CIRCLE
  5
D7
100
AcDbEntity
  8
LAYER0004
  6
CONTINUOUS
 62
       3
100
AcDbCircle
 10
-55.74626771
 20
-53.69253948
 30
0.0
 40
5.0
  0
CIRCLE
  5
D8
100
AcDbEntity
  8
LAYER0004
  6
CONTINUOUS
 62
       3
100
AcDbCircle
 10
-55.74626771
 20
-53.69253948
 30
0.0
 40
2.5
  0
TEXT
  5
D9
100
AcDbEntity
  8
SLD-0_0
 62
       3
100
AcDbText
 10
73.25595519
 20
-76.06614599
 30
0.0
 40
8.0
  1
000
 72
       5
 11
97.25595519
 21
-76.06614599
 31
0.0
100
AcDbText
  0
ENDSEC
  0
SECTION
  2
OBJECTS
  0
DICTIONARY
  5
19
100
AcDbDictionary
  3
ACAD_GROUP
350
1A
  3
ACAD_MLINESTYLE
350
1B
  0
DICTIONARY
  5
1A
102
{ACAD_REACTORS
330
19
102
}
100
AcDbDictionary
  0
DICTIONARY
  5
1B
102
{ACAD_REACTORS
330
19
102
}
100
AcDbDictionary
  3
STANDARD
350
1C
  0
MLINESTYLE
  5
1C
102
{ACAD_REACTORS
330
1B
102
}
100
AcDbMlineStyle
  2
STANDARD
 70
       0
  3

 62
       0
 51
90.0
 52
90.0
 71
       2
 49
0.5
 62
     256
  6
BYLAYER
 49
-0.5
 62
     256
  6
BYLAYER
  0
ENDSEC
  0
EOF
