  0
SECTION
  2
HEADER
  9
$ACADVER
  1
AC1014
  9
$ACADMAINTVER
 70
       0
  9
$DWGCODEPAGE
  3
ANSI_932
  9
$INSBASE
 10
0.0
 20
0.0
 30
0.0
  9
$EXTMIN
 10
-122.08748763
 20
-68.16331911
 30
0.0
  9
$EXTMAX
 10
122.08748763
 20
68.16331911
 30
0.0
  9
$LIMMIN
 10
-129.71795561
 20
-72.42352656
  9
$LIMMAX
 10
129.71795561
 20
72.42352656
  9
$ORTHOMODE
 70
       0
  9
$REGENMODE
 70
       1
  9
$FILLMODE
 70
       1
  9
$QTEXTMODE
 70
       0
  9
$MIRRTEXT
 70
       1
  9
$DRAGMODE
 70
       2
  9
$LTSCALE
 40
1.0
  9
$OSMODE
 70
       0
  9
$ATTMODE
 70
       1
  9
$TEXTSIZE
 40
0.2
  9
$TRACEWID
 40
0.05
  9
$TEXTSTYLE
  7
STANDARD
  9
$CLAYER
  8
0
  9
$CELTYPE
  6
CONTINUOUS
  9
$CECOLOR
 62
     256
  9
$CELTSCALE
 40
1.0
  9
$DELOBJ
 70
       1
  9
$DISPSILH
 70
       0
  9
$DIMSCALE
 40
1.0
  9
$DIMASZ
 40
0.18
  9
$DIMEXO
 40
0.0625
  9
$DIMDLI
 40
0.38
  9
$DIMRND
 40
0.0
  9
$DIMDLE
 40
0.0
  9
$DIMEXE
 40
0.18
  9
$DIMTP
 40
0.0
  9
$DIMTM
 40
0.0
  9
$DIMTXT
 40
0.18
  9
$DIMCEN
 40
0.09
  9
$DIMTSZ
 40
0.0
  9
$DIMTOL
 70
       0
  9
$DIMLIM
 70
       0
  9
$DIMTIH
 70
       1
  9
$DIMTOH
 70
       1
  9
$DIMSE1
 70
       0
  9
$DIMSE2
 70
       0
  9
$DIMTAD
 70
       0
  9
$DIMZIN
 70
       0
  9
$DIMBLK
  1

  9
$DIMASO
 70
       1
  9
$DIMSHO
 70
       1
  9
$DIMPOST
  1

  9
$DIMAPOST
  1

  9
$DIMALT
 70
       0
  9
$DIMALTD
 70
       2
  9
$DIMALTF
 40
25.4
  9
$DIMLFAC
 40
1.0
  9
$DIMTOFL
 70
       0
  9
$DIMTVP
 40
0.0
  9
$DIMTIX
 70
       0
  9
$DIMSOXD
 70
       0
  9
$DIMSAH
 70
       0
  9
$DIMBLK1
  1

  9
$DIMBLK2
  1

  9
$DIMSTYLE
  2
STANDARD
  9
$DIMCLRD
 70
       0
  9
$DIMCLRE
 70
       0
  9
$DIMCLRT
 70
       0
  9
$DIMTFAC
 40
1.0
  9
$DIMGAP
 40
0.09
  9
$DIMJUST
 70
       0
  9
$DIMSD1
 70
       0
  9
$DIMSD2
 70
       0
  9
$DIMTOLJ
 70
       1
  9
$DIMTZIN
 70
       0
  9
$DIMALTZ
 70
       0
  9
$DIMALTTZ
 70
       0
  9
$DIMFIT
 70
       3
  9
$DIMUPT
 70
       0
  9
$DIMUNIT
 70
       2
  9
$DIMDEC
 70
       4
  9
$DIMTDEC
 70
       4
  9
$DIMALTU
 70
       2
  9
$DIMALTTD
 70
       2
  9
$DIMTXSTY
  7
STANDARD
  9
$DIMAUNIT
 70
       0
  9
$LUNITS
 70
       2
  9
$LUPREC
 70
       4
  9
$SKETCHINC
 40
0.1
  9
$FILLETRAD
 40
0.0
  9
$AUNITS
 70
       0
  9
$AUPREC
 70
       0
  9
$MENU
  1
acad
  9
$ELEVATION
 40
0.0
  9
$PELEVATION
 40
0.0
  9
$THICKNESS
 40
0.0
  9
$LIMCHECK
 70
       0
  9
$BLIPMODE
 70
       1
  9
$CHAMFERA
 40
0.0
  9
$CHAMFERB
 40
0.0
  9
$CHAMFERC
 40
0.0
  9
$CHAMFERD
 40
0.0
  9
$SKPOLY
 70
       0
  9
$TDCREATE
 40
0.000000000
  9
$TDUPDATE
 40
0.000000000
  9
$TDINDWG
 40
0.0000000000
  9
$TDUSRTIMER
 40
0.0000000000
  9
$USRTIMER
 70
       1
  9
$ANGBASE
 50
0.0
  9
$ANGDIR
 70
       0
  9
$PDMODE
 70
       0
  9
$PDSIZE
 40
1.0
  9
$PLINEWID
 40
0.0
  9
$COORDS
 70
       1
  9
$SPLFRAME
 70
       0
  9
$SPLINETYPE
 70
       6
  9
$SPLINESEGS
 70
       8
  9
$ATTDIA
 70
       0
  9
$ATTREQ
 70
       1
  9
$HANDLING
 70
       1
  9
$HANDSEED
  5
171
  9
$SURFTAB1
 70
       6
  9
$SURFTAB2
 70
       6
  9
$SURFTYPE
 70
       6
  9
$SURFU
 70
       6
  9
$SURFV
 70
       6
  9
$UCSNAME
  2

  9
$UCSORG
 10
0.0
 20
0.0
 30
0.0
  9
$UCSXDIR
 10
1.0
 20
0.0
 30
0.0
  9
$UCSYDIR
 10
0.0
 20
1.0
 30
0.0
  9
$PUCSNAME
  2

  9
$PUCSORG
 10
0.0
 20
0.0
 30
0.0
  9
$PUCSXDIR
 10
1.0
 20
0.0
 30
0.0
  9
$PUCSYDIR
 10
0.0
 20
1.0
 30
0.0
  9
$USERI1
 70
       0
  9
$USERI2
 70
       0
  9
$USERI3
 70
       0
  9
$USERI4
 70
       0
  9
$USERI5
 70
       0
  9
$USERR1
 40
0.0
  9
$USERR2
 40
0.0
  9
$USERR3
 40
0.0
  9
$USERR4
 40
0.0
  9
$USERR5
 40
0.0
  9
$WORLDVIEW
 70
       1
  9
$SHADEDGE
 70
       3
  9
$SHADEDIF
 70
      70
  9
$TILEMODE
 70
       1
  9
$MAXACTVP
 70
      16
  9
$PINSBASE
 10
0.0
 20
0.0
 30
0.0
  9
$PLIMCHECK
 70
       0
  9
$PEXTMIN
 10
1.00000000E+20
 20
1.00000000E+20
 30
1.00000000E+20
  9
$PEXTMAX
 10
-1.00000000E+20
 20
-1.00000000E+20
 30
-1.00000000E+20
  9
$PLIMMIN
 10
0.0
 20
0.0
  9
$PLIMMAX
 10
12.0
 20
9.0
  9
$UNITMODE
 70
       0
  9
$VISRETAIN
 70
       0
  9
$PLINEGEN
 70
       1
  9
$PSLTSCALE
 70
       0
  9
$TREEDEPTH
 70
    3020
  9
$PICKSTYLE
 70
       1
  9
$CMLSTYLE
  2
STANDARD
  9
$CMLJUST
 70
       0
  9
$CMLSCALE
 40
1.0
  9
$PROXYGRAPHICS
 70
       0
  9
$MEASUREMENT
 70
       0
  0
ENDSEC
  0
SECTION
  2
CLASSES
  0
CLASS
  1
LWPOLYLINE
  2
AcDbPolyline
  3
"AutoCAD"
 90
        0
280
       0
281
       1
  0
CLASS
  1
IMAGE
  2
AcDbRasterImage
  3
ISM
 90
      127
280
       0
281
       1
  0
CLASS
  1
OLE2FRAME
  2
AcDbOle2Frame
  3
""
 90
        0
280
       0
281
       1
  0
CLASS
  1
HATCH
  2
AcDbHatch
  3
"ACAD_SEDONA"
 90
        0
280
       0
281
       1
  0
CLASS
  1
DICTIONARYVAR
  2
AcDbDictionaryVar
  3
"AutoCAD"
 90
        0
280
       0
281
       0
  0
CLASS
  1
RASTERVARIABLES
  2
AcDbRasterVariables
  3
ISM
 90
        0
280
       0
281
       0
  0
CLASS
  1
IMAGEDEF
  2
AcDbRasterImageDef
  3
ISM
 90
        0
280
       0
281
       0
  0
CLASS
  1
IMAGEDEF_REACTOR
  2
AcDbRasterImageDefReactor
  3
ISM
 90
        1
280
       0
281
       0
  0
CLASS
  1
IDBUFFER
  2
AcDbIdBuffer
  3
"Acad"
 90
        0
280
       0
281
       0
  0
CLASS
  1
SPATIAL_FILTER
  2
AcDbSpatialFilter
  3
"Acad"
 90
        0
280
       0
281
       0
  0
CLASS
  1
XRECORD
  2
AcDbXrecord
  3
"<Built In>"
 90
        0
280
       0
281
       0
  0
CLASS
  1
SORTENTSTABLE
  2
AcDbSortentsTable
  3
"AutoCAD"
 90
        0
280
       0
281
       0
  0
CLASS
  1
LAYER_INDEX
  2
AcDbLayerIndex
  3
"Acad"
 90
        0
280
       0
281
       0
  0
CLASS
  1
SPATIAL_INDEX
  2
AcDbSpatialIndex
  3
"Acad"
 90
        0
280
       0
281
       0
  0
CLASS
  1
OBJECT_PTR
  2
CAseDLPNTableRecord
  3
"ASE-LPNTableRecord"
 90
        1
280
       0
281
       0
  0
CLASS
  1
LAYOUT
  2
AcDbLayout
  3
"AutoCAD 2000"
 90
        1
280
       0
281
       0
  0
CLASS
  1
PLOTSETTINGS
  2
AcDbPlotSettings
  3
"AutoCAD 2000"
 90
        1
280
       0
281
       0
  0
CLASS
  1
ACDBDICTIONARYWDFLT
  2
AcDbDictionaryWithDefault
  3
"AutoCAD 2000"
 90
        1
280
       0
281
       0
  0
CLASS
  1
ACDBPLACEHOLDER
  2
AcDbPlaceHolder
  3
"AutoCAD 2000"
 90
        1
280
       0
281
       0
  0
CLASS
  1
VBA_PROJECT
  2
AcDbVbaProject
  3
"acadvba"
 90
        1
280
       0
281
       0
  0
CLASS
  1
WIPEOUT
  2
AcDbWipeout
  3
WipeOut|AutoCAD Express Tool|expresstools@autodesk.com
 90
      127
280
       0
281
       1
  0
CLASS
  1
WIPEOUTVARIABLES
  2
AcDbWipeoutVariables
  3
WipeOut|AutoCAD Express Tool|expresstools@autodesk.com
 90
        0
280
       0
281
       0
  0
CLASS
  1
RTEXT
  2
RText
  3
RText|AutoCAD Express Tool|expresstools@autodesk.com
 90
        0
280
       0
281
       1
  0
CLASS
  1
ARCALIGNEDTEXT
  2
AcDbArcAlignedText
  3
ATEXT|AutoCAD Express Tool|expresstools@autodesk.com
 90
        0
280
       0
281
       1
  0
ENDSEC
  0
SECTION
  2
TABLES
  0
TABLE
  2
VPORT
  5
7
100
AcDbSymbolTable
 70
       1
  0
VPORT
  5
15
100
AcDbSymbolTableRecord
100
AcDbViewportTableRecord
  2
*ACTIVE
 70
       0
 10
0.0
 20
0.0
 11
1.0
 21
1.0
 12
0.0
 22
0.0
 13
0.0
 23
0.0
 14
1.0
 24
1.0
 15
0.0
 25
0.0
 16
0.0
 26
0.0
 36
1.0
 17
0.0
 27
0.0
 37
0.0
 40
144.84705311
 41
1.79110245
 42
50.0
 43
0.0
 44
0.0
 50
0.0
 51
0.0
 71
       0
 72
     100
 73
       1
 74
       1
 75
       0
 76
       0
 77
       0
 78
       0
  0
ENDTAB
  0
TABLE
  2
LTYPE
  5
4
100
AcDbSymbolTable
 70
      30
  0
LTYPE
  5
11
100
AcDbSymbolTableRecord
100
AcDbLinetypeTableRecord
  2
BYBLOCK
 70
      64
  3

 72
      65
 73
       0
 40
0.0
  0
LTYPE
  5
12
100
AcDbSymbolTableRecord
100
AcDbLinetypeTableRecord
  2
BYLAYER
 70
      64
  3

 72
      65
 73
       0
 40
0.0
  0
LTYPE
  5
13
100
AcDbSymbolTableRecord
100
AcDbLinetypeTableRecord
  2
CONTINUOUS
 70
      64
  3
Solid line
 72
      65
 73
       0
 40
0.0
  0
LTYPE
  5
1D
100
AcDbSymbolTableRecord
100
AcDbLinetypeTableRecord
  2
HIDDENX2
 70
      64
  3
CADPAC LINETYPE
 72
      65
 73
       2
 40
9.76699901
 49
7.32524926
 74
       0
 49
-2.44174975
 74
       0
  0
LTYPE
  5
1E
100
AcDbSymbolTableRecord
100
AcDbLinetypeTableRecord
  2
HIDDEN
 70
      64
  3
CADPAC LINETYPE
 72
      65
 73
       2
 40
7.32524926
 49
4.88349951
 74
       0
 49
-2.44174975
 74
       0
  0
LTYPE
  5
1F
100
AcDbSymbolTableRecord
100
AcDbLinetypeTableRecord
  2
HIDDEN2
 70
      64
  3
CADPAC LINETYPE
 72
      65
 73
       2
 40
6.10437438
 49
3.66262463
 74
       0
 49
-2.44174975
 74
       0
  0
LTYPE
  5
20
100
AcDbSymbolTableRecord
100
AcDbLinetypeTableRecord
  2
DASHED
 70
      64
  3
CADPAC LINETYPE
 72
      65
 73
       2
 40
7.32524926
 49
4.88349951
 74
       0
 49
-2.44174975
 74
       0
  0
LTYPE
  5
21
100
AcDbSymbolTableRecord
100
AcDbLinetypeTableRecord
  2
DASHED2
 70
      64
  3
CADPAC LINETYPE
 72
      65
 73
       2
 40
5.49393694
 49
3.66262463
 74
       0
 49
-1.83131231
 74
       0
  0
LTYPE
  5
22
100
AcDbSymbolTableRecord
100
AcDbLinetypeTableRecord
  2
DASHEDX2
 70
      64
  3
CADPAC LINETYPE
 72
      65
 73
       2
 40
10.98787389
 49
7.32524926
 74
       0
 49
-3.66262463
 74
       0
  0
LTYPE
  5
23
100
AcDbSymbolTableRecord
100
AcDbLinetypeTableRecord
  2
DOTX2
 70
      64
  3
CADPAC LINETYPE
 72
      65
 73
       2
 40
3.05218719
 49
0.0
 74
       0
 49
-3.05218719
 74
       0
  0
LTYPE
  5
24
100
AcDbSymbolTableRecord
100
AcDbLinetypeTableRecord
  2
DOT
 70
      64
  3
CADPAC LINETYPE
 72
      65
 73
       2
 40
2.44174975
 49
0.0
 74
       0
 49
-2.44174975
 74
       0
  0
LTYPE
  5
25
100
AcDbSymbolTableRecord
100
AcDbLinetypeTableRecord
  2
DOT2
 70
      64
  3
CADPAC LINETYPE
 72
      65
 73
       2
 40
1.83131231
 49
0.0
 74
       0
 49
-1.83131231
 74
       0
  0
LTYPE
  5
26
100
AcDbSymbolTableRecord
100
AcDbLinetypeTableRecord
  2
CENTERX2
 70
      64
  3
CADPAC LINETYPE
 72
      65
 73
       4
 40
14.65049852
 49
6.10437438
 74
       0
 49
-3.05218719
 74
       0
 49
2.44174975
 74
       0
 49
-3.05218719
 74
       0
  0
LTYPE
  5
27
100
AcDbSymbolTableRecord
100
AcDbLinetypeTableRecord
  2
CENTER
 70
      64
  3
CADPAC LINETYPE
 72
      65
 73
       4
 40
11.23204886
 49
4.88349951
 74
       0
 49
-2.44174975
 74
       0
 49
1.46504985
 74
       0
 49
-2.44174975
 74
       0
  0
LTYPE
  5
28
100
AcDbSymbolTableRecord
100
AcDbLinetypeTableRecord
  2
CENTER2
 70
      64
  3
CADPAC LINETYPE
 72
      65
 73
       4
 40
7.81359921
 49
3.66262463
 74
       0
 49
-1.83131231
 74
       0
 49
0.48834995
 74
       0
 49
-1.83131231
 74
       0
  0
LTYPE
  5
29
100
AcDbSymbolTableRecord
100
AcDbLinetypeTableRecord
  2
DASHDOTX2
 70
      64
  3
CADPAC LINETYPE
 72
      65
 73
       4
 40
12.20874876
 49
6.10437438
 74
       0
 49
-3.05218719
 74
       0
 49
0.0
 74
       0
 49
-3.05218719
 74
       0
  0
LTYPE
  5
2A
100
AcDbSymbolTableRecord
100
AcDbLinetypeTableRecord
  2
DASHDOT
 70
      64
  3
CADPAC LINETYPE
 72
      65
 73
       4
 40
9.76699901
 49
4.88349951
 74
       0
 49
-2.44174975
 74
       0
 49
0.0
 74
       0
 49
-2.44174975
 74
       0
  0
LTYPE
  5
2B
100
AcDbSymbolTableRecord
100
AcDbLinetypeTableRecord
  2
DASHDOT2
 70
      64
  3
CADPAC LINETYPE
 72
      65
 73
       4
 40
7.32524926
 49
3.66262463
 74
       0
 49
-1.83131231
 74
       0
 49
0.0
 74
       0
 49
-1.83131231
 74
       0
  0
LTYPE
  5
2C
100
AcDbSymbolTableRecord
100
AcDbLinetypeTableRecord
  2
DIVIDEX2
 70
      64
  3
CADPAC LINETYPE
 72
      65
 73
       6
 40
15.26093595
 49
6.10437438
 74
       0
 49
-3.05218719
 74
       0
 49
0.0
 74
       0
 49
-3.05218719
 74
       0
 49
0.0
 74
       0
 49
-3.05218719
 74
       0
  0
LTYPE
  5
2D
100
AcDbSymbolTableRecord
100
AcDbLinetypeTableRecord
  2
DIVIDE
 70
      64
  3
CADPAC LINETYPE
 72
      65
 73
       6
 40
12.20874876
 49
4.88349951
 74
       0
 49
-2.44174975
 74
       0
 49
0.0
 74
       0
 49
-2.44174975
 74
       0
 49
0.0
 74
       0
 49
-2.44174975
 74
       0
  0
LTYPE
  5
2E
100
AcDbSymbolTableRecord
100
AcDbLinetypeTableRecord
  2
DIVIDE2
 70
      64
  3
CADPAC LINETYPE
 72
      65
 73
       6
 40
9.15656157
 49
3.66262463
 74
       0
 49
-1.83131231
 74
       0
 49
0.0
 74
       0
 49
-1.83131231
 74
       0
 49
0.0
 74
       0
 49
-1.83131231
 74
       0
  0
LTYPE
  5
2F
100
AcDbSymbolTableRecord
100
AcDbLinetypeTableRecord
  2
BORDERX2
 70
      64
  3
CADPAC LINETYPE
 72
      65
 73
       6
 40
21.36531034
 49
6.10437438
 74
       0
 49
-3.05218719
 74
       0
 49
6.10437438
 74
       0
 49
-3.05218719
 74
       0
 49
0.0
 74
       0
 49
-3.05218719
 74
       0
  0
LTYPE
  5
30
100
AcDbSymbolTableRecord
100
AcDbLinetypeTableRecord
  2
BORDER
 70
      64
  3
CADPAC LINETYPE
 72
      65
 73
       6
 40
17.09224827
 49
4.88349951
 74
       0
 49
-2.44174975
 74
       0
 49
4.88349951
 74
       0
 49
-2.44174975
 74
       0
 49
0.0
 74
       0
 49
-2.44174975
 74
       0
  0
LTYPE
  5
31
100
AcDbSymbolTableRecord
100
AcDbLinetypeTableRecord
  2
BORDER2
 70
      64
  3
CADPAC LINETYPE
 72
      65
 73
       6
 40
12.8191862
 49
3.66262463
 74
       0
 49
-1.83131231
 74
       0
 49
3.66262463
 74
       0
 49
-1.83131231
 74
       0
 49
0.0
 74
       0
 49
-1.83131231
 74
       0
  0
LTYPE
  5
32
100
AcDbSymbolTableRecord
100
AcDbLinetypeTableRecord
  2
PHANTOMX2
 70
      64
  3
CADPAC LINETYPE
 72
      65
 73
       6
 40
18.31312314
 49
6.10437438
 74
       0
 49
-2.44174975
 74
       0
 49
2.44174975
 74
       0
 49
-2.44174975
 74
       0
 49
2.44174975
 74
       0
 49
-2.44174975
 74
       0
  0
LTYPE
  5
33
100
AcDbSymbolTableRecord
100
AcDbLinetypeTableRecord
  2
PHANTOM
 70
      64
  3
CADPAC LINETYPE
 72
      65
 73
       6
 40
15.13884847
 49
4.88349951
 74
       0
 49
-2.44174975
 74
       0
 49
1.46504985
 74
       0
 49
-2.44174975
 74
       0
 49
1.46504985
 74
       0
 49
-2.44174975
 74
       0
  0
LTYPE
  5
34
100
AcDbSymbolTableRecord
100
AcDbLinetypeTableRecord
  2
PHANTOM2
 70
      64
  3
CADPAC LINETYPE
 72
      65
 73
       6
 40
12.94127369
 49
3.66262463
 74
       0
 49
-2.44174975
 74
       0
 49
0.9766999
 74
       0
 49
-2.44174975
 74
       0
 49
0.9766999
 74
       0
 49
-2.44174975
 74
       0
  0
LTYPE
  5
35
100
AcDbSymbolTableRecord
100
AcDbLinetypeTableRecord
  2
ACAD_ISO06W100
 70
      64
  3
CADPAC LINETYPE
 72
      65
 73
       8
 40
16.48181083
 49
6.10437438
 74
       0
 49
-3.05218719
 74
       0
 49
0.0
 74
       0
 49
-2.44174975
 74
       0
 49
0.0
 74
       0
 49
-2.44174975
 74
       0
 49
0.0
 74
       0
 49
-2.44174975
 74
       0
  0
LTYPE
  5
36
100
AcDbSymbolTableRecord
100
AcDbLinetypeTableRecord
  2
ACAD_ISO13W100
 70
      64
  3
CADPAC LINETYPE
 72
      65
 73
       8
 40
19.53399802
 49
4.88349951
 74
       0
 49
-2.44174975
 74
       0
 49
4.88349951
 74
       0
 49
-2.44174975
 74
       0
 49
0.0
 74
       0
 49
-2.44174975
 74
       0
 49
0.0
 74
       0
 49
-2.44174975
 74
       0
  0
LTYPE
  5
37
100
AcDbSymbolTableRecord
100
AcDbLinetypeTableRecord
  2
ACAD_ISO14W100
 70
      64
  3
CADPAC LINETYPE
 72
      65
 73
       8
 40
14.65049852
 49
4.88349951
 74
       0
 49
-2.44174975
 74
       0
 49
0.0
 74
       0
 49
-2.44174975
 74
       0
 49
0.0
 74
       0
 49
-2.44174975
 74
       0
 49
0.0
 74
       0
 49
-2.44174975
 74
       0
  0
ENDTAB
  0
TABLE
  2
LAYER
  5
2
100
AcDbSymbolTable
 70
       3
  0
LAYER
  5
14
100
AcDbSymbolTableRecord
100
AcDbLayerTableRecord
  2
0
 70
       0
 62
       7
  6
CONTINUOUS
  0
LAYER
  5
38
100
AcDbSymbolTableRecord
100
AcDbLayerTableRecord
  2
SLD-0
 70
       0
 62
       7
  6
CONTINUOUS
  0
LAYER
  5
39
100
AcDbSymbolTableRecord
100
AcDbLayerTableRecord
  2
レイヤー_1
 70
       0
 62
       7
  6
CONTINUOUS
  0
ENDTAB
  0
TABLE
  2
STYLE
  5
3
100
AcDbSymbolTable
 70
       1
  0
STYLE
  5
17
100
AcDbSymbolTableRecord
100
AcDbTextStyleTableRecord
  2
STANDARD
 70
       0
 40
0.0
 41
1.0
 50
0.0
 71
       0
 42
8.64
  3
txt.shx
  4
bigfont.shx
  0
ENDTAB
  0
TABLE
  2
VIEW
  5
5
100
AcDbSymbolTable
 70
       1
  0
VIEW
  5
3A
100
AcDbSymbolTableRecord
100
AcDbViewTableRecord
  2
QQQQ
 70
       0
 40
144.84705311
 10
0.0
 20
0.0
 41
259.43591122
 11
0.0
 21
0.0
 31
1.0
 12
100.0
 22
100.0
 32
0.0
 42
50.0
 43
0.0
 44
0.0
 50
0.0
 71
       0
  0
ENDTAB
  0
TABLE
  2
UCS
  5
6
100
AcDbSymbolTable
 70
       0
  0
ENDTAB
  0
TABLE
  2
APPID
  5
8
100
AcDbSymbolTable
 70
       1
  0
APPID
  5
16
100
AcDbSymbolTableRecord
100
AcDbRegAppTableRecord
  2
ACAD
 70
       0
  0
ENDTAB
  0
TABLE
  2
DIMSTYLE
  5
9
100
AcDbSymbolTable
 70
       1
  0
DIMSTYLE
105
18
100
AcDbSymbolTableRecord
100
AcDbDimStyleTableRecord
  2
STANDARD
 70
       0
  3

  4

  5

  6

  7

 40
1.0
 41
0.18
 42
0.0625
 43
0.38
 44
0.18
 45
0.0
 46
0.0
 47
0.0
 48
0.0
 71
       0
 72
       0
 73
       1
 74
       1
 75
       0
 76
       0
 77
       0
 78
       0
140
0.18
141
0.09
142
0.0
143
25.4
144
1.0
145
0.0
146
1.0
147
0.09
170
       0
171
       2
172
       0
173
       0
174
       0
175
       0
176
       0
177
       0
178
       0
270
       2
271
       4
272
       4
273
       2
274
       2
275
       0
280
       0
281
       0
282
       0
283
       1
284
       0
285
       0
286
       0
287
       0
288
       0
340
17
  0
ENDTAB
  0
TABLE
  2
BLOCK_RECORD
  5
1
100
AcDbSymbolTable
 70
       0
  0
BLOCK_RECORD
  5
A
100
AcDbSymbolTableRecord
100
AcDbBlockTableRecord
  2
*MODEL_SPACE
  0
BLOCK_RECORD
  5
B
100
AcDbSymbolTableRecord
100
AcDbBlockTableRecord
  2
*PAPER_SPACE
  0
ENDTAB
  0
ENDSEC
  0
SECTION
  2
BLOCKS
  0
BLOCK
  5
D
100
AcDbEntity
  8
0
100
AcDbBlockBegin
  2
*MODEL_SPACE
 70
       0
 10
0.0
 20
0.0
 30
0.0
  3
*MODEL_SPACE
  1

  0
ENDBLK
  5
E
100
AcDbEntity
  8
0
100
AcDbBlockEnd
  0
BLOCK
  5
F
100
AcDbEntity
 67
       1
  8
0
100
AcDbBlockBegin
  2
*PAPER_SPACE
 70
       0
 10
0.0
 20
0.0
 30
0.0
  3
*PAPER_SPACE
  1

  0
ENDBLK
  5
10
100
AcDbEntity
 67
       1
  8
0
100
AcDbBlockEnd
  0
ENDSEC
  0
SECTION
  2
ENTITIES
  0
LINE
  5
3B
100
AcDbEntity
  8
SLD-0
  6
CONTINUOUS
 62
       7
100
AcDbLine
 10
-45.34787714
 20
12.15770377
 30
0.0
 11
-45.34787714
 21
59.50042584
 31
0.0
  0
LINE
  5
3C
100
AcDbEntity
  8
SLD-0
  6
CONTINUOUS
 62
       7
100
AcDbLine
 10
-70.02828826
 20
23.99338428
 30
0.0
 11
-70.02828826
 21
47.66474532
 31
0.0
  0
LINE
  5
3D
100
AcDbEntity
  8
SLD-0
  6
CONTINUOUS
 62
       7
100
AcDbLine
 10
-70.02828826
 20
47.66474532
 30
0.0
 11
-90.52828825
 21
59.50042584
 31
0.0
  0
LINE
  5
3E
100
AcDbEntity
  8
SLD-0
  6
CONTINUOUS
 62
       7
100
AcDbLine
 10
-90.52828825
 20
59.50042584
 30
0.0
 11
-111.02828825
 21
47.66474532
 31
0.0
  0
LINE
  5
3F
100
AcDbEntity
  8
SLD-0
  6
CONTINUOUS
 62
       7
100
AcDbLine
 10
-111.02828825
 20
47.66474532
 30
0.0
 11
-111.02828825
 21
23.99338428
 31
0.0
  0
LINE
  5
40
100
AcDbEntity
  8
SLD-0
  6
CONTINUOUS
 62
       7
100
AcDbLine
 10
-111.02828825
 20
23.99338428
 30
0.0
 11
-90.52828825
 21
12.15770377
 31
0.0
  0
LINE
  5
41
100
AcDbEntity
  8
SLD-0
  6
CONTINUOUS
 62
       7
100
AcDbLine
 10
-90.52828825
 20
12.15770377
 30
0.0
 11
-70.02828826
 21
23.99338428
 31
0.0
  0
LINE
  5
42
100
AcDbEntity
  8
SLD-0
  6
CONTINUOUS
 62
       7
100
AcDbLine
 10
-45.34787714
 20
59.50042584
 30
0.0
 11
14.65099786
 21
59.50042584
 31
0.0
  0
LINE
  5
43
100
AcDbEntity
  8
SLD-0
  6
CONTINUOUS
 62
       7
100
AcDbLine
 10
-45.34787714
 20
23.99338428
 30
0.0
 11
14.65099786
 21
23.99338428
 31
0.0
  0
LINE
  5
44
100
AcDbEntity
  8
SLD-0
  6
CONTINUOUS
 62
       7
100
AcDbLine
 10
-45.34787714
 20
12.15770377
 30
0.0
 11
14.65099786
 21
12.15770377
 31
0.0
  0
LINE
  5
45
100
AcDbEntity
  8
SLD-0
  6
CONTINUOUS
 62
       7
100
AcDbLine
 10
33.65212286
 20
26.20417901
 30
0.0
 11
33.65212286
 21
45.15666682
 31
0.0
  0
LINE
  5
46
100
AcDbEntity
  8
SLD-0
  6
CONTINUOUS
 62
       7
100
AcDbLine
 10
-45.34787714
 20
47.66474532
 30
0.0
 11
14.65099786
 21
47.66474532
 31
0.0
  0
LINE
  5
47
100
AcDbEntity
  8
SLD-0
  6
CONTINUOUS
 62
       7
100
AcDbLine
 10
-34.54836656
 20
-20.06983637
 30
0.0
 11
10.45047945
 21
-20.06983637
 31
0.0
  0
LINE
  5
48
100
AcDbEntity
  8
SLD-0
  6
CONTINUOUS
 62
       7
100
AcDbLine
 10
-34.54836656
 20
-60.06983637
 30
0.0
 11
10.45047945
 21
-60.06983637
 31
0.0
  0
LINE
  5
49
100
AcDbEntity
  8
SLD-0
  6
CONTINUOUS
 62
       7
100
AcDbLine
 10
-34.54836656
 20
-50.3807255
 30
0.0
 11
10.45047945
 21
-50.3807255
 31
0.0
  0
LINE
  5
4A
100
AcDbEntity
  8
SLD-0
  6
CONTINUOUS
 62
       7
100
AcDbLine
 10
-34.54836656
 20
-49.75894723
 30
0.0
 11
10.45047945
 21
-49.75894723
 31
0.0
  0
LINE
  5
4B
100
AcDbEntity
  8
SLD-0
  6
CONTINUOUS
 62
       7
100
AcDbLine
 10
-34.54836656
 20
-30.3807255
 30
0.0
 11
10.45047945
 21
-30.3807255
 31
0.0
  0
LINE
  5
4C
100
AcDbEntity
  8
SLD-0
  6
CONTINUOUS
 62
       7
100
AcDbLine
 10
-34.54836656
 20
-29.75894723
 30
0.0
 11
10.45047945
 21
-29.75894723
 31
0.0
  0
LINE
  5
4D
100
AcDbEntity
  8
SLD-0
  6
CONTINUOUS
 62
       7
100
AcDbLine
 10
11.9948189
 20
-29.75894723
 30
0.0
 11
19.45163344
 21
-29.75894723
 31
0.0
  0
LINE
  5
4E
100
AcDbEntity
  8
SLD-0
  6
CONTINUOUS
 62
       7
100
AcDbLine
 10
11.9948189
 20
-30.3807255
 30
0.0
 11
19.45163344
 21
-30.3807255
 31
0.0
  0
LINE
  5
4F
100
AcDbEntity
  8
SLD-0
  6
CONTINUOUS
 62
       7
100
AcDbLine
 10
11.9948189
 20
-49.75894723
 30
0.0
 11
19.45163344
 21
-49.75894723
 31
0.0
  0
LINE
  5
50
100
AcDbEntity
  8
SLD-0
  6
CONTINUOUS
 62
       7
100
AcDbLine
 10
11.9948189
 20
-50.3807255
 30
0.0
 11
19.45163344
 21
-50.3807255
 31
0.0
  0
LINE
  5
51
100
AcDbEntity
  8
SLD-0
  6
CONTINUOUS
 62
       7
100
AcDbLine
 10
13.54138921
 20
-20.06983637
 30
0.0
 11
19.45163344
 21
-20.06983637
 31
0.0
  0
LINE
  5
52
100
AcDbEntity
  8
SLD-0
  6
CONTINUOUS
 62
       7
100
AcDbLine
 10
13.54138921
 20
-60.06983637
 30
0.0
 11
19.45163344
 21
-60.06983637
 31
0.0
  0
LINE
  5
53
100
AcDbEntity
  8
SLD-0
  6
CONTINUOUS
 62
       7
100
AcDbLine
 10
29.45163344
 20
-49.54720787
 30
0.0
 11
29.45163344
 21
-30.59306114
 31
0.0
  0
LINE
  5
54
100
AcDbEntity
  8
SLD-0
  6
CONTINUOUS
 62
       7
100
AcDbLine
 10
-49.54836656
 20
-57.56983637
 30
0.0
 11
-49.54836656
 21
-22.56983637
 31
0.0
  0
LINE
  5
55
100
AcDbEntity
  8
SLD-0
  6
CONTINUOUS
 62
       7
100
AcDbLine
 10
-49.54836656
 20
-57.56983637
 30
0.0
 11
-34.54836656
 21
-57.56983637
 31
0.0
  0
LINE
  5
56
100
AcDbEntity
  8
SLD-0
  6
CONTINUOUS
 62
       7
100
AcDbLine
 10
-49.54836656
 20
-22.56983637
 30
0.0
 11
-34.54836656
 21
-22.56983637
 31
0.0
  0
LINE
  5
57
100
AcDbEntity
  8
SLD-0
  6
CONTINUOUS
 62
       7
100
AcDbLine
 10
19.45163344
 20
-60.06983637
 30
0.0
 11
19.45163344
 21
-20.06983637
 31
0.0
  0
LINE
  5
58
100
AcDbEntity
  8
SLD-0
  6
CONTINUOUS
 62
       7
100
AcDbLine
 10
-108.02828825
 20
-30.3807255
 30
0.0
 11
-107.6693044
 21
-29.75894723
 31
0.0
  0
LINE
  5
59
100
AcDbEntity
  8
SLD-0
  6
CONTINUOUS
 62
       7
100
AcDbLine
 10
-73.02828825
 20
-49.75894723
 30
0.0
 11
-73.02828825
 21
-30.3807255
 31
0.0
  0
LINE
  5
5A
100
AcDbEntity
  8
SLD-0
  6
CONTINUOUS
 62
       7
100
AcDbLine
 10
-73.3872721
 20
-29.75894723
 30
0.0
 11
-90.1693044
 21
-20.06983637
 31
0.0
  0
LINE
  5
5B
100
AcDbEntity
  8
SLD-0
  6
CONTINUOUS
 62
       7
100
AcDbLine
 10
-90.8872721
 20
-20.06983637
 30
0.0
 11
-107.6693044
 21
-29.75894723
 31
0.0
  0
LINE
  5
5C
100
AcDbEntity
  8
SLD-0
  6
CONTINUOUS
 62
       7
100
AcDbLine
 10
-108.02828825
 20
-30.3807255
 30
0.0
 11
-108.02828825
 21
-49.75894723
 31
0.0
  0
LINE
  5
5D
100
AcDbEntity
  8
SLD-0
  6
CONTINUOUS
 62
       7
100
AcDbLine
 10
-107.6693044
 20
-50.3807255
 30
0.0
 11
-90.8872721
 21
-60.06983637
 31
0.0
  0
LINE
  5
5E
100
AcDbEntity
  8
SLD-0
  6
CONTINUOUS
 62
       7
100
AcDbLine
 10
-90.1693044
 20
-60.06983637
 30
0.0
 11
-73.3872721
 21
-50.3807255
 31
0.0
  0
LINE
  5
5F
100
AcDbEntity
  8
SLD-0
  6
CONTINUOUS
 62
       7
100
AcDbLine
 10
-107.6693044
 20
-50.3807255
 30
0.0
 11
-108.02828825
 21
-49.75894723
 31
0.0
  0
LINE
  5
60
100
AcDbEntity
  8
SLD-0
  6
CONTINUOUS
 62
       7
100
AcDbLine
 10
-90.1693044
 20
-60.06983637
 30
0.0
 11
-90.8872721
 21
-60.06983637
 31
0.0
  0
LINE
  5
61
100
AcDbEntity
  8
SLD-0
  6
CONTINUOUS
 62
       7
100
AcDbLine
 10
-73.02828825
 20
-49.75894723
 30
0.0
 11
-73.3872721
 21
-50.3807255
 31
0.0
  0
LINE
  5
62
100
AcDbEntity
  8
SLD-0
  6
CONTINUOUS
 62
       7
100
AcDbLine
 10
-73.3872721
 20
-29.75894723
 30
0.0
 11
-73.02828825
 21
-30.3807255
 31
0.0
  0
LINE
  5
63
100
AcDbEntity
  8
SLD-0
  6
CONTINUOUS
 62
       7
100
AcDbLine
 10
-90.8872721
 20
-20.06983637
 30
0.0
 11
-90.1693044
 21
-20.06983637
 31
0.0
  0
CIRCLE
  5
64
100
AcDbEntity
  8
SLD-0
  6
CONTINUOUS
 62
       7
100
AcDbCircle
 10
-90.52828825
 20
35.8290648
 30
0.0
 40
20.5
  0
CIRCLE
  5
65
100
AcDbEntity
  8
SLD-0
  6
CONTINUOUS
 62
       7
100
AcDbCircle
 10
-90.52828825
 20
35.8290648
 30
0.0
 40
10.5
  0
CIRCLE
  5
66
100
AcDbEntity
  8
SLD-0
  6
CONTINUOUS
 62
       7
100
AcDbCircle
 10
-90.52828825
 20
35.8290648
 30
0.0
 40
9.3
  0
CIRCLE
  5
67
100
AcDbEntity
  8
SLD-0
  6
CONTINUOUS
 62
       7
100
AcDbCircle
 10
-90.52828825
 20
-40.06983637
 30
0.0
 40
17.5
  0
CIRCLE
  5
68
100
AcDbEntity
  8
SLD-0
  6
CONTINUOUS
 62
       7
100
AcDbCircle
 10
-90.52828825
 20
-40.06983637
 30
0.0
 40
10.5
  0
CIRCLE
  5
69
100
AcDbEntity
  8
SLD-0
  6
CONTINUOUS
 62
       7
100
AcDbCircle
 10
-90.52828825
 20
-40.06983637
 30
0.0
 40
9.3
  0
LINE
  5
6A
100
AcDbEntity
  8
レイヤー_1
  6
CONTINUOUS
 62
       7
100
AcDbLine
 10
70.46928379
 20
35.68042307
 30
0.0
 11
70.35933902
 21
35.54602242
 31
0.0
  0
LINE
  5
6B
100
AcDbEntity
  8
レイヤー_1
  6
CONTINUOUS
 62
       7
100
AcDbLine
 10
70.35933902
 20
35.54602242
 30
0.0
 11
70.25636253
 21
35.40731811
 31
0.0
  0
LINE
  5
6C
100
AcDbEntity
  8
レイヤー_1
  6
CONTINUOUS
 62
       7
100
AcDbLine
 10
70.25636253
 20
35.40731811
 30
0.0
 11
70.16041996
 21
35.26457847
 31
0.0
  0
LINE
  5
6D
100
AcDbEntity
  8
レイヤー_1
  6
CONTINUOUS
 62
       7
100
AcDbLine
 10
70.16041996
 20
35.26457847
 30
0.0
 11
70.07157694
 21
35.11807184
 31
0.0
  0
LINE
  5
6E
100
AcDbEntity
  8
レイヤー_1
  6
CONTINUOUS
 62
       7
100
AcDbLine
 10
70.07157694
 20
35.11807184
 30
0.0
 11
69.9898991
 21
34.96806656
 31
0.0
  0
LINE
  5
6F
100
AcDbEntity
  8
レイヤー_1
  6
CONTINUOUS
 62
       7
100
AcDbLine
 10
69.9898991
 20
34.96806656
 30
0.0
 11
69.91545207
 21
34.81483096
 31
0.0
  0
LINE
  5
70
100
AcDbEntity
  8
レイヤー_1
  6
CONTINUOUS
 62
       7
100
AcDbLine
 10
69.91545207
 20
34.81483096
 30
0.0
 11
69.84830149
 21
34.65863339
 31
0.0
  0
LINE
  5
71
100
AcDbEntity
  8
レイヤー_1
  6
CONTINUOUS
 62
       7
100
AcDbLine
 10
69.84830149
 20
34.65863339
 30
0.0
 11
69.78851299
 21
34.49974217
 31
0.0
  0
LINE
  5
72
100
AcDbEntity
  8
レイヤー_1
  6
CONTINUOUS
 62
       7
100
AcDbLine
 10
69.78851299
 20
34.49974217
 30
0.0
 11
69.7361522
 21
34.33842566
 31
0.0
  0
LINE
  5
73
100
AcDbEntity
  8
レイヤー_1
  6
CONTINUOUS
 62
       7
100
AcDbLine
 10
69.7361522
 20
34.33842566
 30
0.0
 11
69.69128476
 21
34.17495218
 31
0.0
  0
LINE
  5
74
100
AcDbEntity
  8
レイヤー_1
  6
CONTINUOUS
 62
       7
100
AcDbLine
 10
69.69128476
 20
34.17495218
 30
0.0
 11
69.65397631
 21
34.00959007
 31
0.0
  0
LINE
  5
75
100
AcDbEntity
  8
レイヤー_1
  6
CONTINUOUS
 62
       7
100
AcDbLine
 10
69.65397631
 20
34.00959007
 30
0.0
 11
69.62429246
 21
33.84260766
 31
0.0
  0
LINE
  5
76
100
AcDbEntity
  8
レイヤー_1
  6
CONTINUOUS
 62
       7
100
AcDbLine
 10
69.62429246
 20
33.84260766
 30
0.0
 11
69.60229887
 21
33.67427331
 31
0.0
  0
LINE
  5
77
100
AcDbEntity
  8
レイヤー_1
  6
CONTINUOUS
 62
       7
100
AcDbLine
 10
69.60229887
 20
33.67427331
 30
0.0
 11
69.58806115
 21
33.50485533
 31
0.0
  0
LINE
  5
78
100
AcDbEntity
  8
レイヤー_1
  6
CONTINUOUS
 62
       7
100
AcDbLine
 10
69.58806115
 20
33.50485533
 30
0.0
 11
69.58164495
 21
33.33462207
 31
0.0
  0
LINE
  5
79
100
AcDbEntity
  8
レイヤー_1
  6
CONTINUOUS
 62
       7
100
AcDbLine
 10
69.58164495
 20
33.33462207
 30
0.0
 11
69.58311589
 21
33.16384188
 31
0.0
  0
LINE
  5
7A
100
AcDbEntity
  8
レイヤー_1
  6
CONTINUOUS
 62
       7
100
AcDbLine
 10
69.58311589
 20
33.16384188
 30
0.0
 11
69.59253961
 21
32.99278307
 31
0.0
  0
LINE
  5
7B
100
AcDbEntity
  8
レイヤー_1
  6
CONTINUOUS
 62
       7
100
AcDbLine
 10
69.59253961
 20
32.99278307
 30
0.0
 11
69.60998175
 21
32.821714
 31
0.0
  0
LINE
  5
7C
100
AcDbEntity
  8
レイヤー_1
  6
CONTINUOUS
 62
       7
100
AcDbLine
 10
69.60998175
 20
32.821714
 30
0.0
 11
69.63550793
 21
32.65090299
 31
0.0
  0
LINE
  5
7D
100
AcDbEntity
  8
レイヤー_1
  6
CONTINUOUS
 62
       7
100
AcDbLine
 10
69.63550793
 20
32.65090299
 30
0.0
 11
69.66918379
 21
32.48061839
 31
0.0
  0
LINE
  5
7E
100
AcDbEntity
  8
レイヤー_1
  6
CONTINUOUS
 62
       7
100
AcDbLine
 10
70.46928379
 20
35.68042307
 30
0.0
 11
70.5790673
 21
35.81498491
 31
0.0
  0
LINE
  5
7F
100
AcDbEntity
  8
レイヤー_1
  6
CONTINUOUS
 62
       7
100
AcDbLine
 10
70.5790673
 20
35.81498491
 30
0.0
 11
70.68191513
 21
35.95381736
 31
0.0
  0
LINE
  5
80
100
AcDbEntity
  8
レイヤー_1
  6
CONTINUOUS
 62
       7
100
AcDbLine
 10
70.68191513
 20
35.95381736
 30
0.0
 11
70.7777585
 21
36.09665478
 31
0.0
  0
LINE
  5
81
100
AcDbEntity
  8
レイヤー_1
  6
CONTINUOUS
 62
       7
100
AcDbLine
 10
70.7777585
 20
36.09665478
 30
0.0
 11
70.86652868
 21
36.24323151
 31
0.0
  0
LINE
  5
82
100
AcDbEntity
  8
レイヤー_1
  6
CONTINUOUS
 62
       7
100
AcDbLine
 10
70.86652868
 20
36.24323151
 30
0.0
 11
70.94815688
 21
36.39328189
 31
0.0
  0
LINE
  5
83
100
AcDbEntity
  8
レイヤー_1
  6
CONTINUOUS
 62
       7
100
AcDbLine
 10
70.94815688
 20
36.39328189
 30
0.0
 11
71.02257437
 21
36.54654025
 31
0.0
  0
LINE
  5
84
100
AcDbEntity
  8
レイヤー_1
  6
CONTINUOUS
 62
       7
100
AcDbLine
 10
71.02257437
 20
36.54654025
 30
0.0
 11
71.08971237
 21
36.70274095
 31
0.0
  0
LINE
  5
85
100
AcDbEntity
  8
レイヤー_1
  6
CONTINUOUS
 62
       7
100
AcDbLine
 10
71.08971237
 20
36.70274095
 30
0.0
 11
71.14950214
 21
36.86161832
 31
0.0
  0
LINE
  5
86
100
AcDbEntity
  8
レイヤー_1
  6
CONTINUOUS
 62
       7
100
AcDbLine
 10
71.14950214
 20
36.86161832
 30
0.0
 11
71.2018749
 21
37.02290671
 31
0.0
  0
LINE
  5
87
100
AcDbEntity
  8
レイヤー_1
  6
CONTINUOUS
 62
       7
100
AcDbLine
 10
71.2018749
 20
37.02290671
 30
0.0
 11
71.24676191
 21
37.18634046
 31
0.0
  0
LINE
  5
88
100
AcDbEntity
  8
レイヤー_1
  6
CONTINUOUS
 62
       7
100
AcDbLine
 10
71.24676191
 20
37.18634046
 30
0.0
 11
71.28409441
 21
37.3516539
 31
0.0
  0
LINE
  5
89
100
AcDbEntity
  8
レイヤー_1
  6
CONTINUOUS
 62
       7
100
AcDbLine
 10
71.28409441
 20
37.3516539
 30
0.0
 11
71.31380363
 21
37.51858139
 31
0.0
  0
LINE
  5
8A
100
AcDbEntity
  8
レイヤー_1
  6
CONTINUOUS
 62
       7
100
AcDbLine
 10
71.31380363
 20
37.51858139
 30
0.0
 11
71.33582081
 21
37.68685725
 31
0.0
  0
LINE
  5
8B
100
AcDbEntity
  8
レイヤー_1
  6
CONTINUOUS
 62
       7
100
AcDbLine
 10
71.33582081
 20
37.68685725
 30
0.0
 11
71.35007721
 21
37.85621585
 31
0.0
  0
LINE
  5
8C
100
AcDbEntity
  8
レイヤー_1
  6
CONTINUOUS
 62
       7
100
AcDbLine
 10
71.35007721
 20
37.85621585
 30
0.0
 11
71.35650405
 21
38.02639151
 31
0.0
  0
LINE
  5
8D
100
AcDbEntity
  8
レイヤー_1
  6
CONTINUOUS
 62
       7
100
AcDbLine
 10
71.35650405
 20
38.02639151
 30
0.0
 11
71.35503259
 21
38.19711857
 31
0.0
  0
LINE
  5
8E
100
AcDbEntity
  8
レイヤー_1
  6
CONTINUOUS
 62
       7
100
AcDbLine
 10
71.35503259
 20
38.19711857
 30
0.0
 11
71.34559406
 21
38.36813139
 31
0.0
  0
LINE
  5
8F
100
AcDbEntity
  8
レイヤー_1
  6
CONTINUOUS
 62
       7
100
AcDbLine
 10
71.34559406
 20
38.36813139
 30
0.0
 11
71.3281197
 21
38.5391643
 31
0.0
  0
LINE
  5
90
100
AcDbEntity
  8
レイヤー_1
  6
CONTINUOUS
 62
       7
100
AcDbLine
 10
71.3281197
 20
38.5391643
 30
0.0
 11
71.30254076
 21
38.70995164
 31
0.0
  0
LINE
  5
91
100
AcDbEntity
  8
レイヤー_1
  6
CONTINUOUS
 62
       7
100
AcDbLine
 10
71.30254076
 20
38.70995164
 30
0.0
 11
71.26878848
 21
38.88022776
 31
0.0
  0
LINE
  5
92
100
AcDbEntity
  8
レイヤー_1
  6
CONTINUOUS
 62
       7
100
AcDbLine
 10
69.66918379
 20
35.68042307
 30
0.0
 11
69.77904372
 21
35.81498491
 31
0.0
  0
LINE
  5
93
100
AcDbEntity
  8
レイヤー_1
  6
CONTINUOUS
 62
       7
100
AcDbLine
 10
69.77904372
 20
35.81498491
 30
0.0
 11
69.88194431
 21
35.95381736
 31
0.0
  0
LINE
  5
94
100
AcDbEntity
  8
レイヤー_1
  6
CONTINUOUS
 62
       7
100
AcDbLine
 10
69.88194431
 20
35.95381736
 30
0.0
 11
69.97781991
 21
36.09665478
 31
0.0
  0
LINE
  5
95
100
AcDbEntity
  8
レイヤー_1
  6
CONTINUOUS
 62
       7
100
AcDbLine
 10
69.97781991
 20
36.09665478
 30
0.0
 11
70.06660489
 21
36.24323151
 31
0.0
  0
LINE
  5
96
100
AcDbEntity
  8
レイヤー_1
  6
CONTINUOUS
 62
       7
100
AcDbLine
 10
70.06660489
 20
36.24323151
 30
0.0
 11
70.14823362
 21
36.39328189
 31
0.0
  0
LINE
  5
97
100
AcDbEntity
  8
レイヤー_1
  6
CONTINUOUS
 62
       7
100
AcDbLine
 10
70.14823362
 20
36.39328189
 30
0.0
 11
70.22264046
 21
36.54654025
 31
0.0
  0
LINE
  5
98
100
AcDbEntity
  8
レイヤー_1
  6
CONTINUOUS
 62
       7
100
AcDbLine
 10
70.22264046
 20
36.54654025
 30
0.0
 11
70.28975979
 21
36.70274095
 31
0.0
  0
LINE
  5
99
100
AcDbEntity
  8
レイヤー_1
  6
CONTINUOUS
 62
       7
100
AcDbLine
 10
70.28975979
 20
36.70274095
 30
0.0
 11
70.34952596
 21
36.86161832
 31
0.0
  0
LINE
  5
9A
100
AcDbEntity
  8
レイヤー_1
  6
CONTINUOUS
 62
       7
100
AcDbLine
 10
70.34952596
 20
36.86161832
 30
0.0
 11
70.40187335
 21
37.02290671
 31
0.0
  0
LINE
  5
9B
100
AcDbEntity
  8
レイヤー_1
  6
CONTINUOUS
 62
       7
100
AcDbLine
 10
70.40187335
 20
37.02290671
 30
0.0
 11
70.44673633
 21
37.18634046
 31
0.0
  0
LINE
  5
9C
100
AcDbEntity
  8
レイヤー_1
  6
CONTINUOUS
 62
       7
100
AcDbLine
 10
70.44673633
 20
37.18634046
 30
0.0
 11
70.48404925
 21
37.3516539
 31
0.0
  0
LINE
  5
9D
100
AcDbEntity
  8
レイヤー_1
  6
CONTINUOUS
 62
       7
100
AcDbLine
 10
70.48404925
 20
37.3516539
 30
0.0
 11
70.51374649
 21
37.51858139
 31
0.0
  0
LINE
  5
9E
100
AcDbEntity
  8
レイヤー_1
  6
CONTINUOUS
 62
       7
100
AcDbLine
 10
70.51374649
 20
37.51858139
 30
0.0
 11
70.53576241
 21
37.68685725
 31
0.0
  0
LINE
  5
9F
100
AcDbEntity
  8
レイヤー_1
  6
CONTINUOUS
 62
       7
100
AcDbLine
 10
70.53576241
 20
37.68685725
 30
0.0
 11
70.55003138
 21
37.85621585
 31
0.0
  0
LINE
  5
A0
100
AcDbEntity
  8
レイヤー_1
  6
CONTINUOUS
 62
       7
100
AcDbLine
 10
70.55003138
 20
37.85621585
 30
0.0
 11
70.55648777
 21
38.02639151
 31
0.0
  0
LINE
  5
A1
100
AcDbEntity
  8
レイヤー_1
  6
CONTINUOUS
 62
       7
100
AcDbLine
 10
70.55648777
 20
38.02639151
 30
0.0
 11
70.55506594
 21
38.19711857
 31
0.0
  0
LINE
  5
A2
100
AcDbEntity
  8
レイヤー_1
  6
CONTINUOUS
 62
       7
100
AcDbLine
 10
70.55506594
 20
38.19711857
 30
0.0
 11
70.54570026
 21
38.36813139
 31
0.0
  0
LINE
  5
A3
100
AcDbEntity
  8
レイヤー_1
  6
CONTINUOUS
 62
       7
100
AcDbLine
 10
70.54570026
 20
38.36813139
 30
0.0
 11
70.5283251
 21
38.5391643
 31
0.0
  0
LINE
  5
A4
100
AcDbEntity
  8
レイヤー_1
  6
CONTINUOUS
 62
       7
100
AcDbLine
 10
70.5283251
 20
38.5391643
 30
0.0
 11
70.50287482
 21
38.70995164
 31
0.0
  0
LINE
  5
A5
100
AcDbEntity
  8
レイヤー_1
  6
CONTINUOUS
 62
       7
100
AcDbLine
 10
70.50287482
 20
38.70995164
 30
0.0
 11
70.46928379
 21
38.88022776
 31
0.0
  0
LINE
  5
A6
100
AcDbEntity
  8
レイヤー_1
  6
CONTINUOUS
 62
       7
100
AcDbLine
 10
69.66918379
 20
35.68042307
 30
0.0
 11
69.55932385
 21
35.54602242
 31
0.0
  0
LINE
  5
A7
100
AcDbEntity
  8
レイヤー_1
  6
CONTINUOUS
 62
       7
100
AcDbLine
 10
69.55932385
 20
35.54602242
 30
0.0
 11
69.45642327
 21
35.40731811
 31
0.0
  0
LINE
  5
A8
100
AcDbEntity
  8
レイヤー_1
  6
CONTINUOUS
 62
       7
100
AcDbLine
 10
69.45642327
 20
35.40731811
 30
0.0
 11
69.36054767
 21
35.26457847
 31
0.0
  0
LINE
  5
A9
100
AcDbEntity
  8
レイヤー_1
  6
CONTINUOUS
 62
       7
100
AcDbLine
 10
69.36054767
 20
35.26457847
 30
0.0
 11
69.27176269
 21
35.11807184
 31
0.0
  0
LINE
  5
AA
100
AcDbEntity
  8
レイヤー_1
  6
CONTINUOUS
 62
       7
100
AcDbLine
 10
69.27176269
 20
35.11807184
 30
0.0
 11
69.19013396
 21
34.96806656
 31
0.0
  0
LINE
  5
AB
100
AcDbEntity
  8
レイヤー_1
  6
CONTINUOUS
 62
       7
100
AcDbLine
 10
69.19013396
 20
34.96806656
 30
0.0
 11
69.11572711
 21
34.81483096
 31
0.0
  0
LINE
  5
AC
100
AcDbEntity
  8
レイヤー_1
  6
CONTINUOUS
 62
       7
100
AcDbLine
 10
69.11572711
 20
34.81483096
 30
0.0
 11
69.04860779
 21
34.65863339
 31
0.0
  0
LINE
  5
AD
100
AcDbEntity
  8
レイヤー_1
  6
CONTINUOUS
 62
       7
100
AcDbLine
 10
69.04860779
 20
34.65863339
 30
0.0
 11
68.98884161
 21
34.49974217
 31
0.0
  0
LINE
  5
AE
100
AcDbEntity
  8
レイヤー_1
  6
CONTINUOUS
 62
       7
100
AcDbLine
 10
68.98884161
 20
34.49974217
 30
0.0
 11
68.93649422
 21
34.33842566
 31
0.0
  0
LINE
  5
AF
100
AcDbEntity
  8
レイヤー_1
  6
CONTINUOUS
 62
       7
100
AcDbLine
 10
68.93649422
 20
34.33842566
 30
0.0
 11
68.89163125
 21
34.17495218
 31
0.0
  0
LINE
  5
B0
100
AcDbEntity
  8
レイヤー_1
  6
CONTINUOUS
 62
       7
100
AcDbLine
 10
68.89163125
 20
34.17495218
 30
0.0
 11
68.85431833
 21
34.00959007
 31
0.0
  0
LINE
  5
B1
100
AcDbEntity
  8
レイヤー_1
  6
CONTINUOUS
 62
       7
100
AcDbLine
 10
68.85431833
 20
34.00959007
 30
0.0
 11
68.82462109
 21
33.84260766
 31
0.0
  0
LINE
  5
B2
100
AcDbEntity
  8
レイヤー_1
  6
CONTINUOUS
 62
       7
100
AcDbLine
 10
68.82462109
 20
33.84260766
 30
0.0
 11
68.80260517
 21
33.67427331
 31
0.0
  0
LINE
  5
B3
100
AcDbEntity
  8
レイヤー_1
  6
CONTINUOUS
 62
       7
100
AcDbLine
 10
68.80260517
 20
33.67427331
 30
0.0
 11
68.7883362
 21
33.50485533
 31
0.0
  0
LINE
  5
B4
100
AcDbEntity
  8
レイヤー_1
  6
CONTINUOUS
 62
       7
100
AcDbLine
 10
68.7883362
 20
33.50485533
 30
0.0
 11
68.78187981
 21
33.33462207
 31
0.0
  0
LINE
  5
B5
100
AcDbEntity
  8
レイヤー_1
  6
CONTINUOUS
 62
       7
100
AcDbLine
 10
68.78187981
 20
33.33462207
 30
0.0
 11
68.78330164
 21
33.16384188
 31
0.0
  0
LINE
  5
B6
100
AcDbEntity
  8
レイヤー_1
  6
CONTINUOUS
 62
       7
100
AcDbLine
 10
68.78330164
 20
33.16384188
 30
0.0
 11
68.79266732
 21
32.99278307
 31
0.0
  0
LINE
  5
B7
100
AcDbEntity
  8
レイヤー_1
  6
CONTINUOUS
 62
       7
100
AcDbLine
 10
68.79266732
 20
32.99278307
 30
0.0
 11
68.81004248
 21
32.821714
 31
0.0
  0
LINE
  5
B8
100
AcDbEntity
  8
レイヤー_1
  6
CONTINUOUS
 62
       7
100
AcDbLine
 10
68.81004248
 20
32.821714
 30
0.0
 11
68.83549276
 21
32.65090299
 31
0.0
  0
LINE
  5
B9
100
AcDbEntity
  8
レイヤー_1
  6
CONTINUOUS
 62
       7
100
AcDbLine
 10
68.83549276
 20
32.65090299
 30
0.0
 11
68.86908379
 21
32.48061839
 31
0.0
  0
LINE
  5
BA
100
AcDbEntity
  8
レイヤー_1
  6
CONTINUOUS
 62
       7
100
AcDbLine
 10
16.19523849
 20
19.9320262
 30
0.0
 11
14.65099786
 21
19.9320262
 31
0.0
  0
LINE
  5
BB
100
AcDbEntity
  8
レイヤー_1
  6
CONTINUOUS
 62
       7
100
AcDbLine
 10
16.19523849
 20
51.43001057
 30
0.0
 11
14.65099786
 21
51.43001057
 31
0.0
  0
LINE
  5
BC
100
AcDbEntity
  8
レイヤー_1
  6
CONTINUOUS
 62
       7
100
AcDbLine
 10
23.65212286
 20
46.15792307
 30
0.0
 11
32.65086661
 21
46.15792307
 31
0.0
  0
LINE
  5
BD
100
AcDbEntity
  8
レイヤー_1
  6
CONTINUOUS
 62
       7
100
AcDbLine
 10
32.65086661
 20
46.15792307
 30
0.0
 11
33.65212286
 21
45.15666682
 31
0.0
  0
LINE
  5
BE
100
AcDbEntity
  8
レイヤー_1
  6
CONTINUOUS
 62
       7
100
AcDbLine
 10
33.65158692
 20
45.15720276
 30
0.0
 11
33.65158692
 21
26.20364339
 31
0.0
  0
LINE
  5
BF
100
AcDbEntity
  8
レイヤー_1
  6
CONTINUOUS
 62
       7
100
AcDbLine
 10
33.65212286
 20
26.20417901
 30
0.0
 11
32.65086661
 21
25.20351839
 31
0.0
  0
LINE
  5
C0
100
AcDbEntity
  8
レイヤー_1
  6
CONTINUOUS
 62
       7
100
AcDbLine
 10
32.65086661
 20
25.20351839
 30
0.0
 11
23.65212286
 21
25.20351839
 31
0.0
  0
LINE
  5
C1
100
AcDbEntity
  8
レイヤー_1
  6
CONTINUOUS
 62
       7
100
AcDbLine
 10
16.19523849
 20
26.52689808
 30
0.0
 11
23.65212286
 21
26.52689808
 31
0.0
  0
LINE
  5
C2
100
AcDbEntity
  8
レイヤー_1
  6
CONTINUOUS
 62
       7
100
AcDbLine
 10
23.65212286
 20
25.1041012
 30
0.0
 11
16.19523849
 21
25.1041012
 31
0.0
  0
LINE
  5
C3
100
AcDbEntity
  8
レイヤー_1
  6
CONTINUOUS
 62
       7
100
AcDbLine
 10
16.19523849
 20
46.25793557
 30
0.0
 11
23.65212286
 21
46.25793557
 31
0.0
  0
LINE
  5
C4
100
AcDbEntity
  8
レイヤー_1
  6
CONTINUOUS
 62
       7
100
AcDbLine
 10
23.65212286
 20
44.8351387
 30
0.0
 11
16.19523849
 21
44.8351387
 31
0.0
  0
LINE
  5
C5
100
AcDbEntity
  8
レイヤー_1
  6
CONTINUOUS
 62
       7
100
AcDbLine
 10
103.66748065
 20
35.33097464
 30
0.0
 11
113.66694471
 21
35.33097464
 31
0.0
  0
LINE
  5
C6
100
AcDbEntity
  8
レイヤー_1
  6
CONTINUOUS
 62
       7
100
AcDbLine
 10
113.66694471
 20
35.33097464
 30
0.0
 11
113.66694471
 21
36.03106214
 31
0.0
  0
LINE
  5
C7
100
AcDbEntity
  8
レイヤー_1
  6
CONTINUOUS
 62
       7
100
AcDbLine
 10
113.66694471
 20
36.03106214
 30
0.0
 11
103.66748065
 21
36.03106214
 31
0.0
  0
LINE
  5
C8
100
AcDbEntity
  8
レイヤー_1
  6
CONTINUOUS
 62
       7
100
AcDbLine
 10
33.65158692
 20
34.18023558
 30
0.0
 11
68.89289629
 21
34.18023558
 31
0.0
  0
LINE
  5
C9
100
AcDbEntity
  8
レイヤー_1
  6
CONTINUOUS
 62
       7
100
AcDbLine
 10
71.24497598
 20
37.18061057
 30
0.0
 11
103.66748065
 21
37.18061057
 31
0.0
  0
LINE
  5
CA
100
AcDbEntity
  8
レイヤー_1
  6
CONTINUOUS
 62
       7
100
AcDbLine
 10
103.66748065
 20
37.18061057
 30
0.0
 11
103.66748065
 21
34.18023558
 31
0.0
  0
LINE
  5
CB
100
AcDbEntity
  8
レイヤー_1
  6
CONTINUOUS
 62
       7
100
AcDbLine
 10
103.66748065
 20
34.18023558
 30
0.0
 11
69.69240098
 21
34.18023558
 31
0.0
  0
LINE
  5
CC
100
AcDbEntity
  8
レイヤー_1
  6
CONTINUOUS
 62
       7
100
AcDbLine
 10
33.65158692
 20
37.18061057
 30
0.0
 11
70.44487598
 21
37.18061057
 31
0.0
  0
LINE
  5
CD
100
AcDbEntity
  8
レイヤー_1
  6
CONTINUOUS
 62
       7
100
AcDbLine
 10
14.65099786
 20
59.50042584
 30
0.0
 11
14.65099786
 21
12.15770377
 31
0.0
  0
LINE
  5
CE
100
AcDbEntity
  8
レイヤー_1
  6
CONTINUOUS
 62
       7
100
AcDbLine
 10
16.19523849
 20
19.9320262
 30
0.0
 11
17.65077755
 21
15.9315262
 31
0.0
  0
LINE
  5
CF
100
AcDbEntity
  8
レイヤー_1
  6
CONTINUOUS
 62
       7
100
AcDbLine
 10
17.65077755
 20
15.9315262
 30
0.0
 11
23.65212286
 21
15.9315262
 31
0.0
  0
LINE
  5
D0
100
AcDbEntity
  8
レイヤー_1
  6
CONTINUOUS
 62
       7
100
AcDbLine
 10
23.65212286
 20
15.9315262
 30
0.0
 11
23.65212286
 21
55.42991526
 31
0.0
  0
LINE
  5
D1
100
AcDbEntity
  8
レイヤー_1
  6
CONTINUOUS
 62
       7
100
AcDbLine
 10
23.65212286
 20
55.42991526
 30
0.0
 11
17.65077755
 21
55.42991526
 31
0.0
  0
LINE
  5
D2
100
AcDbEntity
  8
レイヤー_1
  6
CONTINUOUS
 62
       7
100
AcDbLine
 10
17.65077755
 20
55.42991526
 30
0.0
 11
16.19523849
 21
51.43001057
 31
0.0
  0
LINE
  5
D3
100
AcDbEntity
  8
レイヤー_1
  6
CONTINUOUS
 62
       7
100
AcDbLine
 10
16.19523849
 20
51.43001057
 30
0.0
 11
16.19523849
 21
19.9320262
 31
0.0
  0
LINE
  5
D4
100
AcDbEntity
  8
レイヤー_1
  6
CONTINUOUS
 62
       7
100
AcDbLine
 10
64.66978268
 20
-43.26993173
 30
0.0
 11
64.65933478
 21
-43.22131531
 31
0.0
  0
LINE
  5
D5
100
AcDbEntity
  8
レイヤー_1
  6
CONTINUOUS
 62
       7
100
AcDbLine
 10
64.65933478
 20
-43.22131531
 30
0.0
 11
64.64955025
 21
-43.17259559
 31
0.0
  0
LINE
  5
D6
100
AcDbEntity
  8
レイヤー_1
  6
CONTINUOUS
 62
       7
100
AcDbLine
 10
64.64955025
 20
-43.17259559
 30
0.0
 11
64.64042906
 21
-43.12377757
 31
0.0
  0
LINE
  5
D7
100
AcDbEntity
  8
レイヤー_1
  6
CONTINUOUS
 62
       7
100
AcDbLine
 10
64.64042906
 20
-43.12377757
 30
0.0
 11
64.63197124
 21
-43.07486624
 31
0.0
  0
LINE
  5
D8
100
AcDbEntity
  8
レイヤー_1
  6
CONTINUOUS
 62
       7
100
AcDbLine
 10
64.63197124
 20
-43.07486624
 30
0.0
 11
64.62417678
 21
-43.02586659
 31
0.0
  0
LINE
  5
D9
100
AcDbEntity
  8
レイヤー_1
  6
CONTINUOUS
 62
       7
100
AcDbLine
 10
64.62417678
 20
-43.02586659
 30
0.0
 11
64.61704567
 21
-42.97678364
 31
0.0
  0
LINE
  5
DA
100
AcDbEntity
  8
レイヤー_1
  6
CONTINUOUS
 62
       7
100
AcDbLine
 10
64.61704567
 20
-42.97678364
 30
0.0
 11
64.61057793
 21
-42.92762238
 31
0.0
  0
LINE
  5
DB
100
AcDbEntity
  8
レイヤー_1
  6
CONTINUOUS
 62
       7
100
AcDbLine
 10
64.61057793
 20
-42.92762238
 30
0.0
 11
64.60477354
 21
-42.8783878
 31
0.0
  0
LINE
  5
DC
100
AcDbEntity
  8
レイヤー_1
  6
CONTINUOUS
 62
       7
100
AcDbLine
 10
64.60477354
 20
-42.8783878
 30
0.0
 11
64.59963251
 21
-42.82908491
 31
0.0
  0
LINE
  5
DD
100
AcDbEntity
  8
レイヤー_1
  6
CONTINUOUS
 62
       7
100
AcDbLine
 10
64.59963251
 20
-42.82908491
 30
0.0
 11
64.59515484
 21
-42.7797187
 31
0.0
  0
LINE
  5
DE
100
AcDbEntity
  8
レイヤー_1
  6
CONTINUOUS
 62
       7
100
AcDbLine
 10
64.59515484
 20
-42.7797187
 30
0.0
 11
64.59134053
 21
-42.73029418
 31
0.0
  0
LINE
  5
DF
100
AcDbEntity
  8
レイヤー_1
  6
CONTINUOUS
 62
       7
100
AcDbLine
 10
64.59134053
 20
-42.73029418
 30
0.0
 11
64.58818957
 21
-42.68081633
 31
0.0
  0
LINE
  5
E0
100
AcDbEntity
  8
レイヤー_1
  6
CONTINUOUS
 62
       7
100
AcDbLine
 10
64.58818957
 20
-42.68081633
 30
0.0
 11
64.58570198
 21
-42.63129017
 31
0.0
  0
LINE
  5
E1
100
AcDbEntity
  8
レイヤー_1
  6
CONTINUOUS
 62
       7
100
AcDbLine
 10
64.58570198
 20
-42.63129017
 30
0.0
 11
64.58387774
 21
-42.58172068
 31
0.0
  0
LINE
  5
E2
100
AcDbEntity
  8
レイヤー_1
  6
CONTINUOUS
 62
       7
100
AcDbLine
 10
64.58387774
 20
-42.58172068
 30
0.0
 11
64.58271687
 21
-42.53211288
 31
0.0
  0
LINE
  5
E3
100
AcDbEntity
  8
レイヤー_1
  6
CONTINUOUS
 62
       7
100
AcDbLine
 10
64.58271687
 20
-42.53211288
 30
0.0
 11
64.58221935
 21
-42.48247174
 31
0.0
  0
LINE
  5
E4
100
AcDbEntity
  8
レイヤー_1
  6
CONTINUOUS
 62
       7
100
AcDbLine
 10
64.58221935
 20
-42.48247174
 30
0.0
 11
64.58420355
 21
-42.34836949
 31
0.0
  0
LINE
  5
E5
100
AcDbEntity
  8
レイヤー_1
  6
CONTINUOUS
 62
       7
100
AcDbLine
 10
64.58420355
 20
-42.34836949
 30
0.0
 11
64.59307483
 21
-42.18685626
 31
0.0
  0
LINE
  5
E6
100
AcDbEntity
  8
レイヤー_1
  6
CONTINUOUS
 62
       7
100
AcDbLine
 10
64.59307483
 20
-42.18685626
 30
0.0
 11
64.60895854
 21
-42.02638107
 31
0.0
  0
LINE
  5
E7
100
AcDbEntity
  8
レイヤー_1
  6
CONTINUOUS
 62
       7
100
AcDbLine
 10
64.60895854
 20
-42.02638107
 30
0.0
 11
64.63177722
 21
-41.86715803
 31
0.0
  0
LINE
  5
E8
100
AcDbEntity
  8
レイヤー_1
  6
CONTINUOUS
 62
       7
100
AcDbLine
 10
64.63177722
 20
-41.86715803
 30
0.0
 11
64.66145338
 21
-41.70940126
 31
0.0
  0
LINE
  5
E9
100
AcDbEntity
  8
レイヤー_1
  6
CONTINUOUS
 62
       7
100
AcDbLine
 10
64.66145338
 20
-41.70940126
 30
0.0
 11
64.69790954
 21
-41.55332485
 31
0.0
  0
LINE
  5
EA
100
AcDbEntity
  8
レイヤー_1
  6
CONTINUOUS
 62
       7
100
AcDbLine
 10
64.69790954
 20
-41.55332485
 30
0.0
 11
64.74106823
 21
-41.39914293
 31
0.0
  0
LINE
  5
EB
100
AcDbEntity
  8
レイヤー_1
  6
CONTINUOUS
 62
       7
100
AcDbLine
 10
64.74106823
 20
-41.39914293
 30
0.0
 11
64.79085197
 21
-41.24706959
 31
0.0
  0
LINE
  5
EC
100
AcDbEntity
  8
レイヤー_1
  6
CONTINUOUS
 62
       7
100
AcDbLine
 10
64.79085197
 20
-41.24706959
 30
0.0
 11
64.84718327
 21
-41.09731894
 31
0.0
  0
LINE
  5
ED
100
AcDbEntity
  8
レイヤー_1
  6
CONTINUOUS
 62
       7
100
AcDbLine
 10
64.84718327
 20
-41.09731894
 30
0.0
 11
64.90998466
 21
-40.95010509
 31
0.0
  0
LINE
  5
EE
100
AcDbEntity
  8
レイヤー_1
  6
CONTINUOUS
 62
       7
100
AcDbLine
 10
64.90998466
 20
-40.95010509
 30
0.0
 11
64.97917867
 21
-40.80564215
 31
0.0
  0
LINE
  5
EF
100
AcDbEntity
  8
レイヤー_1
  6
CONTINUOUS
 62
       7
100
AcDbLine
 10
64.97917867
 20
-40.80564215
 30
0.0
 11
65.0546878
 21
-40.66414422
 31
0.0
  0
LINE
  5
F0
100
AcDbEntity
  8
レイヤー_1
  6
CONTINUOUS
 62
       7
100
AcDbLine
 10
65.0546878
 20
-40.66414422
 30
0.0
 11
65.13643459
 21
-40.52582541
 31
0.0
  0
LINE
  5
F1
100
AcDbEntity
  8
レイヤー_1
  6
CONTINUOUS
 62
       7
100
AcDbLine
 10
65.13643459
 20
-40.52582541
 30
0.0
 11
65.22434156
 21
-40.39089984
 31
0.0
  0
LINE
  5
F2
100
AcDbEntity
  8
レイヤー_1
  6
CONTINUOUS
 62
       7
100
AcDbLine
 10
65.22434156
 20
-40.39089984
 30
0.0
 11
65.31833122
 21
-40.25958161
 31
0.0
  0
LINE
  5
F3
100
AcDbEntity
  8
レイヤー_1
  6
CONTINUOUS
 62
       7
100
AcDbLine
 10
65.31833122
 20
-40.25958161
 30
0.0
 11
65.4183261
 21
-40.13208481
 31
0.0
  0
LINE
  5
F4
100
AcDbEntity
  8
レイヤー_1
  6
CONTINUOUS
 62
       7
100
AcDbLine
 10
65.4183261
 20
-40.13208481
 30
0.0
 11
65.52261982
 21
-40.00766544
 31
0.0
  0
LINE
  5
F5
100
AcDbEntity
  8
レイヤー_1
  6
CONTINUOUS
 62
       7
100
AcDbLine
 10
65.52261982
 20
-40.00766544
 30
0.0
 11
65.62234924
 21
-39.88029551
 31
0.0
  0
LINE
  5
F6
100
AcDbEntity
  8
レイヤー_1
  6
CONTINUOUS
 62
       7
100
AcDbLine
 10
65.62234924
 20
-39.88029551
 30
0.0
 11
65.71613239
 21
-39.7490704
 31
0.0
  0
LINE
  5
F7
100
AcDbEntity
  8
レイヤー_1
  6
CONTINUOUS
 62
       7
100
AcDbLine
 10
65.71613239
 20
-39.7490704
 30
0.0
 11
65.80388595
 21
-39.61420879
 31
0.0
  0
LINE
  5
F8
100
AcDbEntity
  8
レイヤー_1
  6
CONTINUOUS
 62
       7
100
AcDbLine
 10
65.80388595
 20
-39.61420879
 30
0.0
 11
65.88552661
 21
-39.47592937
 31
0.0
  0
LINE
  5
F9
100
AcDbEntity
  8
レイヤー_1
  6
CONTINUOUS
 62
       7
100
AcDbLine
 10
65.88552661
 20
-39.47592937
 30
0.0
 11
65.96097107
 21
-39.33445083
 31
0.0
  0
LINE
  5
FA
100
AcDbEntity
  8
レイヤー_1
  6
CONTINUOUS
 62
       7
100
AcDbLine
 10
65.96097107
 20
-39.33445083
 30
0.0
 11
66.03013601
 21
-39.18999187
 31
0.0
  0
LINE
  5
FB
100
AcDbEntity
  8
レイヤー_1
  6
CONTINUOUS
 62
       7
100
AcDbLine
 10
66.03013601
 20
-39.18999187
 30
0.0
 11
66.09293812
 21
-39.04277117
 31
0.0
  0
LINE
  5
FC
100
AcDbEntity
  8
レイヤー_1
  6
CONTINUOUS
 62
       7
100
AcDbLine
 10
66.09293812
 20
-39.04277117
 30
0.0
 11
66.1492941
 21
-38.89300742
 31
0.0
  0
LINE
  5
FD
100
AcDbEntity
  8
レイヤー_1
  6
CONTINUOUS
 62
       7
100
AcDbLine
 10
66.1492941
 20
-38.89300742
 30
0.0
 11
66.19912063
 21
-38.74091931
 31
0.0
  0
LINE
  5
FE
100
AcDbEntity
  8
レイヤー_1
  6
CONTINUOUS
 62
       7
100
AcDbLine
 10
66.19912063
 20
-38.74091931
 30
0.0
 11
66.2423344
 21
-38.58672553
 31
0.0
  0
LINE
  5
FF
100
AcDbEntity
  8
レイヤー_1
  6
CONTINUOUS
 62
       7
100
AcDbLine
 10
66.2423344
 20
-38.58672553
 30
0.0
 11
66.2788521
 21
-38.43064478
 31
0.0
  0
LINE
  5
100
100
AcDbEntity
  8
レイヤー_1
  6
CONTINUOUS
 62
       7
100
AcDbLine
 10
66.2788521
 20
-38.43064478
 30
0.0
 11
66.30859042
 21
-38.27289573
 31
0.0
  0
LINE
  5
101
100
AcDbEntity
  8
レイヤー_1
  6
CONTINUOUS
 62
       7
100
AcDbLine
 10
66.30859042
 20
-38.27289573
 30
0.0
 11
66.33146605
 21
-38.11369709
 31
0.0
  0
LINE
  5
102
100
AcDbEntity
  8
レイヤー_1
  6
CONTINUOUS
 62
       7
100
AcDbLine
 10
66.33146605
 20
-38.11369709
 30
0.0
 11
66.34739568
 21
-37.95326753
 31
0.0
  0
LINE
  5
103
100
AcDbEntity
  8
レイヤー_1
  6
CONTINUOUS
 62
       7
100
AcDbLine
 10
66.34739568
 20
-37.95326753
 30
0.0
 11
66.356296
 21
-37.79182576
 31
0.0
  0
LINE
  5
104
100
AcDbEntity
  8
レイヤー_1
  6
CONTINUOUS
 62
       7
100
AcDbLine
 10
66.356296
 20
-37.79182576
 30
0.0
 11
66.35828741
 21
-37.65779639
 31
0.0
  0
LINE
  5
105
100
AcDbEntity
  8
レイヤー_1
  6
CONTINUOUS
 62
       7
100
AcDbLine
 10
66.35828741
 20
-37.65779639
 30
0.0
 11
66.35778962
 21
-37.60814591
 31
0.0
  0
LINE
  5
106
100
AcDbEntity
  8
レイヤー_1
  6
CONTINUOUS
 62
       7
100
AcDbLine
 10
66.35778962
 20
-37.60814591
 30
0.0
 11
66.35662743
 21
-37.55851834
 31
0.0
  0
LINE
  5
107
100
AcDbEntity
  8
レイヤー_1
  6
CONTINUOUS
 62
       7
100
AcDbLine
 10
66.35662743
 20
-37.55851834
 30
0.0
 11
66.35480001
 21
-37.50892118
 31
0.0
  0
LINE
  5
108
100
AcDbEntity
  8
レイヤー_1
  6
CONTINUOUS
 62
       7
100
AcDbLine
 10
66.35480001
 20
-37.50892118
 30
0.0
 11
66.35230653
 21
-37.45936193
 31
0.0
  0
LINE
  5
109
100
AcDbEntity
  8
レイヤー_1
  6
CONTINUOUS
 62
       7
100
AcDbLine
 10
66.35230653
 20
-37.45936193
 30
0.0
 11
66.34914614
 21
-37.40984808
 31
0.0
  0
LINE
  5
10A
100
AcDbEntity
  8
レイヤー_1
  6
CONTINUOUS
 62
       7
100
AcDbLine
 10
66.34914614
 20
-37.40984808
 30
0.0
 11
66.34531802
 21
-37.36038713
 31
0.0
  0
LINE
  5
10B
100
AcDbEntity
  8
レイヤー_1
  6
CONTINUOUS
 62
       7
100
AcDbLine
 10
66.34531802
 20
-37.36038713
 30
0.0
 11
66.34082134
 21
-37.31098659
 31
0.0
  0
LINE
  5
10C
100
AcDbEntity
  8
レイヤー_1
  6
CONTINUOUS
 62
       7
100
AcDbLine
 10
66.34082134
 20
-37.31098659
 30
0.0
 11
66.33565525
 21
-37.26165394
 31
0.0
  0
LINE
  5
10D
100
AcDbEntity
  8
レイヤー_1
  6
CONTINUOUS
 62
       7
100
AcDbLine
 10
66.33565525
 20
-37.26165394
 30
0.0
 11
66.32981894
 21
-37.21239668
 31
0.0
  0
LINE
  5
10E
100
AcDbEntity
  8
レイヤー_1
  6
CONTINUOUS
 62
       7
100
AcDbLine
 10
66.32981894
 20
-37.21239668
 30
0.0
 11
66.32331156
 21
-37.16322233
 31
0.0
  0
LINE
  5
10F
100
AcDbEntity
  8
レイヤー_1
  6
CONTINUOUS
 62
       7
100
AcDbLine
 10
66.32331156
 20
-37.16322233
 30
0.0
 11
66.31613228
 21
-37.11413836
 31
0.0
  0
LINE
  5
110
100
AcDbEntity
  8
レイヤー_1
  6
CONTINUOUS
 62
       7
100
AcDbLine
 10
66.31613228
 20
-37.11413836
 30
0.0
 11
66.30828027
 21
-37.06515228
 31
0.0
  0
LINE
  5
111
100
AcDbEntity
  8
レイヤー_1
  6
CONTINUOUS
 62
       7
100
AcDbLine
 10
66.30828027
 20
-37.06515228
 30
0.0
 11
66.2997547
 21
-37.01627159
 31
0.0
  0
LINE
  5
112
100
AcDbEntity
  8
レイヤー_1
  6
CONTINUOUS
 62
       7
100
AcDbLine
 10
66.2997547
 20
-37.01627159
 30
0.0
 11
66.29055473
 21
-36.96750378
 31
0.0
  0
LINE
  5
113
100
AcDbEntity
  8
レイヤー_1
  6
CONTINUOUS
 62
       7
100
AcDbLine
 10
66.29055473
 20
-36.96750378
 30
0.0
 11
66.28067953
 21
-36.91885636
 31
0.0
  0
LINE
  5
114
100
AcDbEntity
  8
レイヤー_1
  6
CONTINUOUS
 62
       7
100
AcDbLine
 10
66.28067953
 20
-36.91885636
 30
0.0
 11
66.27012827
 21
-36.87033682
 31
0.0
  0
LINE
  5
115
100
AcDbEntity
  8
レイヤー_1
  6
CONTINUOUS
 62
       7
100
AcDbLine
 10
67.07030106
 20
-36.87033682
 30
0.0
 11
67.08074896
 21
-36.91885636
 31
0.0
  0
LINE
  5
116
100
AcDbEntity
  8
レイヤー_1
  6
CONTINUOUS
 62
       7
100
AcDbLine
 10
67.08074896
 20
-36.91885636
 30
0.0
 11
67.0905335
 21
-36.96750378
 31
0.0
  0
LINE
  5
117
100
AcDbEntity
  8
レイヤー_1
  6
CONTINUOUS
 62
       7
100
AcDbLine
 10
67.0905335
 20
-36.96750378
 30
0.0
 11
67.09965468
 21
-37.01627159
 31
0.0
  0
LINE
  5
118
100
AcDbEntity
  8
レイヤー_1
  6
CONTINUOUS
 62
       7
100
AcDbLine
 10
67.09965468
 20
-37.01627159
 30
0.0
 11
67.1081125
 21
-37.06515228
 31
0.0
  0
LINE
  5
119
100
AcDbEntity
  8
レイヤー_1
  6
CONTINUOUS
 62
       7
100
AcDbLine
 10
67.1081125
 20
-37.06515228
 30
0.0
 11
67.11590696
 21
-37.11413836
 31
0.0
  0
LINE
  5
11A
100
AcDbEntity
  8
レイヤー_1
  6
CONTINUOUS
 62
       7
100
AcDbLine
 10
67.11590696
 20
-37.11413836
 30
0.0
 11
67.12303807
 21
-37.16322233
 31
0.0
  0
LINE
  5
11B
100
AcDbEntity
  8
レイヤー_1
  6
CONTINUOUS
 62
       7
100
AcDbLine
 10
67.12303807
 20
-37.16322233
 30
0.0
 11
67.12950581
 21
-37.21239668
 31
0.0
  0
LINE
  5
11C
100
AcDbEntity
  8
レイヤー_1
  6
CONTINUOUS
 62
       7
100
AcDbLine
 10
67.12950581
 20
-37.21239668
 30
0.0
 11
67.1353102
 21
-37.26165394
 31
0.0
  0
LINE
  5
11D
100
AcDbEntity
  8
レイヤー_1
  6
CONTINUOUS
 62
       7
100
AcDbLine
 10
67.1353102
 20
-37.26165394
 30
0.0
 11
67.14045123
 21
-37.31098659
 31
0.0
  0
LINE
  5
11E
100
AcDbEntity
  8
レイヤー_1
  6
CONTINUOUS
 62
       7
100
AcDbLine
 10
67.14045123
 20
-37.31098659
 30
0.0
 11
67.1449289
 21
-37.36038713
 31
0.0
  0
LINE
  5
11F
100
AcDbEntity
  8
レイヤー_1
  6
CONTINUOUS
 62
       7
100
AcDbLine
 10
67.1449289
 20
-37.36038713
 30
0.0
 11
67.14874321
 21
-37.40984808
 31
0.0
  0
LINE
  5
120
100
AcDbEntity
  8
レイヤー_1
  6
CONTINUOUS
 62
       7
100
AcDbLine
 10
67.14874321
 20
-37.40984808
 30
0.0
 11
67.15189417
 21
-37.45936193
 31
0.0
  0
LINE
  5
121
100
AcDbEntity
  8
レイヤー_1
  6
CONTINUOUS
 62
       7
100
AcDbLine
 10
67.15189417
 20
-37.45936193
 30
0.0
 11
67.15438176
 21
-37.50892118
 31
0.0
  0
LINE
  5
122
100
AcDbEntity
  8
レイヤー_1
  6
CONTINUOUS
 62
       7
100
AcDbLine
 10
67.15438176
 20
-37.50892118
 30
0.0
 11
67.156206
 21
-37.55851834
 31
0.0
  0
LINE
  5
123
100
AcDbEntity
  8
レイヤー_1
  6
CONTINUOUS
 62
       7
100
AcDbLine
 10
67.156206
 20
-37.55851834
 30
0.0
 11
67.15736688
 21
-37.60814591
 31
0.0
  0
LINE
  5
124
100
AcDbEntity
  8
レイヤー_1
  6
CONTINUOUS
 62
       7
100
AcDbLine
 10
67.15736688
 20
-37.60814591
 30
0.0
 11
67.15786439
 21
-37.65779639
 31
0.0
  0
LINE
  5
125
100
AcDbEntity
  8
レイヤー_1
  6
CONTINUOUS
 62
       7
100
AcDbLine
 10
67.15786439
 20
-37.65779639
 30
0.0
 11
67.15588025
 21
-37.79182576
 31
0.0
  0
LINE
  5
126
100
AcDbEntity
  8
レイヤー_1
  6
CONTINUOUS
 62
       7
100
AcDbLine
 10
67.15588025
 20
-37.79182576
 30
0.0
 11
67.14700966
 21
-37.95326753
 31
0.0
  0
LINE
  5
127
100
AcDbEntity
  8
レイヤー_1
  6
CONTINUOUS
 62
       7
100
AcDbLine
 10
67.14700966
 20
-37.95326753
 30
0.0
 11
67.13112809
 21
-38.11369709
 31
0.0
  0
LINE
  5
128
100
AcDbEntity
  8
レイヤー_1
  6
CONTINUOUS
 62
       7
100
AcDbLine
 10
67.13112809
 20
-38.11369709
 30
0.0
 11
67.10831384
 21
-38.27289573
 31
0.0
  0
LINE
  5
129
100
AcDbEntity
  8
レイヤー_1
  6
CONTINUOUS
 62
       7
100
AcDbLine
 10
67.10831384
 20
-38.27289573
 30
0.0
 11
67.07864524
 21
-38.43064478
 31
0.0
  0
LINE
  5
12A
100
AcDbEntity
  8
レイヤー_1
  6
CONTINUOUS
 62
       7
100
AcDbLine
 10
67.07864524
 20
-38.43064478
 30
0.0
 11
67.04220059
 21
-38.58672553
 31
0.0
  0
LINE
  5
12B
100
AcDbEntity
  8
レイヤー_1
  6
CONTINUOUS
 62
       7
100
AcDbLine
 10
67.04220059
 20
-38.58672553
 30
0.0
 11
66.99905821
 21
-38.74091931
 31
0.0
  0
LINE
  5
12C
100
AcDbEntity
  8
レイヤー_1
  6
CONTINUOUS
 62
       7
100
AcDbLine
 10
66.99905821
 20
-38.74091931
 30
0.0
 11
66.94929641
 21
-38.89300742
 31
0.0
  0
LINE
  5
12D
100
AcDbEntity
  8
レイヤー_1
  6
CONTINUOUS
 62
       7
100
AcDbLine
 10
66.94929641
 20
-38.89300742
 30
0.0
 11
66.89299349
 21
-39.04277117
 31
0.0
  0
LINE
  5
12E
100
AcDbEntity
  8
レイヤー_1
  6
CONTINUOUS
 62
       7
100
AcDbLine
 10
66.89299349
 20
-39.04277117
 30
0.0
 11
66.83022777
 21
-39.18999187
 31
0.0
  0
LINE
  5
12F
100
AcDbEntity
  8
レイヤー_1
  6
CONTINUOUS
 62
       7
100
AcDbLine
 10
66.83022777
 20
-39.18999187
 30
0.0
 11
66.76107757
 21
-39.33445083
 31
0.0
  0
LINE
  5
130
100
AcDbEntity
  8
レイヤー_1
  6
CONTINUOUS
 62
       7
100
AcDbLine
 10
66.76107757
 20
-39.33445083
 30
0.0
 11
66.68562118
 21
-39.47592937
 31
0.0
  0
LINE
  5
131
100
AcDbEntity
  8
レイヤー_1
  6
CONTINUOUS
 62
       7
100
AcDbLine
 10
66.68562118
 20
-39.47592937
 30
0.0
 11
66.60393694
 21
-39.61420879
 31
0.0
  0
LINE
  5
132
100
AcDbEntity
  8
レイヤー_1
  6
CONTINUOUS
 62
       7
100
AcDbLine
 10
66.60393694
 20
-39.61420879
 30
0.0
 11
66.51610314
 21
-39.7490704
 31
0.0
  0
LINE
  5
133
100
AcDbEntity
  8
レイヤー_1
  6
CONTINUOUS
 62
       7
100
AcDbLine
 10
66.51610314
 20
-39.7490704
 30
0.0
 11
66.4221981
 21
-39.88029551
 31
0.0
  0
LINE
  5
134
100
AcDbEntity
  8
レイヤー_1
  6
CONTINUOUS
 62
       7
100
AcDbLine
 10
66.4221981
 20
-39.88029551
 30
0.0
 11
66.32230013
 21
-40.00766544
 31
0.0
  0
LINE
  5
135
100
AcDbEntity
  8
レイヤー_1
  6
CONTINUOUS
 62
       7
100
AcDbLine
 10
66.32230013
 20
-40.00766544
 30
0.0
 11
66.21795641
 21
-40.13208481
 31
0.0
  0
LINE
  5
136
100
AcDbEntity
  8
レイヤー_1
  6
CONTINUOUS
 62
       7
100
AcDbLine
 10
66.21795641
 20
-40.13208481
 30
0.0
 11
66.11805844
 21
-40.25958161
 31
0.0
  0
LINE
  5
137
100
AcDbEntity
  8
レイヤー_1
  6
CONTINUOUS
 62
       7
100
AcDbLine
 10
66.11805844
 20
-40.25958161
 30
0.0
 11
66.02415339
 21
-40.39089984
 31
0.0
  0
LINE
  5
138
100
AcDbEntity
  8
レイヤー_1
  6
CONTINUOUS
 62
       7
100
AcDbLine
 10
66.02415339
 20
-40.39089984
 30
0.0
 11
65.9363196
 21
-40.52582541
 31
0.0
  0
LINE
  5
139
100
AcDbEntity
  8
レイヤー_1
  6
CONTINUOUS
 62
       7
100
AcDbLine
 10
65.9363196
 20
-40.52582541
 30
0.0
 11
65.85463535
 21
-40.66414422
 31
0.0
  0
LINE
  5
13A
100
AcDbEntity
  8
レイヤー_1
  6
CONTINUOUS
 62
       7
100
AcDbLine
 10
65.85463535
 20
-40.66414422
 30
0.0
 11
65.77917897
 21
-40.80564215
 31
0.0
  0
LINE
  5
13B
100
AcDbEntity
  8
レイヤー_1
  6
CONTINUOUS
 62
       7
100
AcDbLine
 10
65.77917897
 20
-40.80564215
 30
0.0
 11
65.71002876
 21
-40.95010509
 31
0.0
  0
LINE
  5
13C
100
AcDbEntity
  8
レイヤー_1
  6
CONTINUOUS
 62
       7
100
AcDbLine
 10
65.71002876
 20
-40.95010509
 30
0.0
 11
65.64726304
 21
-41.09731894
 31
0.0
  0
LINE
  5
13D
100
AcDbEntity
  8
レイヤー_1
  6
CONTINUOUS
 62
       7
100
AcDbLine
 10
65.64726304
 20
-41.09731894
 30
0.0
 11
65.59096013
 21
-41.24706959
 31
0.0
  0
LINE
  5
13E
100
AcDbEntity
  8
レイヤー_1
  6
CONTINUOUS
 62
       7
100
AcDbLine
 10
65.59096013
 20
-41.24706959
 30
0.0
 11
65.54119832
 21
-41.39914293
 31
0.0
  0
LINE
  5
13F
100
AcDbEntity
  8
レイヤー_1
  6
CONTINUOUS
 62
       7
100
AcDbLine
 10
65.54119832
 20
-41.39914293
 30
0.0
 11
65.49805594
 21
-41.55332485
 31
0.0
  0
LINE
  5
140
100
AcDbEntity
  8
レイヤー_1
  6
CONTINUOUS
 62
       7
100
AcDbLine
 10
65.49805594
 20
-41.55332485
 30
0.0
 11
65.46161129
 21
-41.70940126
 31
0.0
  0
LINE
  5
141
100
AcDbEntity
  8
レイヤー_1
  6
CONTINUOUS
 62
       7
100
AcDbLine
 10
65.46161129
 20
-41.70940126
 30
0.0
 11
65.43194269
 21
-41.86715803
 31
0.0
  0
LINE
  5
142
100
AcDbEntity
  8
レイヤー_1
  6
CONTINUOUS
 62
       7
100
AcDbLine
 10
65.43194269
 20
-41.86715803
 30
0.0
 11
65.40912845
 21
-42.02638107
 31
0.0
  0
LINE
  5
143
100
AcDbEntity
  8
レイヤー_1
  6
CONTINUOUS
 62
       7
100
AcDbLine
 10
65.40912845
 20
-42.02638107
 30
0.0
 11
65.39324688
 21
-42.18685626
 31
0.0
  0
LINE
  5
144
100
AcDbEntity
  8
レイヤー_1
  6
CONTINUOUS
 62
       7
100
AcDbLine
 10
65.39324688
 20
-42.18685626
 30
0.0
 11
65.38437629
 21
-42.34836949
 31
0.0
  0
LINE
  5
145
100
AcDbEntity
  8
レイヤー_1
  6
CONTINUOUS
 62
       7
100
AcDbLine
 10
65.38437629
 20
-42.34836949
 30
0.0
 11
65.38239256
 21
-42.48247174
 31
0.0
  0
LINE
  5
146
100
AcDbEntity
  8
レイヤー_1
  6
CONTINUOUS
 62
       7
100
AcDbLine
 10
65.38239256
 20
-42.48247174
 30
0.0
 11
65.38289969
 21
-42.53211288
 31
0.0
  0
LINE
  5
147
100
AcDbEntity
  8
レイヤー_1
  6
CONTINUOUS
 62
       7
100
AcDbLine
 10
65.38289969
 20
-42.53211288
 30
0.0
 11
65.38408164
 21
-42.58172068
 31
0.0
  0
LINE
  5
148
100
AcDbEntity
  8
レイヤー_1
  6
CONTINUOUS
 62
       7
100
AcDbLine
 10
65.38408164
 20
-42.58172068
 30
0.0
 11
65.38593674
 21
-42.63129017
 31
0.0
  0
LINE
  5
149
100
AcDbEntity
  8
レイヤー_1
  6
CONTINUOUS
 62
       7
100
AcDbLine
 10
65.38593674
 20
-42.63129017
 30
0.0
 11
65.38846331
 21
-42.68081633
 31
0.0
  0
LINE
  5
14A
100
AcDbEntity
  8
レイヤー_1
  6
CONTINUOUS
 62
       7
100
AcDbLine
 10
65.38846331
 20
-42.68081633
 30
0.0
 11
65.39165971
 21
-42.73029418
 31
0.0
  0
LINE
  5
14B
100
AcDbEntity
  8
レイヤー_1
  6
CONTINUOUS
 62
       7
100
AcDbLine
 10
65.39165971
 20
-42.73029418
 30
0.0
 11
65.39552425
 21
-42.7797187
 31
0.0
  0
LINE
  5
14C
100
AcDbEntity
  8
レイヤー_1
  6
CONTINUOUS
 62
       7
100
AcDbLine
 10
65.39552425
 20
-42.7797187
 30
0.0
 11
65.40005527
 21
-42.82908491
 31
0.0
  0
LINE
  5
14D
100
AcDbEntity
  8
レイヤー_1
  6
CONTINUOUS
 62
       7
100
AcDbLine
 10
65.40005527
 20
-42.82908491
 30
0.0
 11
65.40525111
 21
-42.8783878
 31
0.0
  0
LINE
  5
14E
100
AcDbEntity
  8
レイヤー_1
  6
CONTINUOUS
 62
       7
100
AcDbLine
 10
65.40525111
 20
-42.8783878
 30
0.0
 11
65.4111101
 21
-42.92762238
 31
0.0
  0
LINE
  5
14F
100
AcDbEntity
  8
レイヤー_1
  6
CONTINUOUS
 62
       7
100
AcDbLine
 10
65.4111101
 20
-42.92762238
 30
0.0
 11
65.41763058
 21
-42.97678364
 31
0.0
  0
LINE
  5
150
100
AcDbEntity
  8
レイヤー_1
  6
CONTINUOUS
 62
       7
100
AcDbLine
 10
65.41763058
 20
-42.97678364
 30
0.0
 11
65.42481087
 21
-43.02586659
 31
0.0
  0
LINE
  5
151
100
AcDbEntity
  8
レイヤー_1
  6
CONTINUOUS
 62
       7
100
AcDbLine
 10
65.42481087
 20
-43.02586659
 30
0.0
 11
65.43264931
 21
-43.07486624
 31
0.0
  0
LINE
  5
152
100
AcDbEntity
  8
レイヤー_1
  6
CONTINUOUS
 62
       7
100
AcDbLine
 10
65.43264931
 20
-43.07486624
 30
0.0
 11
65.44114424
 21
-43.12377757
 31
0.0
  0
LINE
  5
153
100
AcDbEntity
  8
レイヤー_1
  6
CONTINUOUS
 62
       7
100
AcDbLine
 10
65.44114424
 20
-43.12377757
 30
0.0
 11
65.45029399
 21
-43.17259559
 31
0.0
  0
LINE
  5
154
100
AcDbEntity
  8
レイヤー_1
  6
CONTINUOUS
 62
       7
100
AcDbLine
 10
65.45029399
 20
-43.17259559
 30
0.0
 11
65.4600969
 21
-43.22131531
 31
0.0
  0
LINE
  5
155
100
AcDbEntity
  8
レイヤー_1
  6
CONTINUOUS
 62
       7
100
AcDbLine
 10
65.4600969
 20
-43.22131531
 30
0.0
 11
65.47055128
 21
-43.26993173
 31
0.0
  0
LINE
  5
156
100
AcDbEntity
  8
レイヤー_1
  6
CONTINUOUS
 62
       7
100
AcDbLine
 10
-34.54836656
 20
-60.06983637
 30
0.0
 11
-34.54836656
 21
-20.06983637
 31
0.0
  0
LINE
  5
157
100
AcDbEntity
  8
レイヤー_1
  6
CONTINUOUS
 62
       7
100
AcDbLine
 10
11.9948189
 20
-24.31989767
 30
0.0
 11
11.9948189
 21
-55.81977507
 31
0.0
  0
LINE
  5
158
100
AcDbEntity
  8
レイヤー_1
  6
CONTINUOUS
 62
       7
100
AcDbLine
 10
11.9948189
 20
-55.81977507
 30
0.0
 11
10.45047945
 21
-55.81977507
 31
0.0
  0
LINE
  5
159
100
AcDbEntity
  8
レイヤー_1
  6
CONTINUOUS
 62
       7
100
AcDbLine
 10
11.9948189
 20
-24.31989767
 30
0.0
 11
10.45047945
 21
-24.31989767
 31
0.0
  0
LINE
  5
15A
100
AcDbEntity
  8
レイヤー_1
  6
CONTINUOUS
 62
       7
100
AcDbLine
 10
13.54138921
 20
-20.06983637
 30
0.0
 11
11.9948189
 21
-24.31989767
 31
0.0
  0
LINE
  5
15B
100
AcDbEntity
  8
レイヤー_1
  6
CONTINUOUS
 62
       7
100
AcDbLine
 10
13.54138921
 20
-60.06983637
 30
0.0
 11
11.9948189
 21
-55.81977507
 31
0.0
  0
LINE
  5
15C
100
AcDbEntity
  8
レイヤー_1
  6
CONTINUOUS
 62
       7
100
AcDbLine
 10
10.45047945
 20
-20.06983637
 30
0.0
 11
10.45047945
 21
-60.06983637
 31
0.0
  0
LINE
  5
15D
100
AcDbEntity
  8
レイヤー_1
  6
CONTINUOUS
 62
       7
100
AcDbLine
 10
22.65028443
 20
-29.59251802
 30
0.0
 11
22.65028443
 21
-50.54715472
 31
0.0
  0
LINE
  5
15E
100
AcDbEntity
  8
レイヤー_1
  6
CONTINUOUS
 62
       7
100
AcDbLine
 10
19.45078489
 20
-29.59251802
 30
0.0
 11
28.45109032
 21
-29.59251802
 31
0.0
  0
LINE
  5
15F
100
AcDbEntity
  8
レイヤー_1
  6
CONTINUOUS
 62
       7
100
AcDbLine
 10
28.45109032
 20
-29.59251802
 30
0.0
 11
29.45163344
 21
-30.59306114
 31
0.0
  0
LINE
  5
160
100
AcDbEntity
  8
レイヤー_1
  6
CONTINUOUS
 62
       7
100
AcDbLine
 10
29.45163344
 20
-49.54720787
 30
0.0
 11
28.45109032
 21
-50.54715472
 31
0.0
  0
LINE
  5
161
100
AcDbEntity
  8
レイヤー_1
  6
CONTINUOUS
 62
       7
100
AcDbLine
 10
28.45109032
 20
-50.54715472
 30
0.0
 11
19.45078489
 21
-50.54715472
 31
0.0
  0
LINE
  5
162
100
AcDbEntity
  8
レイヤー_1
  6
CONTINUOUS
 62
       7
100
AcDbLine
 10
29.45085945
 20
-41.56949007
 30
0.0
 11
64.69361508
 21
-41.56949007
 31
0.0
  0
LINE
  5
163
100
AcDbEntity
  8
レイヤー_1
  6
CONTINUOUS
 62
       7
100
AcDbLine
 10
65.49378787
 20
-41.56949007
 30
0.0
 11
99.46985151
 21
-41.56949007
 31
0.0
  0
LINE
  5
164
100
AcDbEntity
  8
レイヤー_1
  6
CONTINUOUS
 62
       7
100
AcDbLine
 10
29.45085945
 20
-38.57018267
 30
0.0
 11
66.24629587
 21
-38.57018267
 31
0.0
  0
LINE
  5
165
100
AcDbEntity
  8
レイヤー_1
  6
CONTINUOUS
 62
       7
100
AcDbLine
 10
67.04646866
 20
-38.57018267
 30
0.0
 11
99.46985151
 21
-38.57018267
 31
0.0
  0
LINE
  5
166
100
AcDbEntity
  8
レイヤー_1
  6
CONTINUOUS
 62
       7
100
AcDbLine
 10
99.46985151
 20
-38.57018267
 30
0.0
 11
99.46985151
 21
-41.56949007
 31
0.0
  0
LINE
  5
167
100
AcDbEntity
  8
レイヤー_1
  6
CONTINUOUS
 62
       7
100
AcDbLine
 10
99.46985151
 20
-39.71979801
 30
0.0
 11
109.46992607
 21
-39.71979801
 31
0.0
  0
LINE
  5
168
100
AcDbEntity
  8
レイヤー_1
  6
CONTINUOUS
 62
       7
100
AcDbLine
 10
109.46992607
 20
-39.71979801
 30
0.0
 11
109.46992607
 21
-40.42017263
 31
0.0
  0
LINE
  5
169
100
AcDbEntity
  8
レイヤー_1
  6
CONTINUOUS
 62
       7
100
AcDbLine
 10
109.46992607
 20
-40.42017263
 30
0.0
 11
99.46985151
 21
-40.42017263
 31
0.0
  0
LINE
  5
16A
100
AcDbEntity
  8
レイヤー_1
  6
CENTERX2
 62
       7
100
AcDbLine
 10
-90.52828825
 20
65.54165299
 30
0.0
 11
-90.52828825
 21
7.83032731
 31
0.0
  0
LINE
  5
16B
100
AcDbEntity
  8
レイヤー_1
  6
CENTERX2
 62
       7
100
AcDbLine
 10
-49.23496306
 20
35.68042307
 30
0.0
 11
117.39181503
 21
35.68042307
 31
0.0
  0
LINE
  5
16C
100
AcDbEntity
  8
レイヤー_1
  6
CENTERX2
 62
       7
100
AcDbLine
 10
-63.53701231
 20
35.8290648
 30
0.0
 11
-117.39181503
 21
35.8290648
 31
0.0
  0
LINE
  5
16D
100
AcDbEntity
  8
レイヤー_1
  6
CENTERX2
 62
       7
100
AcDbLine
 10
-90.52828825
 20
-65.54165299
 30
0.0
 11
-90.52828825
 21
-16.01395967
 31
0.0
  0
LINE
  5
16E
100
AcDbEntity
  8
レイヤー_1
  6
CENTERX2
 62
       7
100
AcDbLine
 10
-68.38714354
 20
-40.06983637
 30
0.0
 11
-115.01282358
 21
-40.06983637
 31
0.0
  0
LINE
  5
16F
100
AcDbEntity
  8
レイヤー_1
  6
CENTERX2
 62
       7
100
AcDbLine
 10
-52.66188341
 20
-40.06983637
 30
0.0
 11
112.799908
 21
-40.06983637
 31
0.0
  0
TEXT
  5
170
100
AcDbEntity
  8
SLD-0
 62
       7
100
AcDbText
 10
89.01227012
 20
-65.20749034
 30
0.0
 40
8.64
  1
000
 72
       5
 11
114.93227012
 21
-65.20749034
 31
0.0
100
AcDbText
  0
ENDSEC
  0
SECTION
  2
OBJECTS
  0
DICTIONARY
  5
19
100
AcDbDictionary
  3
ACAD_GROUP
350
1A
  3
ACAD_MLINESTYLE
350
1B
  0
DICTIONARY
  5
1A
102
{ACAD_REACTORS
330
19
102
}
100
AcDbDictionary
  0
DICTIONARY
  5
1B
102
{ACAD_REACTORS
330
19
102
}
100
AcDbDictionary
  3
STANDARD
350
1C
  0
MLINESTYLE
  5
1C
102
{ACAD_REACTORS
330
1B
102
}
100
AcDbMlineStyle
  2
STANDARD
 70
       0
  3

 62
       0
 51
90.0
 52
90.0
 71
       2
 49
0.5
 62
     256
  6
BYLAYER
 49
-0.5
 62
     256
  6
BYLAYER
  0
ENDSEC
  0
EOF
