  0
SECTION
  2
HEADER
  9
$ACADVER
  1
AC1014
  9
$ACADMAINTVER
 70
       0
  9
$DWGCODEPAGE
  3
ANSI_932
  9
$INSBASE
 10
0.0
 20
0.0
 30
0.0
  9
$EXTMIN
 10
-122.95764186
 20
-37.41141442
 30
0.0
  9
$EXTMAX
 10
122.95764186
 20
34.91141442
 30
0.0
  9
$LIMMIN
 10
-130.64249448
 20
-39.67150282
  9
$LIMMAX
 10
130.64249448
 20
37.17150282
  9
$ORTHOMODE
 70
       0
  9
$REGENMODE
 70
       1
  9
$FILLMODE
 70
       1
  9
$QTEXTMODE
 70
       0
  9
$MIRRTEXT
 70
       1
  9
$DRAGMODE
 70
       2
  9
$LTSCALE
 40
1.0
  9
$OSMODE
 70
       0
  9
$ATTMODE
 70
       1
  9
$TEXTSIZE
 40
0.2
  9
$TRACEWID
 40
0.05
  9
$TEXTSTYLE
  7
STANDARD
  9
$CLAYER
  8
0
  9
$CELTYPE
  6
CONTINUOUS
  9
$CECOLOR
 62
     256
  9
$CELTSCALE
 40
1.0
  9
$DELOBJ
 70
       1
  9
$DISPSILH
 70
       0
  9
$DIMSCALE
 40
1.0
  9
$DIMASZ
 40
0.18
  9
$DIMEXO
 40
0.0625
  9
$DIMDLI
 40
0.38
  9
$DIMRND
 40
0.0
  9
$DIMDLE
 40
0.0
  9
$DIMEXE
 40
0.18
  9
$DIMTP
 40
0.0
  9
$DIMTM
 40
0.0
  9
$DIMTXT
 40
0.18
  9
$DIMCEN
 40
0.09
  9
$DIMTSZ
 40
0.0
  9
$DIMTOL
 70
       0
  9
$DIMLIM
 70
       0
  9
$DIMTIH
 70
       1
  9
$DIMTOH
 70
       1
  9
$DIMSE1
 70
       0
  9
$DIMSE2
 70
       0
  9
$DIMTAD
 70
       0
  9
$DIMZIN
 70
       0
  9
$DIMBLK
  1

  9
$DIMASO
 70
       1
  9
$DIMSHO
 70
       1
  9
$DIMPOST
  1

  9
$DIMAPOST
  1

  9
$DIMALT
 70
       0
  9
$DIMALTD
 70
       2
  9
$DIMALTF
 40
25.4
  9
$DIMLFAC
 40
1.0
  9
$DIMTOFL
 70
       0
  9
$DIMTVP
 40
0.0
  9
$DIMTIX
 70
       0
  9
$DIMSOXD
 70
       0
  9
$DIMSAH
 70
       0
  9
$DIMBLK1
  1

  9
$DIMBLK2
  1

  9
$DIMSTYLE
  2
STANDARD
  9
$DIMCLRD
 70
       0
  9
$DIMCLRE
 70
       0
  9
$DIMCLRT
 70
       0
  9
$DIMTFAC
 40
1.0
  9
$DIMGAP
 40
0.09
  9
$DIMJUST
 70
       0
  9
$DIMSD1
 70
       0
  9
$DIMSD2
 70
       0
  9
$DIMTOLJ
 70
       1
  9
$DIMTZIN
 70
       0
  9
$DIMALTZ
 70
       0
  9
$DIMALTTZ
 70
       0
  9
$DIMFIT
 70
       3
  9
$DIMUPT
 70
       0
  9
$DIMUNIT
 70
       2
  9
$DIMDEC
 70
       4
  9
$DIMTDEC
 70
       4
  9
$DIMALTU
 70
       2
  9
$DIMALTTD
 70
       2
  9
$DIMTXSTY
  7
STANDARD
  9
$DIMAUNIT
 70
       0
  9
$LUNITS
 70
       2
  9
$LUPREC
 70
       4
  9
$SKETCHINC
 40
0.1
  9
$FILLETRAD
 40
0.0
  9
$AUNITS
 70
       0
  9
$AUPREC
 70
       0
  9
$MENU
  1
acad
  9
$ELEVATION
 40
0.0
  9
$PELEVATION
 40
0.0
  9
$THICKNESS
 40
0.0
  9
$LIMCHECK
 70
       0
  9
$BLIPMODE
 70
       1
  9
$CHAMFERA
 40
0.0
  9
$CHAMFERB
 40
0.0
  9
$CHAMFERC
 40
0.0
  9
$CHAMFERD
 40
0.0
  9
$SKPOLY
 70
       0
  9
$TDCREATE
 40
0.000000000
  9
$TDUPDATE
 40
0.000000000
  9
$TDINDWG
 40
0.0000000000
  9
$TDUSRTIMER
 40
0.0000000000
  9
$USRTIMER
 70
       1
  9
$ANGBASE
 50
0.0
  9
$ANGDIR
 70
       0
  9
$PDMODE
 70
       0
  9
$PDSIZE
 40
1.0
  9
$PLINEWID
 40
0.0
  9
$COORDS
 70
       1
  9
$SPLFRAME
 70
       0
  9
$SPLINETYPE
 70
       6
  9
$SPLINESEGS
 70
       8
  9
$ATTDIA
 70
       0
  9
$ATTREQ
 70
       1
  9
$HANDLING
 70
       1
  9
$HANDSEED
  5
16C
  9
$SURFTAB1
 70
       6
  9
$SURFTAB2
 70
       6
  9
$SURFTYPE
 70
       6
  9
$SURFU
 70
       6
  9
$SURFV
 70
       6
  9
$UCSNAME
  2

  9
$UCSORG
 10
0.0
 20
0.0
 30
0.0
  9
$UCSXDIR
 10
1.0
 20
0.0
 30
0.0
  9
$UCSYDIR
 10
0.0
 20
1.0
 30
0.0
  9
$PUCSNAME
  2

  9
$PUCSORG
 10
0.0
 20
0.0
 30
0.0
  9
$PUCSXDIR
 10
1.0
 20
0.0
 30
0.0
  9
$PUCSYDIR
 10
0.0
 20
1.0
 30
0.0
  9
$USERI1
 70
       0
  9
$USERI2
 70
       0
  9
$USERI3
 70
       0
  9
$USERI4
 70
       0
  9
$USERI5
 70
       0
  9
$USERR1
 40
0.0
  9
$USERR2
 40
0.0
  9
$USERR3
 40
0.0
  9
$USERR4
 40
0.0
  9
$USERR5
 40
0.0
  9
$WORLDVIEW
 70
       1
  9
$SHADEDGE
 70
       3
  9
$SHADEDIF
 70
      70
  9
$TILEMODE
 70
       1
  9
$MAXACTVP
 70
      16
  9
$PINSBASE
 10
0.0
 20
0.0
 30
0.0
  9
$PLIMCHECK
 70
       0
  9
$PEXTMIN
 10
1.00000000E+20
 20
1.00000000E+20
 30
1.00000000E+20
  9
$PEXTMAX
 10
-1.00000000E+20
 20
-1.00000000E+20
 30
-1.00000000E+20
  9
$PLIMMIN
 10
0.0
 20
0.0
  9
$PLIMMAX
 10
12.0
 20
9.0
  9
$UNITMODE
 70
       0
  9
$VISRETAIN
 70
       0
  9
$PLINEGEN
 70
       1
  9
$PSLTSCALE
 70
       0
  9
$TREEDEPTH
 70
    3020
  9
$PICKSTYLE
 70
       1
  9
$CMLSTYLE
  2
STANDARD
  9
$CMLJUST
 70
       0
  9
$CMLSCALE
 40
1.0
  9
$PROXYGRAPHICS
 70
       0
  9
$MEASUREMENT
 70
       0
  0
ENDSEC
  0
SECTION
  2
CLASSES
  0
CLASS
  1
LWPOLYLINE
  2
AcDbPolyline
  3
"AutoCAD"
 90
        0
280
       0
281
       1
  0
CLASS
  1
IMAGE
  2
AcDbRasterImage
  3
ISM
 90
      127
280
       0
281
       1
  0
CLASS
  1
OLE2FRAME
  2
AcDbOle2Frame
  3
""
 90
        0
280
       0
281
       1
  0
CLASS
  1
HATCH
  2
AcDbHatch
  3
"ACAD_SEDONA"
 90
        0
280
       0
281
       1
  0
CLASS
  1
DICTIONARYVAR
  2
AcDbDictionaryVar
  3
"AutoCAD"
 90
        0
280
       0
281
       0
  0
CLASS
  1
RASTERVARIABLES
  2
AcDbRasterVariables
  3
ISM
 90
        0
280
       0
281
       0
  0
CLASS
  1
IMAGEDEF
  2
AcDbRasterImageDef
  3
ISM
 90
        0
280
       0
281
       0
  0
CLASS
  1
IMAGEDEF_REACTOR
  2
AcDbRasterImageDefReactor
  3
ISM
 90
        1
280
       0
281
       0
  0
CLASS
  1
IDBUFFER
  2
AcDbIdBuffer
  3
"Acad"
 90
        0
280
       0
281
       0
  0
CLASS
  1
SPATIAL_FILTER
  2
AcDbSpatialFilter
  3
"Acad"
 90
        0
280
       0
281
       0
  0
CLASS
  1
XRECORD
  2
AcDbXrecord
  3
"<Built In>"
 90
        0
280
       0
281
       0
  0
CLASS
  1
SORTENTSTABLE
  2
AcDbSortentsTable
  3
"AutoCAD"
 90
        0
280
       0
281
       0
  0
CLASS
  1
LAYER_INDEX
  2
AcDbLayerIndex
  3
"Acad"
 90
        0
280
       0
281
       0
  0
CLASS
  1
SPATIAL_INDEX
  2
AcDbSpatialIndex
  3
"Acad"
 90
        0
280
       0
281
       0
  0
CLASS
  1
OBJECT_PTR
  2
CAseDLPNTableRecord
  3
"ASE-LPNTableRecord"
 90
        1
280
       0
281
       0
  0
CLASS
  1
LAYOUT
  2
AcDbLayout
  3
"AutoCAD 2000"
 90
        1
280
       0
281
       0
  0
CLASS
  1
PLOTSETTINGS
  2
AcDbPlotSettings
  3
"AutoCAD 2000"
 90
        1
280
       0
281
       0
  0
CLASS
  1
ACDBDICTIONARYWDFLT
  2
AcDbDictionaryWithDefault
  3
"AutoCAD 2000"
 90
        1
280
       0
281
       0
  0
CLASS
  1
ACDBPLACEHOLDER
  2
AcDbPlaceHolder
  3
"AutoCAD 2000"
 90
        1
280
       0
281
       0
  0
CLASS
  1
VBA_PROJECT
  2
AcDbVbaProject
  3
"acadvba"
 90
        1
280
       0
281
       0
  0
CLASS
  1
WIPEOUT
  2
AcDbWipeout
  3
WipeOut|AutoCAD Express Tool|expresstools@autodesk.com
 90
      127
280
       0
281
       1
  0
CLASS
  1
WIPEOUTVARIABLES
  2
AcDbWipeoutVariables
  3
WipeOut|AutoCAD Express Tool|expresstools@autodesk.com
 90
        0
280
       0
281
       0
  0
CLASS
  1
RTEXT
  2
RText
  3
RText|AutoCAD Express Tool|expresstools@autodesk.com
 90
        0
280
       0
281
       1
  0
CLASS
  1
ARCALIGNEDTEXT
  2
AcDbArcAlignedText
  3
ATEXT|AutoCAD Express Tool|expresstools@autodesk.com
 90
        0
280
       0
281
       1
  0
ENDSEC
  0
SECTION
  2
TABLES
  0
TABLE
  2
VPORT
  5
7
100
AcDbSymbolTable
 70
       1
  0
VPORT
  5
15
100
AcDbSymbolTableRecord
100
AcDbViewportTableRecord
  2
*ACTIVE
 70
       0
 10
0.0
 20
0.0
 11
1.0
 21
1.0
 12
0.0
 22
-1.25
 13
0.0
 23
0.0
 14
1.0
 24
1.0
 15
0.0
 25
0.0
 16
0.0
 26
0.0
 36
1.0
 17
0.0
 27
0.0
 37
0.0
 40
76.84300565
 41
3.40024426
 42
50.0
 43
0.0
 44
0.0
 50
0.0
 51
0.0
 71
       0
 72
     100
 73
       1
 74
       1
 75
       0
 76
       0
 77
       0
 78
       0
  0
ENDTAB
  0
TABLE
  2
LTYPE
  5
4
100
AcDbSymbolTable
 70
      30
  0
LTYPE
  5
11
100
AcDbSymbolTableRecord
100
AcDbLinetypeTableRecord
  2
BYBLOCK
 70
      64
  3

 72
      65
 73
       0
 40
0.0
  0
LTYPE
  5
12
100
AcDbSymbolTableRecord
100
AcDbLinetypeTableRecord
  2
BYLAYER
 70
      64
  3

 72
      65
 73
       0
 40
0.0
  0
LTYPE
  5
13
100
AcDbSymbolTableRecord
100
AcDbLinetypeTableRecord
  2
CONTINUOUS
 70
      64
  3
Solid line
 72
      65
 73
       0
 40
0.0
  0
LTYPE
  5
1D
100
AcDbSymbolTableRecord
100
AcDbLinetypeTableRecord
  2
HIDDENX2
 70
      64
  3
CADPAC LINETYPE
 72
      65
 73
       2
 40
9.83661135
 49
7.37745851
 74
       0
 49
-2.45915284
 74
       0
  0
LTYPE
  5
1E
100
AcDbSymbolTableRecord
100
AcDbLinetypeTableRecord
  2
HIDDEN
 70
      64
  3
CADPAC LINETYPE
 72
      65
 73
       2
 40
7.37745851
 49
4.91830567
 74
       0
 49
-2.45915284
 74
       0
  0
LTYPE
  5
1F
100
AcDbSymbolTableRecord
100
AcDbLinetypeTableRecord
  2
HIDDEN2
 70
      64
  3
CADPAC LINETYPE
 72
      65
 73
       2
 40
6.14788209
 49
3.68872926
 74
       0
 49
-2.45915284
 74
       0
  0
LTYPE
  5
20
100
AcDbSymbolTableRecord
100
AcDbLinetypeTableRecord
  2
DASHED
 70
      64
  3
CADPAC LINETYPE
 72
      65
 73
       2
 40
7.37745851
 49
4.91830567
 74
       0
 49
-2.45915284
 74
       0
  0
LTYPE
  5
21
100
AcDbSymbolTableRecord
100
AcDbLinetypeTableRecord
  2
DASHED2
 70
      64
  3
CADPAC LINETYPE
 72
      65
 73
       2
 40
5.53309388
 49
3.68872926
 74
       0
 49
-1.84436463
 74
       0
  0
LTYPE
  5
22
100
AcDbSymbolTableRecord
100
AcDbLinetypeTableRecord
  2
DASHEDX2
 70
      64
  3
CADPAC LINETYPE
 72
      65
 73
       2
 40
11.06618777
 49
7.37745851
 74
       0
 49
-3.68872926
 74
       0
  0
LTYPE
  5
23
100
AcDbSymbolTableRecord
100
AcDbLinetypeTableRecord
  2
DOTX2
 70
      64
  3
CADPAC LINETYPE
 72
      65
 73
       2
 40
3.07394105
 49
0.0
 74
       0
 49
-3.07394105
 74
       0
  0
LTYPE
  5
24
100
AcDbSymbolTableRecord
100
AcDbLinetypeTableRecord
  2
DOT
 70
      64
  3
CADPAC LINETYPE
 72
      65
 73
       2
 40
2.45915284
 49
0.0
 74
       0
 49
-2.45915284
 74
       0
  0
LTYPE
  5
25
100
AcDbSymbolTableRecord
100
AcDbLinetypeTableRecord
  2
DOT2
 70
      64
  3
CADPAC LINETYPE
 72
      65
 73
       2
 40
1.84436463
 49
0.0
 74
       0
 49
-1.84436463
 74
       0
  0
LTYPE
  5
26
100
AcDbSymbolTableRecord
100
AcDbLinetypeTableRecord
  2
CENTERX2
 70
      64
  3
CADPAC LINETYPE
 72
      65
 73
       4
 40
14.75491702
 49
6.14788209
 74
       0
 49
-3.07394105
 74
       0
 49
2.45915284
 74
       0
 49
-3.07394105
 74
       0
  0
LTYPE
  5
27
100
AcDbSymbolTableRecord
100
AcDbLinetypeTableRecord
  2
CENTER
 70
      64
  3
CADPAC LINETYPE
 72
      65
 73
       4
 40
11.31210305
 49
4.91830567
 74
       0
 49
-2.45915284
 74
       0
 49
1.4754917
 74
       0
 49
-2.45915284
 74
       0
  0
LTYPE
  5
28
100
AcDbSymbolTableRecord
100
AcDbLinetypeTableRecord
  2
CENTER2
 70
      64
  3
CADPAC LINETYPE
 72
      65
 73
       4
 40
7.86928908
 49
3.68872926
 74
       0
 49
-1.84436463
 74
       0
 49
0.49183057
 74
       0
 49
-1.84436463
 74
       0
  0
LTYPE
  5
29
100
AcDbSymbolTableRecord
100
AcDbLinetypeTableRecord
  2
DASHDOTX2
 70
      64
  3
CADPAC LINETYPE
 72
      65
 73
       4
 40
12.29576419
 49
6.14788209
 74
       0
 49
-3.07394105
 74
       0
 49
0.0
 74
       0
 49
-3.07394105
 74
       0
  0
LTYPE
  5
2A
100
AcDbSymbolTableRecord
100
AcDbLinetypeTableRecord
  2
DASHDOT
 70
      64
  3
CADPAC LINETYPE
 72
      65
 73
       4
 40
9.83661135
 49
4.91830567
 74
       0
 49
-2.45915284
 74
       0
 49
0.0
 74
       0
 49
-2.45915284
 74
       0
  0
LTYPE
  5
2B
100
AcDbSymbolTableRecord
100
AcDbLinetypeTableRecord
  2
DASHDOT2
 70
      64
  3
CADPAC LINETYPE
 72
      65
 73
       4
 40
7.37745851
 49
3.68872926
 74
       0
 49
-1.84436463
 74
       0
 49
0.0
 74
       0
 49
-1.84436463
 74
       0
  0
LTYPE
  5
2C
100
AcDbSymbolTableRecord
100
AcDbLinetypeTableRecord
  2
DIVIDEX2
 70
      64
  3
CADPAC LINETYPE
 72
      65
 73
       6
 40
15.36970523
 49
6.14788209
 74
       0
 49
-3.07394105
 74
       0
 49
0.0
 74
       0
 49
-3.07394105
 74
       0
 49
0.0
 74
       0
 49
-3.07394105
 74
       0
  0
LTYPE
  5
2D
100
AcDbSymbolTableRecord
100
AcDbLinetypeTableRecord
  2
DIVIDE
 70
      64
  3
CADPAC LINETYPE
 72
      65
 73
       6
 40
12.29576419
 49
4.91830567
 74
       0
 49
-2.45915284
 74
       0
 49
0.0
 74
       0
 49
-2.45915284
 74
       0
 49
0.0
 74
       0
 49
-2.45915284
 74
       0
  0
LTYPE
  5
2E
100
AcDbSymbolTableRecord
100
AcDbLinetypeTableRecord
  2
DIVIDE2
 70
      64
  3
CADPAC LINETYPE
 72
      65
 73
       6
 40
9.22182314
 49
3.68872926
 74
       0
 49
-1.84436463
 74
       0
 49
0.0
 74
       0
 49
-1.84436463
 74
       0
 49
0.0
 74
       0
 49
-1.84436463
 74
       0
  0
LTYPE
  5
2F
100
AcDbSymbolTableRecord
100
AcDbLinetypeTableRecord
  2
BORDERX2
 70
      64
  3
CADPAC LINETYPE
 72
      65
 73
       6
 40
21.51758733
 49
6.14788209
 74
       0
 49
-3.07394105
 74
       0
 49
6.14788209
 74
       0
 49
-3.07394105
 74
       0
 49
0.0
 74
       0
 49
-3.07394105
 74
       0
  0
LTYPE
  5
30
100
AcDbSymbolTableRecord
100
AcDbLinetypeTableRecord
  2
BORDER
 70
      64
  3
CADPAC LINETYPE
 72
      65
 73
       6
 40
17.21406986
 49
4.91830567
 74
       0
 49
-2.45915284
 74
       0
 49
4.91830567
 74
       0
 49
-2.45915284
 74
       0
 49
0.0
 74
       0
 49
-2.45915284
 74
       0
  0
LTYPE
  5
31
100
AcDbSymbolTableRecord
100
AcDbLinetypeTableRecord
  2
BORDER2
 70
      64
  3
CADPAC LINETYPE
 72
      65
 73
       6
 40
12.9105524
 49
3.68872926
 74
       0
 49
-1.84436463
 74
       0
 49
3.68872926
 74
       0
 49
-1.84436463
 74
       0
 49
0.0
 74
       0
 49
-1.84436463
 74
       0
  0
LTYPE
  5
32
100
AcDbSymbolTableRecord
100
AcDbLinetypeTableRecord
  2
PHANTOMX2
 70
      64
  3
CADPAC LINETYPE
 72
      65
 73
       6
 40
18.44364628
 49
6.14788209
 74
       0
 49
-2.45915284
 74
       0
 49
2.45915284
 74
       0
 49
-2.45915284
 74
       0
 49
2.45915284
 74
       0
 49
-2.45915284
 74
       0
  0
LTYPE
  5
33
100
AcDbSymbolTableRecord
100
AcDbLinetypeTableRecord
  2
PHANTOM
 70
      64
  3
CADPAC LINETYPE
 72
      65
 73
       6
 40
15.24674759
 49
4.91830567
 74
       0
 49
-2.45915284
 74
       0
 49
1.4754917
 74
       0
 49
-2.45915284
 74
       0
 49
1.4754917
 74
       0
 49
-2.45915284
 74
       0
  0
LTYPE
  5
34
100
AcDbSymbolTableRecord
100
AcDbLinetypeTableRecord
  2
PHANTOM2
 70
      64
  3
CADPAC LINETYPE
 72
      65
 73
       6
 40
13.03351004
 49
3.68872926
 74
       0
 49
-2.45915284
 74
       0
 49
0.98366113
 74
       0
 49
-2.45915284
 74
       0
 49
0.98366113
 74
       0
 49
-2.45915284
 74
       0
  0
LTYPE
  5
35
100
AcDbSymbolTableRecord
100
AcDbLinetypeTableRecord
  2
ACAD_ISO06W100
 70
      64
  3
CADPAC LINETYPE
 72
      65
 73
       8
 40
16.59928165
 49
6.14788209
 74
       0
 49
-3.07394105
 74
       0
 49
0.0
 74
       0
 49
-2.45915284
 74
       0
 49
0.0
 74
       0
 49
-2.45915284
 74
       0
 49
0.0
 74
       0
 49
-2.45915284
 74
       0
  0
LTYPE
  5
36
100
AcDbSymbolTableRecord
100
AcDbLinetypeTableRecord
  2
ACAD_ISO13W100
 70
      64
  3
CADPAC LINETYPE
 72
      65
 73
       8
 40
19.6732227
 49
4.91830567
 74
       0
 49
-2.45915284
 74
       0
 49
4.91830567
 74
       0
 49
-2.45915284
 74
       0
 49
0.0
 74
       0
 49
-2.45915284
 74
       0
 49
0.0
 74
       0
 49
-2.45915284
 74
       0
  0
LTYPE
  5
37
100
AcDbSymbolTableRecord
100
AcDbLinetypeTableRecord
  2
ACAD_ISO14W100
 70
      64
  3
CADPAC LINETYPE
 72
      65
 73
       8
 40
14.75491702
 49
4.91830567
 74
       0
 49
-2.45915284
 74
       0
 49
0.0
 74
       0
 49
-2.45915284
 74
       0
 49
0.0
 74
       0
 49
-2.45915284
 74
       0
 49
0.0
 74
       0
 49
-2.45915284
 74
       0
  0
ENDTAB
  0
TABLE
  2
LAYER
  5
2
100
AcDbSymbolTable
 70
       3
  0
LAYER
  5
14
100
AcDbSymbolTableRecord
100
AcDbLayerTableRecord
  2
0
 70
       0
 62
       7
  6
CONTINUOUS
  0
LAYER
  5
38
100
AcDbSymbolTableRecord
100
AcDbLayerTableRecord
  2
SLD-0
 70
       0
 62
       7
  6
CONTINUOUS
  0
LAYER
  5
39
100
AcDbSymbolTableRecord
100
AcDbLayerTableRecord
  2
レイヤー_1
 70
       0
 62
       7
  6
CONTINUOUS
  0
ENDTAB
  0
TABLE
  2
STYLE
  5
3
100
AcDbSymbolTable
 70
       1
  0
STYLE
  5
17
100
AcDbSymbolTableRecord
100
AcDbTextStyleTableRecord
  2
STANDARD
 70
       0
 40
0.0
 41
1.0
 50
0.0
 71
       0
 42
5.0
  3
txt.shx
  4
bigfont.shx
  0
ENDTAB
  0
TABLE
  2
VIEW
  5
5
100
AcDbSymbolTable
 70
       1
  0
VIEW
  5
3A
100
AcDbSymbolTableRecord
100
AcDbViewTableRecord
  2
QQQQ
 70
       0
 40
76.84300565
 10
0.0
 20
-1.25
 41
261.28498895
 11
0.0
 21
0.0
 31
1.0
 12
100.0
 22
100.0
 32
0.0
 42
50.0
 43
0.0
 44
0.0
 50
0.0
 71
       0
  0
ENDTAB
  0
TABLE
  2
UCS
  5
6
100
AcDbSymbolTable
 70
       0
  0
ENDTAB
  0
TABLE
  2
APPID
  5
8
100
AcDbSymbolTable
 70
       1
  0
APPID
  5
16
100
AcDbSymbolTableRecord
100
AcDbRegAppTableRecord
  2
ACAD
 70
       0
  0
ENDTAB
  0
TABLE
  2
DIMSTYLE
  5
9
100
AcDbSymbolTable
 70
       1
  0
DIMSTYLE
105
18
100
AcDbSymbolTableRecord
100
AcDbDimStyleTableRecord
  2
STANDARD
 70
       0
  3

  4

  5

  6

  7

 40
1.0
 41
0.18
 42
0.0625
 43
0.38
 44
0.18
 45
0.0
 46
0.0
 47
0.0
 48
0.0
 71
       0
 72
       0
 73
       1
 74
       1
 75
       0
 76
       0
 77
       0
 78
       0
140
0.18
141
0.09
142
0.0
143
25.4
144
1.0
145
0.0
146
1.0
147
0.09
170
       0
171
       2
172
       0
173
       0
174
       0
175
       0
176
       0
177
       0
178
       0
270
       2
271
       4
272
       4
273
       2
274
       2
275
       0
280
       0
281
       0
282
       0
283
       1
284
       0
285
       0
286
       0
287
       0
288
       0
340
17
  0
ENDTAB
  0
TABLE
  2
BLOCK_RECORD
  5
1
100
AcDbSymbolTable
 70
       0
  0
BLOCK_RECORD
  5
A
100
AcDbSymbolTableRecord
100
AcDbBlockTableRecord
  2
*MODEL_SPACE
  0
BLOCK_RECORD
  5
B
100
AcDbSymbolTableRecord
100
AcDbBlockTableRecord
  2
*PAPER_SPACE
  0
ENDTAB
  0
ENDSEC
  0
SECTION
  2
BLOCKS
  0
BLOCK
  5
D
100
AcDbEntity
  8
0
100
AcDbBlockBegin
  2
*MODEL_SPACE
 70
       0
 10
0.0
 20
0.0
 30
0.0
  3
*MODEL_SPACE
  1

  0
ENDBLK
  5
E
100
AcDbEntity
  8
0
100
AcDbBlockEnd
  0
BLOCK
  5
F
100
AcDbEntity
 67
       1
  8
0
100
AcDbBlockBegin
  2
*PAPER_SPACE
 70
       0
 10
0.0
 20
0.0
 30
0.0
  3
*PAPER_SPACE
  1

  0
ENDBLK
  5
10
100
AcDbEntity
 67
       1
  8
0
100
AcDbBlockEnd
  0
ENDSEC
  0
SECTION
  2
ENTITIES
  0
LINE
  5
3B
100
AcDbEntity
  8
レイヤー_1
  6
CONTINUOUS
 62
       3
100
AcDbLine
 10
-43.81355166
 20
12.90205526
 30
0.0
 11
-43.82398374
 21
12.94885544
 31
0.0
  0
LINE
  5
3C
100
AcDbEntity
  8
レイヤー_1
  6
CONTINUOUS
 62
       3
100
AcDbLine
 10
-43.82398374
 20
12.94885544
 30
0.0
 11
-43.83376732
 21
12.99577087
 31
0.0
  0
LINE
  5
3D
100
AcDbEntity
  8
レイヤー_1
  6
CONTINUOUS
 62
       3
100
AcDbLine
 10
-43.83376732
 20
12.99577087
 30
0.0
 11
-43.84290049
 21
13.04279479
 31
0.0
  0
LINE
  5
3E
100
AcDbEntity
  8
レイヤー_1
  6
CONTINUOUS
 62
       3
100
AcDbLine
 10
-43.84290049
 20
13.04279479
 30
0.0
 11
-43.8513814
 21
13.08992045
 31
0.0
  0
LINE
  5
3F
100
AcDbEntity
  8
レイヤー_1
  6
CONTINUOUS
 62
       3
100
AcDbLine
 10
-43.8513814
 20
13.08992045
 30
0.0
 11
-43.85920816
 21
13.13714108
 31
0.0
  0
LINE
  5
40
100
AcDbEntity
  8
レイヤー_1
  6
CONTINUOUS
 62
       3
100
AcDbLine
 10
-43.85920816
 20
13.13714108
 30
0.0
 11
-43.8663789
 21
13.18444994
 31
0.0
  0
LINE
  5
41
100
AcDbEntity
  8
レイヤー_1
  6
CONTINUOUS
 62
       3
100
AcDbLine
 10
-43.8663789
 20
13.18444994
 30
0.0
 11
-43.87289173
 21
13.23184026
 31
0.0
  0
LINE
  5
42
100
AcDbEntity
  8
レイヤー_1
  6
CONTINUOUS
 62
       3
100
AcDbLine
 10
-43.87289173
 20
13.23184026
 30
0.0
 11
-43.87874479
 21
13.27930529
 31
0.0
  0
LINE
  5
43
100
AcDbEntity
  8
レイヤー_1
  6
CONTINUOUS
 62
       3
100
AcDbLine
 10
-43.87874479
 20
13.27930529
 30
0.0
 11
-43.88393618
 21
13.32683826
 31
0.0
  0
LINE
  5
44
100
AcDbEntity
  8
レイヤー_1
  6
CONTINUOUS
 62
       3
100
AcDbLine
 10
-43.88393618
 20
13.32683826
 30
0.0
 11
-43.88846405
 21
13.37443243
 31
0.0
  0
LINE
  5
45
100
AcDbEntity
  8
レイヤー_1
  6
CONTINUOUS
 62
       3
100
AcDbLine
 10
-43.88846405
 20
13.37443243
 30
0.0
 11
-43.89232651
 21
13.42208103
 31
0.0
  0
LINE
  5
46
100
AcDbEntity
  8
レイヤー_1
  6
CONTINUOUS
 62
       3
100
AcDbLine
 10
-43.89232651
 20
13.42208103
 30
0.0
 11
-43.89552167
 21
13.4697773
 31
0.0
  0
LINE
  5
47
100
AcDbEntity
  8
レイヤー_1
  6
CONTINUOUS
 62
       3
100
AcDbLine
 10
-43.89552167
 20
13.4697773
 30
0.0
 11
-43.89804768
 21
13.5175145
 31
0.0
  0
LINE
  5
48
100
AcDbEntity
  8
レイヤー_1
  6
CONTINUOUS
 62
       3
100
AcDbLine
 10
-43.89804768
 20
13.5175145
 30
0.0
 11
-43.89990264
 21
13.56528586
 31
0.0
  0
LINE
  5
49
100
AcDbEntity
  8
レイヤー_1
  6
CONTINUOUS
 62
       3
100
AcDbLine
 10
-43.89990264
 20
13.56528586
 30
0.0
 11
-43.90108469
 21
13.61308462
 31
0.0
  0
LINE
  5
4A
100
AcDbEntity
  8
レイヤー_1
  6
CONTINUOUS
 62
       3
100
AcDbLine
 10
-43.90108469
 20
13.61308462
 30
0.0
 11
-43.90159194
 21
13.66090403
 31
0.0
  0
LINE
  5
4B
100
AcDbEntity
  8
レイヤー_1
  6
CONTINUOUS
 62
       3
100
AcDbLine
 10
-43.90159194
 20
13.66090403
 30
0.0
 11
-43.89960614
 21
13.79017412
 31
0.0
  0
LINE
  5
4C
100
AcDbEntity
  8
レイヤー_1
  6
CONTINUOUS
 62
       3
100
AcDbLine
 10
-43.89960614
 20
13.79017412
 30
0.0
 11
-43.89072696
 21
13.94587989
 31
0.0
  0
LINE
  5
4D
100
AcDbEntity
  8
レイヤー_1
  6
CONTINUOUS
 62
       3
100
AcDbLine
 10
-43.89072696
 20
13.94587989
 30
0.0
 11
-43.87483131
 21
14.10058313
 31
0.0
  0
LINE
  5
4E
100
AcDbEntity
  8
レイヤー_1
  6
CONTINUOUS
 62
       3
100
AcDbLine
 10
-43.87483131
 20
14.10058313
 30
0.0
 11
-43.8519988
 21
14.254077
 31
0.0
  0
LINE
  5
4F
100
AcDbEntity
  8
レイヤー_1
  6
CONTINUOUS
 62
       3
100
AcDbLine
 10
-43.8519988
 20
14.254077
 30
0.0
 11
-43.82230899
 21
14.40615464
 31
0.0
  0
LINE
  5
50
100
AcDbEntity
  8
レイヤー_1
  6
CONTINUOUS
 62
       3
100
AcDbLine
 10
-43.82230899
 20
14.40615464
 30
0.0
 11
-43.78584148
 21
14.55660921
 31
0.0
  0
LINE
  5
51
100
AcDbEntity
  8
レイヤー_1
  6
CONTINUOUS
 62
       3
100
AcDbLine
 10
-43.78584148
 20
14.55660921
 30
0.0
 11
-43.74267585
 21
14.70523385
 31
0.0
  0
LINE
  5
52
100
AcDbEntity
  8
レイヤー_1
  6
CONTINUOUS
 62
       3
100
AcDbLine
 10
-43.74267585
 20
14.70523385
 30
0.0
 11
-43.69289169
 21
14.85182172
 31
0.0
  0
LINE
  5
53
100
AcDbEntity
  8
レイヤー_1
  6
CONTINUOUS
 62
       3
100
AcDbLine
 10
-43.69289169
 20
14.85182172
 30
0.0
 11
-43.63656859
 21
14.99616596
 31
0.0
  0
LINE
  5
54
100
AcDbEntity
  8
レイヤー_1
  6
CONTINUOUS
 62
       3
100
AcDbLine
 10
-43.63656859
 20
14.99616596
 30
0.0
 11
-43.57378613
 21
15.13805973
 31
0.0
  0
LINE
  5
55
100
AcDbEntity
  8
レイヤー_1
  6
CONTINUOUS
 62
       3
100
AcDbLine
 10
-43.57378613
 20
15.13805973
 30
0.0
 11
-43.50462391
 21
15.27729618
 31
0.0
  0
LINE
  5
56
100
AcDbEntity
  8
レイヤー_1
  6
CONTINUOUS
 62
       3
100
AcDbLine
 10
-43.50462391
 20
15.27729618
 30
0.0
 11
-43.42916149
 21
15.41366846
 31
0.0
  0
LINE
  5
57
100
AcDbEntity
  8
レイヤー_1
  6
CONTINUOUS
 62
       3
100
AcDbLine
 10
-43.42916149
 20
15.41366846
 30
0.0
 11
-43.34747848
 21
15.54696971
 31
0.0
  0
LINE
  5
58
100
AcDbEntity
  8
レイヤー_1
  6
CONTINUOUS
 62
       3
100
AcDbLine
 10
-43.34747848
 20
15.54696971
 30
0.0
 11
-43.25965446
 21
15.67699309
 31
0.0
  0
LINE
  5
59
100
AcDbEntity
  8
レイヤー_1
  6
CONTINUOUS
 62
       3
100
AcDbLine
 10
-43.25965446
 20
15.67699309
 30
0.0
 11
-43.16576901
 21
15.80353176
 31
0.0
  0
LINE
  5
5A
100
AcDbEntity
  8
レイヤー_1
  6
CONTINUOUS
 62
       3
100
AcDbLine
 10
-43.16576901
 20
15.80353176
 30
0.0
 11
-43.06590172
 21
15.92637885
 31
0.0
  0
LINE
  5
5B
100
AcDbEntity
  8
レイヤー_1
  6
CONTINUOUS
 62
       3
100
AcDbLine
 10
-43.06590172
 20
15.92637885
 30
0.0
 11
-42.9615978
 21
16.04630245
 31
0.0
  0
LINE
  5
5C
100
AcDbEntity
  8
レイヤー_1
  6
CONTINUOUS
 62
       3
100
AcDbLine
 10
-42.9615978
 20
16.04630245
 30
0.0
 11
-42.86173051
 21
16.16909428
 31
0.0
  0
LINE
  5
5D
100
AcDbEntity
  8
レイヤー_1
  6
CONTINUOUS
 62
       3
100
AcDbLine
 10
-42.86173051
 20
16.16909428
 30
0.0
 11
-42.76784506
 21
16.29557271
 31
0.0
  0
LINE
  5
5E
100
AcDbEntity
  8
レイヤー_1
  6
CONTINUOUS
 62
       3
100
AcDbLine
 10
-42.76784506
 20
16.29557271
 30
0.0
 11
-42.68002104
 21
16.42553163
 31
0.0
  0
LINE
  5
5F
100
AcDbEntity
  8
レイヤー_1
  6
CONTINUOUS
 62
       3
100
AcDbLine
 10
-42.68002104
 20
16.42553163
 30
0.0
 11
-42.59833802
 21
16.55876496
 31
0.0
  0
LINE
  5
60
100
AcDbEntity
  8
レイヤー_1
  6
CONTINUOUS
 62
       3
100
AcDbLine
 10
-42.59833802
 20
16.55876496
 30
0.0
 11
-42.52287561
 21
16.69506658
 31
0.0
  0
LINE
  5
61
100
AcDbEntity
  8
レイヤー_1
  6
CONTINUOUS
 62
       3
100
AcDbLine
 10
-42.52287561
 20
16.69506658
 30
0.0
 11
-42.45371338
 21
16.83423041
 31
0.0
  0
LINE
  5
62
100
AcDbEntity
  8
レイヤー_1
  6
CONTINUOUS
 62
       3
100
AcDbLine
 10
-42.45371338
 20
16.83423041
 30
0.0
 11
-42.39093092
 21
16.97605034
 31
0.0
  0
LINE
  5
63
100
AcDbEntity
  8
レイヤー_1
  6
CONTINUOUS
 62
       3
100
AcDbLine
 10
-42.39093092
 20
16.97605034
 30
0.0
 11
-42.33460782
 21
17.12032027
 31
0.0
  0
LINE
  5
64
100
AcDbEntity
  8
レイヤー_1
  6
CONTINUOUS
 62
       3
100
AcDbLine
 10
-42.33460782
 20
17.12032027
 30
0.0
 11
-42.28482366
 21
17.26683411
 31
0.0
  0
LINE
  5
65
100
AcDbEntity
  8
レイヤー_1
  6
CONTINUOUS
 62
       3
100
AcDbLine
 10
-42.28482366
 20
17.26683411
 30
0.0
 11
-42.24165804
 21
17.41538576
 31
0.0
  0
LINE
  5
66
100
AcDbEntity
  8
レイヤー_1
  6
CONTINUOUS
 62
       3
100
AcDbLine
 10
-42.24165804
 20
17.41538576
 30
0.0
 11
-42.20519053
 21
17.56576911
 31
0.0
  0
LINE
  5
67
100
AcDbEntity
  8
レイヤー_1
  6
CONTINUOUS
 62
       3
100
AcDbLine
 10
-42.20519053
 20
17.56576911
 30
0.0
 11
-42.17550072
 21
17.71777807
 31
0.0
  0
LINE
  5
68
100
AcDbEntity
  8
レイヤー_1
  6
CONTINUOUS
 62
       3
100
AcDbLine
 10
-42.17550072
 20
17.71777807
 30
0.0
 11
-42.1526682
 21
17.87120654
 31
0.0
  0
LINE
  5
69
100
AcDbEntity
  8
レイヤー_1
  6
CONTINUOUS
 62
       3
100
AcDbLine
 10
-42.1526682
 20
17.87120654
 30
0.0
 11
-42.13677256
 21
18.02584843
 31
0.0
  0
LINE
  5
6A
100
AcDbEntity
  8
レイヤー_1
  6
CONTINUOUS
 62
       3
100
AcDbLine
 10
-42.13677256
 20
18.02584843
 30
0.0
 11
-42.12789338
 21
18.18149762
 31
0.0
  0
LINE
  5
6B
100
AcDbEntity
  8
レイヤー_1
  6
CONTINUOUS
 62
       3
100
AcDbLine
 10
-42.12789338
 20
18.18149762
 30
0.0
 11
-42.12590758
 21
18.31072887
 31
0.0
  0
LINE
  5
6C
100
AcDbEntity
  8
レイヤー_1
  6
CONTINUOUS
 62
       3
100
AcDbLine
 10
-42.12590758
 20
18.31072887
 30
0.0
 11
-42.12641483
 21
18.35854828
 31
0.0
  0
LINE
  5
6D
100
AcDbEntity
  8
レイヤー_1
  6
CONTINUOUS
 62
       3
100
AcDbLine
 10
-42.12641483
 20
18.35854828
 30
0.0
 11
-42.12759687
 21
18.40634705
 31
0.0
  0
LINE
  5
6E
100
AcDbEntity
  8
レイヤー_1
  6
CONTINUOUS
 62
       3
100
AcDbLine
 10
-42.12759687
 20
18.40634705
 30
0.0
 11
-42.12945184
 21
18.4541184
 31
0.0
  0
LINE
  5
6F
100
AcDbEntity
  8
レイヤー_1
  6
CONTINUOUS
 62
       3
100
AcDbLine
 10
-42.12945184
 20
18.4541184
 30
0.0
 11
-42.13197784
 21
18.5018556
 31
0.0
  0
LINE
  5
70
100
AcDbEntity
  8
レイヤー_1
  6
CONTINUOUS
 62
       3
100
AcDbLine
 10
-42.13197784
 20
18.5018556
 30
0.0
 11
-42.13517301
 21
18.54955188
 31
0.0
  0
LINE
  5
71
100
AcDbEntity
  8
レイヤー_1
  6
CONTINUOUS
 62
       3
100
AcDbLine
 10
-42.13517301
 20
18.54955188
 30
0.0
 11
-42.13903547
 21
18.59720048
 31
0.0
  0
LINE
  5
72
100
AcDbEntity
  8
レイヤー_1
  6
CONTINUOUS
 62
       3
100
AcDbLine
 10
-42.13903547
 20
18.59720048
 30
0.0
 11
-42.14356333
 21
18.64479464
 31
0.0
  0
LINE
  5
73
100
AcDbEntity
  8
レイヤー_1
  6
CONTINUOUS
 62
       3
100
AcDbLine
 10
-42.14356333
 20
18.64479464
 30
0.0
 11
-42.14875473
 21
18.69232762
 31
0.0
  0
LINE
  5
74
100
AcDbEntity
  8
レイヤー_1
  6
CONTINUOUS
 62
       3
100
AcDbLine
 10
-42.14875473
 20
18.69232762
 30
0.0
 11
-42.15460779
 21
18.73979264
 31
0.0
  0
LINE
  5
75
100
AcDbEntity
  8
レイヤー_1
  6
CONTINUOUS
 62
       3
100
AcDbLine
 10
-42.15460779
 20
18.73979264
 30
0.0
 11
-42.16112062
 21
18.78718296
 31
0.0
  0
LINE
  5
76
100
AcDbEntity
  8
レイヤー_1
  6
CONTINUOUS
 62
       3
100
AcDbLine
 10
-42.16112062
 20
18.78718296
 30
0.0
 11
-42.16829135
 21
18.83449182
 31
0.0
  0
LINE
  5
77
100
AcDbEntity
  8
レイヤー_1
  6
CONTINUOUS
 62
       3
100
AcDbLine
 10
-42.16829135
 20
18.83449182
 30
0.0
 11
-42.17611811
 21
18.88171246
 31
0.0
  0
LINE
  5
78
100
AcDbEntity
  8
レイヤー_1
  6
CONTINUOUS
 62
       3
100
AcDbLine
 10
-42.17611811
 20
18.88171246
 30
0.0
 11
-42.18459902
 21
18.92883811
 31
0.0
  0
LINE
  5
79
100
AcDbEntity
  8
レイヤー_1
  6
CONTINUOUS
 62
       3
100
AcDbLine
 10
-42.18459902
 20
18.92883811
 30
0.0
 11
-42.1937322
 21
18.97586204
 31
0.0
  0
LINE
  5
7A
100
AcDbEntity
  8
レイヤー_1
  6
CONTINUOUS
 62
       3
100
AcDbLine
 10
-42.1937322
 20
18.97586204
 30
0.0
 11
-42.20351577
 21
19.02277746
 31
0.0
  0
LINE
  5
7B
100
AcDbEntity
  8
レイヤー_1
  6
CONTINUOUS
 62
       3
100
AcDbLine
 10
-42.20351577
 20
19.02277746
 30
0.0
 11
-42.21394786
 21
19.06957764
 31
0.0
  0
LINE
  5
7C
100
AcDbEntity
  8
レイヤー_1
  6
CONTINUOUS
 62
       3
100
AcDbLine
 10
-41.413609
 20
19.06957764
 30
0.0
 11
-41.40318277
 21
19.02277746
 31
0.0
  0
LINE
  5
7D
100
AcDbEntity
  8
レイヤー_1
  6
CONTINUOUS
 62
       3
100
AcDbLine
 10
-41.40318277
 20
19.02277746
 30
0.0
 11
-41.39341574
 21
18.97586204
 31
0.0
  0
LINE
  5
7E
100
AcDbEntity
  8
レイヤー_1
  6
CONTINUOUS
 62
       3
100
AcDbLine
 10
-41.39341574
 20
18.97586204
 30
0.0
 11
-41.38430831
 21
18.92883811
 31
0.0
  0
LINE
  5
7F
100
AcDbEntity
  8
レイヤー_1
  6
CONTINUOUS
 62
       3
100
AcDbLine
 10
-41.38430831
 20
18.92883811
 30
0.0
 11
-41.37586085
 21
18.88171246
 31
0.0
  0
LINE
  5
80
100
AcDbEntity
  8
レイヤー_1
  6
CONTINUOUS
 62
       3
100
AcDbLine
 10
-41.37586085
 20
18.88171246
 30
0.0
 11
-41.36807372
 21
18.83449182
 31
0.0
  0
LINE
  5
81
100
AcDbEntity
  8
レイヤー_1
  6
CONTINUOUS
 62
       3
100
AcDbLine
 10
-41.36807372
 20
18.83449182
 30
0.0
 11
-41.36094732
 21
18.78718296
 31
0.0
  0
LINE
  5
82
100
AcDbEntity
  8
レイヤー_1
  6
CONTINUOUS
 62
       3
100
AcDbLine
 10
-41.36094732
 20
18.78718296
 30
0.0
 11
-41.354482
 21
18.73979264
 31
0.0
  0
LINE
  5
83
100
AcDbEntity
  8
レイヤー_1
  6
CONTINUOUS
 62
       3
100
AcDbLine
 10
-41.354482
 20
18.73979264
 30
0.0
 11
-41.34867816
 21
18.69232762
 31
0.0
  0
LINE
  5
84
100
AcDbEntity
  8
レイヤー_1
  6
CONTINUOUS
 62
       3
100
AcDbLine
 10
-41.34867816
 20
18.69232762
 30
0.0
 11
-41.34353616
 21
18.64479464
 31
0.0
  0
LINE
  5
85
100
AcDbEntity
  8
レイヤー_1
  6
CONTINUOUS
 62
       3
100
AcDbLine
 10
-41.34353616
 20
18.64479464
 30
0.0
 11
-41.33905638
 21
18.59720048
 31
0.0
  0
LINE
  5
86
100
AcDbEntity
  8
レイヤー_1
  6
CONTINUOUS
 62
       3
100
AcDbLine
 10
-41.33905638
 20
18.59720048
 30
0.0
 11
-41.33523919
 21
18.54955188
 31
0.0
  0
LINE
  5
87
100
AcDbEntity
  8
レイヤー_1
  6
CONTINUOUS
 62
       3
100
AcDbLine
 10
-41.33523919
 20
18.54955188
 30
0.0
 11
-41.33208497
 21
18.5018556
 31
0.0
  0
LINE
  5
88
100
AcDbEntity
  8
レイヤー_1
  6
CONTINUOUS
 62
       3
100
AcDbLine
 10
-41.33208497
 20
18.5018556
 30
0.0
 11
-41.3295941
 21
18.4541184
 31
0.0
  0
LINE
  5
89
100
AcDbEntity
  8
レイヤー_1
  6
CONTINUOUS
 62
       3
100
AcDbLine
 10
-41.3295941
 20
18.4541184
 30
0.0
 11
-41.32776695
 21
18.40634705
 31
0.0
  0
LINE
  5
8A
100
AcDbEntity
  8
レイヤー_1
  6
CONTINUOUS
 62
       3
100
AcDbLine
 10
-41.32776695
 20
18.40634705
 30
0.0
 11
-41.32660389
 21
18.35854828
 31
0.0
  0
LINE
  5
8B
100
AcDbEntity
  8
レイヤー_1
  6
CONTINUOUS
 62
       3
100
AcDbLine
 10
-41.32660389
 20
18.35854828
 30
0.0
 11
-41.32610531
 21
18.31072887
 31
0.0
  0
LINE
  5
8C
100
AcDbEntity
  8
レイヤー_1
  6
CONTINUOUS
 62
       3
100
AcDbLine
 10
-41.32610531
 20
18.31072887
 30
0.0
 11
-41.32809148
 21
18.18149762
 31
0.0
  0
LINE
  5
8D
100
AcDbEntity
  8
レイヤー_1
  6
CONTINUOUS
 62
       3
100
AcDbLine
 10
-41.32809148
 20
18.18149762
 30
0.0
 11
-41.33697066
 21
18.02584843
 31
0.0
  0
LINE
  5
8E
100
AcDbEntity
  8
レイヤー_1
  6
CONTINUOUS
 62
       3
100
AcDbLine
 10
-41.33697066
 20
18.02584843
 30
0.0
 11
-41.3528663
 21
17.87120654
 31
0.0
  0
LINE
  5
8F
100
AcDbEntity
  8
レイヤー_1
  6
CONTINUOUS
 62
       3
100
AcDbLine
 10
-41.3528663
 20
17.87120654
 30
0.0
 11
-41.37569882
 21
17.71777807
 31
0.0
  0
LINE
  5
90
100
AcDbEntity
  8
レイヤー_1
  6
CONTINUOUS
 62
       3
100
AcDbLine
 10
-41.37569882
 20
17.71777807
 30
0.0
 11
-41.40538863
 21
17.56576911
 31
0.0
  0
LINE
  5
91
100
AcDbEntity
  8
レイヤー_1
  6
CONTINUOUS
 62
       3
100
AcDbLine
 10
-41.40538863
 20
17.56576911
 30
0.0
 11
-41.44185614
 21
17.41538576
 31
0.0
  0
LINE
  5
92
100
AcDbEntity
  8
レイヤー_1
  6
CONTINUOUS
 62
       3
100
AcDbLine
 10
-41.44185614
 20
17.41538576
 30
0.0
 11
-41.48502177
 21
17.26683411
 31
0.0
  0
LINE
  5
93
100
AcDbEntity
  8
レイヤー_1
  6
CONTINUOUS
 62
       3
100
AcDbLine
 10
-41.48502177
 20
17.26683411
 30
0.0
 11
-41.53480593
 21
17.12032027
 31
0.0
  0
LINE
  5
94
100
AcDbEntity
  8
レイヤー_1
  6
CONTINUOUS
 62
       3
100
AcDbLine
 10
-41.53480593
 20
17.12032027
 30
0.0
 11
-41.59112903
 21
16.97605034
 31
0.0
  0
LINE
  5
95
100
AcDbEntity
  8
レイヤー_1
  6
CONTINUOUS
 62
       3
100
AcDbLine
 10
-41.59112903
 20
16.97605034
 30
0.0
 11
-41.65391148
 21
16.83423041
 31
0.0
  0
LINE
  5
96
100
AcDbEntity
  8
レイヤー_1
  6
CONTINUOUS
 62
       3
100
AcDbLine
 10
-41.65391148
 20
16.83423041
 30
0.0
 11
-41.72307371
 21
16.69506658
 31
0.0
  0
LINE
  5
97
100
AcDbEntity
  8
レイヤー_1
  6
CONTINUOUS
 62
       3
100
AcDbLine
 10
-41.72307371
 20
16.69506658
 30
0.0
 11
-41.79853613
 21
16.55876496
 31
0.0
  0
LINE
  5
98
100
AcDbEntity
  8
レイヤー_1
  6
CONTINUOUS
 62
       3
100
AcDbLine
 10
-41.79853613
 20
16.55876496
 30
0.0
 11
-41.88021914
 21
16.42553163
 31
0.0
  0
LINE
  5
99
100
AcDbEntity
  8
レイヤー_1
  6
CONTINUOUS
 62
       3
100
AcDbLine
 10
-41.88021914
 20
16.42553163
 30
0.0
 11
-41.96804316
 21
16.29557271
 31
0.0
  0
LINE
  5
9A
100
AcDbEntity
  8
レイヤー_1
  6
CONTINUOUS
 62
       3
100
AcDbLine
 10
-41.96804316
 20
16.29557271
 30
0.0
 11
-42.06192861
 21
16.16909428
 31
0.0
  0
LINE
  5
9B
100
AcDbEntity
  8
レイヤー_1
  6
CONTINUOUS
 62
       3
100
AcDbLine
 10
-42.06192861
 20
16.16909428
 30
0.0
 11
-42.1617959
 21
16.04630245
 31
0.0
  0
LINE
  5
9C
100
AcDbEntity
  8
レイヤー_1
  6
CONTINUOUS
 62
       3
100
AcDbLine
 10
-42.1617959
 20
16.04630245
 30
0.0
 11
-42.26605326
 21
15.92637885
 31
0.0
  0
LINE
  5
9D
100
AcDbEntity
  8
レイヤー_1
  6
CONTINUOUS
 62
       3
100
AcDbLine
 10
-42.26605326
 20
15.92637885
 30
0.0
 11
-42.3658446
 21
15.80353176
 31
0.0
  0
LINE
  5
9E
100
AcDbEntity
  8
レイヤー_1
  6
CONTINUOUS
 62
       3
100
AcDbLine
 10
-42.3658446
 20
15.80353176
 30
0.0
 11
-42.45967512
 21
15.67699309
 31
0.0
  0
LINE
  5
9F
100
AcDbEntity
  8
レイヤー_1
  6
CONTINUOUS
 62
       3
100
AcDbLine
 10
-42.45967512
 20
15.67699309
 30
0.0
 11
-42.54746299
 21
15.54696971
 31
0.0
  0
LINE
  5
A0
100
AcDbEntity
  8
レイヤー_1
  6
CONTINUOUS
 62
       3
100
AcDbLine
 10
-42.54746299
 20
15.54696971
 30
0.0
 11
-42.62912636
 21
15.41366846
 31
0.0
  0
LINE
  5
A1
100
AcDbEntity
  8
レイヤー_1
  6
CONTINUOUS
 62
       3
100
AcDbLine
 10
-42.62912636
 20
15.41366846
 30
0.0
 11
-42.7045834
 21
15.27729618
 31
0.0
  0
LINE
  5
A2
100
AcDbEntity
  8
レイヤー_1
  6
CONTINUOUS
 62
       3
100
AcDbLine
 10
-42.7045834
 20
15.27729618
 30
0.0
 11
-42.77375227
 21
15.13805973
 31
0.0
  0
LINE
  5
A3
100
AcDbEntity
  8
レイヤー_1
  6
CONTINUOUS
 62
       3
100
AcDbLine
 10
-42.77375227
 20
15.13805973
 30
0.0
 11
-42.83655113
 21
14.99616596
 31
0.0
  0
LINE
  5
A4
100
AcDbEntity
  8
レイヤー_1
  6
CONTINUOUS
 62
       3
100
AcDbLine
 10
-42.83655113
 20
14.99616596
 30
0.0
 11
-42.89289814
 21
14.85182172
 31
0.0
  0
LINE
  5
A5
100
AcDbEntity
  8
レイヤー_1
  6
CONTINUOUS
 62
       3
100
AcDbLine
 10
-42.89289814
 20
14.85182172
 30
0.0
 11
-42.94271146
 21
14.70523385
 31
0.0
  0
LINE
  5
A6
100
AcDbEntity
  8
レイヤー_1
  6
CONTINUOUS
 62
       3
100
AcDbLine
 10
-42.94271146
 20
14.70523385
 30
0.0
 11
-42.98590926
 21
14.55660921
 31
0.0
  0
LINE
  5
A7
100
AcDbEntity
  8
レイヤー_1
  6
CONTINUOUS
 62
       3
100
AcDbLine
 10
-42.98590926
 20
14.55660921
 30
0.0
 11
-43.02240969
 21
14.40615464
 31
0.0
  0
LINE
  5
A8
100
AcDbEntity
  8
レイヤー_1
  6
CONTINUOUS
 62
       3
100
AcDbLine
 10
-43.02240969
 20
14.40615464
 30
0.0
 11
-43.05213091
 21
14.254077
 31
0.0
  0
LINE
  5
A9
100
AcDbEntity
  8
レイヤー_1
  6
CONTINUOUS
 62
       3
100
AcDbLine
 10
-43.05213091
 20
14.254077
 30
0.0
 11
-43.07499109
 21
14.10058313
 31
0.0
  0
LINE
  5
AA
100
AcDbEntity
  8
レイヤー_1
  6
CONTINUOUS
 62
       3
100
AcDbLine
 10
-43.07499109
 20
14.10058313
 30
0.0
 11
-43.09090839
 21
13.94587989
 31
0.0
  0
LINE
  5
AB
100
AcDbEntity
  8
レイヤー_1
  6
CONTINUOUS
 62
       3
100
AcDbLine
 10
-43.09090839
 20
13.94587989
 30
0.0
 11
-43.09980097
 21
13.79017412
 31
0.0
  0
LINE
  5
AC
100
AcDbEntity
  8
レイヤー_1
  6
CONTINUOUS
 62
       3
100
AcDbLine
 10
-43.09980097
 20
13.79017412
 30
0.0
 11
-43.10179004
 21
13.66090403
 31
0.0
  0
LINE
  5
AD
100
AcDbEntity
  8
レイヤー_1
  6
CONTINUOUS
 62
       3
100
AcDbLine
 10
-43.10179004
 20
13.66090403
 30
0.0
 11
-43.10128279
 21
13.61308462
 31
0.0
  0
LINE
  5
AE
100
AcDbEntity
  8
レイヤー_1
  6
CONTINUOUS
 62
       3
100
AcDbLine
 10
-43.10128279
 20
13.61308462
 30
0.0
 11
-43.10010074
 21
13.56528586
 31
0.0
  0
LINE
  5
AF
100
AcDbEntity
  8
レイヤー_1
  6
CONTINUOUS
 62
       3
100
AcDbLine
 10
-43.10010074
 20
13.56528586
 30
0.0
 11
-43.09824578
 21
13.5175145
 31
0.0
  0
LINE
  5
B0
100
AcDbEntity
  8
レイヤー_1
  6
CONTINUOUS
 62
       3
100
AcDbLine
 10
-43.09824578
 20
13.5175145
 30
0.0
 11
-43.09571978
 21
13.4697773
 31
0.0
  0
LINE
  5
B1
100
AcDbEntity
  8
レイヤー_1
  6
CONTINUOUS
 62
       3
100
AcDbLine
 10
-43.09571978
 20
13.4697773
 30
0.0
 11
-43.09252461
 21
13.42208103
 31
0.0
  0
LINE
  5
B2
100
AcDbEntity
  8
レイヤー_1
  6
CONTINUOUS
 62
       3
100
AcDbLine
 10
-43.09252461
 20
13.42208103
 30
0.0
 11
-43.08866215
 21
13.37443243
 31
0.0
  0
LINE
  5
B3
100
AcDbEntity
  8
レイヤー_1
  6
CONTINUOUS
 62
       3
100
AcDbLine
 10
-43.08866215
 20
13.37443243
 30
0.0
 11
-43.08413429
 21
13.32683826
 31
0.0
  0
LINE
  5
B4
100
AcDbEntity
  8
レイヤー_1
  6
CONTINUOUS
 62
       3
100
AcDbLine
 10
-43.08413429
 20
13.32683826
 30
0.0
 11
-43.07894289
 21
13.27930529
 31
0.0
  0
LINE
  5
B5
100
AcDbEntity
  8
レイヤー_1
  6
CONTINUOUS
 62
       3
100
AcDbLine
 10
-43.07894289
 20
13.27930529
 30
0.0
 11
-43.07308983
 21
13.23184026
 31
0.0
  0
LINE
  5
B6
100
AcDbEntity
  8
レイヤー_1
  6
CONTINUOUS
 62
       3
100
AcDbLine
 10
-43.07308983
 20
13.23184026
 30
0.0
 11
-43.066577
 21
13.18444994
 31
0.0
  0
LINE
  5
B7
100
AcDbEntity
  8
レイヤー_1
  6
CONTINUOUS
 62
       3
100
AcDbLine
 10
-43.066577
 20
13.18444994
 30
0.0
 11
-43.05940627
 21
13.13714108
 31
0.0
  0
LINE
  5
B8
100
AcDbEntity
  8
レイヤー_1
  6
CONTINUOUS
 62
       3
100
AcDbLine
 10
-43.05940627
 20
13.13714108
 30
0.0
 11
-43.05157951
 21
13.08992045
 31
0.0
  0
LINE
  5
B9
100
AcDbEntity
  8
レイヤー_1
  6
CONTINUOUS
 62
       3
100
AcDbLine
 10
-43.05157951
 20
13.08992045
 30
0.0
 11
-43.0430986
 21
13.04279479
 31
0.0
  0
LINE
  5
BA
100
AcDbEntity
  8
レイヤー_1
  6
CONTINUOUS
 62
       3
100
AcDbLine
 10
-43.0430986
 20
13.04279479
 30
0.0
 11
-43.03396542
 21
12.99577087
 31
0.0
  0
LINE
  5
BB
100
AcDbEntity
  8
レイヤー_1
  6
CONTINUOUS
 62
       3
100
AcDbLine
 10
-43.03396542
 20
12.99577087
 30
0.0
 11
-43.02418185
 21
12.94885544
 31
0.0
  0
LINE
  5
BC
100
AcDbEntity
  8
レイヤー_1
  6
CONTINUOUS
 62
       3
100
AcDbLine
 10
-43.02418185
 20
12.94885544
 30
0.0
 11
-43.01374976
 21
12.90205526
 31
0.0
  0
LINE
  5
BD
100
AcDbEntity
  8
レイヤー_1
  6
CONTINUOUS
 62
       3
100
AcDbLine
 10
80.82533146
 20
12.90205526
 30
0.0
 11
80.81476256
 21
12.94885544
 31
0.0
  0
LINE
  5
BE
100
AcDbEntity
  8
レイヤー_1
  6
CONTINUOUS
 62
       3
100
AcDbLine
 10
80.81476256
 20
12.94885544
 30
0.0
 11
80.8048647
 21
12.99577087
 31
0.0
  0
LINE
  5
BF
100
AcDbEntity
  8
レイヤー_1
  6
CONTINUOUS
 62
       3
100
AcDbLine
 10
80.8048647
 20
12.99577087
 30
0.0
 11
80.79563789
 21
13.04279479
 31
0.0
  0
LINE
  5
C0
100
AcDbEntity
  8
レイヤー_1
  6
CONTINUOUS
 62
       3
100
AcDbLine
 10
80.79563789
 20
13.04279479
 30
0.0
 11
80.78708211
 21
13.08992045
 31
0.0
  0
LINE
  5
C1
100
AcDbEntity
  8
レイヤー_1
  6
CONTINUOUS
 62
       3
100
AcDbLine
 10
80.78708211
 20
13.08992045
 30
0.0
 11
80.77919738
 21
13.13714108
 31
0.0
  0
LINE
  5
C2
100
AcDbEntity
  8
レイヤー_1
  6
CONTINUOUS
 62
       3
100
AcDbLine
 10
80.77919738
 20
13.13714108
 30
0.0
 11
80.77198369
 21
13.18444994
 31
0.0
  0
LINE
  5
C3
100
AcDbEntity
  8
レイヤー_1
  6
CONTINUOUS
 62
       3
100
AcDbLine
 10
80.77198369
 20
13.18444994
 30
0.0
 11
80.76544104
 21
13.23184026
 31
0.0
  0
LINE
  5
C4
100
AcDbEntity
  8
レイヤー_1
  6
CONTINUOUS
 62
       3
100
AcDbLine
 10
80.76544104
 20
13.23184026
 30
0.0
 11
80.75956943
 21
13.27930529
 31
0.0
  0
LINE
  5
C5
100
AcDbEntity
  8
レイヤー_1
  6
CONTINUOUS
 62
       3
100
AcDbLine
 10
80.75956943
 20
13.27930529
 30
0.0
 11
80.75436886
 21
13.32683826
 31
0.0
  0
LINE
  5
C6
100
AcDbEntity
  8
レイヤー_1
  6
CONTINUOUS
 62
       3
100
AcDbLine
 10
80.75436886
 20
13.32683826
 30
0.0
 11
80.74983933
 21
13.37443243
 31
0.0
  0
LINE
  5
C7
100
AcDbEntity
  8
レイヤー_1
  6
CONTINUOUS
 62
       3
100
AcDbLine
 10
80.74983933
 20
13.37443243
 30
0.0
 11
80.74598085
 21
13.42208103
 31
0.0
  0
LINE
  5
C8
100
AcDbEntity
  8
レイヤー_1
  6
CONTINUOUS
 62
       3
100
AcDbLine
 10
80.74598085
 20
13.42208103
 30
0.0
 11
80.7427934
 21
13.4697773
 31
0.0
  0
LINE
  5
C9
100
AcDbEntity
  8
レイヤー_1
  6
CONTINUOUS
 62
       3
100
AcDbLine
 10
80.7427934
 20
13.4697773
 30
0.0
 11
80.740277
 21
13.5175145
 31
0.0
  0
LINE
  5
CA
100
AcDbEntity
  8
レイヤー_1
  6
CONTINUOUS
 62
       3
100
AcDbLine
 10
80.740277
 20
13.5175145
 30
0.0
 11
80.73843163
 21
13.56528586
 31
0.0
  0
LINE
  5
CB
100
AcDbEntity
  8
レイヤー_1
  6
CONTINUOUS
 62
       3
100
AcDbLine
 10
80.73843163
 20
13.56528586
 30
0.0
 11
80.73725731
 21
13.61308462
 31
0.0
  0
LINE
  5
CC
100
AcDbEntity
  8
レイヤー_1
  6
CONTINUOUS
 62
       3
100
AcDbLine
 10
80.73725731
 20
13.61308462
 30
0.0
 11
80.73675403
 21
13.66090403
 31
0.0
  0
LINE
  5
CD
100
AcDbEntity
  8
レイヤー_1
  6
CONTINUOUS
 62
       3
100
AcDbLine
 10
80.73675403
 20
13.66090403
 30
0.0
 11
80.73874168
 21
13.79017412
 31
0.0
  0
LINE
  5
CE
100
AcDbEntity
  8
レイヤー_1
  6
CONTINUOUS
 62
       3
100
AcDbLine
 10
80.73874168
 20
13.79017412
 30
0.0
 11
80.74762787
 21
13.94587989
 31
0.0
  0
LINE
  5
CF
100
AcDbEntity
  8
レイヤー_1
  6
CONTINUOUS
 62
       3
100
AcDbLine
 10
80.74762787
 20
13.94587989
 30
0.0
 11
80.7635353
 21
14.10058313
 31
0.0
  0
LINE
  5
D0
100
AcDbEntity
  8
レイヤー_1
  6
CONTINUOUS
 62
       3
100
AcDbLine
 10
80.7635353
 20
14.10058313
 30
0.0
 11
80.78638365
 21
14.254077
 31
0.0
  0
LINE
  5
D1
100
AcDbEntity
  8
レイヤー_1
  6
CONTINUOUS
 62
       3
100
AcDbLine
 10
80.78638365
 20
14.254077
 30
0.0
 11
80.81609257
 21
14.40615464
 31
0.0
  0
LINE
  5
D2
100
AcDbEntity
  8
レイヤー_1
  6
CONTINUOUS
 62
       3
100
AcDbLine
 10
80.81609257
 20
14.40615464
 30
0.0
 11
80.85258173
 21
14.55660921
 31
0.0
  0
LINE
  5
D3
100
AcDbEntity
  8
レイヤー_1
  6
CONTINUOUS
 62
       3
100
AcDbLine
 10
80.85258173
 20
14.55660921
 30
0.0
 11
80.89577079
 21
14.70523385
 31
0.0
  0
LINE
  5
D4
100
AcDbEntity
  8
レイヤー_1
  6
CONTINUOUS
 62
       3
100
AcDbLine
 10
80.89577079
 20
14.70523385
 30
0.0
 11
80.94557941
 21
14.85182172
 31
0.0
  0
LINE
  5
D5
100
AcDbEntity
  8
レイヤー_1
  6
CONTINUOUS
 62
       3
100
AcDbLine
 10
80.94557941
 20
14.85182172
 30
0.0
 11
81.00192726
 21
14.99616596
 31
0.0
  0
LINE
  5
D6
100
AcDbEntity
  8
レイヤー_1
  6
CONTINUOUS
 62
       3
100
AcDbLine
 10
81.00192726
 20
14.99616596
 30
0.0
 11
81.06473399
 21
15.13805973
 31
0.0
  0
LINE
  5
D7
100
AcDbEntity
  8
レイヤー_1
  6
CONTINUOUS
 62
       3
100
AcDbLine
 10
81.06473399
 20
15.13805973
 30
0.0
 11
81.13391928
 21
15.27729618
 31
0.0
  0
LINE
  5
D8
100
AcDbEntity
  8
レイヤー_1
  6
CONTINUOUS
 62
       3
100
AcDbLine
 10
81.13391928
 20
15.27729618
 30
0.0
 11
81.20940278
 21
15.41366846
 31
0.0
  0
LINE
  5
D9
100
AcDbEntity
  8
レイヤー_1
  6
CONTINUOUS
 62
       3
100
AcDbLine
 10
81.20940278
 20
15.41366846
 30
0.0
 11
81.29110415
 21
15.54696971
 31
0.0
  0
LINE
  5
DA
100
AcDbEntity
  8
レイヤー_1
  6
CONTINUOUS
 62
       3
100
AcDbLine
 10
81.29110415
 20
15.54696971
 30
0.0
 11
81.37894307
 21
15.67699309
 31
0.0
  0
LINE
  5
DB
100
AcDbEntity
  8
レイヤー_1
  6
CONTINUOUS
 62
       3
100
AcDbLine
 10
81.37894307
 20
15.67699309
 30
0.0
 11
81.47283918
 21
15.80353176
 31
0.0
  0
LINE
  5
DC
100
AcDbEntity
  8
レイヤー_1
  6
CONTINUOUS
 62
       3
100
AcDbLine
 10
81.47283918
 20
15.80353176
 30
0.0
 11
81.57271217
 21
15.92637885
 31
0.0
  0
LINE
  5
DD
100
AcDbEntity
  8
レイヤー_1
  6
CONTINUOUS
 62
       3
100
AcDbLine
 10
81.57271217
 20
15.92637885
 30
0.0
 11
81.67706415
 21
16.04630245
 31
0.0
  0
LINE
  5
DE
100
AcDbEntity
  8
レイヤー_1
  6
CONTINUOUS
 62
       3
100
AcDbLine
 10
81.67706415
 20
16.04630245
 30
0.0
 11
81.77701308
 21
16.16909428
 31
0.0
  0
LINE
  5
DF
100
AcDbEntity
  8
レイヤー_1
  6
CONTINUOUS
 62
       3
100
AcDbLine
 10
81.77701308
 20
16.16909428
 30
0.0
 11
81.87096412
 21
16.29557271
 31
0.0
  0
LINE
  5
E0
100
AcDbEntity
  8
レイヤー_1
  6
CONTINUOUS
 62
       3
100
AcDbLine
 10
81.87096412
 20
16.29557271
 30
0.0
 11
81.95883919
 21
16.42553163
 31
0.0
  0
LINE
  5
E1
100
AcDbEntity
  8
レイヤー_1
  6
CONTINUOUS
 62
       3
100
AcDbLine
 10
81.95883919
 20
16.42553163
 30
0.0
 11
82.04056021
 21
16.55876496
 31
0.0
  0
LINE
  5
E2
100
AcDbEntity
  8
レイヤー_1
  6
CONTINUOUS
 62
       3
100
AcDbLine
 10
82.04056021
 20
16.55876496
 30
0.0
 11
82.11604908
 21
16.69506658
 31
0.0
  0
LINE
  5
E3
100
AcDbEntity
  8
レイヤー_1
  6
CONTINUOUS
 62
       3
100
AcDbLine
 10
82.11604908
 20
16.69506658
 30
0.0
 11
82.18522772
 21
16.83423041
 31
0.0
  0
LINE
  5
E4
100
AcDbEntity
  8
レイヤー_1
  6
CONTINUOUS
 62
       3
100
AcDbLine
 10
82.18522772
 20
16.83423041
 30
0.0
 11
82.24801806
 21
16.97605034
 31
0.0
  0
LINE
  5
E5
100
AcDbEntity
  8
レイヤー_1
  6
CONTINUOUS
 62
       3
100
AcDbLine
 10
82.24801806
 20
16.97605034
 30
0.0
 11
82.304342
 21
17.12032027
 31
0.0
  0
LINE
  5
E6
100
AcDbEntity
  8
レイヤー_1
  6
CONTINUOUS
 62
       3
100
AcDbLine
 10
82.304342
 20
17.12032027
 30
0.0
 11
82.35412145
 21
17.26683411
 31
0.0
  0
LINE
  5
E7
100
AcDbEntity
  8
レイヤー_1
  6
CONTINUOUS
 62
       3
100
AcDbLine
 10
82.35412145
 20
17.26683411
 30
0.0
 11
82.39727834
 21
17.41538576
 31
0.0
  0
LINE
  5
E8
100
AcDbEntity
  8
レイヤー_1
  6
CONTINUOUS
 62
       3
100
AcDbLine
 10
82.39727834
 20
17.41538576
 30
0.0
 11
82.43373458
 21
17.56576911
 31
0.0
  0
LINE
  5
E9
100
AcDbEntity
  8
レイヤー_1
  6
CONTINUOUS
 62
       3
100
AcDbLine
 10
82.43373458
 20
17.56576911
 30
0.0
 11
82.46341209
 21
17.71777807
 31
0.0
  0
LINE
  5
EA
100
AcDbEntity
  8
レイヤー_1
  6
CONTINUOUS
 62
       3
100
AcDbLine
 10
82.46341209
 20
17.71777807
 30
0.0
 11
82.48623277
 21
17.87120654
 31
0.0
  0
LINE
  5
EB
100
AcDbEntity
  8
レイヤー_1
  6
CONTINUOUS
 62
       3
100
AcDbLine
 10
82.48623277
 20
17.87120654
 30
0.0
 11
82.50211855
 21
18.02584843
 31
0.0
  0
LINE
  5
EC
100
AcDbEntity
  8
レイヤー_1
  6
CONTINUOUS
 62
       3
100
AcDbLine
 10
82.50211855
 20
18.02584843
 30
0.0
 11
82.51099134
 21
18.18149762
 31
0.0
  0
LINE
  5
ED
100
AcDbEntity
  8
レイヤー_1
  6
CONTINUOUS
 62
       3
100
AcDbLine
 10
82.51099134
 20
18.18149762
 30
0.0
 11
82.51297534
 21
18.31072887
 31
0.0
  0
LINE
  5
EE
100
AcDbEntity
  8
レイヤー_1
  6
CONTINUOUS
 62
       3
100
AcDbLine
 10
82.51297534
 20
18.31072887
 30
0.0
 11
82.51246364
 21
18.35854828
 31
0.0
  0
LINE
  5
EF
100
AcDbEntity
  8
レイヤー_1
  6
CONTINUOUS
 62
       3
100
AcDbLine
 10
82.51246364
 20
18.35854828
 30
0.0
 11
82.51127151
 21
18.40634705
 31
0.0
  0
LINE
  5
F0
100
AcDbEntity
  8
レイヤー_1
  6
CONTINUOUS
 62
       3
100
AcDbLine
 10
82.51127151
 20
18.40634705
 30
0.0
 11
82.50940121
 21
18.4541184
 31
0.0
  0
LINE
  5
F1
100
AcDbEntity
  8
レイヤー_1
  6
CONTINUOUS
 62
       3
100
AcDbLine
 10
82.50940121
 20
18.4541184
 30
0.0
 11
82.50685498
 21
18.5018556
 31
0.0
  0
LINE
  5
F2
100
AcDbEntity
  8
レイヤー_1
  6
CONTINUOUS
 62
       3
100
AcDbLine
 10
82.50685498
 20
18.5018556
 30
0.0
 11
82.50363509
 21
18.54955188
 31
0.0
  0
LINE
  5
F3
100
AcDbEntity
  8
レイヤー_1
  6
CONTINUOUS
 62
       3
100
AcDbLine
 10
82.50363509
 20
18.54955188
 30
0.0
 11
82.49974377
 21
18.59720048
 31
0.0
  0
LINE
  5
F4
100
AcDbEntity
  8
レイヤー_1
  6
CONTINUOUS
 62
       3
100
AcDbLine
 10
82.49974377
 20
18.59720048
 30
0.0
 11
82.4951833
 21
18.64479464
 31
0.0
  0
LINE
  5
F5
100
AcDbEntity
  8
レイヤー_1
  6
CONTINUOUS
 62
       3
100
AcDbLine
 10
82.4951833
 20
18.64479464
 30
0.0
 11
82.48995591
 21
18.69232762
 31
0.0
  0
LINE
  5
F6
100
AcDbEntity
  8
レイヤー_1
  6
CONTINUOUS
 62
       3
100
AcDbLine
 10
82.48995591
 20
18.69232762
 30
0.0
 11
82.48406387
 21
18.73979264
 31
0.0
  0
LINE
  5
F7
100
AcDbEntity
  8
レイヤー_1
  6
CONTINUOUS
 62
       3
100
AcDbLine
 10
82.48406387
 20
18.73979264
 30
0.0
 11
82.47750941
 21
18.78718296
 31
0.0
  0
LINE
  5
F8
100
AcDbEntity
  8
レイヤー_1
  6
CONTINUOUS
 62
       3
100
AcDbLine
 10
82.47750941
 20
18.78718296
 30
0.0
 11
82.47029481
 21
18.83449182
 31
0.0
  0
LINE
  5
F9
100
AcDbEntity
  8
レイヤー_1
  6
CONTINUOUS
 62
       3
100
AcDbLine
 10
82.47029481
 20
18.83449182
 30
0.0
 11
82.4624223
 21
18.88171246
 31
0.0
  0
LINE
  5
FA
100
AcDbEntity
  8
レイヤー_1
  6
CONTINUOUS
 62
       3
100
AcDbLine
 10
82.4624223
 20
18.88171246
 30
0.0
 11
82.45389414
 21
18.92883811
 31
0.0
  0
LINE
  5
FB
100
AcDbEntity
  8
レイヤー_1
  6
CONTINUOUS
 62
       3
100
AcDbLine
 10
82.45389414
 20
18.92883811
 30
0.0
 11
82.44471258
 21
18.97586204
 31
0.0
  0
LINE
  5
FC
100
AcDbEntity
  8
レイヤー_1
  6
CONTINUOUS
 62
       3
100
AcDbLine
 10
82.44471258
 20
18.97586204
 30
0.0
 11
82.43487988
 21
19.02277746
 31
0.0
  0
LINE
  5
FD
100
AcDbEntity
  8
レイヤー_1
  6
CONTINUOUS
 62
       3
100
AcDbLine
 10
82.43487988
 20
19.02277746
 30
0.0
 11
82.42439829
 21
19.06957764
 31
0.0
  0
LINE
  5
FE
100
AcDbEntity
  8
レイヤー_1
  6
CONTINUOUS
 62
       3
100
AcDbLine
 10
83.22554259
 20
19.06957764
 30
0.0
 11
83.23591932
 21
19.02277746
 31
0.0
  0
LINE
  5
FF
100
AcDbEntity
  8
レイヤー_1
  6
CONTINUOUS
 62
       3
100
AcDbLine
 10
83.23591932
 20
19.02277746
 30
0.0
 11
83.24563722
 21
18.97586204
 31
0.0
  0
LINE
  5
100
100
AcDbEntity
  8
レイヤー_1
  6
CONTINUOUS
 62
       3
100
AcDbLine
 10
83.24563722
 20
18.97586204
 30
0.0
 11
83.25469628
 21
18.92883811
 31
0.0
  0
LINE
  5
101
100
AcDbEntity
  8
レイヤー_1
  6
CONTINUOUS
 62
       3
100
AcDbLine
 10
83.25469628
 20
18.92883811
 30
0.0
 11
83.26309649
 21
18.88171246
 31
0.0
  0
LINE
  5
102
100
AcDbEntity
  8
レイヤー_1
  6
CONTINUOUS
 62
       3
100
AcDbLine
 10
83.26309649
 20
18.88171246
 30
0.0
 11
83.27083786
 21
18.83449182
 31
0.0
  0
LINE
  5
103
100
AcDbEntity
  8
レイヤー_1
  6
CONTINUOUS
 62
       3
100
AcDbLine
 10
83.27083786
 20
18.83449182
 30
0.0
 11
83.2779204
 21
18.78718296
 31
0.0
  0
LINE
  5
104
100
AcDbEntity
  8
レイヤー_1
  6
CONTINUOUS
 62
       3
100
AcDbLine
 10
83.2779204
 20
18.78718296
 30
0.0
 11
83.28434409
 21
18.73979264
 31
0.0
  0
LINE
  5
105
100
AcDbEntity
  8
レイヤー_1
  6
CONTINUOUS
 62
       3
100
AcDbLine
 10
83.28434409
 20
18.73979264
 30
0.0
 11
83.29010895
 21
18.69232762
 31
0.0
  0
LINE
  5
106
100
AcDbEntity
  8
レイヤー_1
  6
CONTINUOUS
 62
       3
100
AcDbLine
 10
83.29010895
 20
18.69232762
 30
0.0
 11
83.29521496
 21
18.64479464
 31
0.0
  0
LINE
  5
107
100
AcDbEntity
  8
レイヤー_1
  6
CONTINUOUS
 62
       3
100
AcDbLine
 10
83.29521496
 20
18.64479464
 30
0.0
 11
83.29966213
 21
18.59720048
 31
0.0
  0
LINE
  5
108
100
AcDbEntity
  8
レイヤー_1
  6
CONTINUOUS
 62
       3
100
AcDbLine
 10
83.29966213
 20
18.59720048
 30
0.0
 11
83.30345046
 21
18.54955188
 31
0.0
  0
LINE
  5
109
100
AcDbEntity
  8
レイヤー_1
  6
CONTINUOUS
 62
       3
100
AcDbLine
 10
83.30345046
 20
18.54955188
 30
0.0
 11
83.30657995
 21
18.5018556
 31
0.0
  0
LINE
  5
10A
100
AcDbEntity
  8
レイヤー_1
  6
CONTINUOUS
 62
       3
100
AcDbLine
 10
83.30657995
 20
18.5018556
 30
0.0
 11
83.30905061
 21
18.4541184
 31
0.0
  0
LINE
  5
10B
100
AcDbEntity
  8
レイヤー_1
  6
CONTINUOUS
 62
       3
100
AcDbLine
 10
83.30905061
 20
18.4541184
 30
0.0
 11
83.31086242
 21
18.40634705
 31
0.0
  0
LINE
  5
10C
100
AcDbEntity
  8
レイヤー_1
  6
CONTINUOUS
 62
       3
100
AcDbLine
 10
83.31086242
 20
18.40634705
 30
0.0
 11
83.31201539
 21
18.35854828
 31
0.0
  0
LINE
  5
10D
100
AcDbEntity
  8
レイヤー_1
  6
CONTINUOUS
 62
       3
100
AcDbLine
 10
83.31201539
 20
18.35854828
 30
0.0
 11
83.31250952
 21
18.31072887
 31
0.0
  0
LINE
  5
10E
100
AcDbEntity
  8
レイヤー_1
  6
CONTINUOUS
 62
       3
100
AcDbLine
 10
83.31250952
 20
18.31072887
 30
0.0
 11
83.31052476
 21
18.18149762
 31
0.0
  0
LINE
  5
10F
100
AcDbEntity
  8
レイヤー_1
  6
CONTINUOUS
 62
       3
100
AcDbLine
 10
83.31052476
 20
18.18149762
 30
0.0
 11
83.30165197
 21
18.02584843
 31
0.0
  0
LINE
  5
110
100
AcDbEntity
  8
レイヤー_1
  6
CONTINUOUS
 62
       3
100
AcDbLine
 10
83.30165197
 20
18.02584843
 30
0.0
 11
83.28576619
 21
17.87120654
 31
0.0
  0
LINE
  5
111
100
AcDbEntity
  8
レイヤー_1
  6
CONTINUOUS
 62
       3
100
AcDbLine
 10
83.28576619
 20
17.87120654
 30
0.0
 11
83.26294551
 21
17.71777807
 31
0.0
  0
LINE
  5
112
100
AcDbEntity
  8
レイヤー_1
  6
CONTINUOUS
 62
       3
100
AcDbLine
 10
83.26294551
 20
17.71777807
 30
0.0
 11
83.233268
 21
17.56576911
 31
0.0
  0
LINE
  5
113
100
AcDbEntity
  8
レイヤー_1
  6
CONTINUOUS
 62
       3
100
AcDbLine
 10
83.233268
 20
17.56576911
 30
0.0
 11
83.19681176
 21
17.41538576
 31
0.0
  0
LINE
  5
114
100
AcDbEntity
  8
レイヤー_1
  6
CONTINUOUS
 62
       3
100
AcDbLine
 10
83.19681176
 20
17.41538576
 30
0.0
 11
83.15365487
 21
17.26683411
 31
0.0
  0
LINE
  5
115
100
AcDbEntity
  8
レイヤー_1
  6
CONTINUOUS
 62
       3
100
AcDbLine
 10
83.15365487
 20
17.26683411
 30
0.0
 11
83.10387541
 21
17.12032027
 31
0.0
  0
LINE
  5
116
100
AcDbEntity
  8
レイヤー_1
  6
CONTINUOUS
 62
       3
100
AcDbLine
 10
83.10387541
 20
17.12032027
 30
0.0
 11
83.04755147
 21
16.97605034
 31
0.0
  0
LINE
  5
117
100
AcDbEntity
  8
レイヤー_1
  6
CONTINUOUS
 62
       3
100
AcDbLine
 10
83.04755147
 20
16.97605034
 30
0.0
 11
82.98476114
 21
16.83423041
 31
0.0
  0
LINE
  5
118
100
AcDbEntity
  8
レイヤー_1
  6
CONTINUOUS
 62
       3
100
AcDbLine
 10
82.98476114
 20
16.83423041
 30
0.0
 11
82.9155825
 21
16.69506658
 31
0.0
  0
LINE
  5
119
100
AcDbEntity
  8
レイヤー_1
  6
CONTINUOUS
 62
       3
100
AcDbLine
 10
82.9155825
 20
16.69506658
 30
0.0
 11
82.84009362
 21
16.55876496
 31
0.0
  0
LINE
  5
11A
100
AcDbEntity
  8
レイヤー_1
  6
CONTINUOUS
 62
       3
100
AcDbLine
 10
82.84009362
 20
16.55876496
 30
0.0
 11
82.75837261
 21
16.42553163
 31
0.0
  0
LINE
  5
11B
100
AcDbEntity
  8
レイヤー_1
  6
CONTINUOUS
 62
       3
100
AcDbLine
 10
82.75837261
 20
16.42553163
 30
0.0
 11
82.67049754
 21
16.29557271
 31
0.0
  0
LINE
  5
11C
100
AcDbEntity
  8
レイヤー_1
  6
CONTINUOUS
 62
       3
100
AcDbLine
 10
82.67049754
 20
16.29557271
 30
0.0
 11
82.57654649
 21
16.16909428
 31
0.0
  0
LINE
  5
11D
100
AcDbEntity
  8
レイヤー_1
  6
CONTINUOUS
 62
       3
100
AcDbLine
 10
82.57654649
 20
16.16909428
 30
0.0
 11
82.47659756
 21
16.04630245
 31
0.0
  0
LINE
  5
11E
100
AcDbEntity
  8
レイヤー_1
  6
CONTINUOUS
 62
       3
100
AcDbLine
 10
82.47659756
 20
16.04630245
 30
0.0
 11
82.37229663
 21
15.92637885
 31
0.0
  0
LINE
  5
11F
100
AcDbEntity
  8
レイヤー_1
  6
CONTINUOUS
 62
       3
100
AcDbLine
 10
82.37229663
 20
15.92637885
 30
0.0
 11
82.27253376
 21
15.80353176
 31
0.0
  0
LINE
  5
120
100
AcDbEntity
  8
レイヤー_1
  6
CONTINUOUS
 62
       3
100
AcDbLine
 10
82.27253376
 20
15.80353176
 30
0.0
 11
82.17875657
 21
15.67699309
 31
0.0
  0
LINE
  5
121
100
AcDbEntity
  8
レイヤー_1
  6
CONTINUOUS
 62
       3
100
AcDbLine
 10
82.17875657
 20
15.67699309
 30
0.0
 11
82.09104316
 21
15.54696971
 31
0.0
  0
LINE
  5
122
100
AcDbEntity
  8
レイヤー_1
  6
CONTINUOUS
 62
       3
100
AcDbLine
 10
82.09104316
 20
15.54696971
 30
0.0
 11
82.00947161
 21
15.41366846
 31
0.0
  0
LINE
  5
123
100
AcDbEntity
  8
レイヤー_1
  6
CONTINUOUS
 62
       3
100
AcDbLine
 10
82.00947161
 20
15.41366846
 30
0.0
 11
81.93411999
 21
15.27729618
 31
0.0
  0
LINE
  5
124
100
AcDbEntity
  8
レイヤー_1
  6
CONTINUOUS
 62
       3
100
AcDbLine
 10
81.93411999
 20
15.27729618
 30
0.0
 11
81.86506641
 21
15.13805973
 31
0.0
  0
LINE
  5
125
100
AcDbEntity
  8
レイヤー_1
  6
CONTINUOUS
 62
       3
100
AcDbLine
 10
81.86506641
 20
15.13805973
 30
0.0
 11
81.80238893
 21
14.99616596
 31
0.0
  0
LINE
  5
126
100
AcDbEntity
  8
レイヤー_1
  6
CONTINUOUS
 62
       3
100
AcDbLine
 10
81.80238893
 20
14.99616596
 30
0.0
 11
81.74616565
 21
14.85182172
 31
0.0
  0
LINE
  5
127
100
AcDbEntity
  8
レイヤー_1
  6
CONTINUOUS
 62
       3
100
AcDbLine
 10
81.74616565
 20
14.85182172
 30
0.0
 11
81.69647465
 21
14.70523385
 31
0.0
  0
LINE
  5
128
100
AcDbEntity
  8
レイヤー_1
  6
CONTINUOUS
 62
       3
100
AcDbLine
 10
81.69647465
 20
14.70523385
 30
0.0
 11
81.65339401
 21
14.55660921
 31
0.0
  0
LINE
  5
129
100
AcDbEntity
  8
レイヤー_1
  6
CONTINUOUS
 62
       3
100
AcDbLine
 10
81.65339401
 20
14.55660921
 30
0.0
 11
81.61700182
 21
14.40615464
 31
0.0
  0
LINE
  5
12A
100
AcDbEntity
  8
レイヤー_1
  6
CONTINUOUS
 62
       3
100
AcDbLine
 10
81.61700182
 20
14.40615464
 30
0.0
 11
81.58737617
 21
14.254077
 31
0.0
  0
LINE
  5
12B
100
AcDbEntity
  8
レイヤー_1
  6
CONTINUOUS
 62
       3
100
AcDbLine
 10
81.58737617
 20
14.254077
 30
0.0
 11
81.56459514
 21
14.10058313
 31
0.0
  0
LINE
  5
12C
100
AcDbEntity
  8
レイヤー_1
  6
CONTINUOUS
 62
       3
100
AcDbLine
 10
81.56459514
 20
14.10058313
 30
0.0
 11
81.54873681
 21
13.94587989
 31
0.0
  0
LINE
  5
12D
100
AcDbEntity
  8
レイヤー_1
  6
CONTINUOUS
 62
       3
100
AcDbLine
 10
81.54873681
 20
13.94587989
 30
0.0
 11
81.53987927
 21
13.79017412
 31
0.0
  0
LINE
  5
12E
100
AcDbEntity
  8
レイヤー_1
  6
CONTINUOUS
 62
       3
100
AcDbLine
 10
81.53987927
 20
13.79017412
 30
0.0
 11
81.53789757
 21
13.66090403
 31
0.0
  0
LINE
  5
12F
100
AcDbEntity
  8
レイヤー_1
  6
CONTINUOUS
 62
       3
100
AcDbLine
 10
81.53789757
 20
13.66090403
 30
0.0
 11
81.53838328
 21
13.61308462
 31
0.0
  0
LINE
  5
130
100
AcDbEntity
  8
レイヤー_1
  6
CONTINUOUS
 62
       3
100
AcDbLine
 10
81.53838328
 20
13.61308462
 30
0.0
 11
81.53951844
 21
13.56528586
 31
0.0
  0
LINE
  5
131
100
AcDbEntity
  8
レイヤー_1
  6
CONTINUOUS
 62
       3
100
AcDbLine
 10
81.53951844
 20
13.56528586
 30
0.0
 11
81.54130531
 21
13.5175145
 31
0.0
  0
LINE
  5
132
100
AcDbEntity
  8
レイヤー_1
  6
CONTINUOUS
 62
       3
100
AcDbLine
 10
81.54130531
 20
13.5175145
 30
0.0
 11
81.54374614
 21
13.4697773
 31
0.0
  0
LINE
  5
133
100
AcDbEntity
  8
レイヤー_1
  6
CONTINUOUS
 62
       3
100
AcDbLine
 10
81.54374614
 20
13.4697773
 30
0.0
 11
81.54684318
 21
13.42208103
 31
0.0
  0
LINE
  5
134
100
AcDbEntity
  8
レイヤー_1
  6
CONTINUOUS
 62
       3
100
AcDbLine
 10
81.54684318
 20
13.42208103
 30
0.0
 11
81.55059869
 21
13.37443243
 31
0.0
  0
LINE
  5
135
100
AcDbEntity
  8
レイヤー_1
  6
CONTINUOUS
 62
       3
100
AcDbLine
 10
81.55059869
 20
13.37443243
 30
0.0
 11
81.55501492
 21
13.32683826
 31
0.0
  0
LINE
  5
136
100
AcDbEntity
  8
レイヤー_1
  6
CONTINUOUS
 62
       3
100
AcDbLine
 10
81.55501492
 20
13.32683826
 30
0.0
 11
81.56009411
 21
13.27930529
 31
0.0
  0
LINE
  5
137
100
AcDbEntity
  8
レイヤー_1
  6
CONTINUOUS
 62
       3
100
AcDbLine
 10
81.56009411
 20
13.27930529
 30
0.0
 11
81.56583853
 21
13.23184026
 31
0.0
  0
LINE
  5
138
100
AcDbEntity
  8
レイヤー_1
  6
CONTINUOUS
 62
       3
100
AcDbLine
 10
81.56583853
 20
13.23184026
 30
0.0
 11
81.57225042
 21
13.18444994
 31
0.0
  0
LINE
  5
139
100
AcDbEntity
  8
レイヤー_1
  6
CONTINUOUS
 62
       3
100
AcDbLine
 10
81.57225042
 20
13.18444994
 30
0.0
 11
81.57933204
 21
13.13714108
 31
0.0
  0
LINE
  5
13A
100
AcDbEntity
  8
レイヤー_1
  6
CONTINUOUS
 62
       3
100
AcDbLine
 10
81.57933204
 20
13.13714108
 30
0.0
 11
81.58708564
 21
13.08992045
 31
0.0
  0
LINE
  5
13B
100
AcDbEntity
  8
レイヤー_1
  6
CONTINUOUS
 62
       3
100
AcDbLine
 10
81.58708564
 20
13.08992045
 30
0.0
 11
81.59551347
 21
13.04279479
 31
0.0
  0
LINE
  5
13C
100
AcDbEntity
  8
レイヤー_1
  6
CONTINUOUS
 62
       3
100
AcDbLine
 10
81.59551347
 20
13.04279479
 30
0.0
 11
81.60461778
 21
12.99577087
 31
0.0
  0
LINE
  5
13D
100
AcDbEntity
  8
レイヤー_1
  6
CONTINUOUS
 62
       3
100
AcDbLine
 10
81.60461778
 20
12.99577087
 30
0.0
 11
81.61440083
 21
12.94885544
 31
0.0
  0
LINE
  5
13E
100
AcDbEntity
  8
レイヤー_1
  6
CONTINUOUS
 62
       3
100
AcDbLine
 10
81.61440083
 20
12.94885544
 30
0.0
 11
81.62486488
 21
12.90205526
 31
0.0
  0
LINE
  5
13F
100
AcDbEntity
  8
レイヤー_1
  6
CONTINUOUS
 62
       3
100
AcDbLine
 10
-15.89404878
 20
14.54032017
 30
0.0
 11
-42.98958656
 21
14.54032017
 31
0.0
  0
LINE
  5
140
100
AcDbEntity
  8
レイヤー_1
  6
CONTINUOUS
 62
       3
100
AcDbLine
 10
-15.89404878
 20
17.43131273
 30
0.0
 11
-41.43696676
 21
17.43131273
 31
0.0
  0
LINE
  5
141
100
AcDbEntity
  8
レイヤー_1
  6
CONTINUOUS
 62
       3
100
AcDbLine
 10
56.10530465
 20
14.54032017
 30
0.0
 11
80.8489577
 21
14.54032017
 31
0.0
  0
LINE
  5
142
100
AcDbEntity
  8
レイヤー_1
  6
CONTINUOUS
 62
       3
100
AcDbLine
 10
56.10530465
 20
17.43131273
 30
0.0
 11
82.40077205
 21
17.43131273
 31
0.0
  0
LINE
  5
143
100
AcDbEntity
  8
レイヤー_1
  6
CONTINUOUS
 62
       3
100
AcDbLine
 10
-42.23730562
 20
17.43131273
 30
0.0
 11
-57.89371637
 21
17.43131273
 31
0.0
  0
LINE
  5
144
100
AcDbEntity
  8
レイヤー_1
  6
CONTINUOUS
 62
       3
100
AcDbLine
 10
-57.89371637
 20
17.43131273
 30
0.0
 11
-57.89371637
 21
14.54032017
 31
0.0
  0
LINE
  5
145
100
AcDbEntity
  8
レイヤー_1
  6
CONTINUOUS
 62
       3
100
AcDbLine
 10
-57.89371637
 20
14.54032017
 30
0.0
 11
-43.7901939
 21
14.54032017
 31
0.0
  0
LINE
  5
146
100
AcDbEntity
  8
レイヤー_1
  6
CONTINUOUS
 62
       3
100
AcDbLine
 10
-57.89371637
 20
16.3232958
 30
0.0
 11
-67.89352216
 21
16.3232958
 31
0.0
  0
LINE
  5
147
100
AcDbEntity
  8
レイヤー_1
  6
CONTINUOUS
 62
       3
100
AcDbLine
 10
-67.89352216
 20
16.3232958
 30
0.0
 11
-67.89352216
 21
15.64914254
 31
0.0
  0
LINE
  5
148
100
AcDbEntity
  8
レイヤー_1
  6
CONTINUOUS
 62
       3
100
AcDbLine
 10
-67.89352216
 20
15.64914254
 30
0.0
 11
-57.89371637
 21
15.64914254
 31
0.0
  0
LINE
  5
149
100
AcDbEntity
  8
レイヤー_1
  6
CONTINUOUS
 62
       3
100
AcDbLine
 10
83.20137939
 20
17.43131273
 30
0.0
 11
98.10470376
 21
17.43131273
 31
0.0
  0
LINE
  5
14A
100
AcDbEntity
  8
レイヤー_1
  6
CONTINUOUS
 62
       3
100
AcDbLine
 10
98.10470376
 20
17.43131273
 30
0.0
 11
98.10470376
 21
14.54032017
 31
0.0
  0
LINE
  5
14B
100
AcDbEntity
  8
レイヤー_1
  6
CONTINUOUS
 62
       3
100
AcDbLine
 10
98.10470376
 20
14.54032017
 30
0.0
 11
81.64849111
 21
14.54032017
 31
0.0
  0
LINE
  5
14C
100
AcDbEntity
  8
レイヤー_1
  6
CONTINUOUS
 62
       3
100
AcDbLine
 10
98.10470376
 20
16.3232958
 30
0.0
 11
108.10450955
 21
16.3232958
 31
0.0
  0
LINE
  5
14D
100
AcDbEntity
  8
レイヤー_1
  6
CONTINUOUS
 62
       3
100
AcDbLine
 10
108.10450955
 20
16.3232958
 30
0.0
 11
108.10450955
 21
15.64914254
 31
0.0
  0
LINE
  5
14E
100
AcDbEntity
  8
レイヤー_1
  6
CONTINUOUS
 62
       3
100
AcDbLine
 10
108.10450955
 20
15.64914254
 30
0.0
 11
98.10470376
 21
15.64914254
 31
0.0
  0
LINE
  5
14F
100
AcDbEntity
  8
レイヤー_1
  6
CONTINUOUS
 62
       3
100
AcDbLine
 10
46.1049619
 20
26.08254352
 30
0.0
 11
55.1049482
 21
26.08254352
 31
0.0
  0
LINE
  5
150
100
AcDbEntity
  8
レイヤー_1
  6
CONTINUOUS
 62
       3
100
AcDbLine
 10
55.1049482
 20
26.08254352
 30
0.0
 11
56.10535946
 21
25.11891604
 31
0.0
  0
LINE
  5
151
100
AcDbEntity
  8
レイヤー_1
  6
CONTINUOUS
 62
       3
100
AcDbLine
 10
56.10535946
 20
6.85325386
 30
0.0
 11
55.1049482
 21
5.88908938
 31
0.0
  0
LINE
  5
152
100
AcDbEntity
  8
レイヤー_1
  6
CONTINUOUS
 62
       3
100
AcDbLine
 10
55.1049482
 20
5.88908938
 30
0.0
 11
46.1049619
 21
5.88908938
 31
0.0
  0
LINE
  5
153
100
AcDbEntity
  8
レイヤー_1
  6
CONTINUOUS
 62
       3
100
AcDbLine
 10
-5.89424299
 20
26.08254352
 30
0.0
 11
-14.89422929
 21
26.08254352
 31
0.0
  0
LINE
  5
154
100
AcDbEntity
  8
レイヤー_1
  6
CONTINUOUS
 62
       3
100
AcDbLine
 10
-14.89422929
 20
26.08254352
 30
0.0
 11
-15.89464054
 21
25.11839852
 31
0.0
  0
LINE
  5
155
100
AcDbEntity
  8
レイヤー_1
  6
CONTINUOUS
 62
       3
100
AcDbLine
 10
-15.89464054
 20
6.85377167
 30
0.0
 11
-14.89422929
 21
5.88908938
 31
0.0
  0
LINE
  5
156
100
AcDbEntity
  8
レイヤー_1
  6
CONTINUOUS
 62
       3
100
AcDbLine
 10
-14.89422929
 20
5.88908938
 30
0.0
 11
-5.89424299
 21
5.88908938
 31
0.0
  0
LINE
  5
157
100
AcDbEntity
  8
SLD-0
  6
CENTERX2
 62
       3
100
AcDbLine
 10
-84.7207424
 20
15.98621917
 30
0.0
 11
-118.22850179
 21
15.98621917
 31
0.0
  0
LINE
  5
158
100
AcDbEntity
  8
SLD-0
  6
CENTERX2
 62
       3
100
AcDbLine
 10
-101.6586399
 20
33.52059079
 30
0.0
 11
-101.6586399
 21
-1.81962419
 31
0.0
  0
LINE
  5
159
100
AcDbEntity
  8
SLD-0
  6
CENTERX2
 62
       3
100
AcDbLine
 10
-72.02444294
 20
15.98621917
 30
0.0
 11
118.22850179
 21
15.98621917
 31
0.0
  0
LINE
  5
15A
100
AcDbEntity
  8
SLD-0
  6
CONTINUOUS
 62
       3
100
AcDbLine
 10
-5.89464054
 20
31.57467644
 30
0.0
 11
46.10535946
 21
31.57467644
 31
0.0
  0
LINE
  5
15B
100
AcDbEntity
  8
SLD-0
  6
CONTINUOUS
 62
       3
100
AcDbLine
 10
-115.1586399
 20
8.19199054
 30
0.0
 11
-101.6586399
 21
0.3977619
 31
0.0
  0
LINE
  5
15C
100
AcDbEntity
  8
SLD-0
  6
CONTINUOUS
 62
       3
100
AcDbLine
 10
-101.6586399
 20
0.3977619
 30
0.0
 11
-88.1586399
 21
8.19199054
 31
0.0
  0
LINE
  5
15D
100
AcDbEntity
  8
SLD-0
  6
CONTINUOUS
 62
       3
100
AcDbLine
 10
-88.1586399
 20
8.19199054
 30
0.0
 11
-88.1586399
 21
23.7804478
 31
0.0
  0
LINE
  5
15E
100
AcDbEntity
  8
SLD-0
  6
CONTINUOUS
 62
       3
100
AcDbLine
 10
-88.1586399
 20
23.7804478
 30
0.0
 11
-101.6586399
 21
31.57467644
 31
0.0
  0
LINE
  5
15F
100
AcDbEntity
  8
SLD-0
  6
CONTINUOUS
 62
       3
100
AcDbLine
 10
-101.6586399
 20
31.57467644
 30
0.0
 11
-115.1586399
 21
23.7804478
 31
0.0
  0
LINE
  5
160
100
AcDbEntity
  8
SLD-0
  6
CONTINUOUS
 62
       3
100
AcDbLine
 10
-115.1586399
 20
23.7804478
 30
0.0
 11
-115.1586399
 21
8.19199054
 31
0.0
  0
LINE
  5
161
100
AcDbEntity
  8
SLD-0
  6
CONTINUOUS
 62
       3
100
AcDbLine
 10
-5.89464054
 20
23.7804478
 30
0.0
 11
46.10535946
 21
23.7804478
 31
0.0
  0
LINE
  5
162
100
AcDbEntity
  8
SLD-0
  6
CONTINUOUS
 62
       3
100
AcDbLine
 10
-5.89464054
 20
8.19199054
 30
0.0
 11
46.10535946
 21
8.19199054
 31
0.0
  0
LINE
  5
163
100
AcDbEntity
  8
SLD-0
  6
CONTINUOUS
 62
       3
100
AcDbLine
 10
-5.89464054
 20
0.3977619
 30
0.0
 11
46.10535946
 21
0.3977619
 31
0.0
  0
LINE
  5
164
100
AcDbEntity
  8
SLD-0
  6
CONTINUOUS
 62
       3
100
AcDbLine
 10
-5.89464054
 20
31.57467644
 30
0.0
 11
-5.89464054
 21
0.3977619
 31
0.0
  0
LINE
  5
165
100
AcDbEntity
  8
SLD-0
  6
CONTINUOUS
 62
       3
100
AcDbLine
 10
46.10535946
 20
31.57467644
 30
0.0
 11
46.10535946
 21
0.3977619
 31
0.0
  0
LINE
  5
166
100
AcDbEntity
  8
SLD-0
  6
CONTINUOUS
 62
       3
100
AcDbLine
 10
-15.89464054
 20
25.11839852
 30
0.0
 11
-15.89464054
 21
6.85377167
 31
0.0
  0
LINE
  5
167
100
AcDbEntity
  8
SLD-0
  6
CONTINUOUS
 62
       3
100
AcDbLine
 10
56.10535946
 20
25.11891604
 30
0.0
 11
56.10535946
 21
6.85325386
 31
0.0
  0
CIRCLE
  5
168
100
AcDbEntity
  8
SLD-0
  6
CONTINUOUS
 62
       3
100
AcDbCircle
 10
-101.6586399
 20
15.98621917
 30
0.0
 40
13.5
  0
CIRCLE
  5
169
100
AcDbEntity
  8
SLD-0
  6
CONTINUOUS
 62
       3
100
AcDbCircle
 10
-101.6586399
 20
15.98621917
 30
0.0
 40
10.5
  0
CIRCLE
  5
16A
100
AcDbEntity
  8
SLD-0
  6
CONTINUOUS
 62
       3
100
AcDbCircle
 10
-101.6586399
 20
15.98621917
 30
0.0
 40
9.3
  0
TEXT
  5
16B
100
AcDbEntity
  8
SLD-0
 62
       3
100
AcDbText
 10
42.67098187
 20
-36.02059079
 30
0.0
 40
5.0
  1
000
 72
       5
 11
57.67098187
 21
-36.02059079
 31
0.0
100
AcDbText
  0
ENDSEC
  0
SECTION
  2
OBJECTS
  0
DICTIONARY
  5
19
100
AcDbDictionary
  3
ACAD_GROUP
350
1A
  3
ACAD_MLINESTYLE
350
1B
  0
DICTIONARY
  5
1A
102
{ACAD_REACTORS
330
19
102
}
100
AcDbDictionary
  0
DICTIONARY
  5
1B
102
{ACAD_REACTORS
330
19
102
}
100
AcDbDictionary
  3
STANDARD
350
1C
  0
MLINESTYLE
  5
1C
102
{ACAD_REACTORS
330
1B
102
}
100
AcDbMlineStyle
  2
STANDARD
 70
       0
  3

 62
       0
 51
90.0
 52
90.0
 71
       2
 49
0.5
 62
     256
  6
BYLAYER
 49
-0.5
 62
     256
  6
BYLAYER
  0
ENDSEC
  0
EOF
