  0
SECTION
  2
HEADER
  9
$ACADVER
  1
AC1014
  9
$ACADMAINTVER
 70
       0
  9
$DWGCODEPAGE
  3
ANSI_932
  9
$INSBASE
 10
0.0
 20
0.0
 30
0.0
  9
$EXTMIN
 10
-157.81753209
 20
-64.06388861
 30
0.0
  9
$EXTMAX
 10
157.81753209
 20
61.56388861
 30
0.0
  9
$LIMMIN
 10
-167.68112785
 20
-67.98975664
  9
$LIMMAX
 10
167.68112785
 20
65.48975664
  9
$ORTHOMODE
 70
       0
  9
$REGENMODE
 70
       1
  9
$FILLMODE
 70
       1
  9
$QTEXTMODE
 70
       0
  9
$MIRRTEXT
 70
       1
  9
$DRAGMODE
 70
       2
  9
$LTSCALE
 40
1.0
  9
$OSMODE
 70
       0
  9
$ATTMODE
 70
       1
  9
$TEXTSIZE
 40
0.2
  9
$TRACEWID
 40
0.05
  9
$TEXTSTYLE
  7
STANDARD
  9
$CLAYER
  8
0
  9
$CELTYPE
  6
CONTINUOUS
  9
$CECOLOR
 62
     256
  9
$CELTSCALE
 40
1.0
  9
$DELOBJ
 70
       1
  9
$DISPSILH
 70
       0
  9
$DIMSCALE
 40
1.0
  9
$DIMASZ
 40
0.18
  9
$DIMEXO
 40
0.0625
  9
$DIMDLI
 40
0.38
  9
$DIMRND
 40
0.0
  9
$DIMDLE
 40
0.0
  9
$DIMEXE
 40
0.18
  9
$DIMTP
 40
0.0
  9
$DIMTM
 40
0.0
  9
$DIMTXT
 40
0.18
  9
$DIMCEN
 40
0.09
  9
$DIMTSZ
 40
0.0
  9
$DIMTOL
 70
       0
  9
$DIMLIM
 70
       0
  9
$DIMTIH
 70
       1
  9
$DIMTOH
 70
       1
  9
$DIMSE1
 70
       0
  9
$DIMSE2
 70
       0
  9
$DIMTAD
 70
       0
  9
$DIMZIN
 70
       0
  9
$DIMBLK
  1

  9
$DIMASO
 70
       1
  9
$DIMSHO
 70
       1
  9
$DIMPOST
  1

  9
$DIMAPOST
  1

  9
$DIMALT
 70
       0
  9
$DIMALTD
 70
       2
  9
$DIMALTF
 40
25.4
  9
$DIMLFAC
 40
1.0
  9
$DIMTOFL
 70
       0
  9
$DIMTVP
 40
0.0
  9
$DIMTIX
 70
       0
  9
$DIMSOXD
 70
       0
  9
$DIMSAH
 70
       0
  9
$DIMBLK1
  1

  9
$DIMBLK2
  1

  9
$DIMSTYLE
  2
STANDARD
  9
$DIMCLRD
 70
       0
  9
$DIMCLRE
 70
       0
  9
$DIMCLRT
 70
       0
  9
$DIMTFAC
 40
1.0
  9
$DIMGAP
 40
0.09
  9
$DIMJUST
 70
       0
  9
$DIMSD1
 70
       0
  9
$DIMSD2
 70
       0
  9
$DIMTOLJ
 70
       1
  9
$DIMTZIN
 70
       0
  9
$DIMALTZ
 70
       0
  9
$DIMALTTZ
 70
       0
  9
$DIMFIT
 70
       3
  9
$DIMUPT
 70
       0
  9
$DIMUNIT
 70
       2
  9
$DIMDEC
 70
       4
  9
$DIMTDEC
 70
       4
  9
$DIMALTU
 70
       2
  9
$DIMALTTD
 70
       2
  9
$DIMTXSTY
  7
STANDARD
  9
$DIMAUNIT
 70
       0
  9
$LUNITS
 70
       2
  9
$LUPREC
 70
       4
  9
$SKETCHINC
 40
0.1
  9
$FILLETRAD
 40
0.0
  9
$AUNITS
 70
       0
  9
$AUPREC
 70
       0
  9
$MENU
  1
acad
  9
$ELEVATION
 40
0.0
  9
$PELEVATION
 40
0.0
  9
$THICKNESS
 40
0.0
  9
$LIMCHECK
 70
       0
  9
$BLIPMODE
 70
       1
  9
$CHAMFERA
 40
0.0
  9
$CHAMFERB
 40
0.0
  9
$CHAMFERC
 40
0.0
  9
$CHAMFERD
 40
0.0
  9
$SKPOLY
 70
       0
  9
$TDCREATE
 40
0.000000000
  9
$TDUPDATE
 40
0.000000000
  9
$TDINDWG
 40
0.0000000000
  9
$TDUSRTIMER
 40
0.0000000000
  9
$USRTIMER
 70
       1
  9
$ANGBASE
 50
0.0
  9
$ANGDIR
 70
       0
  9
$PDMODE
 70
       0
  9
$PDSIZE
 40
1.0
  9
$PLINEWID
 40
0.0
  9
$COORDS
 70
       1
  9
$SPLFRAME
 70
       0
  9
$SPLINETYPE
 70
       6
  9
$SPLINESEGS
 70
       8
  9
$ATTDIA
 70
       0
  9
$ATTREQ
 70
       1
  9
$HANDLING
 70
       1
  9
$HANDSEED
  5
1FC
  9
$SURFTAB1
 70
       6
  9
$SURFTAB2
 70
       6
  9
$SURFTYPE
 70
       6
  9
$SURFU
 70
       6
  9
$SURFV
 70
       6
  9
$UCSNAME
  2

  9
$UCSORG
 10
0.0
 20
0.0
 30
0.0
  9
$UCSXDIR
 10
1.0
 20
0.0
 30
0.0
  9
$UCSYDIR
 10
0.0
 20
1.0
 30
0.0
  9
$PUCSNAME
  2

  9
$PUCSORG
 10
0.0
 20
0.0
 30
0.0
  9
$PUCSXDIR
 10
1.0
 20
0.0
 30
0.0
  9
$PUCSYDIR
 10
0.0
 20
1.0
 30
0.0
  9
$USERI1
 70
       0
  9
$USERI2
 70
       0
  9
$USERI3
 70
       0
  9
$USERI4
 70
       0
  9
$USERI5
 70
       0
  9
$USERR1
 40
0.0
  9
$USERR2
 40
0.0
  9
$USERR3
 40
0.0
  9
$USERR4
 40
0.0
  9
$USERR5
 40
0.0
  9
$WORLDVIEW
 70
       1
  9
$SHADEDGE
 70
       3
  9
$SHADEDIF
 70
      70
  9
$TILEMODE
 70
       1
  9
$MAXACTVP
 70
      16
  9
$PINSBASE
 10
0.0
 20
0.0
 30
0.0
  9
$PLIMCHECK
 70
       0
  9
$PEXTMIN
 10
1.00000000E+20
 20
1.00000000E+20
 30
1.00000000E+20
  9
$PEXTMAX
 10
-1.00000000E+20
 20
-1.00000000E+20
 30
-1.00000000E+20
  9
$PLIMMIN
 10
0.0
 20
0.0
  9
$PLIMMAX
 10
12.0
 20
9.0
  9
$UNITMODE
 70
       0
  9
$VISRETAIN
 70
       0
  9
$PLINEGEN
 70
       1
  9
$PSLTSCALE
 70
       0
  9
$TREEDEPTH
 70
    3020
  9
$PICKSTYLE
 70
       1
  9
$CMLSTYLE
  2
STANDARD
  9
$CMLJUST
 70
       0
  9
$CMLSCALE
 40
1.0
  9
$PROXYGRAPHICS
 70
       0
  9
$MEASUREMENT
 70
       0
  0
ENDSEC
  0
SECTION
  2
CLASSES
  0
CLASS
  1
LWPOLYLINE
  2
AcDbPolyline
  3
"AutoCAD"
 90
        0
280
       0
281
       1
  0
CLASS
  1
IMAGE
  2
AcDbRasterImage
  3
ISM
 90
      127
280
       0
281
       1
  0
CLASS
  1
OLE2FRAME
  2
AcDbOle2Frame
  3
""
 90
        0
280
       0
281
       1
  0
CLASS
  1
HATCH
  2
AcDbHatch
  3
"ACAD_SEDONA"
 90
        0
280
       0
281
       1
  0
CLASS
  1
DICTIONARYVAR
  2
AcDbDictionaryVar
  3
"AutoCAD"
 90
        0
280
       0
281
       0
  0
CLASS
  1
RASTERVARIABLES
  2
AcDbRasterVariables
  3
ISM
 90
        0
280
       0
281
       0
  0
CLASS
  1
IMAGEDEF
  2
AcDbRasterImageDef
  3
ISM
 90
        0
280
       0
281
       0
  0
CLASS
  1
IMAGEDEF_REACTOR
  2
AcDbRasterImageDefReactor
  3
ISM
 90
        1
280
       0
281
       0
  0
CLASS
  1
IDBUFFER
  2
AcDbIdBuffer
  3
"Acad"
 90
        0
280
       0
281
       0
  0
CLASS
  1
SPATIAL_FILTER
  2
AcDbSpatialFilter
  3
"Acad"
 90
        0
280
       0
281
       0
  0
CLASS
  1
XRECORD
  2
AcDbXrecord
  3
"<Built In>"
 90
        0
280
       0
281
       0
  0
CLASS
  1
SORTENTSTABLE
  2
AcDbSortentsTable
  3
"AutoCAD"
 90
        0
280
       0
281
       0
  0
CLASS
  1
LAYER_INDEX
  2
AcDbLayerIndex
  3
"Acad"
 90
        0
280
       0
281
       0
  0
CLASS
  1
SPATIAL_INDEX
  2
AcDbSpatialIndex
  3
"Acad"
 90
        0
280
       0
281
       0
  0
CLASS
  1
OBJECT_PTR
  2
CAseDLPNTableRecord
  3
"ASE-LPNTableRecord"
 90
        1
280
       0
281
       0
  0
CLASS
  1
LAYOUT
  2
AcDbLayout
  3
"AutoCAD 2000"
 90
        1
280
       0
281
       0
  0
CLASS
  1
PLOTSETTINGS
  2
AcDbPlotSettings
  3
"AutoCAD 2000"
 90
        1
280
       0
281
       0
  0
CLASS
  1
ACDBDICTIONARYWDFLT
  2
AcDbDictionaryWithDefault
  3
"AutoCAD 2000"
 90
        1
280
       0
281
       0
  0
CLASS
  1
ACDBPLACEHOLDER
  2
AcDbPlaceHolder
  3
"AutoCAD 2000"
 90
        1
280
       0
281
       0
  0
CLASS
  1
VBA_PROJECT
  2
AcDbVbaProject
  3
"acadvba"
 90
        1
280
       0
281
       0
  0
CLASS
  1
WIPEOUT
  2
AcDbWipeout
  3
WipeOut|AutoCAD Express Tool|expresstools@autodesk.com
 90
      127
280
       0
281
       1
  0
CLASS
  1
WIPEOUTVARIABLES
  2
AcDbWipeoutVariables
  3
WipeOut|AutoCAD Express Tool|expresstools@autodesk.com
 90
        0
280
       0
281
       0
  0
CLASS
  1
RTEXT
  2
RText
  3
RText|AutoCAD Express Tool|expresstools@autodesk.com
 90
        0
280
       0
281
       1
  0
CLASS
  1
ARCALIGNEDTEXT
  2
AcDbArcAlignedText
  3
ATEXT|AutoCAD Express Tool|expresstools@autodesk.com
 90
        0
280
       0
281
       1
  0
ENDSEC
  0
SECTION
  2
TABLES
  0
TABLE
  2
VPORT
  5
7
100
AcDbSymbolTable
 70
       1
  0
VPORT
  5
15
100
AcDbSymbolTableRecord
100
AcDbViewportTableRecord
  2
*ACTIVE
 70
       0
 10
0.0
 20
0.0
 11
1.0
 21
1.0
 12
0.0
 22
-1.25
 13
0.0
 23
0.0
 14
1.0
 24
1.0
 15
0.0
 25
0.0
 16
0.0
 26
0.0
 36
1.0
 17
0.0
 27
0.0
 37
0.0
 40
133.47951329
 41
2.51246238
 42
50.0
 43
0.0
 44
0.0
 50
0.0
 51
0.0
 71
       0
 72
     100
 73
       1
 74
       1
 75
       0
 76
       0
 77
       0
 78
       0
  0
ENDTAB
  0
TABLE
  2
LTYPE
  5
4
100
AcDbSymbolTable
 70
      30
  0
LTYPE
  5
11
100
AcDbSymbolTableRecord
100
AcDbLinetypeTableRecord
  2
BYBLOCK
 70
      64
  3

 72
      65
 73
       0
 40
0.0
  0
LTYPE
  5
12
100
AcDbSymbolTableRecord
100
AcDbLinetypeTableRecord
  2
BYLAYER
 70
      64
  3

 72
      65
 73
       0
 40
0.0
  0
LTYPE
  5
13
100
AcDbSymbolTableRecord
100
AcDbLinetypeTableRecord
  2
CONTINUOUS
 70
      64
  3
Solid line
 72
      65
 73
       0
 40
0.0
  0
LTYPE
  5
1D
100
AcDbSymbolTableRecord
100
AcDbLinetypeTableRecord
  2
HIDDENX2
 70
      64
  3
CADPAC LINETYPE
 72
      65
 73
       2
 40
12.62540257
 49
9.46905193
 74
       0
 49
-3.15635064
 74
       0
  0
LTYPE
  5
1E
100
AcDbSymbolTableRecord
100
AcDbLinetypeTableRecord
  2
HIDDEN
 70
      64
  3
CADPAC LINETYPE
 72
      65
 73
       2
 40
9.46905193
 49
6.31270128
 74
       0
 49
-3.15635064
 74
       0
  0
LTYPE
  5
1F
100
AcDbSymbolTableRecord
100
AcDbLinetypeTableRecord
  2
HIDDEN2
 70
      64
  3
CADPAC LINETYPE
 72
      65
 73
       2
 40
7.8908766
 49
4.73452596
 74
       0
 49
-3.15635064
 74
       0
  0
LTYPE
  5
20
100
AcDbSymbolTableRecord
100
AcDbLinetypeTableRecord
  2
DASHED
 70
      64
  3
CADPAC LINETYPE
 72
      65
 73
       2
 40
9.46905193
 49
6.31270128
 74
       0
 49
-3.15635064
 74
       0
  0
LTYPE
  5
21
100
AcDbSymbolTableRecord
100
AcDbLinetypeTableRecord
  2
DASHED2
 70
      64
  3
CADPAC LINETYPE
 72
      65
 73
       2
 40
7.10178894
 49
4.73452596
 74
       0
 49
-2.36726298
 74
       0
  0
LTYPE
  5
22
100
AcDbSymbolTableRecord
100
AcDbLinetypeTableRecord
  2
DASHEDX2
 70
      64
  3
CADPAC LINETYPE
 72
      65
 73
       2
 40
14.20357789
 49
9.46905193
 74
       0
 49
-4.73452596
 74
       0
  0
LTYPE
  5
23
100
AcDbSymbolTableRecord
100
AcDbLinetypeTableRecord
  2
DOTX2
 70
      64
  3
CADPAC LINETYPE
 72
      65
 73
       2
 40
3.9454383
 49
0.0
 74
       0
 49
-3.9454383
 74
       0
  0
LTYPE
  5
24
100
AcDbSymbolTableRecord
100
AcDbLinetypeTableRecord
  2
DOT
 70
      64
  3
CADPAC LINETYPE
 72
      65
 73
       2
 40
3.15635064
 49
0.0
 74
       0
 49
-3.15635064
 74
       0
  0
LTYPE
  5
25
100
AcDbSymbolTableRecord
100
AcDbLinetypeTableRecord
  2
DOT2
 70
      64
  3
CADPAC LINETYPE
 72
      65
 73
       2
 40
2.36726298
 49
0.0
 74
       0
 49
-2.36726298
 74
       0
  0
LTYPE
  5
26
100
AcDbSymbolTableRecord
100
AcDbLinetypeTableRecord
  2
CENTERX2
 70
      64
  3
CADPAC LINETYPE
 72
      65
 73
       4
 40
18.93810385
 49
7.8908766
 74
       0
 49
-3.9454383
 74
       0
 49
3.15635064
 74
       0
 49
-3.9454383
 74
       0
  0
LTYPE
  5
27
100
AcDbSymbolTableRecord
100
AcDbLinetypeTableRecord
  2
CENTER
 70
      64
  3
CADPAC LINETYPE
 72
      65
 73
       4
 40
14.51921295
 49
6.31270128
 74
       0
 49
-3.15635064
 74
       0
 49
1.89381039
 74
       0
 49
-3.15635064
 74
       0
  0
LTYPE
  5
28
100
AcDbSymbolTableRecord
100
AcDbLinetypeTableRecord
  2
CENTER2
 70
      64
  3
CADPAC LINETYPE
 72
      65
 73
       4
 40
10.10032205
 49
4.73452596
 74
       0
 49
-2.36726298
 74
       0
 49
0.63127013
 74
       0
 49
-2.36726298
 74
       0
  0
LTYPE
  5
29
100
AcDbSymbolTableRecord
100
AcDbLinetypeTableRecord
  2
DASHDOTX2
 70
      64
  3
CADPAC LINETYPE
 72
      65
 73
       4
 40
15.78175321
 49
7.8908766
 74
       0
 49
-3.9454383
 74
       0
 49
0.0
 74
       0
 49
-3.9454383
 74
       0
  0
LTYPE
  5
2A
100
AcDbSymbolTableRecord
100
AcDbLinetypeTableRecord
  2
DASHDOT
 70
      64
  3
CADPAC LINETYPE
 72
      65
 73
       4
 40
12.62540257
 49
6.31270128
 74
       0
 49
-3.15635064
 74
       0
 49
0.0
 74
       0
 49
-3.15635064
 74
       0
  0
LTYPE
  5
2B
100
AcDbSymbolTableRecord
100
AcDbLinetypeTableRecord
  2
DASHDOT2
 70
      64
  3
CADPAC LINETYPE
 72
      65
 73
       4
 40
9.46905193
 49
4.73452596
 74
       0
 49
-2.36726298
 74
       0
 49
0.0
 74
       0
 49
-2.36726298
 74
       0
  0
LTYPE
  5
2C
100
AcDbSymbolTableRecord
100
AcDbLinetypeTableRecord
  2
DIVIDEX2
 70
      64
  3
CADPAC LINETYPE
 72
      65
 73
       6
 40
19.72719151
 49
7.8908766
 74
       0
 49
-3.9454383
 74
       0
 49
0.0
 74
       0
 49
-3.9454383
 74
       0
 49
0.0
 74
       0
 49
-3.9454383
 74
       0
  0
LTYPE
  5
2D
100
AcDbSymbolTableRecord
100
AcDbLinetypeTableRecord
  2
DIVIDE
 70
      64
  3
CADPAC LINETYPE
 72
      65
 73
       6
 40
15.78175321
 49
6.31270128
 74
       0
 49
-3.15635064
 74
       0
 49
0.0
 74
       0
 49
-3.15635064
 74
       0
 49
0.0
 74
       0
 49
-3.15635064
 74
       0
  0
LTYPE
  5
2E
100
AcDbSymbolTableRecord
100
AcDbLinetypeTableRecord
  2
DIVIDE2
 70
      64
  3
CADPAC LINETYPE
 72
      65
 73
       6
 40
11.83631491
 49
4.73452596
 74
       0
 49
-2.36726298
 74
       0
 49
0.0
 74
       0
 49
-2.36726298
 74
       0
 49
0.0
 74
       0
 49
-2.36726298
 74
       0
  0
LTYPE
  5
2F
100
AcDbSymbolTableRecord
100
AcDbLinetypeTableRecord
  2
BORDERX2
 70
      64
  3
CADPAC LINETYPE
 72
      65
 73
       6
 40
27.61806812
 49
7.8908766
 74
       0
 49
-3.9454383
 74
       0
 49
7.8908766
 74
       0
 49
-3.9454383
 74
       0
 49
0.0
 74
       0
 49
-3.9454383
 74
       0
  0
LTYPE
  5
30
100
AcDbSymbolTableRecord
100
AcDbLinetypeTableRecord
  2
BORDER
 70
      64
  3
CADPAC LINETYPE
 72
      65
 73
       6
 40
22.09445449
 49
6.31270128
 74
       0
 49
-3.15635064
 74
       0
 49
6.31270128
 74
       0
 49
-3.15635064
 74
       0
 49
0.0
 74
       0
 49
-3.15635064
 74
       0
  0
LTYPE
  5
31
100
AcDbSymbolTableRecord
100
AcDbLinetypeTableRecord
  2
BORDER2
 70
      64
  3
CADPAC LINETYPE
 72
      65
 73
       6
 40
16.57084087
 49
4.73452596
 74
       0
 49
-2.36726298
 74
       0
 49
4.73452596
 74
       0
 49
-2.36726298
 74
       0
 49
0.0
 74
       0
 49
-2.36726298
 74
       0
  0
LTYPE
  5
32
100
AcDbSymbolTableRecord
100
AcDbLinetypeTableRecord
  2
PHANTOMX2
 70
      64
  3
CADPAC LINETYPE
 72
      65
 73
       6
 40
23.67262981
 49
7.8908766
 74
       0
 49
-3.15635064
 74
       0
 49
3.15635064
 74
       0
 49
-3.15635064
 74
       0
 49
3.15635064
 74
       0
 49
-3.15635064
 74
       0
  0
LTYPE
  5
33
100
AcDbSymbolTableRecord
100
AcDbLinetypeTableRecord
  2
PHANTOM
 70
      64
  3
CADPAC LINETYPE
 72
      65
 73
       6
 40
19.56937398
 49
6.31270128
 74
       0
 49
-3.15635064
 74
       0
 49
1.89381039
 74
       0
 49
-3.15635064
 74
       0
 49
1.89381039
 74
       0
 49
-3.15635064
 74
       0
  0
LTYPE
  5
34
100
AcDbSymbolTableRecord
100
AcDbLinetypeTableRecord
  2
PHANTOM2
 70
      64
  3
CADPAC LINETYPE
 72
      65
 73
       6
 40
16.7286584
 49
4.73452596
 74
       0
 49
-3.15635064
 74
       0
 49
1.26254026
 74
       0
 49
-3.15635064
 74
       0
 49
1.26254026
 74
       0
 49
-3.15635064
 74
       0
  0
LTYPE
  5
35
100
AcDbSymbolTableRecord
100
AcDbLinetypeTableRecord
  2
ACAD_ISO06W100
 70
      64
  3
CADPAC LINETYPE
 72
      65
 73
       8
 40
21.30536683
 49
7.8908766
 74
       0
 49
-3.9454383
 74
       0
 49
0.0
 74
       0
 49
-3.15635064
 74
       0
 49
0.0
 74
       0
 49
-3.15635064
 74
       0
 49
0.0
 74
       0
 49
-3.15635064
 74
       0
  0
LTYPE
  5
36
100
AcDbSymbolTableRecord
100
AcDbLinetypeTableRecord
  2
ACAD_ISO13W100
 70
      64
  3
CADPAC LINETYPE
 72
      65
 73
       8
 40
25.25080513
 49
6.31270128
 74
       0
 49
-3.15635064
 74
       0
 49
6.31270128
 74
       0
 49
-3.15635064
 74
       0
 49
0.0
 74
       0
 49
-3.15635064
 74
       0
 49
0.0
 74
       0
 49
-3.15635064
 74
       0
  0
LTYPE
  5
37
100
AcDbSymbolTableRecord
100
AcDbLinetypeTableRecord
  2
ACAD_ISO14W100
 70
      64
  3
CADPAC LINETYPE
 72
      65
 73
       8
 40
18.93810385
 49
6.31270128
 74
       0
 49
-3.15635064
 74
       0
 49
0.0
 74
       0
 49
-3.15635064
 74
       0
 49
0.0
 74
       0
 49
-3.15635064
 74
       0
 49
0.0
 74
       0
 49
-3.15635064
 74
       0
  0
ENDTAB
  0
TABLE
  2
LAYER
  5
2
100
AcDbSymbolTable
 70
       3
  0
LAYER
  5
14
100
AcDbSymbolTableRecord
100
AcDbLayerTableRecord
  2
0
 70
       0
 62
       7
  6
CONTINUOUS
  0
LAYER
  5
38
100
AcDbSymbolTableRecord
100
AcDbLayerTableRecord
  2
SLD-0
 70
       0
 62
       7
  6
CONTINUOUS
  0
LAYER
  5
39
100
AcDbSymbolTableRecord
100
AcDbLayerTableRecord
  2
レイヤー_1
 70
       0
 62
       7
  6
CONTINUOUS
  0
ENDTAB
  0
TABLE
  2
STYLE
  5
3
100
AcDbSymbolTable
 70
       1
  0
STYLE
  5
17
100
AcDbSymbolTableRecord
100
AcDbTextStyleTableRecord
  2
STANDARD
 70
       0
 40
0.0
 41
1.0
 50
0.0
 71
       0
 42
5.0
  3
txt.shx
  4
bigfont.shx
  0
ENDTAB
  0
TABLE
  2
VIEW
  5
5
100
AcDbSymbolTable
 70
       1
  0
VIEW
  5
3A
100
AcDbSymbolTableRecord
100
AcDbViewTableRecord
  2
QQQQ
 70
       0
 40
133.47951329
 10
0.0
 20
-1.25
 41
335.36225569
 11
0.0
 21
0.0
 31
1.0
 12
100.0
 22
100.0
 32
0.0
 42
50.0
 43
0.0
 44
0.0
 50
0.0
 71
       0
  0
ENDTAB
  0
TABLE
  2
UCS
  5
6
100
AcDbSymbolTable
 70
       0
  0
ENDTAB
  0
TABLE
  2
APPID
  5
8
100
AcDbSymbolTable
 70
       1
  0
APPID
  5
16
100
AcDbSymbolTableRecord
100
AcDbRegAppTableRecord
  2
ACAD
 70
       0
  0
ENDTAB
  0
TABLE
  2
DIMSTYLE
  5
9
100
AcDbSymbolTable
 70
       1
  0
DIMSTYLE
105
18
100
AcDbSymbolTableRecord
100
AcDbDimStyleTableRecord
  2
STANDARD
 70
       0
  3

  4

  5

  6

  7

 40
1.0
 41
0.18
 42
0.0625
 43
0.38
 44
0.18
 45
0.0
 46
0.0
 47
0.0
 48
0.0
 71
       0
 72
       0
 73
       1
 74
       1
 75
       0
 76
       0
 77
       0
 78
       0
140
0.18
141
0.09
142
0.0
143
25.4
144
1.0
145
0.0
146
1.0
147
0.09
170
       0
171
       2
172
       0
173
       0
174
       0
175
       0
176
       0
177
       0
178
       0
270
       2
271
       4
272
       4
273
       2
274
       2
275
       0
280
       0
281
       0
282
       0
283
       1
284
       0
285
       0
286
       0
287
       0
288
       0
340
17
  0
ENDTAB
  0
TABLE
  2
BLOCK_RECORD
  5
1
100
AcDbSymbolTable
 70
       0
  0
BLOCK_RECORD
  5
A
100
AcDbSymbolTableRecord
100
AcDbBlockTableRecord
  2
*MODEL_SPACE
  0
BLOCK_RECORD
  5
B
100
AcDbSymbolTableRecord
100
AcDbBlockTableRecord
  2
*PAPER_SPACE
  0
ENDTAB
  0
ENDSEC
  0
SECTION
  2
BLOCKS
  0
BLOCK
  5
D
100
AcDbEntity
  8
0
100
AcDbBlockBegin
  2
*MODEL_SPACE
 70
       0
 10
0.0
 20
0.0
 30
0.0
  3
*MODEL_SPACE
  1

  0
ENDBLK
  5
E
100
AcDbEntity
  8
0
100
AcDbBlockEnd
  0
BLOCK
  5
F
100
AcDbEntity
 67
       1
  8
0
100
AcDbBlockBegin
  2
*PAPER_SPACE
 70
       0
 10
0.0
 20
0.0
 30
0.0
  3
*PAPER_SPACE
  1

  0
ENDBLK
  5
10
100
AcDbEntity
 67
       1
  8
0
100
AcDbBlockEnd
  0
ENDSEC
  0
SECTION
  2
ENTITIES
  0
LINE
  5
3B
100
AcDbEntity
  8
レイヤー_1
  6
CONTINUOUS
 62
       7
100
AcDbLine
 10
-100.77153645
 20
51.72987256
 30
0.0
 11
-147.77153644
 21
51.72987256
 31
0.0
  0
LINE
  5
3C
100
AcDbEntity
  8
レイヤー_1
  6
CONTINUOUS
 62
       7
100
AcDbLine
 10
-100.77153645
 20
-28.27012744
 30
0.0
 11
-147.77153644
 21
-28.27012744
 31
0.0
  0
LINE
  5
3D
100
AcDbEntity
  8
レイヤー_1
  6
CONTINUOUS
 62
       7
100
AcDbLine
 10
-149.27153644
 20
50.22987256
 30
0.0
 11
-149.27153644
 21
-26.77012744
 31
0.0
  0
LINE
  5
3E
100
AcDbEntity
  8
レイヤー_1
  6
CONTINUOUS
 62
       7
100
AcDbLine
 10
-99.27153645
 20
50.22987256
 30
0.0
 11
-99.27153645
 21
-26.77012744
 31
0.0
  0
LINE
  5
3F
100
AcDbEntity
  8
レイヤー_1
  6
CONTINUOUS
 62
       7
100
AcDbLine
 10
34.06591334
 20
51.72987256
 30
0.0
 11
-67.93408666
 21
51.72987256
 31
0.0
  0
LINE
  5
40
100
AcDbEntity
  8
レイヤー_1
  6
CONTINUOUS
 62
       7
100
AcDbLine
 10
34.06591334
 20
-28.27012744
 30
0.0
 11
-67.93408666
 21
-28.27012744
 31
0.0
  0
LINE
  5
41
100
AcDbEntity
  8
レイヤー_1
  6
CONTINUOUS
 62
       7
100
AcDbLine
 10
-68.93408666
 20
-27.27012744
 30
0.0
 11
-68.93408666
 21
50.72987256
 31
0.0
  0
LINE
  5
42
100
AcDbEntity
  8
レイヤー_1
  6
CONTINUOUS
 62
       7
100
AcDbLine
 10
54.06591333
 20
-28.27012744
 30
0.0
 11
54.06591333
 21
-5.75075725
 31
0.0
  0
LINE
  5
43
100
AcDbEntity
  8
レイヤー_1
  6
CONTINUOUS
 62
       7
100
AcDbLine
 10
54.06591333
 20
29.23246483
 30
0.0
 11
54.06591333
 21
51.71774181
 31
0.0
  0
LINE
  5
44
100
AcDbEntity
  8
レイヤー_1
  6
CONTINUOUS
 62
       7
100
AcDbLine
 10
-120.76959688
 20
51.73152219
 30
0.0
 11
-120.76959688
 21
53.73096947
 31
0.0
  0
LINE
  5
45
100
AcDbEntity
  8
レイヤー_1
  6
CONTINUOUS
 62
       7
100
AcDbLine
 10
-120.76959688
 20
53.73096947
 30
0.0
 11
-127.76787773
 21
53.73096947
 31
0.0
  0
LINE
  5
46
100
AcDbEntity
  8
レイヤー_1
  6
CONTINUOUS
 62
       7
100
AcDbLine
 10
-127.76787773
 20
53.73096947
 30
0.0
 11
-127.76787773
 21
51.73152219
 31
0.0
  0
LINE
  5
47
100
AcDbEntity
  8
レイヤー_1
  6
CONTINUOUS
 62
       7
100
AcDbLine
 10
-122.76818291
 20
51.72377072
 30
0.0
 11
-122.76818291
 21
53.72407929
 31
0.0
  0
LINE
  5
48
100
AcDbEntity
  8
レイヤー_1
  6
CONTINUOUS
 62
       7
100
AcDbLine
 10
-125.76756916
 20
53.72407929
 30
0.0
 11
-125.76756916
 21
51.72377072
 31
0.0
  0
LINE
  5
49
100
AcDbEntity
  8
レイヤー_1
  6
CONTINUOUS
 62
       7
100
AcDbLine
 10
-111.47300671
 20
-28.26876263
 30
0.0
 11
-111.77057683
 21
-28.56676339
 31
0.0
  0
LINE
  5
4A
100
AcDbEntity
  8
レイヤー_1
  6
CONTINUOUS
 62
       7
100
AcDbLine
 10
-111.77057683
 20
-28.56676339
 30
0.0
 11
-118.7481871
 21
-28.56676339
 31
0.0
  0
LINE
  5
4B
100
AcDbEntity
  8
レイヤー_1
  6
CONTINUOUS
 62
       7
100
AcDbLine
 10
-118.7481871
 20
-28.56676339
 30
0.0
 11
-118.7481871
 21
-29.75747451
 31
0.0
  0
LINE
  5
4C
100
AcDbEntity
  8
レイヤー_1
  6
CONTINUOUS
 62
       7
100
AcDbLine
 10
-118.7481871
 20
-29.75747451
 30
0.0
 11
-121.75575547
 21
-31.25566041
 31
0.0
  0
LINE
  5
4D
100
AcDbEntity
  8
レイヤー_1
  6
CONTINUOUS
 62
       7
100
AcDbLine
 10
-121.75575547
 20
-31.25566041
 30
0.0
 11
-126.75975666
 21
-31.25566041
 31
0.0
  0
LINE
  5
4E
100
AcDbEntity
  8
レイヤー_1
  6
CONTINUOUS
 62
       7
100
AcDbLine
 10
-126.75975666
 20
-31.25566041
 30
0.0
 11
-129.75785101
 21
-29.75661324
 31
0.0
  0
LINE
  5
4F
100
AcDbEntity
  8
レイヤー_1
  6
CONTINUOUS
 62
       7
100
AcDbLine
 10
-129.75785101
 20
-29.75661324
 30
0.0
 11
-129.75785101
 21
-28.56676339
 31
0.0
  0
LINE
  5
50
100
AcDbEntity
  8
レイヤー_1
  6
CONTINUOUS
 62
       7
100
AcDbLine
 10
-129.75785101
 20
-28.56676339
 30
0.0
 11
-136.76646713
 21
-28.56676339
 31
0.0
  0
LINE
  5
51
100
AcDbEntity
  8
レイヤー_1
  6
CONTINUOUS
 62
       7
100
AcDbLine
 10
-136.76646713
 20
-28.56676339
 30
0.0
 11
-137.05327134
 21
-28.27995918
 31
0.0
  0
LINE
  5
52
100
AcDbEntity
  8
レイヤー_1
  6
CONTINUOUS
 62
       7
100
AcDbLine
 10
-122.76818291
 20
-28.25627415
 30
0.0
 11
-122.76818291
 21
-30.25572145
 31
0.0
  0
LINE
  5
53
100
AcDbEntity
  8
レイヤー_1
  6
CONTINUOUS
 62
       7
100
AcDbLine
 10
-125.76756916
 20
-30.25572145
 30
0.0
 11
-125.76756916
 21
-28.25627415
 31
0.0
  0
LINE
  5
54
100
AcDbEntity
  8
レイヤー_1
  6
CONTINUOUS
 62
       7
100
AcDbLine
 10
-120.76959688
 20
-28.26445625
 30
0.0
 11
-120.76959688
 21
-30.26347291
 31
0.0
  0
LINE
  5
55
100
AcDbEntity
  8
レイヤー_1
  6
CONTINUOUS
 62
       7
100
AcDbLine
 10
-120.76959688
 20
-30.26347291
 30
0.0
 11
-127.76787773
 21
-30.26347291
 31
0.0
  0
LINE
  5
56
100
AcDbEntity
  8
レイヤー_1
  6
CONTINUOUS
 62
       7
100
AcDbLine
 10
-127.76787773
 20
-30.26347291
 30
0.0
 11
-127.76787773
 21
-28.26445625
 31
0.0
  0
LINE
  5
57
100
AcDbEntity
  8
レイヤー_1
  6
CONTINUOUS
 62
       7
100
AcDbLine
 10
34.06591334
 20
-28.27012744
 30
0.0
 11
34.06591334
 21
51.72987256
 31
0.0
  0
LINE
  5
58
100
AcDbEntity
  8
レイヤー_1
  6
CONTINUOUS
 62
       7
100
AcDbLine
 10
-65.89611599
 20
51.71774181
 30
0.0
 11
-65.89611599
 21
-28.2579967
 31
0.0
  0
LINE
  5
59
100
AcDbEntity
  8
レイヤー_1
  6
CONTINUOUS
 62
       7
100
AcDbLine
 10
35.58520045
 20
15.87453773
 30
0.0
 11
39.59098522
 21
15.87453773
 31
0.0
  0
LINE
  5
5A
100
AcDbEntity
  8
レイヤー_1
  6
CONTINUOUS
 62
       7
100
AcDbLine
 10
39.59098522
 20
15.87453773
 30
0.0
 11
39.59098522
 21
7.58047035
 31
0.0
  0
LINE
  5
5B
100
AcDbEntity
  8
レイヤー_1
  6
CONTINUOUS
 62
       7
100
AcDbLine
 10
39.59098522
 20
7.58047035
 30
0.0
 11
35.58520045
 21
7.58047035
 31
0.0
  0
LINE
  5
5C
100
AcDbEntity
  8
レイヤー_1
  6
CONTINUOUS
 62
       7
100
AcDbLine
 10
35.58520045
 20
7.58047035
 30
0.0
 11
35.58520045
 21
-26.28438763
 31
0.0
  0
LINE
  5
5D
100
AcDbEntity
  8
レイヤー_1
  6
CONTINUOUS
 62
       7
100
AcDbLine
 10
35.58520045
 20
-26.28438763
 30
0.0
 11
37.08381698
 21
-28.2579967
 31
0.0
  0
LINE
  5
5E
100
AcDbEntity
  8
レイヤー_1
  6
CONTINUOUS
 62
       7
100
AcDbLine
 10
37.08381698
 20
-28.2579967
 30
0.0
 11
54.07933428
 21
-28.2579967
 31
0.0
  0
LINE
  5
5F
100
AcDbEntity
  8
レイヤー_1
  6
CONTINUOUS
 62
       7
100
AcDbLine
 10
54.06591333
 20
-5.75075725
 30
0.0
 11
50.08905244
 21
-5.75075725
 31
0.0
  0
LINE
  5
60
100
AcDbEntity
  8
レイヤー_1
  6
CONTINUOUS
 62
       7
100
AcDbLine
 10
50.08905244
 20
-5.75075725
 30
0.0
 11
50.08905244
 21
2.72116317
 31
0.0
  0
LINE
  5
61
100
AcDbEntity
  8
レイヤー_1
  6
CONTINUOUS
 62
       7
100
AcDbLine
 10
50.08905244
 20
2.72116317
 30
0.0
 11
54.07933428
 21
2.72116317
 31
0.0
  0
LINE
  5
62
100
AcDbEntity
  8
レイヤー_1
  6
CONTINUOUS
 62
       7
100
AcDbLine
 10
54.07933428
 20
2.72116317
 30
0.0
 11
54.07933428
 21
6.72048839
 31
0.0
  0
LINE
  5
63
100
AcDbEntity
  8
レイヤー_1
  6
CONTINUOUS
 62
       7
100
AcDbLine
 10
54.07933428
 20
6.72048839
 30
0.0
 11
50.08302352
 21
6.72048839
 31
0.0
  0
LINE
  5
64
100
AcDbEntity
  8
レイヤー_1
  6
CONTINUOUS
 62
       7
100
AcDbLine
 10
50.08302352
 20
6.72048839
 30
0.0
 11
50.08302352
 21
16.71858612
 31
0.0
  0
LINE
  5
65
100
AcDbEntity
  8
レイヤー_1
  6
CONTINUOUS
 62
       7
100
AcDbLine
 10
50.08302352
 20
16.71858612
 30
0.0
 11
54.07933428
 21
16.71858612
 31
0.0
  0
LINE
  5
66
100
AcDbEntity
  8
レイヤー_1
  6
CONTINUOUS
 62
       7
100
AcDbLine
 10
54.07933428
 20
16.71858612
 30
0.0
 11
54.07933428
 21
20.7243709
 31
0.0
  0
LINE
  5
67
100
AcDbEntity
  8
レイヤー_1
  6
CONTINUOUS
 62
       7
100
AcDbLine
 10
54.07933428
 20
20.7243709
 30
0.0
 11
50.08905244
 21
20.7243709
 31
0.0
  0
LINE
  5
68
100
AcDbEntity
  8
レイヤー_1
  6
CONTINUOUS
 62
       7
100
AcDbLine
 10
50.08905244
 20
20.7243709
 30
0.0
 11
50.08905244
 21
29.23246483
 31
0.0
  0
LINE
  5
69
100
AcDbEntity
  8
レイヤー_1
  6
CONTINUOUS
 62
       7
100
AcDbLine
 10
50.08905244
 20
29.23246483
 30
0.0
 11
54.06591333
 21
29.23246483
 31
0.0
  0
LINE
  5
6A
100
AcDbEntity
  8
レイヤー_1
  6
CONTINUOUS
 62
       7
100
AcDbLine
 10
54.06591333
 20
51.71774181
 30
0.0
 11
37.08381698
 21
51.71774181
 31
0.0
  0
LINE
  5
6B
100
AcDbEntity
  8
レイヤー_1
  6
CONTINUOUS
 62
       7
100
AcDbLine
 10
37.08381698
 20
51.71774181
 30
0.0
 11
35.57400389
 21
49.69977712
 31
0.0
  0
LINE
  5
6C
100
AcDbEntity
  8
レイヤー_1
  6
CONTINUOUS
 62
       7
100
AcDbLine
 10
35.57400389
 20
49.69977712
 30
0.0
 11
35.58520045
 21
15.87453773
 31
0.0
  0
LINE
  5
6D
100
AcDbEntity
  8
レイヤー_1
  6
CONTINUOUS
 62
       7
100
AcDbLine
 10
35.58778427
 20
-6.7235661
 30
0.0
 11
34.08830646
 21
-6.7235661
 31
0.0
  0
LINE
  5
6E
100
AcDbEntity
  8
レイヤー_1
  6
CONTINUOUS
 62
       7
100
AcDbLine
 10
34.08830646
 20
-11.25171348
 30
0.0
 11
35.58778427
 21
-11.25171348
 31
0.0
  0
LINE
  5
6F
100
AcDbEntity
  8
レイヤー_1
  6
CONTINUOUS
 62
       7
100
AcDbLine
 10
35.58778427
 20
34.71102794
 30
0.0
 11
34.08830646
 21
34.71102794
 31
0.0
  0
LINE
  5
70
100
AcDbEntity
  8
レイヤー_1
  6
CONTINUOUS
 62
       7
100
AcDbLine
 10
34.08830646
 20
30.18331121
 30
0.0
 11
35.58778427
 21
30.18331121
 31
0.0
  0
LINE
  5
71
100
AcDbEntity
  8
レイヤー_1
  6
CONTINUOUS
 62
       7
100
AcDbLine
 10
35.58520045
 20
15.87453773
 30
0.0
 11
35.58520045
 21
7.58047035
 31
0.0
  0
LINE
  5
72
100
AcDbEntity
  8
レイヤー_1
  6
CONTINUOUS
 62
       7
100
AcDbLine
 10
34.07194225
 20
52.02593262
 30
0.0
 11
34.07194225
 21
52.17565568
 31
0.0
  0
LINE
  5
73
100
AcDbEntity
  8
レイヤー_1
  6
CONTINUOUS
 62
       7
100
AcDbLine
 10
34.07194225
 20
52.17565568
 30
0.0
 11
34.07194225
 21
52.34310444
 31
0.0
  0
LINE
  5
74
100
AcDbEntity
  8
レイヤー_1
  6
CONTINUOUS
 62
       7
100
AcDbLine
 10
34.07194225
 20
52.34310444
 30
0.0
 11
34.07194225
 21
52.52260669
 31
0.0
  0
LINE
  5
75
100
AcDbEntity
  8
レイヤー_1
  6
CONTINUOUS
 62
       7
100
AcDbLine
 10
34.07194225
 20
52.52260669
 30
0.0
 11
34.07194225
 21
52.70849017
 31
0.0
  0
LINE
  5
76
100
AcDbEntity
  8
レイヤー_1
  6
CONTINUOUS
 62
       7
100
AcDbLine
 10
34.07194225
 20
52.70849017
 30
0.0
 11
34.07194225
 21
52.8950827
 31
0.0
  0
LINE
  5
77
100
AcDbEntity
  8
レイヤー_1
  6
CONTINUOUS
 62
       7
100
AcDbLine
 10
34.07194225
 20
52.8950827
 30
0.0
 11
34.07194225
 21
53.07671201
 31
0.0
  0
LINE
  5
78
100
AcDbEntity
  8
レイヤー_1
  6
CONTINUOUS
 62
       7
100
AcDbLine
 10
34.07194225
 20
53.07671201
 30
0.0
 11
34.07194225
 21
53.24770591
 31
0.0
  0
LINE
  5
79
100
AcDbEntity
  8
レイヤー_1
  6
CONTINUOUS
 62
       7
100
AcDbLine
 10
34.07194225
 20
53.24770591
 30
0.0
 11
34.07194225
 21
53.40239218
 31
0.0
  0
LINE
  5
7A
100
AcDbEntity
  8
レイヤー_1
  6
CONTINUOUS
 62
       7
100
AcDbLine
 10
34.07194225
 20
53.40239218
 30
0.0
 11
34.07194225
 21
53.53509856
 31
0.0
  0
LINE
  5
7B
100
AcDbEntity
  8
レイヤー_1
  6
CONTINUOUS
 62
       7
100
AcDbLine
 10
34.07194225
 20
53.53509856
 30
0.0
 11
34.07194225
 21
53.64015288
 31
0.0
  0
LINE
  5
7C
100
AcDbEntity
  8
レイヤー_1
  6
CONTINUOUS
 62
       7
100
AcDbLine
 10
34.07194225
 20
53.64015288
 30
0.0
 11
34.07194225
 21
53.71188288
 31
0.0
  0
LINE
  5
7D
100
AcDbEntity
  8
レイヤー_1
  6
CONTINUOUS
 62
       7
100
AcDbLine
 10
34.07194225
 20
53.71188288
 30
0.0
 11
34.07194225
 21
53.74461632
 31
0.0
  0
LINE
  5
7E
100
AcDbEntity
  8
レイヤー_1
  6
CONTINUOUS
 62
       7
100
AcDbLine
 10
34.07194225
 20
53.74461632
 30
0.0
 11
34.03480779
 21
53.74604177
 31
0.0
  0
LINE
  5
7F
100
AcDbEntity
  8
レイヤー_1
  6
CONTINUOUS
 62
       7
100
AcDbLine
 10
34.03480779
 20
53.74604177
 30
0.0
 11
33.87832347
 21
53.74604177
 31
0.0
  0
LINE
  5
80
100
AcDbEntity
  8
レイヤー_1
  6
CONTINUOUS
 62
       7
100
AcDbLine
 10
33.87832347
 20
53.74604177
 30
0.0
 11
33.61495476
 21
53.74604177
 31
0.0
  0
LINE
  5
81
100
AcDbEntity
  8
レイヤー_1
  6
CONTINUOUS
 62
       7
100
AcDbLine
 10
33.61495476
 20
53.74604177
 30
0.0
 11
33.26146786
 21
53.74604177
 31
0.0
  0
LINE
  5
82
100
AcDbEntity
  8
レイヤー_1
  6
CONTINUOUS
 62
       7
100
AcDbLine
 10
33.26146786
 20
53.74604177
 30
0.0
 11
32.83462893
 21
53.74604177
 31
0.0
  0
LINE
  5
83
100
AcDbEntity
  8
レイヤー_1
  6
CONTINUOUS
 62
       7
100
AcDbLine
 10
32.83462893
 20
53.74604177
 30
0.0
 11
32.35120415
 21
53.74604177
 31
0.0
  0
LINE
  5
84
100
AcDbEntity
  8
レイヤー_1
  6
CONTINUOUS
 62
       7
100
AcDbLine
 10
32.35120415
 20
53.74604177
 30
0.0
 11
31.8279597
 21
53.74604177
 31
0.0
  0
LINE
  5
85
100
AcDbEntity
  8
レイヤー_1
  6
CONTINUOUS
 62
       7
100
AcDbLine
 10
31.8279597
 20
53.74604177
 30
0.0
 11
31.28166175
 21
53.74604177
 31
0.0
  0
LINE
  5
86
100
AcDbEntity
  8
レイヤー_1
  6
CONTINUOUS
 62
       7
100
AcDbLine
 10
31.28166175
 20
53.74604177
 30
0.0
 11
30.72907648
 21
53.74604177
 31
0.0
  0
LINE
  5
87
100
AcDbEntity
  8
レイヤー_1
  6
CONTINUOUS
 62
       7
100
AcDbLine
 10
30.72907648
 20
53.74604177
 30
0.0
 11
30.18697009
 21
53.74604177
 31
0.0
  0
LINE
  5
88
100
AcDbEntity
  8
レイヤー_1
  6
CONTINUOUS
 62
       7
100
AcDbLine
 10
30.18697009
 20
53.74604177
 30
0.0
 11
29.67210871
 21
53.74604177
 31
0.0
  0
LINE
  5
89
100
AcDbEntity
  8
レイヤー_1
  6
CONTINUOUS
 62
       7
100
AcDbLine
 10
29.67210871
 20
53.74604177
 30
0.0
 11
29.20125858
 21
53.74604177
 31
0.0
  0
LINE
  5
8A
100
AcDbEntity
  8
レイヤー_1
  6
CONTINUOUS
 62
       7
100
AcDbLine
 10
29.20125858
 20
53.74604177
 30
0.0
 11
28.79118582
 21
53.74604177
 31
0.0
  0
LINE
  5
8B
100
AcDbEntity
  8
レイヤー_1
  6
CONTINUOUS
 62
       7
100
AcDbLine
 10
28.79118582
 20
53.74604177
 30
0.0
 11
28.45865664
 21
53.74604177
 31
0.0
  0
LINE
  5
8C
100
AcDbEntity
  8
レイヤー_1
  6
CONTINUOUS
 62
       7
100
AcDbLine
 10
28.45865664
 20
53.74604177
 30
0.0
 11
28.2204372
 21
53.74604177
 31
0.0
  0
LINE
  5
8D
100
AcDbEntity
  8
レイヤー_1
  6
CONTINUOUS
 62
       7
100
AcDbLine
 10
28.2204372
 20
53.74604177
 30
0.0
 11
28.09329369
 21
53.74604177
 31
0.0
  0
LINE
  5
8E
100
AcDbEntity
  8
レイヤー_1
  6
CONTINUOUS
 62
       7
100
AcDbLine
 10
28.09329369
 20
53.74604177
 30
0.0
 11
28.07661484
 21
53.74322043
 31
0.0
  0
LINE
  5
8F
100
AcDbEntity
  8
レイヤー_1
  6
CONTINUOUS
 62
       7
100
AcDbLine
 10
28.07661484
 20
53.74322043
 30
0.0
 11
28.07661484
 21
53.72171325
 31
0.0
  0
LINE
  5
90
100
AcDbEntity
  8
レイヤー_1
  6
CONTINUOUS
 62
       7
100
AcDbLine
 10
28.07661484
 20
53.72171325
 30
0.0
 11
28.07661484
 21
53.68141683
 31
0.0
  0
LINE
  5
91
100
AcDbEntity
  8
レイヤー_1
  6
CONTINUOUS
 62
       7
100
AcDbLine
 10
28.07661484
 20
53.68141683
 30
0.0
 11
28.07661484
 21
53.62516727
 31
0.0
  0
LINE
  5
92
100
AcDbEntity
  8
レイヤー_1
  6
CONTINUOUS
 62
       7
100
AcDbLine
 10
28.07661484
 20
53.62516727
 30
0.0
 11
28.07661484
 21
53.55580072
 31
0.0
  0
LINE
  5
93
100
AcDbEntity
  8
レイヤー_1
  6
CONTINUOUS
 62
       7
100
AcDbLine
 10
28.07661484
 20
53.55580072
 30
0.0
 11
28.07661484
 21
53.47615323
 31
0.0
  0
LINE
  5
94
100
AcDbEntity
  8
レイヤー_1
  6
CONTINUOUS
 62
       7
100
AcDbLine
 10
28.07661484
 20
53.47615323
 30
0.0
 11
28.07661484
 21
53.38906096
 31
0.0
  0
LINE
  5
95
100
AcDbEntity
  8
レイヤー_1
  6
CONTINUOUS
 62
       7
100
AcDbLine
 10
28.07661484
 20
53.38906096
 30
0.0
 11
28.07661484
 21
53.29736003
 31
0.0
  0
LINE
  5
96
100
AcDbEntity
  8
レイヤー_1
  6
CONTINUOUS
 62
       7
100
AcDbLine
 10
28.07661484
 20
53.29736003
 30
0.0
 11
28.07661484
 21
53.20388651
 31
0.0
  0
LINE
  5
97
100
AcDbEntity
  8
レイヤー_1
  6
CONTINUOUS
 62
       7
100
AcDbLine
 10
28.07661484
 20
53.20388651
 30
0.0
 11
28.07661484
 21
53.11147655
 31
0.0
  0
LINE
  5
98
100
AcDbEntity
  8
レイヤー_1
  6
CONTINUOUS
 62
       7
100
AcDbLine
 10
28.07661484
 20
53.11147655
 30
0.0
 11
28.07661484
 21
53.02296621
 31
0.0
  0
LINE
  5
99
100
AcDbEntity
  8
レイヤー_1
  6
CONTINUOUS
 62
       7
100
AcDbLine
 10
28.07661484
 20
53.02296621
 30
0.0
 11
28.07661484
 21
52.94119167
 31
0.0
  0
LINE
  5
9A
100
AcDbEntity
  8
レイヤー_1
  6
CONTINUOUS
 62
       7
100
AcDbLine
 10
28.07661484
 20
52.94119167
 30
0.0
 11
28.07661484
 21
52.86898899
 31
0.0
  0
LINE
  5
9B
100
AcDbEntity
  8
レイヤー_1
  6
CONTINUOUS
 62
       7
100
AcDbLine
 10
28.07661484
 20
52.86898899
 30
0.0
 11
28.07661484
 21
52.80919429
 31
0.0
  0
LINE
  5
9C
100
AcDbEntity
  8
レイヤー_1
  6
CONTINUOUS
 62
       7
100
AcDbLine
 10
28.07661484
 20
52.80919429
 30
0.0
 11
28.07661484
 21
52.7646437
 31
0.0
  0
LINE
  5
9D
100
AcDbEntity
  8
レイヤー_1
  6
CONTINUOUS
 62
       7
100
AcDbLine
 10
28.07661484
 20
52.7646437
 30
0.0
 11
28.07661484
 21
52.73817334
 31
0.0
  0
LINE
  5
9E
100
AcDbEntity
  8
レイヤー_1
  6
CONTINUOUS
 62
       7
100
AcDbLine
 10
28.07661484
 20
52.73817334
 30
0.0
 11
28.1076525
 21
52.73117906
 31
0.0
  0
LINE
  5
9F
100
AcDbEntity
  8
レイヤー_1
  6
CONTINUOUS
 62
       7
100
AcDbLine
 10
28.1076525
 20
52.73117906
 30
0.0
 11
28.22210387
 21
52.71481232
 31
0.0
  0
LINE
  5
A0
100
AcDbEntity
  8
レイヤー_1
  6
CONTINUOUS
 62
       7
100
AcDbLine
 10
28.22210387
 20
52.71481232
 30
0.0
 11
28.32103641
 21
52.67894734
 31
0.0
  0
LINE
  5
A1
100
AcDbEntity
  8
レイヤー_1
  6
CONTINUOUS
 62
       7
100
AcDbLine
 10
28.32103641
 20
52.67894734
 30
0.0
 11
28.40445012
 21
52.62642019
 31
0.0
  0
LINE
  5
A2
100
AcDbEntity
  8
レイヤー_1
  6
CONTINUOUS
 62
       7
100
AcDbLine
 10
28.40445012
 20
52.62642019
 30
0.0
 11
28.47234499
 21
52.560067
 31
0.0
  0
LINE
  5
A3
100
AcDbEntity
  8
レイヤー_1
  6
CONTINUOUS
 62
       7
100
AcDbLine
 10
28.47234499
 20
52.560067
 30
0.0
 11
28.52472106
 21
52.48272386
 31
0.0
  0
LINE
  5
A4
100
AcDbEntity
  8
レイヤー_1
  6
CONTINUOUS
 62
       7
100
AcDbLine
 10
28.52472106
 20
52.48272386
 30
0.0
 11
28.56157828
 21
52.3972269
 31
0.0
  0
LINE
  5
A5
100
AcDbEntity
  8
レイヤー_1
  6
CONTINUOUS
 62
       7
100
AcDbLine
 10
28.56157828
 20
52.3972269
 30
0.0
 11
28.58291667
 21
52.30641225
 31
0.0
  0
LINE
  5
A6
100
AcDbEntity
  8
レイヤー_1
  6
CONTINUOUS
 62
       7
100
AcDbLine
 10
28.58291667
 20
52.30641225
 30
0.0
 11
28.58873623
 21
52.21311599
 31
0.0
  0
LINE
  5
A7
100
AcDbEntity
  8
レイヤー_1
  6
CONTINUOUS
 62
       7
100
AcDbLine
 10
28.58873623
 20
52.21311599
 30
0.0
 11
28.57903696
 21
52.12017425
 31
0.0
  0
LINE
  5
A8
100
AcDbEntity
  8
レイヤー_1
  6
CONTINUOUS
 62
       7
100
AcDbLine
 10
28.57903696
 20
52.12017425
 30
0.0
 11
28.55381886
 21
52.03042312
 31
0.0
  0
LINE
  5
A9
100
AcDbEntity
  8
レイヤー_1
  6
CONTINUOUS
 62
       7
100
AcDbLine
 10
28.55381886
 20
52.03042312
 30
0.0
 11
28.51308193
 21
51.94669874
 31
0.0
  0
LINE
  5
AA
100
AcDbEntity
  8
レイヤー_1
  6
CONTINUOUS
 62
       7
100
AcDbLine
 10
28.51308193
 20
51.94669874
 30
0.0
 11
28.45682617
 21
51.87183721
 31
0.0
  0
LINE
  5
AB
100
AcDbEntity
  8
レイヤー_1
  6
CONTINUOUS
 62
       7
100
AcDbLine
 10
28.45682617
 20
51.87183721
 30
0.0
 11
28.38505158
 21
51.80867464
 31
0.0
  0
LINE
  5
AC
100
AcDbEntity
  8
レイヤー_1
  6
CONTINUOUS
 62
       7
100
AcDbLine
 10
28.38505158
 20
51.80867464
 30
0.0
 11
28.29775817
 21
51.76004713
 31
0.0
  0
LINE
  5
AD
100
AcDbEntity
  8
レイヤー_1
  6
CONTINUOUS
 62
       7
100
AcDbLine
 10
28.29775817
 20
51.76004713
 30
0.0
 11
28.19494592
 21
51.72879081
 31
0.0
  0
LINE
  5
AE
100
AcDbEntity
  8
レイヤー_1
  6
CONTINUOUS
 62
       7
100
AcDbLine
 10
28.19494592
 20
51.72879081
 30
0.0
 11
28.07661484
 21
51.71774181
 31
0.0
  0
LINE
  5
AF
100
AcDbEntity
  8
レイヤー_1
  6
CONTINUOUS
 62
       7
100
AcDbLine
 10
54.068999
 20
49.69977712
 30
0.0
 11
37.08381698
 21
49.68987248
 31
0.0
  0
LINE
  5
B0
100
AcDbEntity
  8
レイヤー_1
  6
CONTINUOUS
 62
       7
100
AcDbLine
 10
37.08381698
 20
49.68987248
 30
0.0
 11
35.58520045
 21
47.77181556
 31
0.0
  0
LINE
  5
B1
100
AcDbEntity
  8
レイヤー_1
  6
CONTINUOUS
 62
       7
100
AcDbLine
 10
35.58520045
 20
47.77181556
 30
0.0
 11
34.06419079
 21
47.77181556
 31
0.0
  0
LINE
  5
B2
100
AcDbEntity
  8
レイヤー_1
  6
CONTINUOUS
 62
       7
100
AcDbLine
 10
50.58773001
 20
-26.26500897
 30
0.0
 11
50.58773001
 21
-31.48432863
 31
0.0
  0
LINE
  5
B3
100
AcDbEntity
  8
レイヤー_1
  6
CONTINUOUS
 62
       7
100
AcDbLine
 10
50.58773001
 20
-31.48432863
 30
0.0
 11
54.08708575
 21
-31.48432863
 31
0.0
  0
LINE
  5
B4
100
AcDbEntity
  8
レイヤー_1
  6
CONTINUOUS
 62
       7
100
AcDbLine
 10
54.08708575
 20
-31.48432863
 30
0.0
 11
54.08708575
 21
-26.26500897
 31
0.0
  0
LINE
  5
B5
100
AcDbEntity
  8
レイヤー_1
  6
CONTINUOUS
 62
       7
100
AcDbLine
 10
54.05694115
 20
-29.75661324
 30
0.0
 11
50.59634275
 21
-29.75661324
 31
0.0
  0
LINE
  5
B6
100
AcDbEntity
  8
レイヤー_1
  6
CONTINUOUS
 62
       7
100
AcDbLine
 10
25.05354355
 20
51.73152219
 30
0.0
 11
24.95134402
 21
51.73693816
 31
0.0
  0
LINE
  5
B7
100
AcDbEntity
  8
レイヤー_1
  6
CONTINUOUS
 62
       7
100
AcDbLine
 10
24.95134402
 20
51.73693816
 30
0.0
 11
24.85210807
 21
51.75280675
 31
0.0
  0
LINE
  5
B8
100
AcDbEntity
  8
レイヤー_1
  6
CONTINUOUS
 62
       7
100
AcDbLine
 10
24.85210807
 20
51.75280675
 30
0.0
 11
24.75633656
 21
51.77855897
 31
0.0
  0
LINE
  5
B9
100
AcDbEntity
  8
レイヤー_1
  6
CONTINUOUS
 62
       7
100
AcDbLine
 10
24.75633656
 20
51.77855897
 30
0.0
 11
24.66453036
 21
51.81362581
 31
0.0
  0
LINE
  5
BA
100
AcDbEntity
  8
レイヤー_1
  6
CONTINUOUS
 62
       7
100
AcDbLine
 10
24.66453036
 20
51.81362581
 30
0.0
 11
24.57719034
 21
51.85743829
 31
0.0
  0
LINE
  5
BB
100
AcDbEntity
  8
レイヤー_1
  6
CONTINUOUS
 62
       7
100
AcDbLine
 10
24.57719034
 20
51.85743829
 30
0.0
 11
24.49481736
 21
51.90942739
 31
0.0
  0
LINE
  5
BC
100
AcDbEntity
  8
レイヤー_1
  6
CONTINUOUS
 62
       7
100
AcDbLine
 10
24.49481736
 20
51.90942739
 30
0.0
 11
24.41791228
 21
51.96902413
 31
0.0
  0
LINE
  5
BD
100
AcDbEntity
  8
レイヤー_1
  6
CONTINUOUS
 62
       7
100
AcDbLine
 10
24.41791228
 20
51.96902413
 30
0.0
 11
24.346976
 21
52.03565953
 31
0.0
  0
LINE
  5
BE
100
AcDbEntity
  8
レイヤー_1
  6
CONTINUOUS
 62
       7
100
AcDbLine
 10
24.346976
 20
52.03565953
 30
0.0
 11
24.28250935
 21
52.10876455
 31
0.0
  0
LINE
  5
BF
100
AcDbEntity
  8
レイヤー_1
  6
CONTINUOUS
 62
       7
100
AcDbLine
 10
24.28250935
 20
52.10876455
 30
0.0
 11
24.22501322
 21
52.18777024
 31
0.0
  0
LINE
  5
C0
100
AcDbEntity
  8
レイヤー_1
  6
CONTINUOUS
 62
       7
100
AcDbLine
 10
24.22501322
 20
52.18777024
 30
0.0
 11
24.17498848
 21
52.27210759
 31
0.0
  0
LINE
  5
C1
100
AcDbEntity
  8
レイヤー_1
  6
CONTINUOUS
 62
       7
100
AcDbLine
 10
24.17498848
 20
52.27210759
 30
0.0
 11
24.13293598
 21
52.36120759
 31
0.0
  0
LINE
  5
C2
100
AcDbEntity
  8
レイヤー_1
  6
CONTINUOUS
 62
       7
100
AcDbLine
 10
24.13293598
 20
52.36120759
 30
0.0
 11
24.0993566
 21
52.45450125
 31
0.0
  0
LINE
  5
C3
100
AcDbEntity
  8
レイヤー_1
  6
CONTINUOUS
 62
       7
100
AcDbLine
 10
24.0993566
 20
52.45450125
 30
0.0
 11
24.07475121
 21
52.55141959
 31
0.0
  0
LINE
  5
C4
100
AcDbEntity
  8
レイヤー_1
  6
CONTINUOUS
 62
       7
100
AcDbLine
 10
24.07475121
 20
52.55141959
 30
0.0
 11
24.05962067
 21
52.6513936
 31
0.0
  0
LINE
  5
C5
100
AcDbEntity
  8
レイヤー_1
  6
CONTINUOUS
 62
       7
100
AcDbLine
 10
24.05962067
 20
52.6513936
 30
0.0
 11
24.05446586
 21
52.75385427
 31
0.0
  0
LINE
  5
C6
100
AcDbEntity
  8
レイヤー_1
  6
CONTINUOUS
 62
       7
100
AcDbLine
 10
24.05446586
 20
52.74492129
 30
0.0
 11
24.05446586
 21
52.74287302
 31
0.0
  0
LINE
  5
C7
100
AcDbEntity
  8
レイヤー_1
  6
CONTINUOUS
 62
       7
100
AcDbLine
 10
24.05446586
 20
52.74287302
 30
0.0
 11
24.05446586
 21
52.74082477
 31
0.0
  0
LINE
  5
C8
100
AcDbEntity
  8
レイヤー_1
  6
CONTINUOUS
 62
       7
100
AcDbLine
 10
24.05446586
 20
52.73189179
 30
0.0
 11
24.05962067
 21
52.83433797
 31
0.0
  0
LINE
  5
C9
100
AcDbEntity
  8
レイヤー_1
  6
CONTINUOUS
 62
       7
100
AcDbLine
 10
24.05962067
 20
52.83433797
 30
0.0
 11
24.07475121
 21
52.93427096
 31
0.0
  0
LINE
  5
CA
100
AcDbEntity
  8
レイヤー_1
  6
CONTINUOUS
 62
       7
100
AcDbLine
 10
24.07475121
 20
52.93427096
 30
0.0
 11
24.0993566
 21
53.03112558
 31
0.0
  0
LINE
  5
CB
100
AcDbEntity
  8
レイヤー_1
  6
CONTINUOUS
 62
       7
100
AcDbLine
 10
24.0993566
 20
53.03112558
 30
0.0
 11
24.13293598
 21
53.12433662
 31
0.0
  0
LINE
  5
CC
100
AcDbEntity
  8
レイヤー_1
  6
CONTINUOUS
 62
       7
100
AcDbLine
 10
24.13293598
 20
53.12433662
 30
0.0
 11
24.17498848
 21
53.21333884
 31
0.0
  0
LINE
  5
CD
100
AcDbEntity
  8
レイヤー_1
  6
CONTINUOUS
 62
       7
100
AcDbLine
 10
24.17498848
 20
53.21333884
 30
0.0
 11
24.22501322
 21
53.29756704
 31
0.0
  0
LINE
  5
CE
100
AcDbEntity
  8
レイヤー_1
  6
CONTINUOUS
 62
       7
100
AcDbLine
 10
24.22501322
 20
53.29756704
 30
0.0
 11
24.28250935
 21
53.37645604
 31
0.0
  0
LINE
  5
CF
100
AcDbEntity
  8
レイヤー_1
  6
CONTINUOUS
 62
       7
100
AcDbLine
 10
24.28250935
 20
53.37645604
 30
0.0
 11
24.346976
 21
53.44944059
 31
0.0
  0
LINE
  5
D0
100
AcDbEntity
  8
レイヤー_1
  6
CONTINUOUS
 62
       7
100
AcDbLine
 10
24.346976
 20
53.44944059
 30
0.0
 11
24.41791228
 21
53.51595547
 31
0.0
  0
LINE
  5
D1
100
AcDbEntity
  8
レイヤー_1
  6
CONTINUOUS
 62
       7
100
AcDbLine
 10
24.41791228
 20
53.51595547
 30
0.0
 11
24.49481736
 21
53.57543553
 31
0.0
  0
LINE
  5
D2
100
AcDbEntity
  8
レイヤー_1
  6
CONTINUOUS
 62
       7
100
AcDbLine
 10
24.49481736
 20
53.57543553
 30
0.0
 11
24.57719034
 21
53.6273155
 31
0.0
  0
LINE
  5
D3
100
AcDbEntity
  8
レイヤー_1
  6
CONTINUOUS
 62
       7
100
AcDbLine
 10
24.57719034
 20
53.6273155
 30
0.0
 11
24.66453036
 21
53.6710302
 31
0.0
  0
LINE
  5
D4
100
AcDbEntity
  8
レイヤー_1
  6
CONTINUOUS
 62
       7
100
AcDbLine
 10
24.66453036
 20
53.6710302
 30
0.0
 11
24.75633656
 21
53.70601441
 31
0.0
  0
LINE
  5
D5
100
AcDbEntity
  8
レイヤー_1
  6
CONTINUOUS
 62
       7
100
AcDbLine
 10
24.75633656
 20
53.70601441
 30
0.0
 11
24.85210807
 21
53.73170291
 31
0.0
  0
LINE
  5
D6
100
AcDbEntity
  8
レイヤー_1
  6
CONTINUOUS
 62
       7
100
AcDbLine
 10
24.85210807
 20
53.73170291
 30
0.0
 11
24.95134402
 21
53.74753048
 31
0.0
  0
LINE
  5
D7
100
AcDbEntity
  8
レイヤー_1
  6
CONTINUOUS
 62
       7
100
AcDbLine
 10
24.95134402
 20
53.74753048
 30
0.0
 11
25.05354355
 21
53.75293197
 31
0.0
  0
LINE
  5
D8
100
AcDbEntity
  8
レイヤー_1
  6
CONTINUOUS
 62
       7
100
AcDbLine
 10
25.05354355
 20
53.75293197
 30
0.0
 11
25.1882816
 21
53.75293197
 31
0.0
  0
LINE
  5
D9
100
AcDbEntity
  8
レイヤー_1
  6
CONTINUOUS
 62
       7
100
AcDbLine
 10
25.1882816
 20
53.75293197
 30
0.0
 11
25.56906306
 21
53.75293197
 31
0.0
  0
LINE
  5
DA
100
AcDbEntity
  8
レイヤー_1
  6
CONTINUOUS
 62
       7
100
AcDbLine
 10
25.56906306
 20
53.75293197
 30
0.0
 11
26.16073887
 21
53.75293197
 31
0.0
  0
LINE
  5
DB
100
AcDbEntity
  8
レイヤー_1
  6
CONTINUOUS
 62
       7
100
AcDbLine
 10
26.16073887
 20
53.75293197
 30
0.0
 11
26.92815996
 21
53.75293197
 31
0.0
  0
LINE
  5
DC
100
AcDbEntity
  8
レイヤー_1
  6
CONTINUOUS
 62
       7
100
AcDbLine
 10
26.92815996
 20
53.75293197
 30
0.0
 11
27.83617728
 21
53.75293197
 31
0.0
  0
LINE
  5
DD
100
AcDbEntity
  8
レイヤー_1
  6
CONTINUOUS
 62
       7
100
AcDbLine
 10
27.83617728
 20
53.75293197
 30
0.0
 11
28.84964178
 21
53.75293197
 31
0.0
  0
LINE
  5
DE
100
AcDbEntity
  8
レイヤー_1
  6
CONTINUOUS
 62
       7
100
AcDbLine
 10
28.84964178
 20
53.75293197
 30
0.0
 11
29.93340439
 21
53.75293197
 31
0.0
  0
LINE
  5
DF
100
AcDbEntity
  8
レイヤー_1
  6
CONTINUOUS
 62
       7
100
AcDbLine
 10
29.93340439
 20
53.75293197
 30
0.0
 11
31.05231606
 21
53.75293197
 31
0.0
  0
LINE
  5
E0
100
AcDbEntity
  8
レイヤー_1
  6
CONTINUOUS
 62
       7
100
AcDbLine
 10
31.05231606
 20
53.75293197
 30
0.0
 11
32.17122773
 21
53.75293197
 31
0.0
  0
LINE
  5
E1
100
AcDbEntity
  8
レイヤー_1
  6
CONTINUOUS
 62
       7
100
AcDbLine
 10
32.17122773
 20
53.75293197
 30
0.0
 11
33.25499034
 21
53.75293197
 31
0.0
  0
LINE
  5
E2
100
AcDbEntity
  8
レイヤー_1
  6
CONTINUOUS
 62
       7
100
AcDbLine
 10
33.25499034
 20
53.75293197
 30
0.0
 11
34.26845483
 21
53.75293197
 31
0.0
  0
LINE
  5
E3
100
AcDbEntity
  8
レイヤー_1
  6
CONTINUOUS
 62
       7
100
AcDbLine
 10
34.26845483
 20
53.75293197
 30
0.0
 11
35.17647216
 21
53.75293197
 31
0.0
  0
LINE
  5
E4
100
AcDbEntity
  8
レイヤー_1
  6
CONTINUOUS
 62
       7
100
AcDbLine
 10
35.17647216
 20
53.75293197
 30
0.0
 11
35.94389326
 21
53.75293197
 31
0.0
  0
LINE
  5
E5
100
AcDbEntity
  8
レイヤー_1
  6
CONTINUOUS
 62
       7
100
AcDbLine
 10
35.94389326
 20
53.75293197
 30
0.0
 11
36.53556906
 21
53.75293197
 31
0.0
  0
LINE
  5
E6
100
AcDbEntity
  8
レイヤー_1
  6
CONTINUOUS
 62
       7
100
AcDbLine
 10
36.53556906
 20
53.75293197
 30
0.0
 11
36.91635052
 21
53.75293197
 31
0.0
  0
LINE
  5
E7
100
AcDbEntity
  8
レイヤー_1
  6
CONTINUOUS
 62
       7
100
AcDbLine
 10
36.91635052
 20
53.75293197
 30
0.0
 11
37.05108858
 21
53.75293197
 31
0.0
  0
LINE
  5
E8
100
AcDbEntity
  8
レイヤー_1
  6
CONTINUOUS
 62
       7
100
AcDbLine
 10
37.05108858
 20
53.75293197
 30
0.0
 11
37.06707723
 21
53.73001294
 31
0.0
  0
LINE
  5
E9
100
AcDbEntity
  8
レイヤー_1
  6
CONTINUOUS
 62
       7
100
AcDbLine
 10
37.06707723
 20
53.73001294
 30
0.0
 11
37.11226257
 21
53.66524184
 31
0.0
  0
LINE
  5
EA
100
AcDbEntity
  8
レイヤー_1
  6
CONTINUOUS
 62
       7
100
AcDbLine
 10
37.11226257
 20
53.66524184
 30
0.0
 11
37.18247362
 21
53.56459748
 31
0.0
  0
LINE
  5
EB
100
AcDbEntity
  8
レイヤー_1
  6
CONTINUOUS
 62
       7
100
AcDbLine
 10
37.18247362
 20
53.56459748
 30
0.0
 11
37.27353947
 21
53.43405877
 31
0.0
  0
LINE
  5
EC
100
AcDbEntity
  8
レイヤー_1
  6
CONTINUOUS
 62
       7
100
AcDbLine
 10
37.27353947
 20
53.43405877
 30
0.0
 11
37.38128911
 21
53.27960457
 31
0.0
  0
LINE
  5
ED
100
AcDbEntity
  8
レイヤー_1
  6
CONTINUOUS
 62
       7
100
AcDbLine
 10
37.38128911
 20
53.27960457
 30
0.0
 11
37.50155163
 21
53.10721374
 31
0.0
  0
LINE
  5
EE
100
AcDbEntity
  8
レイヤー_1
  6
CONTINUOUS
 62
       7
100
AcDbLine
 10
37.50155163
 20
53.10721374
 30
0.0
 11
37.63015605
 21
52.92286517
 31
0.0
  0
LINE
  5
EF
100
AcDbEntity
  8
レイヤー_1
  6
CONTINUOUS
 62
       7
100
AcDbLine
 10
37.63015605
 20
52.92286517
 30
0.0
 11
37.76293143
 21
52.73253775
 31
0.0
  0
LINE
  5
F0
100
AcDbEntity
  8
レイヤー_1
  6
CONTINUOUS
 62
       7
100
AcDbLine
 10
37.76293143
 20
52.73253775
 30
0.0
 11
37.89570681
 21
52.5422103
 31
0.0
  0
LINE
  5
F1
100
AcDbEntity
  8
レイヤー_1
  6
CONTINUOUS
 62
       7
100
AcDbLine
 10
37.89570681
 20
52.5422103
 30
0.0
 11
38.02431123
 21
52.35786174
 31
0.0
  0
LINE
  5
F2
100
AcDbEntity
  8
レイヤー_1
  6
CONTINUOUS
 62
       7
100
AcDbLine
 10
38.02431123
 20
52.35786174
 30
0.0
 11
38.14457374
 21
52.18547093
 31
0.0
  0
LINE
  5
F3
100
AcDbEntity
  8
レイヤー_1
  6
CONTINUOUS
 62
       7
100
AcDbLine
 10
38.14457374
 20
52.18547093
 30
0.0
 11
38.25232339
 21
52.03101671
 31
0.0
  0
LINE
  5
F4
100
AcDbEntity
  8
レイヤー_1
  6
CONTINUOUS
 62
       7
100
AcDbLine
 10
38.25232339
 20
52.03101671
 30
0.0
 11
38.34338923
 21
51.900478
 31
0.0
  0
LINE
  5
F5
100
AcDbEntity
  8
レイヤー_1
  6
CONTINUOUS
 62
       7
100
AcDbLine
 10
38.34338923
 20
51.900478
 30
0.0
 11
38.41360029
 21
51.79983366
 31
0.0
  0
LINE
  5
F6
100
AcDbEntity
  8
レイヤー_1
  6
CONTINUOUS
 62
       7
100
AcDbLine
 10
38.41360029
 20
51.79983366
 30
0.0
 11
38.45878563
 21
51.73506253
 31
0.0
  0
LINE
  5
F7
100
AcDbEntity
  8
レイヤー_1
  6
CONTINUOUS
 62
       7
100
AcDbLine
 10
38.45878563
 20
51.73506253
 30
0.0
 11
38.47477427
 21
51.71214353
 31
0.0
  0
LINE
  5
F8
100
AcDbEntity
  8
レイヤー_1
  6
CONTINUOUS
 62
       7
100
AcDbLine
 10
34.06419079
 20
-28.89676945
 30
0.0
 11
34.06419079
 21
-29.08012088
 31
0.0
  0
LINE
  5
F9
100
AcDbEntity
  8
レイヤー_1
  6
CONTINUOUS
 62
       7
100
AcDbLine
 10
34.06419079
 20
-29.08012088
 30
0.0
 11
34.06419079
 21
-29.26999041
 31
0.0
  0
LINE
  5
FA
100
AcDbEntity
  8
レイヤー_1
  6
CONTINUOUS
 62
       7
100
AcDbLine
 10
34.06419079
 20
-29.26999041
 30
0.0
 11
34.06419079
 21
-29.46058418
 31
0.0
  0
LINE
  5
FB
100
AcDbEntity
  8
レイヤー_1
  6
CONTINUOUS
 62
       7
100
AcDbLine
 10
34.06419079
 20
-29.46058418
 30
0.0
 11
34.06419079
 21
-29.64610832
 31
0.0
  0
LINE
  5
FC
100
AcDbEntity
  8
レイヤー_1
  6
CONTINUOUS
 62
       7
100
AcDbLine
 10
34.06419079
 20
-29.64610832
 30
0.0
 11
34.06419079
 21
-29.82076896
 31
0.0
  0
LINE
  5
FD
100
AcDbEntity
  8
レイヤー_1
  6
CONTINUOUS
 62
       7
100
AcDbLine
 10
34.06419079
 20
-29.82076896
 30
0.0
 11
34.06419079
 21
-29.97877227
 31
0.0
  0
LINE
  5
FE
100
AcDbEntity
  8
レイヤー_1
  6
CONTINUOUS
 62
       7
100
AcDbLine
 10
34.06419079
 20
-29.97877227
 30
0.0
 11
34.06419079
 21
-30.11432439
 31
0.0
  0
LINE
  5
FF
100
AcDbEntity
  8
レイヤー_1
  6
CONTINUOUS
 62
       7
100
AcDbLine
 10
34.06419079
 20
-30.11432439
 30
0.0
 11
34.06419079
 21
-30.22163146
 31
0.0
  0
LINE
  5
100
100
AcDbEntity
  8
レイヤー_1
  6
CONTINUOUS
 62
       7
100
AcDbLine
 10
34.06419079
 20
-30.22163146
 30
0.0
 11
34.06419079
 21
-30.2948996
 31
0.0
  0
LINE
  5
101
100
AcDbEntity
  8
レイヤー_1
  6
CONTINUOUS
 62
       7
100
AcDbLine
 10
34.06419079
 20
-30.2948996
 30
0.0
 11
34.06419079
 21
-30.32833498
 31
0.0
  0
LINE
  5
102
100
AcDbEntity
  8
レイヤー_1
  6
CONTINUOUS
 62
       7
100
AcDbLine
 10
34.06419079
 20
-30.32833498
 30
0.0
 11
34.02710434
 21
-30.32979099
 31
0.0
  0
LINE
  5
103
100
AcDbEntity
  8
レイヤー_1
  6
CONTINUOUS
 62
       7
100
AcDbLine
 10
34.02710434
 20
-30.32979099
 30
0.0
 11
33.87082233
 21
-30.32979099
 31
0.0
  0
LINE
  5
104
100
AcDbEntity
  8
レイヤー_1
  6
CONTINUOUS
 62
       7
100
AcDbLine
 10
33.87082233
 20
-30.32979099
 30
0.0
 11
33.60779414
 21
-30.32979099
 31
0.0
  0
LINE
  5
105
100
AcDbEntity
  8
レイヤー_1
  6
CONTINUOUS
 62
       7
100
AcDbLine
 10
33.60779414
 20
-30.32979099
 30
0.0
 11
33.25476427
 21
-30.32979099
 31
0.0
  0
LINE
  5
106
100
AcDbEntity
  8
レイヤー_1
  6
CONTINUOUS
 62
       7
100
AcDbLine
 10
33.25476427
 20
-30.32979099
 30
0.0
 11
32.82847721
 21
-30.32979099
 31
0.0
  0
LINE
  5
107
100
AcDbEntity
  8
レイヤー_1
  6
CONTINUOUS
 62
       7
100
AcDbLine
 10
32.82847721
 20
-30.32979099
 30
0.0
 11
32.34567746
 21
-30.32979099
 31
0.0
  0
LINE
  5
108
100
AcDbEntity
  8
レイヤー_1
  6
CONTINUOUS
 62
       7
100
AcDbLine
 10
32.34567746
 20
-30.32979099
 30
0.0
 11
31.82310952
 21
-30.32979099
 31
0.0
  0
LINE
  5
109
100
AcDbEntity
  8
レイヤー_1
  6
CONTINUOUS
 62
       7
100
AcDbLine
 10
31.82310952
 20
-30.32979099
 30
0.0
 11
31.27751789
 21
-30.32979099
 31
0.0
  0
LINE
  5
10A
100
AcDbEntity
  8
レイヤー_1
  6
CONTINUOUS
 62
       7
100
AcDbLine
 10
31.27751789
 20
-30.32979099
 30
0.0
 11
30.72564707
 21
-30.32979099
 31
0.0
  0
LINE
  5
10B
100
AcDbEntity
  8
レイヤー_1
  6
CONTINUOUS
 62
       7
100
AcDbLine
 10
30.72564707
 20
-30.32979099
 30
0.0
 11
30.18424157
 21
-30.32979099
 31
0.0
  0
LINE
  5
10C
100
AcDbEntity
  8
レイヤー_1
  6
CONTINUOUS
 62
       7
100
AcDbLine
 10
30.18424157
 20
-30.32979099
 30
0.0
 11
29.67004588
 21
-30.32979099
 31
0.0
  0
LINE
  5
10D
100
AcDbEntity
  8
レイヤー_1
  6
CONTINUOUS
 62
       7
100
AcDbLine
 10
29.67004588
 20
-30.32979099
 30
0.0
 11
29.1998045
 21
-30.32979099
 31
0.0
  0
LINE
  5
10E
100
AcDbEntity
  8
レイヤー_1
  6
CONTINUOUS
 62
       7
100
AcDbLine
 10
29.1998045
 20
-30.32979099
 30
0.0
 11
28.79026194
 21
-30.32979099
 31
0.0
  0
LINE
  5
10F
100
AcDbEntity
  8
レイヤー_1
  6
CONTINUOUS
 62
       7
100
AcDbLine
 10
28.79026194
 20
-30.32979099
 30
0.0
 11
28.45816269
 21
-30.32979099
 31
0.0
  0
LINE
  5
110
100
AcDbEntity
  8
レイヤー_1
  6
CONTINUOUS
 62
       7
100
AcDbLine
 10
28.45816269
 20
-30.32979099
 30
0.0
 11
28.22025124
 21
-30.32979099
 31
0.0
  0
LINE
  5
111
100
AcDbEntity
  8
レイヤー_1
  6
CONTINUOUS
 62
       7
100
AcDbLine
 10
28.22025124
 20
-30.32979099
 30
0.0
 11
28.09327213
 21
-30.32979099
 31
0.0
  0
LINE
  5
112
100
AcDbEntity
  8
レイヤー_1
  6
CONTINUOUS
 62
       7
100
AcDbLine
 10
28.09327213
 20
-30.32979099
 30
0.0
 11
28.07661484
 21
-30.32696965
 31
0.0
  0
LINE
  5
113
100
AcDbEntity
  8
レイヤー_1
  6
CONTINUOUS
 62
       7
100
AcDbLine
 10
28.07661484
 20
-30.32696965
 30
0.0
 11
28.07661484
 21
-30.30546247
 31
0.0
  0
LINE
  5
114
100
AcDbEntity
  8
レイヤー_1
  6
CONTINUOUS
 62
       7
100
AcDbLine
 10
28.07661484
 20
-30.30546247
 30
0.0
 11
28.07661484
 21
-30.26516605
 31
0.0
  0
LINE
  5
115
100
AcDbEntity
  8
レイヤー_1
  6
CONTINUOUS
 62
       7
100
AcDbLine
 10
28.07661484
 20
-30.26516605
 30
0.0
 11
28.07661484
 21
-30.20891651
 31
0.0
  0
LINE
  5
116
100
AcDbEntity
  8
レイヤー_1
  6
CONTINUOUS
 62
       7
100
AcDbLine
 10
28.07661484
 20
-30.20891651
 30
0.0
 11
28.07661484
 21
-30.13954994
 31
0.0
  0
LINE
  5
117
100
AcDbEntity
  8
レイヤー_1
  6
CONTINUOUS
 62
       7
100
AcDbLine
 10
28.07661484
 20
-30.13954994
 30
0.0
 11
28.07661484
 21
-30.05990247
 31
0.0
  0
LINE
  5
118
100
AcDbEntity
  8
レイヤー_1
  6
CONTINUOUS
 62
       7
100
AcDbLine
 10
28.07661484
 20
-30.05990247
 30
0.0
 11
28.07661484
 21
-29.97281021
 31
0.0
  0
LINE
  5
119
100
AcDbEntity
  8
レイヤー_1
  6
CONTINUOUS
 62
       7
100
AcDbLine
 10
28.07661484
 20
-29.97281021
 30
0.0
 11
28.07661484
 21
-29.88110925
 31
0.0
  0
LINE
  5
11A
100
AcDbEntity
  8
レイヤー_1
  6
CONTINUOUS
 62
       7
100
AcDbLine
 10
28.07661484
 20
-29.88110925
 30
0.0
 11
28.07661484
 21
-29.78763575
 31
0.0
  0
LINE
  5
11B
100
AcDbEntity
  8
レイヤー_1
  6
CONTINUOUS
 62
       7
100
AcDbLine
 10
28.07661484
 20
-29.78763575
 30
0.0
 11
28.07661484
 21
-29.69522577
 31
0.0
  0
LINE
  5
11C
100
AcDbEntity
  8
レイヤー_1
  6
CONTINUOUS
 62
       7
100
AcDbLine
 10
28.07661484
 20
-29.69522577
 30
0.0
 11
28.07661484
 21
-29.60671545
 31
0.0
  0
LINE
  5
11D
100
AcDbEntity
  8
レイヤー_1
  6
CONTINUOUS
 62
       7
100
AcDbLine
 10
28.07661484
 20
-29.60671545
 30
0.0
 11
28.07661484
 21
-29.52494091
 31
0.0
  0
LINE
  5
11E
100
AcDbEntity
  8
レイヤー_1
  6
CONTINUOUS
 62
       7
100
AcDbLine
 10
28.07661484
 20
-29.52494091
 30
0.0
 11
28.07661484
 21
-29.45273821
 31
0.0
  0
LINE
  5
11F
100
AcDbEntity
  8
レイヤー_1
  6
CONTINUOUS
 62
       7
100
AcDbLine
 10
28.07661484
 20
-29.45273821
 30
0.0
 11
28.07661484
 21
-29.39294353
 31
0.0
  0
LINE
  5
120
100
AcDbEntity
  8
レイヤー_1
  6
CONTINUOUS
 62
       7
100
AcDbLine
 10
28.07661484
 20
-29.39294353
 30
0.0
 11
28.07661484
 21
-29.34839294
 31
0.0
  0
LINE
  5
121
100
AcDbEntity
  8
レイヤー_1
  6
CONTINUOUS
 62
       7
100
AcDbLine
 10
28.07661484
 20
-29.34839294
 30
0.0
 11
28.07661484
 21
-29.32192256
 31
0.0
  0
LINE
  5
122
100
AcDbEntity
  8
レイヤー_1
  6
CONTINUOUS
 62
       7
100
AcDbLine
 10
28.07661484
 20
-29.32192256
 30
0.0
 11
28.1076525
 21
-29.31492889
 31
0.0
  0
LINE
  5
123
100
AcDbEntity
  8
レイヤー_1
  6
CONTINUOUS
 62
       7
100
AcDbLine
 10
28.1076525
 20
-29.31492889
 30
0.0
 11
28.22210387
 21
-29.29857607
 31
0.0
  0
LINE
  5
124
100
AcDbEntity
  8
レイヤー_1
  6
CONTINUOUS
 62
       7
100
AcDbLine
 10
28.22210387
 20
-29.29857607
 30
0.0
 11
28.32103641
 21
-29.26274154
 31
0.0
  0
LINE
  5
125
100
AcDbEntity
  8
レイヤー_1
  6
CONTINUOUS
 62
       7
100
AcDbLine
 10
28.32103641
 20
-29.26274154
 30
0.0
 11
28.40445012
 21
-29.21025898
 31
0.0
  0
LINE
  5
126
100
AcDbEntity
  8
レイヤー_1
  6
CONTINUOUS
 62
       7
100
AcDbLine
 10
28.40445012
 20
-29.21025898
 30
0.0
 11
28.47234499
 21
-29.14396215
 31
0.0
  0
LINE
  5
127
100
AcDbEntity
  8
レイヤー_1
  6
CONTINUOUS
 62
       7
100
AcDbLine
 10
28.47234499
 20
-29.14396215
 30
0.0
 11
28.52472106
 21
-29.0666847
 31
0.0
  0
LINE
  5
128
100
AcDbEntity
  8
レイヤー_1
  6
CONTINUOUS
 62
       7
100
AcDbLine
 10
28.52472106
 20
-29.0666847
 30
0.0
 11
28.56157828
 21
-28.98126036
 31
0.0
  0
LINE
  5
129
100
AcDbEntity
  8
レイヤー_1
  6
CONTINUOUS
 62
       7
100
AcDbLine
 10
28.56157828
 20
-28.98126036
 30
0.0
 11
28.58291667
 21
-28.89052281
 31
0.0
  0
LINE
  5
12A
100
AcDbEntity
  8
レイヤー_1
  6
CONTINUOUS
 62
       7
100
AcDbLine
 10
28.58291667
 20
-28.89052281
 30
0.0
 11
28.58873623
 21
-28.79730579
 31
0.0
  0
LINE
  5
12B
100
AcDbEntity
  8
レイヤー_1
  6
CONTINUOUS
 62
       7
100
AcDbLine
 10
28.58873623
 20
-28.79730579
 30
0.0
 11
28.57903696
 21
-28.70444298
 31
0.0
  0
LINE
  5
12C
100
AcDbEntity
  8
レイヤー_1
  6
CONTINUOUS
 62
       7
100
AcDbLine
 10
28.57903696
 20
-28.70444298
 30
0.0
 11
28.55381886
 21
-28.61476808
 31
0.0
  0
LINE
  5
12D
100
AcDbEntity
  8
レイヤー_1
  6
CONTINUOUS
 62
       7
100
AcDbLine
 10
28.55381886
 20
-28.61476808
 30
0.0
 11
28.51308193
 21
-28.5311148
 31
0.0
  0
LINE
  5
12E
100
AcDbEntity
  8
レイヤー_1
  6
CONTINUOUS
 62
       7
100
AcDbLine
 10
28.51308193
 20
-28.5311148
 30
0.0
 11
28.45682617
 21
-28.45631685
 31
0.0
  0
LINE
  5
12F
100
AcDbEntity
  8
レイヤー_1
  6
CONTINUOUS
 62
       7
100
AcDbLine
 10
28.45682617
 20
-28.45631685
 30
0.0
 11
28.38505158
 21
-28.39320792
 31
0.0
  0
LINE
  5
130
100
AcDbEntity
  8
レイヤー_1
  6
CONTINUOUS
 62
       7
100
AcDbLine
 10
28.38505158
 20
-28.39320792
 30
0.0
 11
28.29775817
 21
-28.34462172
 31
0.0
  0
LINE
  5
131
100
AcDbEntity
  8
レイヤー_1
  6
CONTINUOUS
 62
       7
100
AcDbLine
 10
28.29775817
 20
-28.34462172
 30
0.0
 11
28.19494592
 21
-28.31339195
 31
0.0
  0
LINE
  5
132
100
AcDbEntity
  8
レイヤー_1
  6
CONTINUOUS
 62
       7
100
AcDbLine
 10
28.19494592
 20
-28.31339195
 30
0.0
 11
28.07661484
 21
-28.3023523
 31
0.0
  0
LINE
  5
133
100
AcDbEntity
  8
レイヤー_1
  6
CONTINUOUS
 62
       7
100
AcDbLine
 10
54.068999
 20
-26.28438763
 30
0.0
 11
37.08381698
 21
-26.2736217
 31
0.0
  0
LINE
  5
134
100
AcDbEntity
  8
レイヤー_1
  6
CONTINUOUS
 62
       7
100
AcDbLine
 10
37.08381698
 20
-26.2736217
 30
0.0
 11
35.58520045
 21
-24.35556478
 31
0.0
  0
LINE
  5
135
100
AcDbEntity
  8
レイヤー_1
  6
CONTINUOUS
 62
       7
100
AcDbLine
 10
35.58520045
 20
-24.35556478
 30
0.0
 11
34.06419079
 21
-24.35556478
 31
0.0
  0
LINE
  5
136
100
AcDbEntity
  8
レイヤー_1
  6
CONTINUOUS
 62
       7
100
AcDbLine
 10
25.05354355
 20
-28.31613268
 30
0.0
 11
24.95134402
 21
-28.32153899
 31
0.0
  0
LINE
  5
137
100
AcDbEntity
  8
レイヤー_1
  6
CONTINUOUS
 62
       7
100
AcDbLine
 10
24.95134402
 20
-28.32153899
 30
0.0
 11
24.85210807
 21
-28.33738025
 31
0.0
  0
LINE
  5
138
100
AcDbEntity
  8
レイヤー_1
  6
CONTINUOUS
 62
       7
100
AcDbLine
 10
24.85210807
 20
-28.33738025
 30
0.0
 11
24.75633656
 21
-28.36308999
 31
0.0
  0
LINE
  5
139
100
AcDbEntity
  8
レイヤー_1
  6
CONTINUOUS
 62
       7
100
AcDbLine
 10
24.75633656
 20
-28.36308999
 30
0.0
 11
24.66453036
 21
-28.39810173
 31
0.0
  0
LINE
  5
13A
100
AcDbEntity
  8
レイヤー_1
  6
CONTINUOUS
 62
       7
100
AcDbLine
 10
24.66453036
 20
-28.39810173
 30
0.0
 11
24.57719034
 21
-28.44184902
 31
0.0
  0
LINE
  5
13B
100
AcDbEntity
  8
レイヤー_1
  6
CONTINUOUS
 62
       7
100
AcDbLine
 10
24.57719034
 20
-28.44184902
 30
0.0
 11
24.49481736
 21
-28.49376537
 31
0.0
  0
LINE
  5
13C
100
AcDbEntity
  8
レイヤー_1
  6
CONTINUOUS
 62
       7
100
AcDbLine
 10
24.49481736
 20
-28.49376537
 30
0.0
 11
24.41791228
 21
-28.55328433
 31
0.0
  0
LINE
  5
13D
100
AcDbEntity
  8
レイヤー_1
  6
CONTINUOUS
 62
       7
100
AcDbLine
 10
24.41791228
 20
-28.55328433
 30
0.0
 11
24.346976
 21
-28.61983939
 31
0.0
  0
LINE
  5
13E
100
AcDbEntity
  8
レイヤー_1
  6
CONTINUOUS
 62
       7
100
AcDbLine
 10
24.346976
 20
-28.61983939
 30
0.0
 11
24.28250935
 21
-28.6928641
 31
0.0
  0
LINE
  5
13F
100
AcDbEntity
  8
レイヤー_1
  6
CONTINUOUS
 62
       7
100
AcDbLine
 10
24.28250935
 20
-28.6928641
 30
0.0
 11
24.22501322
 21
-28.77179199
 31
0.0
  0
LINE
  5
140
100
AcDbEntity
  8
レイヤー_1
  6
CONTINUOUS
 62
       7
100
AcDbLine
 10
24.22501322
 20
-28.77179199
 30
0.0
 11
24.17498848
 21
-28.85605657
 31
0.0
  0
LINE
  5
141
100
AcDbEntity
  8
レイヤー_1
  6
CONTINUOUS
 62
       7
100
AcDbLine
 10
24.17498848
 20
-28.85605657
 30
0.0
 11
24.13293598
 21
-28.94509138
 31
0.0
  0
LINE
  5
142
100
AcDbEntity
  8
レイヤー_1
  6
CONTINUOUS
 62
       7
100
AcDbLine
 10
24.13293598
 20
-28.94509138
 30
0.0
 11
24.0993566
 21
-29.03832997
 31
0.0
  0
LINE
  5
143
100
AcDbEntity
  8
レイヤー_1
  6
CONTINUOUS
 62
       7
100
AcDbLine
 10
24.0993566
 20
-29.03832997
 30
0.0
 11
24.07475121
 21
-29.13520582
 31
0.0
  0
LINE
  5
144
100
AcDbEntity
  8
レイヤー_1
  6
CONTINUOUS
 62
       7
100
AcDbLine
 10
24.07475121
 20
-29.13520582
 30
0.0
 11
24.05962067
 21
-29.23515249
 31
0.0
  0
LINE
  5
145
100
AcDbEntity
  8
レイヤー_1
  6
CONTINUOUS
 62
       7
100
AcDbLine
 10
24.05962067
 20
-29.23515249
 30
0.0
 11
24.05446586
 21
-29.33760349
 31
0.0
  0
LINE
  5
146
100
AcDbEntity
  8
レイヤー_1
  6
CONTINUOUS
 62
       7
100
AcDbLine
 10
24.05446586
 20
-29.32867051
 30
0.0
 11
24.05446586
 21
-29.32662226
 31
0.0
  0
LINE
  5
147
100
AcDbEntity
  8
レイヤー_1
  6
CONTINUOUS
 62
       7
100
AcDbLine
 10
24.05446586
 20
-29.32662226
 30
0.0
 11
24.05446586
 21
-29.32457399
 31
0.0
  0
LINE
  5
148
100
AcDbEntity
  8
レイヤー_1
  6
CONTINUOUS
 62
       7
100
AcDbLine
 10
24.05446586
 20
-29.31564101
 30
0.0
 11
24.05962067
 21
-29.41809686
 31
0.0
  0
LINE
  5
149
100
AcDbEntity
  8
レイヤー_1
  6
CONTINUOUS
 62
       7
100
AcDbLine
 10
24.05962067
 20
-29.41809686
 30
0.0
 11
24.07475121
 21
-29.51805719
 31
0.0
  0
LINE
  5
14A
100
AcDbEntity
  8
レイヤー_1
  6
CONTINUOUS
 62
       7
100
AcDbLine
 10
24.07475121
 20
-29.51805719
 30
0.0
 11
24.0993566
 21
-29.6149543
 31
0.0
  0
LINE
  5
14B
100
AcDbEntity
  8
レイヤー_1
  6
CONTINUOUS
 62
       7
100
AcDbLine
 10
24.0993566
 20
-29.6149543
 30
0.0
 11
24.13293598
 21
-29.70822041
 31
0.0
  0
LINE
  5
14C
100
AcDbEntity
  8
レイヤー_1
  6
CONTINUOUS
 62
       7
100
AcDbLine
 10
24.13293598
 20
-29.70822041
 30
0.0
 11
24.17498848
 21
-29.79728782
 31
0.0
  0
LINE
  5
14D
100
AcDbEntity
  8
レイヤー_1
  6
CONTINUOUS
 62
       7
100
AcDbLine
 10
24.17498848
 20
-29.79728782
 30
0.0
 11
24.22501322
 21
-29.88158879
 31
0.0
  0
LINE
  5
14E
100
AcDbEntity
  8
レイヤー_1
  6
CONTINUOUS
 62
       7
100
AcDbLine
 10
24.22501322
 20
-29.88158879
 30
0.0
 11
24.28250935
 21
-29.96055558
 31
0.0
  0
LINE
  5
14F
100
AcDbEntity
  8
レイヤー_1
  6
CONTINUOUS
 62
       7
100
AcDbLine
 10
24.28250935
 20
-29.96055558
 30
0.0
 11
24.346976
 21
-30.03362044
 31
0.0
  0
LINE
  5
150
100
AcDbEntity
  8
レイヤー_1
  6
CONTINUOUS
 62
       7
100
AcDbLine
 10
24.346976
 20
-30.03362044
 30
0.0
 11
24.41791228
 21
-30.10021568
 31
0.0
  0
LINE
  5
151
100
AcDbEntity
  8
レイヤー_1
  6
CONTINUOUS
 62
       7
100
AcDbLine
 10
24.41791228
 20
-30.10021568
 30
0.0
 11
24.49481736
 21
-30.15977351
 31
0.0
  0
LINE
  5
152
100
AcDbEntity
  8
レイヤー_1
  6
CONTINUOUS
 62
       7
100
AcDbLine
 10
24.49481736
 20
-30.15977351
 30
0.0
 11
24.57719034
 21
-30.21172624
 31
0.0
  0
LINE
  5
153
100
AcDbEntity
  8
レイヤー_1
  6
CONTINUOUS
 62
       7
100
AcDbLine
 10
24.57719034
 20
-30.21172624
 30
0.0
 11
24.66453036
 21
-30.25550612
 31
0.0
  0
LINE
  5
154
100
AcDbEntity
  8
レイヤー_1
  6
CONTINUOUS
 62
       7
100
AcDbLine
 10
24.66453036
 20
-30.25550612
 30
0.0
 11
24.75633656
 21
-30.29054543
 31
0.0
  0
LINE
  5
155
100
AcDbEntity
  8
レイヤー_1
  6
CONTINUOUS
 62
       7
100
AcDbLine
 10
24.75633656
 20
-30.29054543
 30
0.0
 11
24.85210807
 21
-30.3162764
 31
0.0
  0
LINE
  5
156
100
AcDbEntity
  8
レイヤー_1
  6
CONTINUOUS
 62
       7
100
AcDbLine
 10
24.85210807
 20
-30.3162764
 30
0.0
 11
24.95134402
 21
-30.33213133
 31
0.0
  0
LINE
  5
157
100
AcDbEntity
  8
レイヤー_1
  6
CONTINUOUS
 62
       7
100
AcDbLine
 10
24.95134402
 20
-30.33213133
 30
0.0
 11
25.05354355
 21
-30.33754246
 31
0.0
  0
LINE
  5
158
100
AcDbEntity
  8
レイヤー_1
  6
CONTINUOUS
 62
       7
100
AcDbLine
 10
25.05354355
 20
-30.33754246
 30
0.0
 11
25.1882816
 21
-30.33754246
 31
0.0
  0
LINE
  5
159
100
AcDbEntity
  8
レイヤー_1
  6
CONTINUOUS
 62
       7
100
AcDbLine
 10
25.1882816
 20
-30.33754246
 30
0.0
 11
25.56906306
 21
-30.33754246
 31
0.0
  0
LINE
  5
15A
100
AcDbEntity
  8
レイヤー_1
  6
CONTINUOUS
 62
       7
100
AcDbLine
 10
25.56906306
 20
-30.33754246
 30
0.0
 11
26.16073887
 21
-30.33754246
 31
0.0
  0
LINE
  5
15B
100
AcDbEntity
  8
レイヤー_1
  6
CONTINUOUS
 62
       7
100
AcDbLine
 10
26.16073887
 20
-30.33754246
 30
0.0
 11
26.92815996
 21
-30.33754246
 31
0.0
  0
LINE
  5
15C
100
AcDbEntity
  8
レイヤー_1
  6
CONTINUOUS
 62
       7
100
AcDbLine
 10
26.92815996
 20
-30.33754246
 30
0.0
 11
27.83617728
 21
-30.33754246
 31
0.0
  0
LINE
  5
15D
100
AcDbEntity
  8
レイヤー_1
  6
CONTINUOUS
 62
       7
100
AcDbLine
 10
27.83617728
 20
-30.33754246
 30
0.0
 11
28.84964178
 21
-30.33754246
 31
0.0
  0
LINE
  5
15E
100
AcDbEntity
  8
レイヤー_1
  6
CONTINUOUS
 62
       7
100
AcDbLine
 10
28.84964178
 20
-30.33754246
 30
0.0
 11
29.93340439
 21
-30.33754246
 31
0.0
  0
LINE
  5
15F
100
AcDbEntity
  8
レイヤー_1
  6
CONTINUOUS
 62
       7
100
AcDbLine
 10
29.93340439
 20
-30.33754246
 30
0.0
 11
31.05231606
 21
-30.33754246
 31
0.0
  0
LINE
  5
160
100
AcDbEntity
  8
レイヤー_1
  6
CONTINUOUS
 62
       7
100
AcDbLine
 10
31.05231606
 20
-30.33754246
 30
0.0
 11
32.17122773
 21
-30.33754246
 31
0.0
  0
LINE
  5
161
100
AcDbEntity
  8
レイヤー_1
  6
CONTINUOUS
 62
       7
100
AcDbLine
 10
32.17122773
 20
-30.33754246
 30
0.0
 11
33.25499034
 21
-30.33754246
 31
0.0
  0
LINE
  5
162
100
AcDbEntity
  8
レイヤー_1
  6
CONTINUOUS
 62
       7
100
AcDbLine
 10
33.25499034
 20
-30.33754246
 30
0.0
 11
34.26845483
 21
-30.33754246
 31
0.0
  0
LINE
  5
163
100
AcDbEntity
  8
レイヤー_1
  6
CONTINUOUS
 62
       7
100
AcDbLine
 10
34.26845483
 20
-30.33754246
 30
0.0
 11
35.17647216
 21
-30.33754246
 31
0.0
  0
LINE
  5
164
100
AcDbEntity
  8
レイヤー_1
  6
CONTINUOUS
 62
       7
100
AcDbLine
 10
35.17647216
 20
-30.33754246
 30
0.0
 11
35.94389326
 21
-30.33754246
 31
0.0
  0
LINE
  5
165
100
AcDbEntity
  8
レイヤー_1
  6
CONTINUOUS
 62
       7
100
AcDbLine
 10
35.94389326
 20
-30.33754246
 30
0.0
 11
36.53556906
 21
-30.33754246
 31
0.0
  0
LINE
  5
166
100
AcDbEntity
  8
レイヤー_1
  6
CONTINUOUS
 62
       7
100
AcDbLine
 10
36.53556906
 20
-30.33754246
 30
0.0
 11
36.91635052
 21
-30.33754246
 31
0.0
  0
LINE
  5
167
100
AcDbEntity
  8
レイヤー_1
  6
CONTINUOUS
 62
       7
100
AcDbLine
 10
36.91635052
 20
-30.33754246
 30
0.0
 11
37.05108858
 21
-30.33754246
 31
0.0
  0
LINE
  5
168
100
AcDbEntity
  8
レイヤー_1
  6
CONTINUOUS
 62
       7
100
AcDbLine
 10
37.05108858
 20
-30.33754246
 30
0.0
 11
37.07401242
 21
-30.31461377
 31
0.0
  0
LINE
  5
169
100
AcDbEntity
  8
レイヤー_1
  6
CONTINUOUS
 62
       7
100
AcDbLine
 10
37.07401242
 20
-30.31461377
 30
0.0
 11
37.13879721
 21
-30.24981532
 31
0.0
  0
LINE
  5
16A
100
AcDbEntity
  8
レイヤー_1
  6
CONTINUOUS
 62
       7
100
AcDbLine
 10
37.13879721
 20
-30.24981532
 30
0.0
 11
37.2394628
 21
-30.14912851
 31
0.0
  0
LINE
  5
16B
100
AcDbEntity
  8
レイヤー_1
  6
CONTINUOUS
 62
       7
100
AcDbLine
 10
37.2394628
 20
-30.14912851
 30
0.0
 11
37.37002906
 21
-30.01853469
 31
0.0
  0
LINE
  5
16C
100
AcDbEntity
  8
レイヤー_1
  6
CONTINUOUS
 62
       7
100
AcDbLine
 10
37.37002906
 20
-30.01853469
 30
0.0
 11
37.52451585
 21
-29.8640153
 31
0.0
  0
LINE
  5
16D
100
AcDbEntity
  8
レイヤー_1
  6
CONTINUOUS
 62
       7
100
AcDbLine
 10
37.52451585
 20
-29.8640153
 30
0.0
 11
37.69694305
 21
-29.69155174
 31
0.0
  0
LINE
  5
16E
100
AcDbEntity
  8
レイヤー_1
  6
CONTINUOUS
 62
       7
100
AcDbLine
 10
37.69694305
 20
-29.69155174
 30
0.0
 11
37.88133051
 21
-29.50712537
 31
0.0
  0
LINE
  5
16F
100
AcDbEntity
  8
レイヤー_1
  6
CONTINUOUS
 62
       7
100
AcDbLine
 10
37.88133051
 20
-29.50712537
 30
0.0
 11
38.07169811
 21
-29.31671761
 31
0.0
  0
LINE
  5
170
100
AcDbEntity
  8
レイヤー_1
  6
CONTINUOUS
 62
       7
100
AcDbLine
 10
38.07169811
 20
-29.31671761
 30
0.0
 11
38.26206571
 21
-29.12630984
 31
0.0
  0
LINE
  5
171
100
AcDbEntity
  8
レイヤー_1
  6
CONTINUOUS
 62
       7
100
AcDbLine
 10
38.26206571
 20
-29.12630984
 30
0.0
 11
38.44645318
 21
-28.94188349
 31
0.0
  0
LINE
  5
172
100
AcDbEntity
  8
レイヤー_1
  6
CONTINUOUS
 62
       7
100
AcDbLine
 10
38.44645318
 20
-28.94188349
 30
0.0
 11
38.61888037
 21
-28.76941991
 31
0.0
  0
LINE
  5
173
100
AcDbEntity
  8
レイヤー_1
  6
CONTINUOUS
 62
       7
100
AcDbLine
 10
38.61888037
 20
-28.76941991
 30
0.0
 11
38.77336717
 21
-28.61490052
 31
0.0
  0
LINE
  5
174
100
AcDbEntity
  8
レイヤー_1
  6
CONTINUOUS
 62
       7
100
AcDbLine
 10
38.77336717
 20
-28.61490052
 30
0.0
 11
38.90393343
 21
-28.48430672
 31
0.0
  0
LINE
  5
175
100
AcDbEntity
  8
レイヤー_1
  6
CONTINUOUS
 62
       7
100
AcDbLine
 10
38.90393343
 20
-28.48430672
 30
0.0
 11
39.00459902
 21
-28.38361989
 31
0.0
  0
LINE
  5
176
100
AcDbEntity
  8
レイヤー_1
  6
CONTINUOUS
 62
       7
100
AcDbLine
 10
39.00459902
 20
-28.38361989
 30
0.0
 11
39.06938379
 21
-28.31882144
 31
0.0
  0
LINE
  5
177
100
AcDbEntity
  8
レイヤー_1
  6
CONTINUOUS
 62
       7
100
AcDbLine
 10
39.06938379
 20
-28.31882144
 30
0.0
 11
39.09230765
 21
-28.29589275
 31
0.0
  0
LINE
  5
178
100
AcDbEntity
  8
レイヤー_1
  6
CONTINUOUS
 62
       7
100
AcDbLine
 10
51.58766898
 20
-5.72879478
 30
0.0
 11
51.58766898
 21
-3.72934749
 31
0.0
  0
LINE
  5
179
100
AcDbEntity
  8
レイヤー_1
  6
CONTINUOUS
 62
       7
100
AcDbLine
 10
51.58766898
 20
-3.72934749
 30
0.0
 11
52.08204018
 21
-3.72934749
 31
0.0
  0
LINE
  5
17A
100
AcDbEntity
  8
レイヤー_1
  6
CONTINUOUS
 62
       7
100
AcDbLine
 10
52.08204018
 20
-3.72934749
 30
0.0
 11
54.08708575
 21
-5.72879478
 31
0.0
  0
LINE
  5
17B
100
AcDbEntity
  8
レイヤー_1
  6
CONTINUOUS
 62
       7
100
AcDbLine
 10
51.58766898
 20
29.23246483
 30
0.0
 11
51.58766898
 21
27.23301756
 31
0.0
  0
LINE
  5
17C
100
AcDbEntity
  8
レイヤー_1
  6
CONTINUOUS
 62
       7
100
AcDbLine
 10
51.58766898
 20
27.23301756
 30
0.0
 11
52.08204018
 21
27.23301756
 31
0.0
  0
LINE
  5
17D
100
AcDbEntity
  8
レイヤー_1
  6
CONTINUOUS
 62
       7
100
AcDbLine
 10
52.08204018
 20
27.23301756
 30
0.0
 11
54.08708575
 21
29.23246483
 31
0.0
  0
ARC
  5
17E
100
AcDbEntity
  8
レイヤー_1
  6
CONTINUOUS
 62
       7
100
AcDbCircle
 10
-147.77153644
 20
50.22987256
 30
0.0
 40
1.5
100
AcDbArc
 50
90.0
 51
180.0
  0
ARC
  5
17F
100
AcDbEntity
  8
レイヤー_1
  6
CONTINUOUS
 62
       7
100
AcDbCircle
 10
-147.77153644
 20
-26.77012744
 30
0.0
 40
1.5
100
AcDbArc
 50
180.0
 51
270.0
  0
ARC
  5
180
100
AcDbEntity
  8
レイヤー_1
  6
CONTINUOUS
 62
       7
100
AcDbCircle
 10
-100.77153645
 20
-26.77012744
 30
0.0
 40
1.5
100
AcDbArc
 50
270.0
 51
360.0
  0
ARC
  5
181
100
AcDbEntity
  8
レイヤー_1
  6
CONTINUOUS
 62
       7
100
AcDbCircle
 10
-100.77153645
 20
50.22987256
 30
0.0
 40
1.5
100
AcDbArc
 50
0.0
 51
90.0
  0
ARC
  5
182
100
AcDbEntity
  8
レイヤー_1
  6
CONTINUOUS
 62
       7
100
AcDbCircle
 10
-67.93408666
 20
-27.27012744
 30
0.0
 40
1.0
100
AcDbArc
 50
180.0
 51
270.0
  0
ARC
  5
183
100
AcDbEntity
  8
レイヤー_1
  6
CONTINUOUS
 62
       7
100
AcDbCircle
 10
-67.93408666
 20
50.72987256
 30
0.0
 40
1.0
100
AcDbArc
 50
90.0
 51
180.0
  0
LINE
  5
184
100
AcDbEntity
  8
SLD-0
  6
CENTERX2
 62
       7
100
AcDbLine
 10
-124.27153645
 20
56.12965189
 30
0.0
 11
-124.27153645
 21
-34.28258179
 31
0.0
  0
LINE
  5
185
100
AcDbEntity
  8
SLD-0
  6
CENTERX2
 62
       7
100
AcDbLine
 10
-95.91614082
 20
11.72987256
 30
0.0
 11
-151.74762701
 21
11.72987256
 31
0.0
  0
LINE
  5
186
100
AcDbEntity
  8
SLD-0
  6
CENTERX2
 62
       7
100
AcDbLine
 10
-79.99547387
 20
11.72987256
 30
0.0
 11
54.06591333
 21
11.72987256
 31
0.0
  0
LINE
  5
187
100
AcDbEntity
  8
SLD-0
  6
CONTINUOUS
 62
       7
100
AcDbLine
 10
-101.27153645
 20
49.72987256
 30
0.0
 11
-101.27153645
 21
-26.27012744
 31
0.0
  0
LINE
  5
188
100
AcDbEntity
  8
SLD-0
  6
CONTINUOUS
 62
       7
100
AcDbLine
 10
-101.27153645
 20
-26.27012744
 30
0.0
 11
-147.27153644
 21
-26.27012744
 31
0.0
  0
LINE
  5
189
100
AcDbEntity
  8
SLD-0
  6
CONTINUOUS
 62
       7
100
AcDbLine
 10
-147.27153644
 20
49.72987256
 30
0.0
 11
-147.27153644
 21
-26.27012744
 31
0.0
  0
LINE
  5
18A
100
AcDbEntity
  8
SLD-0
  6
CONTINUOUS
 62
       7
100
AcDbLine
 10
-101.27153645
 20
49.72987256
 30
0.0
 11
-147.27153644
 21
49.72987256
 31
0.0
  0
LINE
  5
18B
100
AcDbEntity
  8
SLD-0
  6
PHANTOM2
 62
       7
100
AcDbLine
 10
-144.27153644
 20
12.72987256
 30
0.0
 11
-122.27153645
 21
12.72987256
 31
0.0
  0
LINE
  5
18C
100
AcDbEntity
  8
SLD-0
  6
PHANTOM2
 62
       7
100
AcDbLine
 10
-144.27153644
 20
12.72987256
 30
0.0
 11
-144.27153644
 21
-19.27012744
 31
0.0
  0
LINE
  5
18D
100
AcDbEntity
  8
SLD-0
  6
PHANTOM2
 62
       7
100
AcDbLine
 10
-144.27153644
 20
-19.27012744
 30
0.0
 11
-122.27153645
 21
-19.27012744
 31
0.0
  0
LINE
  5
18E
100
AcDbEntity
  8
SLD-0
  6
PHANTOM2
 62
       7
100
AcDbLine
 10
-122.27153645
 20
12.72987256
 30
0.0
 11
-122.27153645
 21
-19.27012744
 31
0.0
  0
LINE
  5
18F
100
AcDbEntity
  8
SLD-0
  6
PHANTOM2
 62
       7
100
AcDbLine
 10
-75.93408666
 20
-19.27012744
 30
0.0
 11
-68.93408666
 21
-19.27012744
 31
0.0
  0
LINE
  5
190
100
AcDbEntity
  8
SLD-0
  6
PHANTOM2
 62
       7
100
AcDbLine
 10
-75.93408666
 20
12.72987256
 30
0.0
 11
-68.93408666
 21
12.72987256
 31
0.0
  0
LINE
  5
191
100
AcDbEntity
  8
SLD-0
  6
PHANTOM2
 62
       7
100
AcDbLine
 10
-75.93408666
 20
-19.27012744
 30
0.0
 11
-75.93408666
 21
12.72987256
 31
0.0
  0
LINE
  5
192
100
AcDbEntity
  8
0
  6
CONTINUOUS
 62
       7
100
AcDbLine
 10
113.69845801
 20
-28.77012725
 30
0.0
 11
111.69845809
 21
-26.77012692
 31
0.0
  0
LINE
  5
193
100
AcDbEntity
  8
0
  6
CONTINUOUS
 62
       7
100
AcDbLine
 10
127.69845797
 20
-30.77012757
 30
0.0
 11
124.69845841
 21
-32.7701279
 31
0.0
  0
LINE
  5
194
100
AcDbEntity
  8
0
  6
CONTINUOUS
 62
       7
100
AcDbLine
 10
137.89845741
 20
-18.57012781
 30
0.0
 11
145.6984572
 21
-18.57012781
 31
0.0
  0
LINE
  5
195
100
AcDbEntity
  8
0
  6
CONTINUOUS
 62
       7
100
AcDbLine
 10
109.99845801
 20
-18.57012781
 30
0.0
 11
117.79845803
 21
-18.57012781
 31
0.0
  0
LINE
  5
196
100
AcDbEntity
  8
0
  6
CONTINUOUS
 62
       7
100
AcDbLine
 10
98.1984578
 20
34.22987191
 30
0.0
 11
107.49845806
 21
34.22987191
 31
0.0
  0
LINE
  5
197
100
AcDbEntity
  8
0
  6
CONTINUOUS
 62
       7
100
AcDbLine
 10
148.19845854
 20
15.7298726
 30
0.0
 11
138.69845792
 21
15.7298726
 31
0.0
  0
LINE
  5
198
100
AcDbEntity
  8
0
  6
CONTINUOUS
 62
       7
100
AcDbLine
 10
135.39845793
 20
34.22987191
 30
0.0
 11
135.39845793
 21
50.22987267
 31
0.0
  0
LINE
  5
199
100
AcDbEntity
  8
0
  6
CONTINUOUS
 62
       7
100
AcDbLine
 10
143.19845958
 20
29.22987295
 30
0.0
 11
147.19845651
 21
29.22987295
 31
0.0
  0
LINE
  5
19A
100
AcDbEntity
  8
0
  6
CONTINUOUS
 62
       7
100
AcDbLine
 10
147.19845651
 20
-5.7701272
 30
0.0
 11
143.19845958
 21
-5.7701272
 31
0.0
  0
LINE
  5
19B
100
AcDbEntity
  8
0
  6
CONTINUOUS
 62
       7
100
AcDbLine
 10
102.19845845
 20
-5.7701272
 30
0.0
 11
98.1984578
 21
-5.7701272
 31
0.0
  0
LINE
  5
19C
100
AcDbEntity
  8
0
  6
CONTINUOUS
 62
       7
100
AcDbLine
 10
123.69845825
 20
6.62987246
 30
0.0
 11
123.69845825
 21
7.85688927
 31
0.0
  0
LINE
  5
19D
100
AcDbEntity
  8
0
  6
CONTINUOUS
 62
       7
100
AcDbLine
 10
120.94845827
 20
-20.02012814
 30
0.0
 11
124.44845791
 21
-20.02012814
 31
0.0
  0
LINE
  5
19E
100
AcDbEntity
  8
0
  6
CONTINUOUS
 62
       7
100
AcDbLine
 10
120.94845827
 20
-21.32012779
 30
0.0
 11
124.44845791
 21
-21.32012779
 31
0.0
  0
LINE
  5
19F
100
AcDbEntity
  8
0
  6
CONTINUOUS
 62
       7
100
AcDbLine
 10
120.94845827
 20
-28.77012725
 30
0.0
 11
124.44845791
 21
-28.77012725
 31
0.0
  0
LINE
  5
1A0
100
AcDbEntity
  8
0
  6
CONTINUOUS
 62
       7
100
AcDbLine
 10
117.6984582
 20
-28.77012725
 30
0.0
 11
113.69845801
 21
-28.77012725
 31
0.0
  0
LINE
  5
1A1
100
AcDbEntity
  8
0
  6
CONTINUOUS
 62
       7
100
AcDbLine
 10
124.69845841
 20
-32.7701279
 30
0.0
 11
120.69845776
 21
-32.7701279
 31
0.0
  0
LINE
  5
1A2
100
AcDbEntity
  8
0
  6
CONTINUOUS
 62
       7
100
AcDbLine
 10
133.69845896
 20
-26.77012692
 30
0.0
 11
131.69845863
 21
-28.77012725
 31
0.0
  0
LINE
  5
1A3
100
AcDbEntity
  8
0
  6
CONTINUOUS
 62
       7
100
AcDbLine
 10
135.39845793
 20
42.02987169
 30
0.0
 11
127.59845814
 21
42.02987169
 31
0.0
  0
LINE
  5
1A4
100
AcDbEntity
  8
0
  6
CONTINUOUS
 62
       7
100
AcDbLine
 10
99.69845804
 20
-18.57012781
 30
0.0
 11
107.49845806
 21
-18.57012781
 31
0.0
  0
LINE
  5
1A5
100
AcDbEntity
  8
0
  6
CONTINUOUS
 62
       7
100
AcDbLine
 10
137.89845741
 20
34.22987191
 30
0.0
 11
147.19845651
 21
34.22987191
 31
0.0
  0
LINE
  5
1A6
100
AcDbEntity
  8
0
  6
CONTINUOUS
 62
       7
100
AcDbLine
 10
109.99845801
 20
50.22987267
 30
0.0
 11
109.99845801
 21
34.22987191
 31
0.0
  0
LINE
  5
1A7
100
AcDbEntity
  8
0
  6
CONTINUOUS
 62
       7
100
AcDbLine
 10
106.69845826
 20
15.7298726
 30
0.0
 11
97.19845763
 21
15.7298726
 31
0.0
  0
LINE
  5
1A8
100
AcDbEntity
  8
0
  6
CONTINUOUS
 62
       7
100
AcDbLine
 10
107.49845806
 20
-26.77012692
 30
0.0
 11
107.49845806
 21
-10.77012802
 31
0.0
  0
LINE
  5
1A9
100
AcDbEntity
  8
0
  6
CONTINUOUS
 62
       7
100
AcDbLine
 10
120.94845827
 20
-26.77012692
 30
0.0
 11
97.19845763
 21
-26.77012692
 31
0.0
  0
LINE
  5
1AA
100
AcDbEntity
  8
0
  6
CONTINUOUS
 62
       7
100
AcDbLine
 10
135.39845793
 20
-26.77012692
 30
0.0
 11
135.39845793
 21
-10.77012802
 31
0.0
  0
LINE
  5
1AB
100
AcDbEntity
  8
0
  6
CONTINUOUS
 62
       7
100
AcDbLine
 10
138.69845792
 20
15.7298726
 30
0.0
 11
138.69845792
 21
7.72987245
 31
0.0
  0
LINE
  5
1AC
100
AcDbEntity
  8
0
  6
CONTINUOUS
 62
       7
100
AcDbLine
 10
137.89845741
 20
50.22987267
 30
0.0
 11
137.89845741
 21
34.22987191
 31
0.0
  0
LINE
  5
1AD
100
AcDbEntity
  8
0
  6
CONTINUOUS
 62
       7
100
AcDbLine
 10
148.19845854
 20
50.22987267
 30
0.0
 11
124.44845791
 21
50.22987267
 31
0.0
  0
LINE
  5
1AE
100
AcDbEntity
  8
0
  6
CONTINUOUS
 62
       7
100
AcDbLine
 10
147.19845651
 20
-10.77012802
 30
0.0
 11
147.19845651
 21
-5.7701272
 31
0.0
  0
LINE
  5
1AF
100
AcDbEntity
  8
0
  6
CONTINUOUS
 62
       7
100
AcDbLine
 10
98.1984578
 20
-5.7701272
 30
0.0
 11
98.1984578
 21
-10.77012802
 31
0.0
  0
LINE
  5
1B0
100
AcDbEntity
  8
0
  6
CONTINUOUS
 62
       7
100
AcDbLine
 10
98.1984578
 20
29.22987295
 30
0.0
 11
102.19845845
 21
29.22987295
 31
0.0
  0
LINE
  5
1B1
100
AcDbEntity
  8
0
  6
CONTINUOUS
 62
       7
100
AcDbLine
 10
120.94845827
 20
43.47987389
 30
0.0
 11
124.44845791
 21
43.47987389
 31
0.0
  0
LINE
  5
1B2
100
AcDbEntity
  8
0
  6
CONTINUOUS
 62
       7
100
AcDbLine
 10
120.94845827
 20
44.77987354
 30
0.0
 11
124.44845791
 21
44.77987354
 31
0.0
  0
LINE
  5
1B3
100
AcDbEntity
  8
0
  6
CONTINUOUS
 62
       7
100
AcDbLine
 10
120.94845827
 20
-28.77012725
 30
0.0
 11
120.94845827
 21
-20.02012814
 31
0.0
  0
LINE
  5
1B4
100
AcDbEntity
  8
0
  6
CONTINUOUS
 62
       7
100
AcDbLine
 10
109.99845801
 20
34.22987191
 30
0.0
 11
117.79845803
 21
34.22987191
 31
0.0
  0
LINE
  5
1B5
100
AcDbEntity
  8
0
  6
CONTINUOUS
 62
       7
100
AcDbLine
 10
97.19845763
 20
50.22987267
 30
0.0
 11
97.19845763
 21
-26.77012692
 31
0.0
  0
LINE
  5
1B6
100
AcDbEntity
  8
0
  6
CONTINUOUS
 62
       7
100
AcDbLine
 10
99.69845804
 20
-10.77012802
 30
0.0
 11
99.69845804
 21
-26.77012692
 31
0.0
  0
LINE
  5
1B7
100
AcDbEntity
  8
0
  6
CONTINUOUS
 62
       7
100
AcDbLine
 10
117.79845803
 20
-26.77012692
 30
0.0
 11
117.79845803
 21
-10.77012802
 31
0.0
  0
LINE
  5
1B8
100
AcDbEntity
  8
0
  6
CONTINUOUS
 62
       7
100
AcDbLine
 10
135.39845793
 20
-10.77012802
 30
0.0
 11
127.59845814
 21
-10.77012802
 31
0.0
  0
LINE
  5
1B9
100
AcDbEntity
  8
0
  6
CONTINUOUS
 62
       7
100
AcDbLine
 10
138.69845792
 20
7.72987245
 30
0.0
 11
148.19845854
 21
7.72987245
 31
0.0
  0
LINE
  5
1BA
100
AcDbEntity
  8
0
  6
CONTINUOUS
 62
       7
100
AcDbLine
 10
120.69845776
 20
-32.7701279
 30
0.0
 11
117.6984582
 21
-30.77012757
 31
0.0
  0
LINE
  5
1BB
100
AcDbEntity
  8
0
  6
CONTINUOUS
 62
       7
100
AcDbLine
 10
131.69845863
 20
-28.77012725
 30
0.0
 11
127.69845797
 21
-28.77012725
 31
0.0
  0
LINE
  5
1BC
100
AcDbEntity
  8
0
  6
CONTINUOUS
 62
       7
100
AcDbLine
 10
127.59845814
 20
-18.57012781
 30
0.0
 11
135.39845793
 21
-18.57012781
 31
0.0
  0
LINE
  5
1BD
100
AcDbEntity
  8
0
  6
CONTINUOUS
 62
       7
100
AcDbLine
 10
107.49845806
 20
42.02987169
 30
0.0
 11
99.69845804
 21
42.02987169
 31
0.0
  0
LINE
  5
1BE
100
AcDbEntity
  8
0
  6
CONTINUOUS
 62
       7
100
AcDbLine
 10
147.19845651
 20
-10.77012802
 30
0.0
 11
137.89845741
 21
-10.77012802
 31
0.0
  0
LINE
  5
1BF
100
AcDbEntity
  8
0
  6
CONTINUOUS
 62
       7
100
AcDbLine
 10
145.6984572
 20
34.22987191
 30
0.0
 11
145.6984572
 21
50.22987267
 31
0.0
  0
LINE
  5
1C0
100
AcDbEntity
  8
0
  6
CONTINUOUS
 62
       7
100
AcDbLine
 10
127.59845814
 20
50.22987267
 30
0.0
 11
127.59845814
 21
34.22987191
 31
0.0
  0
LINE
  5
1C1
100
AcDbEntity
  8
0
  6
CONTINUOUS
 62
       7
100
AcDbLine
 10
143.19845958
 20
34.22987191
 30
0.0
 11
143.19845958
 21
29.22987295
 31
0.0
  0
LINE
  5
1C2
100
AcDbEntity
  8
0
  6
CONTINUOUS
 62
       7
100
AcDbLine
 10
102.19845845
 20
-10.77012802
 30
0.0
 11
102.19845845
 21
-5.7701272
 31
0.0
  0
LINE
  5
1C3
100
AcDbEntity
  8
0
  6
CONTINUOUS
 62
       7
100
AcDbLine
 10
98.1984578
 20
34.22987191
 30
0.0
 11
98.1984578
 21
29.22987295
 31
0.0
  0
LINE
  5
1C4
100
AcDbEntity
  8
0
  6
CONTINUOUS
 62
       7
100
AcDbLine
 10
121.69845792
 20
7.85688925
 30
0.0
 11
121.69845792
 21
6.62987246
 31
0.0
  0
LINE
  5
1C5
100
AcDbEntity
  8
0
  6
CONTINUOUS
 62
       7
100
AcDbLine
 10
124.44845791
 20
43.47987389
 30
0.0
 11
124.44845791
 21
52.22987299
 31
0.0
  0
LINE
  5
1C6
100
AcDbEntity
  8
0
  6
CONTINUOUS
 62
       7
100
AcDbLine
 10
120.94845827
 20
-26.89512903
 30
0.0
 11
124.44845791
 21
-26.89512903
 31
0.0
  0
LINE
  5
1C7
100
AcDbEntity
  8
0
  6
CONTINUOUS
 62
       7
100
AcDbLine
 10
120.94845827
 20
52.22987299
 30
0.0
 11
124.44845791
 21
52.22987299
 31
0.0
  0
LINE
  5
1C8
100
AcDbEntity
  8
0
  6
CONTINUOUS
 62
       7
100
AcDbLine
 10
117.6984582
 20
-30.77012757
 30
0.0
 11
117.6984582
 21
-28.77012725
 31
0.0
  0
LINE
  5
1C9
100
AcDbEntity
  8
0
  6
CONTINUOUS
 62
       7
100
AcDbLine
 10
127.69845797
 20
-28.77012725
 30
0.0
 11
127.69845797
 21
-30.77012757
 31
0.0
  0
LINE
  5
1CA
100
AcDbEntity
  8
0
  6
CONTINUOUS
 62
       7
100
AcDbLine
 10
145.6984572
 20
42.02987169
 30
0.0
 11
137.89845741
 21
42.02987169
 31
0.0
  0
LINE
  5
1CB
100
AcDbEntity
  8
0
  6
CONTINUOUS
 62
       7
100
AcDbLine
 10
117.79845803
 20
42.02987169
 30
0.0
 11
109.99845801
 21
42.02987169
 31
0.0
  0
LINE
  5
1CC
100
AcDbEntity
  8
0
  6
CONTINUOUS
 62
       7
100
AcDbLine
 10
107.49845806
 20
-10.77012802
 30
0.0
 11
98.1984578
 21
-10.77012802
 31
0.0
  0
LINE
  5
1CD
100
AcDbEntity
  8
0
  6
CONTINUOUS
 62
       7
100
AcDbLine
 10
117.79845803
 20
34.22987191
 30
0.0
 11
117.79845803
 21
50.22987267
 31
0.0
  0
LINE
  5
1CE
100
AcDbEntity
  8
0
  6
CONTINUOUS
 62
       7
100
AcDbLine
 10
99.69845804
 20
50.22987267
 30
0.0
 11
99.69845804
 21
34.22987191
 31
0.0
  0
LINE
  5
1CF
100
AcDbEntity
  8
0
  6
CONTINUOUS
 62
       7
100
AcDbLine
 10
97.19845763
 20
7.72987245
 30
0.0
 11
106.69845826
 21
7.72987245
 31
0.0
  0
LINE
  5
1D0
100
AcDbEntity
  8
0
  6
CONTINUOUS
 62
       7
100
AcDbLine
 10
117.79845803
 20
-10.77012802
 30
0.0
 11
109.99845801
 21
-10.77012802
 31
0.0
  0
LINE
  5
1D1
100
AcDbEntity
  8
0
  6
CONTINUOUS
 62
       7
100
AcDbLine
 10
127.59845814
 20
-10.77012802
 30
0.0
 11
127.59845814
 21
-26.77012692
 31
0.0
  0
LINE
  5
1D2
100
AcDbEntity
  8
0
  6
CONTINUOUS
 62
       7
100
AcDbLine
 10
145.6984572
 20
-26.77012692
 30
0.0
 11
145.6984572
 21
-10.77012802
 31
0.0
  0
LINE
  5
1D3
100
AcDbEntity
  8
0
  6
CONTINUOUS
 62
       7
100
AcDbLine
 10
148.19845854
 20
50.22987267
 30
0.0
 11
148.19845854
 21
-26.77012692
 31
0.0
  0
LINE
  5
1D4
100
AcDbEntity
  8
0
  6
CONTINUOUS
 62
       7
100
AcDbLine
 10
127.59845814
 20
34.22987191
 30
0.0
 11
135.39845793
 21
34.22987191
 31
0.0
  0
LINE
  5
1D5
100
AcDbEntity
  8
0
  6
CONTINUOUS
 62
       7
100
AcDbLine
 10
147.19845651
 20
29.22987295
 30
0.0
 11
147.19845651
 21
34.22987191
 31
0.0
  0
LINE
  5
1D6
100
AcDbEntity
  8
0
  6
CONTINUOUS
 62
       7
100
AcDbLine
 10
143.19845958
 20
-5.7701272
 30
0.0
 11
143.19845958
 21
-10.77012802
 31
0.0
  0
LINE
  5
1D7
100
AcDbEntity
  8
0
  6
CONTINUOUS
 62
       7
100
AcDbLine
 10
102.19845845
 20
29.22987295
 30
0.0
 11
102.19845845
 21
34.22987191
 31
0.0
  0
LINE
  5
1D8
100
AcDbEntity
  8
0
  6
CONTINUOUS
 62
       7
100
AcDbLine
 10
121.69845792
 20
6.62987246
 30
0.0
 11
123.69845825
 21
6.62987246
 31
0.0
  0
LINE
  5
1D9
100
AcDbEntity
  8
0
  6
CONTINUOUS
 62
       7
100
AcDbLine
 10
120.94845827
 20
43.47987389
 30
0.0
 11
120.94845827
 21
52.22987299
 31
0.0
  0
LINE
  5
1DA
100
AcDbEntity
  8
0
  6
CONTINUOUS
 62
       7
100
AcDbLine
 10
124.44845791
 20
-28.77012725
 30
0.0
 11
124.44845791
 21
-20.02012814
 31
0.0
  0
LINE
  5
1DB
100
AcDbEntity
  8
0
  6
CONTINUOUS
 62
       7
100
AcDbLine
 10
120.94845827
 20
50.35487106
 30
0.0
 11
124.44845791
 21
50.35487106
 31
0.0
  0
LINE
  5
1DC
100
AcDbEntity
  8
0
  6
CONTINUOUS
 62
       7
100
AcDbLine
 10
120.94845827
 20
50.22987267
 30
0.0
 11
97.19845763
 21
50.22987267
 31
0.0
  0
LINE
  5
1DD
100
AcDbEntity
  8
0
  6
CONTINUOUS
 62
       7
100
AcDbLine
 10
107.49845806
 20
34.22987191
 30
0.0
 11
107.49845806
 21
50.22987267
 31
0.0
  0
LINE
  5
1DE
100
AcDbEntity
  8
0
  6
CONTINUOUS
 62
       7
100
AcDbLine
 10
106.69845826
 20
7.72987245
 30
0.0
 11
106.69845826
 21
15.7298726
 31
0.0
  0
LINE
  5
1DF
100
AcDbEntity
  8
0
  6
CONTINUOUS
 62
       7
100
AcDbLine
 10
109.99845801
 20
-10.77012802
 30
0.0
 11
109.99845801
 21
-26.77012692
 31
0.0
  0
LINE
  5
1E0
100
AcDbEntity
  8
0
  6
CONTINUOUS
 62
       7
100
AcDbLine
 10
148.19845854
 20
-26.77012692
 30
0.0
 11
124.44845791
 21
-26.77012692
 31
0.0
  0
LINE
  5
1E1
100
AcDbEntity
  8
0
  6
CONTINUOUS
 62
       7
100
AcDbLine
 10
137.89845741
 20
-10.77012802
 30
0.0
 11
137.89845741
 21
-26.77012692
 31
0.0
  0
CIRCLE
  5
1E2
100
AcDbEntity
  8
0
  6
CONTINUOUS
 62
       7
100
AcDbCircle
 10
130.75930699
 20
15.06878549
 30
0.0
 40
1.0
  0
CIRCLE
  5
1E3
100
AcDbEntity
  8
0
  6
CONTINUOUS
 62
       7
100
AcDbCircle
 10
119.35954512
 20
3.66902363
 30
0.0
 40
1.0
  0
CIRCLE
  5
1E4
100
AcDbEntity
  8
0
  6
CONTINUOUS
 62
       7
100
AcDbCircle
 10
141.79845806
 20
-14.67012745
 30
0.0
 40
3.5
  0
CIRCLE
  5
1E5
100
AcDbEntity
  8
0
  6
CONTINUOUS
 62
       7
100
AcDbCircle
 10
113.89845806
 20
38.12987255
 30
0.0
 40
3.5
  0
CIRCLE
  5
1E6
100
AcDbEntity
  8
0
  6
CONTINUOUS
 62
       7
100
AcDbCircle
 10
102.69845806
 20
11.72987255
 30
0.0
 40
2.25
  0
CIRCLE
  5
1E7
100
AcDbEntity
  8
0
  6
CONTINUOUS
 62
       7
100
AcDbCircle
 10
130.75930699
 20
8.3909596
 30
0.0
 40
1.0
  0
CIRCLE
  5
1E8
100
AcDbEntity
  8
0
  6
CONTINUOUS
 62
       7
100
AcDbCircle
 10
119.35954512
 20
19.79072147
 30
0.0
 40
1.0
  0
CIRCLE
  5
1E9
100
AcDbEntity
  8
0
  6
CONTINUOUS
 62
       7
100
AcDbCircle
 10
141.79845806
 20
38.12987255
 30
0.0
 40
3.5
  0
CIRCLE
  5
1EA
100
AcDbEntity
  8
0
  6
CONTINUOUS
 62
       7
100
AcDbCircle
 10
113.89845806
 20
-14.67012745
 30
0.0
 40
3.5
  0
CIRCLE
  5
1EB
100
AcDbEntity
  8
0
  6
CONTINUOUS
 62
       7
100
AcDbCircle
 10
142.69845806
 20
11.72987255
 30
0.0
 40
2.25
  0
CIRCLE
  5
1EC
100
AcDbEntity
  8
0
  6
CONTINUOUS
 62
       7
100
AcDbCircle
 10
126.03737101
 20
19.79072147
 30
0.0
 40
1.0
  0
CIRCLE
  5
1ED
100
AcDbEntity
  8
0
  6
CONTINUOUS
 62
       7
100
AcDbCircle
 10
114.63760914
 20
15.06878549
 30
0.0
 40
1.0
  0
CIRCLE
  5
1EE
100
AcDbEntity
  8
0
  6
CONTINUOUS
 62
       7
100
AcDbCircle
 10
131.49845806
 20
-14.67012745
 30
0.0
 40
3.5
  0
CIRCLE
  5
1EF
100
AcDbEntity
  8
0
  6
CONTINUOUS
 62
       7
100
AcDbCircle
 10
103.59845806
 20
38.12987255
 30
0.0
 40
3.5
  0
CIRCLE
  5
1F0
100
AcDbEntity
  8
0
  6
CONTINUOUS
 62
       7
100
AcDbCircle
 10
122.69845806
 20
11.72987255
 30
0.0
 40
13.0
  0
CIRCLE
  5
1F1
100
AcDbEntity
  8
0
  6
CONTINUOUS
 62
       7
100
AcDbCircle
 10
126.03737101
 20
3.66902363
 30
0.0
 40
1.0
  0
CIRCLE
  5
1F2
100
AcDbEntity
  8
0
  6
CONTINUOUS
 62
       7
100
AcDbCircle
 10
114.63760914
 20
8.3909596
 30
0.0
 40
1.0
  0
CIRCLE
  5
1F3
100
AcDbEntity
  8
0
  6
CONTINUOUS
 62
       7
100
AcDbCircle
 10
131.49845806
 20
38.12987255
 30
0.0
 40
3.5
  0
CIRCLE
  5
1F4
100
AcDbEntity
  8
0
  6
CONTINUOUS
 62
       7
100
AcDbCircle
 10
103.59845806
 20
-14.67012745
 30
0.0
 40
3.5
  0
ARC
  5
1F5
100
AcDbEntity
  8
0
  6
CONTINUOUS
 62
       7
100
AcDbCircle
 10
122.69845806
 20
11.72987255
 30
0.0
 40
3.99999999
100
AcDbArc
 50
284.47751502
 51
615.52248571
  0
CIRCLE
  5
1F6
100
AcDbEntity
  8
0
  6
CONTINUOUS
 62
       7
100
AcDbCircle
 10
122.69845806
 20
11.72987255
 30
0.0
 40
8.725
  0
LINE
  5
1F7
100
AcDbEntity
  8
0
  6
CENTERX2
 62
       7
100
AcDbLine
 10
102.69845806
 20
6.23407582
 30
0.0
 11
102.69845806
 21
17.48176135
 31
0.0
  0
LINE
  5
1F8
100
AcDbEntity
  8
0
  6
CENTERX2
 62
       7
100
AcDbLine
 10
142.69845806
 20
6.16103877
 30
0.0
 11
142.69845806
 21
16.97050268
 31
0.0
  0
LINE
  5
1F9
100
AcDbEntity
  8
0
  6
CENTERX2
 62
       7
100
AcDbLine
 10
91.12304978
 20
11.72987255
 30
0.0
 11
151.74762701
 21
11.72987255
 31
0.0
  0
LINE
  5
1FA
100
AcDbEntity
  8
0
  6
CENTERX2
 62
       7
100
AcDbLine
 10
122.69845806
 20
59.14796981
 30
0.0
 11
122.69845806
 21
-37.96907137
 31
0.0
  0
TEXT
  5
1FB
100
AcDbEntity
  8
SLD-0
 62
       7
100
AcDbText
 10
137.27590737
 20
-61.64796981
 30
0.0
 40
5.0
  1
000
 72
       5
 11
152.27590737
 21
-61.64796981
 31
0.0
100
AcDbText
  0
ENDSEC
  0
SECTION
  2
OBJECTS
  0
DICTIONARY
  5
19
100
AcDbDictionary
  3
ACAD_GROUP
350
1A
  3
ACAD_MLINESTYLE
350
1B
  0
DICTIONARY
  5
1A
102
{ACAD_REACTORS
330
19
102
}
100
AcDbDictionary
  0
DICTIONARY
  5
1B
102
{ACAD_REACTORS
330
19
102
}
100
AcDbDictionary
  3
STANDARD
350
1C
  0
MLINESTYLE
  5
1C
102
{ACAD_REACTORS
330
1B
102
}
100
AcDbMlineStyle
  2
STANDARD
 70
       0
  3

 62
       0
 51
90.0
 52
90.0
 71
       2
 49
0.5
 62
     256
  6
BYLAYER
 49
-0.5
 62
     256
  6
BYLAYER
  0
ENDSEC
  0
EOF
