  0
SECTION
  2
HEADER
  9
$ACADVER
  1
AC1014
  9
$ACADMAINTVER
 70
       0
  9
$DWGCODEPAGE
  3
ANSI_932
  9
$INSBASE
 10
0.0
 20
0.0
 30
0.0
  9
$EXTMIN
 10
-116.5202653
 20
-102.83923077
 30
0.0
  9
$EXTMAX
 10
116.5202653
 20
58.09488688
 30
0.0
  9
$LIMMIN
 10
-123.80278188
 20
-107.86842195
  9
$LIMMAX
 10
123.80278188
 20
63.12407805
  9
$ORTHOMODE
 70
       0
  9
$REGENMODE
 70
       1
  9
$FILLMODE
 70
       1
  9
$QTEXTMODE
 70
       0
  9
$MIRRTEXT
 70
       1
  9
$DRAGMODE
 70
       2
  9
$LTSCALE
 40
1.0
  9
$OSMODE
 70
       0
  9
$ATTMODE
 70
       1
  9
$TEXTSIZE
 40
0.2
  9
$TRACEWID
 40
0.05
  9
$TEXTSTYLE
  7
STANDARD
  9
$CLAYER
  8
0
  9
$CELTYPE
  6
CONTINUOUS
  9
$CECOLOR
 62
     256
  9
$CELTSCALE
 40
1.0
  9
$DELOBJ
 70
       1
  9
$DISPSILH
 70
       0
  9
$DIMSCALE
 40
1.0
  9
$DIMASZ
 40
0.18
  9
$DIMEXO
 40
0.0625
  9
$DIMDLI
 40
0.38
  9
$DIMRND
 40
0.0
  9
$DIMDLE
 40
0.0
  9
$DIMEXE
 40
0.18
  9
$DIMTP
 40
0.0
  9
$DIMTM
 40
0.0
  9
$DIMTXT
 40
0.18
  9
$DIMCEN
 40
0.09
  9
$DIMTSZ
 40
0.0
  9
$DIMTOL
 70
       0
  9
$DIMLIM
 70
       0
  9
$DIMTIH
 70
       1
  9
$DIMTOH
 70
       1
  9
$DIMSE1
 70
       0
  9
$DIMSE2
 70
       0
  9
$DIMTAD
 70
       0
  9
$DIMZIN
 70
       0
  9
$DIMBLK
  1

  9
$DIMASO
 70
       1
  9
$DIMSHO
 70
       1
  9
$DIMPOST
  1

  9
$DIMAPOST
  1

  9
$DIMALT
 70
       0
  9
$DIMALTD
 70
       2
  9
$DIMALTF
 40
25.4
  9
$DIMLFAC
 40
1.0
  9
$DIMTOFL
 70
       0
  9
$DIMTVP
 40
0.0
  9
$DIMTIX
 70
       0
  9
$DIMSOXD
 70
       0
  9
$DIMSAH
 70
       0
  9
$DIMBLK1
  1

  9
$DIMBLK2
  1

  9
$DIMSTYLE
  2
STANDARD
  9
$DIMCLRD
 70
       0
  9
$DIMCLRE
 70
       0
  9
$DIMCLRT
 70
       0
  9
$DIMTFAC
 40
1.0
  9
$DIMGAP
 40
0.09
  9
$DIMJUST
 70
       0
  9
$DIMSD1
 70
       0
  9
$DIMSD2
 70
       0
  9
$DIMTOLJ
 70
       1
  9
$DIMTZIN
 70
       0
  9
$DIMALTZ
 70
       0
  9
$DIMALTTZ
 70
       0
  9
$DIMFIT
 70
       3
  9
$DIMUPT
 70
       0
  9
$DIMUNIT
 70
       2
  9
$DIMDEC
 70
       4
  9
$DIMTDEC
 70
       4
  9
$DIMALTU
 70
       2
  9
$DIMALTTD
 70
       2
  9
$DIMTXSTY
  7
STANDARD
  9
$DIMAUNIT
 70
       0
  9
$LUNITS
 70
       2
  9
$LUPREC
 70
       4
  9
$SKETCHINC
 40
0.1
  9
$FILLETRAD
 40
0.0
  9
$AUNITS
 70
       0
  9
$AUPREC
 70
       0
  9
$MENU
  1
acad
  9
$ELEVATION
 40
0.0
  9
$PELEVATION
 40
0.0
  9
$THICKNESS
 40
0.0
  9
$LIMCHECK
 70
       0
  9
$BLIPMODE
 70
       1
  9
$CHAMFERA
 40
0.0
  9
$CHAMFERB
 40
0.0
  9
$CHAMFERC
 40
0.0
  9
$CHAMFERD
 40
0.0
  9
$SKPOLY
 70
       0
  9
$TDCREATE
 40
0.000000000
  9
$TDUPDATE
 40
0.000000000
  9
$TDINDWG
 40
0.0000000000
  9
$TDUSRTIMER
 40
0.0000000000
  9
$USRTIMER
 70
       1
  9
$ANGBASE
 50
0.0
  9
$ANGDIR
 70
       0
  9
$PDMODE
 70
       0
  9
$PDSIZE
 40
1.0
  9
$PLINEWID
 40
0.0
  9
$COORDS
 70
       1
  9
$SPLFRAME
 70
       0
  9
$SPLINETYPE
 70
       6
  9
$SPLINESEGS
 70
       8
  9
$ATTDIA
 70
       0
  9
$ATTREQ
 70
       1
  9
$HANDLING
 70
       1
  9
$HANDSEED
  5
5C2
  9
$SURFTAB1
 70
       6
  9
$SURFTAB2
 70
       6
  9
$SURFTYPE
 70
       6
  9
$SURFU
 70
       6
  9
$SURFV
 70
       6
  9
$UCSNAME
  2

  9
$UCSORG
 10
0.0
 20
0.0
 30
0.0
  9
$UCSXDIR
 10
1.0
 20
0.0
 30
0.0
  9
$UCSYDIR
 10
0.0
 20
1.0
 30
0.0
  9
$PUCSNAME
  2

  9
$PUCSORG
 10
0.0
 20
0.0
 30
0.0
  9
$PUCSXDIR
 10
1.0
 20
0.0
 30
0.0
  9
$PUCSYDIR
 10
0.0
 20
1.0
 30
0.0
  9
$USERI1
 70
       0
  9
$USERI2
 70
       0
  9
$USERI3
 70
       0
  9
$USERI4
 70
       0
  9
$USERI5
 70
       0
  9
$USERR1
 40
0.0
  9
$USERR2
 40
0.0
  9
$USERR3
 40
0.0
  9
$USERR4
 40
0.0
  9
$USERR5
 40
0.0
  9
$WORLDVIEW
 70
       1
  9
$SHADEDGE
 70
       3
  9
$SHADEDIF
 70
      70
  9
$TILEMODE
 70
       1
  9
$MAXACTVP
 70
      16
  9
$PINSBASE
 10
0.0
 20
0.0
 30
0.0
  9
$PLIMCHECK
 70
       0
  9
$PEXTMIN
 10
1.00000000E+20
 20
1.00000000E+20
 30
1.00000000E+20
  9
$PEXTMAX
 10
-1.00000000E+20
 20
-1.00000000E+20
 30
-1.00000000E+20
  9
$PLIMMIN
 10
0.0
 20
0.0
  9
$PLIMMAX
 10
12.0
 20
9.0
  9
$UNITMODE
 70
       0
  9
$VISRETAIN
 70
       0
  9
$PLINEGEN
 70
       1
  9
$PSLTSCALE
 70
       0
  9
$TREEDEPTH
 70
    3020
  9
$PICKSTYLE
 70
       1
  9
$CMLSTYLE
  2
STANDARD
  9
$CMLJUST
 70
       0
  9
$CMLSCALE
 40
1.0
  9
$PROXYGRAPHICS
 70
       0
  9
$MEASUREMENT
 70
       0
  0
ENDSEC
  0
SECTION
  2
CLASSES
  0
CLASS
  1
LWPOLYLINE
  2
AcDbPolyline
  3
"AutoCAD"
 90
        0
280
       0
281
       1
  0
CLASS
  1
IMAGE
  2
AcDbRasterImage
  3
ISM
 90
      127
280
       0
281
       1
  0
CLASS
  1
OLE2FRAME
  2
AcDbOle2Frame
  3
""
 90
        0
280
       0
281
       1
  0
CLASS
  1
HATCH
  2
AcDbHatch
  3
"ACAD_SEDONA"
 90
        0
280
       0
281
       1
  0
CLASS
  1
DICTIONARYVAR
  2
AcDbDictionaryVar
  3
"AutoCAD"
 90
        0
280
       0
281
       0
  0
CLASS
  1
RASTERVARIABLES
  2
AcDbRasterVariables
  3
ISM
 90
        0
280
       0
281
       0
  0
CLASS
  1
IMAGEDEF
  2
AcDbRasterImageDef
  3
ISM
 90
        0
280
       0
281
       0
  0
CLASS
  1
IMAGEDEF_REACTOR
  2
AcDbRasterImageDefReactor
  3
ISM
 90
        1
280
       0
281
       0
  0
CLASS
  1
IDBUFFER
  2
AcDbIdBuffer
  3
"Acad"
 90
        0
280
       0
281
       0
  0
CLASS
  1
SPATIAL_FILTER
  2
AcDbSpatialFilter
  3
"Acad"
 90
        0
280
       0
281
       0
  0
CLASS
  1
XRECORD
  2
AcDbXrecord
  3
"<Built In>"
 90
        0
280
       0
281
       0
  0
CLASS
  1
SORTENTSTABLE
  2
AcDbSortentsTable
  3
"AutoCAD"
 90
        0
280
       0
281
       0
  0
CLASS
  1
LAYER_INDEX
  2
AcDbLayerIndex
  3
"Acad"
 90
        0
280
       0
281
       0
  0
CLASS
  1
SPATIAL_INDEX
  2
AcDbSpatialIndex
  3
"Acad"
 90
        0
280
       0
281
       0
  0
CLASS
  1
OBJECT_PTR
  2
CAseDLPNTableRecord
  3
"ASE-LPNTableRecord"
 90
        1
280
       0
281
       0
  0
CLASS
  1
LAYOUT
  2
AcDbLayout
  3
"AutoCAD 2000"
 90
        1
280
       0
281
       0
  0
CLASS
  1
PLOTSETTINGS
  2
AcDbPlotSettings
  3
"AutoCAD 2000"
 90
        1
280
       0
281
       0
  0
CLASS
  1
ACDBDICTIONARYWDFLT
  2
AcDbDictionaryWithDefault
  3
"AutoCAD 2000"
 90
        1
280
       0
281
       0
  0
CLASS
  1
ACDBPLACEHOLDER
  2
AcDbPlaceHolder
  3
"AutoCAD 2000"
 90
        1
280
       0
281
       0
  0
CLASS
  1
VBA_PROJECT
  2
AcDbVbaProject
  3
"acadvba"
 90
        1
280
       0
281
       0
  0
CLASS
  1
WIPEOUT
  2
AcDbWipeout
  3
WipeOut|AutoCAD Express Tool|expresstools@autodesk.com
 90
      127
280
       0
281
       1
  0
CLASS
  1
WIPEOUTVARIABLES
  2
AcDbWipeoutVariables
  3
WipeOut|AutoCAD Express Tool|expresstools@autodesk.com
 90
        0
280
       0
281
       0
  0
CLASS
  1
RTEXT
  2
RText
  3
RText|AutoCAD Express Tool|expresstools@autodesk.com
 90
        0
280
       0
281
       1
  0
CLASS
  1
ARCALIGNEDTEXT
  2
AcDbArcAlignedText
  3
ATEXT|AutoCAD Express Tool|expresstools@autodesk.com
 90
        0
280
       0
281
       1
  0
ENDSEC
  0
SECTION
  2
TABLES
  0
TABLE
  2
VPORT
  5
7
100
AcDbSymbolTable
 70
       1
  0
VPORT
  5
15
100
AcDbSymbolTableRecord
100
AcDbViewportTableRecord
  2
*ACTIVE
 70
       0
 10
0.0
 20
0.0
 11
1.0
 21
1.0
 12
0.0
 22
-22.37217195
 13
0.0
 23
0.0
 14
1.0
 24
1.0
 15
0.0
 25
0.0
 16
0.0
 26
0.0
 36
1.0
 17
0.0
 27
0.0
 37
0.0
 40
170.9925
 41
1.44804926
 42
50.0
 43
0.0
 44
0.0
 50
0.0
 51
0.0
 71
       0
 72
     100
 73
       1
 74
       1
 75
       0
 76
       0
 77
       0
 78
       0
  0
ENDTAB
  0
TABLE
  2
LTYPE
  5
4
100
AcDbSymbolTable
 70
      30
  0
LTYPE
  5
11
100
AcDbSymbolTableRecord
100
AcDbLinetypeTableRecord
  2
BYBLOCK
 70
      64
  3

 72
      65
 73
       0
 40
0.0
  0
LTYPE
  5
12
100
AcDbSymbolTableRecord
100
AcDbLinetypeTableRecord
  2
BYLAYER
 70
      64
  3

 72
      65
 73
       0
 40
0.0
  0
LTYPE
  5
13
100
AcDbSymbolTableRecord
100
AcDbLinetypeTableRecord
  2
CONTINUOUS
 70
      64
  3
Solid line
 72
      65
 73
       0
 40
0.0
  0
LTYPE
  5
1D
100
AcDbSymbolTableRecord
100
AcDbLinetypeTableRecord
  2
HIDDENX2
 70
      64
  3
CADPAC LINETYPE
 72
      65
 73
       2
 40
11.88
 49
8.91
 74
       0
 49
-2.97
 74
       0
  0
LTYPE
  5
1E
100
AcDbSymbolTableRecord
100
AcDbLinetypeTableRecord
  2
HIDDEN
 70
      64
  3
CADPAC LINETYPE
 72
      65
 73
       2
 40
8.91
 49
5.94
 74
       0
 49
-2.97
 74
       0
  0
LTYPE
  5
1F
100
AcDbSymbolTableRecord
100
AcDbLinetypeTableRecord
  2
HIDDEN2
 70
      64
  3
CADPAC LINETYPE
 72
      65
 73
       2
 40
7.425
 49
4.455
 74
       0
 49
-2.97
 74
       0
  0
LTYPE
  5
20
100
AcDbSymbolTableRecord
100
AcDbLinetypeTableRecord
  2
DASHED
 70
      64
  3
CADPAC LINETYPE
 72
      65
 73
       2
 40
8.91
 49
5.94
 74
       0
 49
-2.97
 74
       0
  0
LTYPE
  5
21
100
AcDbSymbolTableRecord
100
AcDbLinetypeTableRecord
  2
DASHED2
 70
      64
  3
CADPAC LINETYPE
 72
      65
 73
       2
 40
6.6825
 49
4.455
 74
       0
 49
-2.2275
 74
       0
  0
LTYPE
  5
22
100
AcDbSymbolTableRecord
100
AcDbLinetypeTableRecord
  2
DASHEDX2
 70
      64
  3
CADPAC LINETYPE
 72
      65
 73
       2
 40
13.365
 49
8.91
 74
       0
 49
-4.455
 74
       0
  0
LTYPE
  5
23
100
AcDbSymbolTableRecord
100
AcDbLinetypeTableRecord
  2
DOTX2
 70
      64
  3
CADPAC LINETYPE
 72
      65
 73
       2
 40
3.7125
 49
0.0
 74
       0
 49
-3.7125
 74
       0
  0
LTYPE
  5
24
100
AcDbSymbolTableRecord
100
AcDbLinetypeTableRecord
  2
DOT
 70
      64
  3
CADPAC LINETYPE
 72
      65
 73
       2
 40
2.97
 49
0.0
 74
       0
 49
-2.97
 74
       0
  0
LTYPE
  5
25
100
AcDbSymbolTableRecord
100
AcDbLinetypeTableRecord
  2
DOT2
 70
      64
  3
CADPAC LINETYPE
 72
      65
 73
       2
 40
2.2275
 49
0.0
 74
       0
 49
-2.2275
 74
       0
  0
LTYPE
  5
26
100
AcDbSymbolTableRecord
100
AcDbLinetypeTableRecord
  2
CENTERX2
 70
      64
  3
CADPAC LINETYPE
 72
      65
 73
       4
 40
17.82
 49
7.425
 74
       0
 49
-3.7125
 74
       0
 49
2.97
 74
       0
 49
-3.7125
 74
       0
  0
LTYPE
  5
27
100
AcDbSymbolTableRecord
100
AcDbLinetypeTableRecord
  2
CENTER
 70
      64
  3
CADPAC LINETYPE
 72
      65
 73
       4
 40
13.662
 49
5.94
 74
       0
 49
-2.97
 74
       0
 49
1.782
 74
       0
 49
-2.97
 74
       0
  0
LTYPE
  5
28
100
AcDbSymbolTableRecord
100
AcDbLinetypeTableRecord
  2
CENTER2
 70
      64
  3
CADPAC LINETYPE
 72
      65
 73
       4
 40
9.504
 49
4.455
 74
       0
 49
-2.2275
 74
       0
 49
0.594
 74
       0
 49
-2.2275
 74
       0
  0
LTYPE
  5
29
100
AcDbSymbolTableRecord
100
AcDbLinetypeTableRecord
  2
DASHDOTX2
 70
      64
  3
CADPAC LINETYPE
 72
      65
 73
       4
 40
14.85
 49
7.425
 74
       0
 49
-3.7125
 74
       0
 49
0.0
 74
       0
 49
-3.7125
 74
       0
  0
LTYPE
  5
2A
100
AcDbSymbolTableRecord
100
AcDbLinetypeTableRecord
  2
DASHDOT
 70
      64
  3
CADPAC LINETYPE
 72
      65
 73
       4
 40
11.88
 49
5.94
 74
       0
 49
-2.97
 74
       0
 49
0.0
 74
       0
 49
-2.97
 74
       0
  0
LTYPE
  5
2B
100
AcDbSymbolTableRecord
100
AcDbLinetypeTableRecord
  2
DASHDOT2
 70
      64
  3
CADPAC LINETYPE
 72
      65
 73
       4
 40
8.91
 49
4.455
 74
       0
 49
-2.2275
 74
       0
 49
0.0
 74
       0
 49
-2.2275
 74
       0
  0
LTYPE
  5
2C
100
AcDbSymbolTableRecord
100
AcDbLinetypeTableRecord
  2
DIVIDEX2
 70
      64
  3
CADPAC LINETYPE
 72
      65
 73
       6
 40
18.5625
 49
7.425
 74
       0
 49
-3.7125
 74
       0
 49
0.0
 74
       0
 49
-3.7125
 74
       0
 49
0.0
 74
       0
 49
-3.7125
 74
       0
  0
LTYPE
  5
2D
100
AcDbSymbolTableRecord
100
AcDbLinetypeTableRecord
  2
DIVIDE
 70
      64
  3
CADPAC LINETYPE
 72
      65
 73
       6
 40
14.85
 49
5.94
 74
       0
 49
-2.97
 74
       0
 49
0.0
 74
       0
 49
-2.97
 74
       0
 49
0.0
 74
       0
 49
-2.97
 74
       0
  0
LTYPE
  5
2E
100
AcDbSymbolTableRecord
100
AcDbLinetypeTableRecord
  2
DIVIDE2
 70
      64
  3
CADPAC LINETYPE
 72
      65
 73
       6
 40
11.1375
 49
4.455
 74
       0
 49
-2.2275
 74
       0
 49
0.0
 74
       0
 49
-2.2275
 74
       0
 49
0.0
 74
       0
 49
-2.2275
 74
       0
  0
LTYPE
  5
2F
100
AcDbSymbolTableRecord
100
AcDbLinetypeTableRecord
  2
BORDERX2
 70
      64
  3
CADPAC LINETYPE
 72
      65
 73
       6
 40
25.9875
 49
7.425
 74
       0
 49
-3.7125
 74
       0
 49
7.425
 74
       0
 49
-3.7125
 74
       0
 49
0.0
 74
       0
 49
-3.7125
 74
       0
  0
LTYPE
  5
30
100
AcDbSymbolTableRecord
100
AcDbLinetypeTableRecord
  2
BORDER
 70
      64
  3
CADPAC LINETYPE
 72
      65
 73
       6
 40
20.79
 49
5.94
 74
       0
 49
-2.97
 74
       0
 49
5.94
 74
       0
 49
-2.97
 74
       0
 49
0.0
 74
       0
 49
-2.97
 74
       0
  0
LTYPE
  5
31
100
AcDbSymbolTableRecord
100
AcDbLinetypeTableRecord
  2
BORDER2
 70
      64
  3
CADPAC LINETYPE
 72
      65
 73
       6
 40
15.5925
 49
4.455
 74
       0
 49
-2.2275
 74
       0
 49
4.455
 74
       0
 49
-2.2275
 74
       0
 49
0.0
 74
       0
 49
-2.2275
 74
       0
  0
LTYPE
  5
32
100
AcDbSymbolTableRecord
100
AcDbLinetypeTableRecord
  2
PHANTOMX2
 70
      64
  3
CADPAC LINETYPE
 72
      65
 73
       6
 40
22.275
 49
7.425
 74
       0
 49
-2.97
 74
       0
 49
2.97
 74
       0
 49
-2.97
 74
       0
 49
2.97
 74
       0
 49
-2.97
 74
       0
  0
LTYPE
  5
33
100
AcDbSymbolTableRecord
100
AcDbLinetypeTableRecord
  2
PHANTOM
 70
      64
  3
CADPAC LINETYPE
 72
      65
 73
       6
 40
18.414
 49
5.94
 74
       0
 49
-2.97
 74
       0
 49
1.782
 74
       0
 49
-2.97
 74
       0
 49
1.782
 74
       0
 49
-2.97
 74
       0
  0
LTYPE
  5
34
100
AcDbSymbolTableRecord
100
AcDbLinetypeTableRecord
  2
PHANTOM2
 70
      64
  3
CADPAC LINETYPE
 72
      65
 73
       6
 40
15.741
 49
4.455
 74
       0
 49
-2.97
 74
       0
 49
1.188
 74
       0
 49
-2.97
 74
       0
 49
1.188
 74
       0
 49
-2.97
 74
       0
  0
LTYPE
  5
35
100
AcDbSymbolTableRecord
100
AcDbLinetypeTableRecord
  2
ACAD_ISO06W100
 70
      64
  3
CADPAC LINETYPE
 72
      65
 73
       8
 40
20.0475
 49
7.425
 74
       0
 49
-3.7125
 74
       0
 49
0.0
 74
       0
 49
-2.97
 74
       0
 49
0.0
 74
       0
 49
-2.97
 74
       0
 49
0.0
 74
       0
 49
-2.97
 74
       0
  0
LTYPE
  5
36
100
AcDbSymbolTableRecord
100
AcDbLinetypeTableRecord
  2
ACAD_ISO13W100
 70
      64
  3
CADPAC LINETYPE
 72
      65
 73
       8
 40
23.76
 49
5.94
 74
       0
 49
-2.97
 74
       0
 49
5.94
 74
       0
 49
-2.97
 74
       0
 49
0.0
 74
       0
 49
-2.97
 74
       0
 49
0.0
 74
       0
 49
-2.97
 74
       0
  0
LTYPE
  5
37
100
AcDbSymbolTableRecord
100
AcDbLinetypeTableRecord
  2
ACAD_ISO14W100
 70
      64
  3
CADPAC LINETYPE
 72
      65
 73
       8
 40
17.82
 49
5.94
 74
       0
 49
-2.97
 74
       0
 49
0.0
 74
       0
 49
-2.97
 74
       0
 49
0.0
 74
       0
 49
-2.97
 74
       0
 49
0.0
 74
       0
 49
-2.97
 74
       0
  0
ENDTAB
  0
TABLE
  2
LAYER
  5
2
100
AcDbSymbolTable
 70
       2
  0
LAYER
  5
14
100
AcDbSymbolTableRecord
100
AcDbLayerTableRecord
  2
0
 70
       0
 62
       7
  6
CONTINUOUS
  0
LAYER
  5
38
100
AcDbSymbolTableRecord
100
AcDbLayerTableRecord
  2
レイヤー_1
 70
       0
 62
       7
  6
CONTINUOUS
  0
ENDTAB
  0
TABLE
  2
STYLE
  5
3
100
AcDbSymbolTable
 70
       1
  0
STYLE
  5
17
100
AcDbSymbolTableRecord
100
AcDbTextStyleTableRecord
  2
STANDARD
 70
       0
 40
0.0
 41
0.8
 50
0.0
 71
       0
 42
5.0
  3
txt.shx
  4
bigfont.shx
  0
ENDTAB
  0
TABLE
  2
VIEW
  5
5
100
AcDbSymbolTable
 70
       1
  0
VIEW
  5
39
100
AcDbSymbolTableRecord
100
AcDbViewTableRecord
  2
QQQQ
 70
       0
 40
170.9925
 10
0.0
 20
-22.37217195
 41
247.60556375
 11
0.0
 21
0.0
 31
1.0
 12
100.0
 22
100.0
 32
0.0
 42
50.0
 43
0.0
 44
0.0
 50
0.0
 71
       0
  0
ENDTAB
  0
TABLE
  2
UCS
  5
6
100
AcDbSymbolTable
 70
       0
  0
ENDTAB
  0
TABLE
  2
APPID
  5
8
100
AcDbSymbolTable
 70
       1
  0
APPID
  5
16
100
AcDbSymbolTableRecord
100
AcDbRegAppTableRecord
  2
ACAD
 70
       0
  0
ENDTAB
  0
TABLE
  2
DIMSTYLE
  5
9
100
AcDbSymbolTable
 70
       1
  0
DIMSTYLE
105
18
100
AcDbSymbolTableRecord
100
AcDbDimStyleTableRecord
  2
STANDARD
 70
       0
  3

  4

  5

  6

  7

 40
1.0
 41
0.18
 42
0.0625
 43
0.38
 44
0.18
 45
0.0
 46
0.0
 47
0.0
 48
0.0
 71
       0
 72
       0
 73
       1
 74
       1
 75
       0
 76
       0
 77
       0
 78
       0
140
0.18
141
0.09
142
0.0
143
25.4
144
1.0
145
0.0
146
1.0
147
0.09
170
       0
171
       2
172
       0
173
       0
174
       0
175
       0
176
       0
177
       0
178
       0
270
       2
271
       4
272
       4
273
       2
274
       2
275
       0
280
       0
281
       0
282
       0
283
       1
284
       0
285
       0
286
       0
287
       0
288
       0
340
17
  0
ENDTAB
  0
TABLE
  2
BLOCK_RECORD
  5
1
100
AcDbSymbolTable
 70
       0
  0
BLOCK_RECORD
  5
A
100
AcDbSymbolTableRecord
100
AcDbBlockTableRecord
  2
*MODEL_SPACE
  0
BLOCK_RECORD
  5
B
100
AcDbSymbolTableRecord
100
AcDbBlockTableRecord
  2
*PAPER_SPACE
  0
ENDTAB
  0
ENDSEC
  0
SECTION
  2
BLOCKS
  0
BLOCK
  5
D
100
AcDbEntity
  8
0
100
AcDbBlockBegin
  2
*MODEL_SPACE
 70
       0
 10
0.0
 20
0.0
 30
0.0
  3
*MODEL_SPACE
  1

  0
ENDBLK
  5
E
100
AcDbEntity
  8
0
100
AcDbBlockEnd
  0
BLOCK
  5
F
100
AcDbEntity
 67
       1
  8
0
100
AcDbBlockBegin
  2
*PAPER_SPACE
 70
       0
 10
0.0
 20
0.0
 30
0.0
  3
*PAPER_SPACE
  1

  0
ENDBLK
  5
10
100
AcDbEntity
 67
       1
  8
0
100
AcDbBlockEnd
  0
ENDSEC
  0
SECTION
  2
ENTITIES
  0
LINE
  5
3A
100
AcDbEntity
  8
レイヤー_1
  6
CONTINUOUS
 62
       3
100
AcDbLine
 10
-52.03871663
 20
-49.0
 30
0.0
 11
-52.03871663
 21
54.0
 31
0.0
  0
LINE
  5
3B
100
AcDbEntity
  8
レイヤー_1
  6
CONTINUOUS
 62
       3
100
AcDbLine
 10
-112.03871663
 20
-49.0
 30
0.0
 11
-112.03871663
 21
54.0
 31
0.0
  0
LINE
  5
3C
100
AcDbEntity
  8
レイヤー_1
  6
CONTINUOUS
 62
       3
100
AcDbLine
 10
-111.03871663
 20
-50.0
 30
0.0
 11
-53.03871663
 21
-50.0
 31
0.0
  0
LINE
  5
3D
100
AcDbEntity
  8
レイヤー_1
  6
CONTINUOUS
 62
       3
100
AcDbLine
 10
-111.03871663
 20
55.0
 30
0.0
 11
-53.03871663
 21
55.0
 31
0.0
  0
LINE
  5
3E
100
AcDbEntity
  8
レイヤー_1
  6
CONTINUOUS
 62
       3
100
AcDbLine
 10
-89.33841281
 20
-55.0
 30
0.0
 11
-74.3221639
 21
-55.0
 31
0.0
  0
LINE
  5
3F
100
AcDbEntity
  8
レイヤー_1
  6
CONTINUOUS
 62
       3
100
AcDbLine
 10
4.33871662
 20
-50.0
 30
0.0
 11
106.04080539
 21
-50.0
 31
0.0
  0
LINE
  5
40
100
AcDbEntity
  8
レイヤー_1
  6
CONTINUOUS
 62
       3
100
AcDbLine
 10
4.33871662
 20
55.0
 30
0.0
 11
106.04080539
 21
55.0
 31
0.0
  0
LINE
  5
41
100
AcDbEntity
  8
レイヤー_1
  6
CONTINUOUS
 62
       3
100
AcDbLine
 10
36.53027342
 20
-34.62650213
 30
0.0
 11
105.51112196
 21
-34.62650213
 31
0.0
  0
LINE
  5
42
100
AcDbEntity
  8
レイヤー_1
  6
CONTINUOUS
 62
       3
100
AcDbLine
 10
107.84086777
 20
19.5945638
 30
0.0
 11
107.84431288
 21
19.87878418
 31
0.0
  0
ARC
  5
43
100
AcDbEntity
  8
レイヤー_1
  6
CONTINUOUS
 62
       3
100
AcDbCircle
 10
-53.03871663
 20
54.0
 30
0.0
 40
1.0
100
AcDbArc
 50
0.0
 51
90.0
  0
ARC
  5
44
100
AcDbEntity
  8
レイヤー_1
  6
CONTINUOUS
 62
       3
100
AcDbCircle
 10
-53.03871663
 20
-49.0
 30
0.0
 40
1.0
100
AcDbArc
 50
270.0
 51
360.0
  0
ARC
  5
45
100
AcDbEntity
  8
レイヤー_1
  6
CONTINUOUS
 62
       3
100
AcDbCircle
 10
-111.03871663
 20
-49.0
 30
0.0
 40
1.0
100
AcDbArc
 50
180.0
 51
270.0
  0
ARC
  5
46
100
AcDbEntity
  8
レイヤー_1
  6
CONTINUOUS
 62
       3
100
AcDbCircle
 10
-111.03871663
 20
54.0
 30
0.0
 40
1.0
100
AcDbArc
 50
90.0
 51
180.0
  0
ARC
  5
47
100
AcDbEntity
  8
レイヤー_1
  6
CONTINUOUS
 62
       3
100
AcDbCircle
 10
-74.3221639
 20
-54.5
 30
0.0
 40
0.5
100
AcDbArc
 50
270.0
 51
360.0
  0
ARC
  5
48
100
AcDbEntity
  8
レイヤー_1
  6
CONTINUOUS
 62
       3
100
AcDbCircle
 10
-89.33841281
 20
-54.5
 30
0.0
 40
0.5
100
AcDbArc
 50
180.0
 51
270.0
  0
ARC
  5
49
100
AcDbEntity
  8
レイヤー_1
  6
CONTINUOUS
 62
       3
100
AcDbCircle
 10
4.33871662
 20
54.7
 30
0.0
 40
0.3
100
AcDbArc
 50
90.0
 51
180.0
  0
ARC
  5
4A
100
AcDbEntity
  8
レイヤー_1
  6
CONTINUOUS
 62
       3
100
AcDbCircle
 10
4.33871662
 20
-49.7
 30
0.0
 40
0.3
100
AcDbArc
 50
180.0
 51
270.0
  0
LINE
  5
4B
100
AcDbEntity
  8
レイヤー_1
  6
CONTINUOUS
 62
       3
100
AcDbLine
 10
3.22481282
 20
-40.4835951
 30
0.0
 11
3.12059867
 21
-40.4835951
 31
0.0
  0
LINE
  5
4C
100
AcDbEntity
  8
レイヤー_1
  6
CONTINUOUS
 62
       3
100
AcDbLine
 10
3.12059867
 20
-40.4835951
 30
0.0
 11
3.04997421
 21
-40.51804605
 31
0.0
  0
LINE
  5
4D
100
AcDbEntity
  8
レイヤー_1
  6
CONTINUOUS
 62
       3
100
AcDbLine
 10
3.04997421
 20
-40.51804605
 30
0.0
 11
2.94489881
 21
-40.58823987
 31
0.0
  0
LINE
  5
4E
100
AcDbEntity
  8
レイヤー_1
  6
CONTINUOUS
 62
       3
100
AcDbLine
 10
2.94489881
 20
-40.58823987
 30
0.0
 11
2.87427435
 21
-40.62441337
 31
0.0
  0
LINE
  5
4F
100
AcDbEntity
  8
レイヤー_1
  6
CONTINUOUS
 62
       3
100
AcDbLine
 10
2.87427435
 20
-40.62441337
 30
0.0
 11
2.8036499
 21
-40.69503783
 31
0.0
  0
LINE
  5
50
100
AcDbEntity
  8
レイヤー_1
  6
CONTINUOUS
 62
       3
100
AcDbLine
 10
2.8036499
 20
-40.69503783
 30
0.0
 11
2.76747639
 21
-40.80011324
 31
0.0
  0
LINE
  5
51
100
AcDbEntity
  8
レイヤー_1
  6
CONTINUOUS
 62
       3
100
AcDbLine
 10
2.76747639
 20
-40.80011324
 30
0.0
 11
2.73302544
 21
-40.90604993
 31
0.0
  0
LINE
  5
52
100
AcDbEntity
  8
レイヤー_1
  6
CONTINUOUS
 62
       3
100
AcDbLine
 10
2.73302544
 20
-40.90604993
 30
0.0
 11
2.73302544
 21
-40.97624375
 31
0.0
  0
LINE
  5
53
100
AcDbEntity
  8
レイヤー_1
  6
CONTINUOUS
 62
       3
100
AcDbLine
 10
2.73302544
 20
-41.68205769
 30
0.0
 11
2.73302544
 21
-41.78799437
 31
0.0
  0
LINE
  5
54
100
AcDbEntity
  8
レイヤー_1
  6
CONTINUOUS
 62
       3
100
AcDbLine
 10
2.73302544
 20
-41.78799437
 30
0.0
 11
2.76747639
 21
-41.8943617
 31
0.0
  0
LINE
  5
55
100
AcDbEntity
  8
レイヤー_1
  6
CONTINUOUS
 62
       3
100
AcDbLine
 10
2.76747639
 20
-41.8943617
 30
0.0
 11
2.8036499
 21
-41.96498615
 31
0.0
  0
LINE
  5
56
100
AcDbEntity
  8
レイヤー_1
  6
CONTINUOUS
 62
       3
100
AcDbLine
 10
2.8036499
 20
-41.96498615
 30
0.0
 11
2.87427435
 21
-42.03561061
 31
0.0
  0
LINE
  5
57
100
AcDbEntity
  8
レイヤー_1
  6
CONTINUOUS
 62
       3
100
AcDbLine
 10
2.87427435
 20
-42.03561061
 30
0.0
 11
2.94489881
 21
-42.10623507
 31
0.0
  0
LINE
  5
58
100
AcDbEntity
  8
レイヤー_1
  6
CONTINUOUS
 62
       3
100
AcDbLine
 10
2.94489881
 20
-42.10623507
 30
0.0
 11
3.04997421
 21
-42.14068602
 31
0.0
  0
LINE
  5
59
100
AcDbEntity
  8
レイヤー_1
  6
CONTINUOUS
 62
       3
100
AcDbLine
 10
3.04997421
 20
-42.14068602
 30
0.0
 11
3.12059867
 21
-42.17685953
 31
0.0
  0
LINE
  5
5A
100
AcDbEntity
  8
レイヤー_1
  6
CONTINUOUS
 62
       3
100
AcDbLine
 10
3.12059867
 20
-42.17685953
 30
0.0
 11
3.22481282
 21
-42.17685953
 31
0.0
  0
LINE
  5
5B
100
AcDbEntity
  8
レイヤー_1
  6
CONTINUOUS
 62
       3
100
AcDbLine
 10
3.22481282
 20
-42.17685953
 30
0.0
 11
4.03871663
 21
-42.17685953
 31
0.0
  0
LINE
  5
5C
100
AcDbEntity
  8
レイヤー_1
  6
CONTINUOUS
 62
       3
100
AcDbLine
 10
4.03871663
 20
-40.4835951
 30
0.0
 11
3.22481282
 21
-40.4835951
 31
0.0
  0
LINE
  5
5D
100
AcDbEntity
  8
レイヤー_1
  6
CONTINUOUS
 62
       3
100
AcDbLine
 10
110.27482773
 20
-15.1530999
 30
0.0
 11
107.84086777
 21
-15.1530999
 31
0.0
  0
LINE
  5
5E
100
AcDbEntity
  8
レイヤー_1
  6
CONTINUOUS
 62
       3
100
AcDbLine
 10
107.64535861
 20
-49.12561712
 30
0.0
 11
106.04080539
 21
-49.12561712
 31
0.0
  0
LINE
  5
5F
100
AcDbEntity
  8
レイヤー_1
  6
CONTINUOUS
 62
       3
100
AcDbLine
 10
112.03871663
 20
-17.623664
 30
0.0
 11
110.27482773
 21
-15.1530999
 31
0.0
  0
LINE
  5
60
100
AcDbEntity
  8
レイヤー_1
  6
CONTINUOUS
 62
       3
100
AcDbLine
 10
112.03871663
 20
-49.12561712
 30
0.0
 11
107.52219645
 21
-49.12561712
 31
0.0
  0
LINE
  5
61
100
AcDbEntity
  8
レイヤー_1
  6
CONTINUOUS
 62
       3
100
AcDbLine
 10
112.03871663
 20
35.1874966
 30
0.0
 11
112.03871663
 21
20.79517957
 31
0.0
  0
LINE
  5
62
100
AcDbEntity
  8
レイヤー_1
  6
CONTINUOUS
 62
       3
100
AcDbLine
 10
112.03871663
 20
20.79517957
 30
0.0
 11
110.83723958
 21
19.5945638
 31
0.0
  0
LINE
  5
63
100
AcDbEntity
  8
レイヤー_1
  6
CONTINUOUS
 62
       3
100
AcDbLine
 10
109.85021971
 20
52.86255899
 30
0.0
 11
109.85021971
 21
52.89787122
 31
0.0
  0
LINE
  5
64
100
AcDbEntity
  8
レイヤー_1
  6
CONTINUOUS
 62
       3
100
AcDbLine
 10
109.85021971
 20
52.89787122
 30
0.0
 11
109.81404622
 21
52.93318345
 31
0.0
  0
LINE
  5
65
100
AcDbEntity
  8
レイヤー_1
  6
CONTINUOUS
 62
       3
100
AcDbLine
 10
109.81404622
 20
52.93318345
 30
0.0
 11
109.77959527
 21
53.00337727
 31
0.0
  0
LINE
  5
66
100
AcDbEntity
  8
レイヤー_1
  6
CONTINUOUS
 62
       3
100
AcDbLine
 10
109.77959527
 20
53.00337727
 30
0.0
 11
109.74342175
 21
53.0386895
 31
0.0
  0
LINE
  5
67
100
AcDbEntity
  8
レイヤー_1
  6
CONTINUOUS
 62
       3
100
AcDbLine
 10
109.74342175
 20
53.0386895
 30
0.0
 11
109.70983208
 21
53.07400172
 31
0.0
  0
LINE
  5
68
100
AcDbEntity
  8
レイヤー_1
  6
CONTINUOUS
 62
       3
100
AcDbLine
 10
109.70983208
 20
53.07400172
 30
0.0
 11
109.67365857
 21
53.07400172
 31
0.0
  0
LINE
  5
69
100
AcDbEntity
  8
レイヤー_1
  6
CONTINUOUS
 62
       3
100
AcDbLine
 10
109.67365857
 20
53.07400172
 30
0.0
 11
109.60475667
 21
53.10931395
 31
0.0
  0
LINE
  5
6A
100
AcDbEntity
  8
レイヤー_1
  6
CONTINUOUS
 62
       3
100
AcDbLine
 10
109.60475667
 20
53.10931395
 30
0.0
 11
109.56858317
 21
53.10931395
 31
0.0
  0
LINE
  5
6B
100
AcDbEntity
  8
レイヤー_1
  6
CONTINUOUS
 62
       3
100
AcDbLine
 10
106.04080539
 20
53.10931395
 30
0.0
 11
109.56858317
 21
53.10931395
 31
0.0
  0
LINE
  5
6C
100
AcDbEntity
  8
レイヤー_1
  6
CONTINUOUS
 62
       3
100
AcDbLine
 10
109.85021971
 20
52.86255899
 30
0.0
 11
112.03871663
 21
35.1874966
 31
0.0
  0
LINE
  5
6D
100
AcDbEntity
  8
レイヤー_1
  6
CONTINUOUS
 62
       3
100
AcDbLine
 10
112.03871663
 20
-53.14733546
 30
0.0
 11
112.03871663
 21
-53.32346597
 31
0.0
  0
LINE
  5
6E
100
AcDbEntity
  8
レイヤー_1
  6
CONTINUOUS
 62
       3
100
AcDbLine
 10
112.03871663
 20
-53.32346597
 30
0.0
 11
112.03871663
 21
-53.53533934
 31
0.0
  0
LINE
  5
6F
100
AcDbEntity
  8
レイヤー_1
  6
CONTINUOUS
 62
       3
100
AcDbLine
 10
112.03871663
 20
-53.53533934
 30
0.0
 11
112.03871663
 21
-53.71276176
 31
0.0
  0
LINE
  5
70
100
AcDbEntity
  8
レイヤー_1
  6
CONTINUOUS
 62
       3
100
AcDbLine
 10
112.03871663
 20
-53.71276176
 30
0.0
 11
112.03871663
 21
-53.85358004
 31
0.0
  0
LINE
  5
71
100
AcDbEntity
  8
レイヤー_1
  6
CONTINUOUS
 62
       3
100
AcDbLine
 10
112.03871663
 20
-53.85358004
 30
0.0
 11
112.03871663
 21
-53.95865545
 31
0.0
  0
LINE
  5
72
100
AcDbEntity
  8
レイヤー_1
  6
CONTINUOUS
 62
       3
100
AcDbLine
 10
112.03871663
 20
-53.95865545
 30
0.0
 11
112.03871663
 21
-54.06373086
 31
0.0
  0
LINE
  5
73
100
AcDbEntity
  8
レイヤー_1
  6
CONTINUOUS
 62
       3
100
AcDbLine
 10
112.03871663
 20
-54.06373086
 30
0.0
 11
112.03871663
 21
-54.13521659
 31
0.0
  0
LINE
  5
74
100
AcDbEntity
  8
レイヤー_1
  6
CONTINUOUS
 62
       3
100
AcDbLine
 10
112.03871663
 20
-54.13521659
 30
0.0
 11
107.52219645
 21
-54.13521659
 31
0.0
  0
LINE
  5
75
100
AcDbEntity
  8
レイヤー_1
  6
CONTINUOUS
 62
       3
100
AcDbLine
 10
107.52219645
 20
-54.13521659
 30
0.0
 11
107.52219645
 21
-54.06373086
 31
0.0
  0
LINE
  5
76
100
AcDbEntity
  8
レイヤー_1
  6
CONTINUOUS
 62
       3
100
AcDbLine
 10
107.52219645
 20
-54.06373086
 30
0.0
 11
107.52219645
 21
-53.95865545
 31
0.0
  0
LINE
  5
77
100
AcDbEntity
  8
レイヤー_1
  6
CONTINUOUS
 62
       3
100
AcDbLine
 10
107.52219645
 20
-53.95865545
 30
0.0
 11
107.52219645
 21
-53.85358004
 31
0.0
  0
LINE
  5
78
100
AcDbEntity
  8
レイヤー_1
  6
CONTINUOUS
 62
       3
100
AcDbLine
 10
107.52219645
 20
-53.85358004
 30
0.0
 11
107.52219645
 21
-53.71276176
 31
0.0
  0
LINE
  5
79
100
AcDbEntity
  8
レイヤー_1
  6
CONTINUOUS
 62
       3
100
AcDbLine
 10
107.52219645
 20
-53.71276176
 30
0.0
 11
107.52219645
 21
-53.53533934
 31
0.0
  0
LINE
  5
7A
100
AcDbEntity
  8
レイヤー_1
  6
CONTINUOUS
 62
       3
100
AcDbLine
 10
107.52219645
 20
-53.53533934
 30
0.0
 11
107.52219645
 21
-53.32346597
 31
0.0
  0
LINE
  5
7B
100
AcDbEntity
  8
レイヤー_1
  6
CONTINUOUS
 62
       3
100
AcDbLine
 10
107.52219645
 20
-53.32346597
 30
0.0
 11
107.52219645
 21
-53.14733546
 31
0.0
  0
LINE
  5
7C
100
AcDbEntity
  8
レイヤー_1
  6
CONTINUOUS
 62
       3
100
AcDbLine
 10
112.03871663
 20
-49.12561712
 30
0.0
 11
112.03871663
 21
-53.14733546
 31
0.0
  0
LINE
  5
7D
100
AcDbEntity
  8
レイヤー_1
  6
CONTINUOUS
 62
       3
100
AcDbLine
 10
107.52219645
 20
-53.14733546
 30
0.0
 11
107.52219645
 21
-49.12561712
 31
0.0
  0
LINE
  5
7E
100
AcDbEntity
  8
レイヤー_1
  6
CONTINUOUS
 62
       3
100
AcDbLine
 10
106.04080539
 20
-13.35476006
 30
0.0
 11
109.03889973
 21
-13.35476006
 31
0.0
  0
LINE
  5
7F
100
AcDbEntity
  8
レイヤー_1
  6
CONTINUOUS
 62
       3
100
AcDbLine
 10
109.03889973
 20
-13.35476006
 30
0.0
 11
110.27482773
 21
-15.1530999
 31
0.0
  0
LINE
  5
80
100
AcDbEntity
  8
レイヤー_1
  6
CONTINUOUS
 62
       3
100
AcDbLine
 10
112.03871663
 20
-49.12561712
 30
0.0
 11
112.03871663
 21
-17.623664
 31
0.0
  0
LINE
  5
81
100
AcDbEntity
  8
レイヤー_1
  6
CONTINUOUS
 62
       3
100
AcDbLine
 10
110.83723958
 20
19.5945638
 30
0.0
 11
107.84086777
 21
19.5945638
 31
0.0
  0
LINE
  5
82
100
AcDbEntity
  8
レイヤー_1
  6
CONTINUOUS
 62
       3
100
AcDbLine
 10
107.97953288
 20
18.04340956
 30
0.0
 11
107.97953288
 21
18.00809733
 31
0.0
  0
LINE
  5
83
100
AcDbEntity
  8
レイヤー_1
  6
CONTINUOUS
 62
       3
100
AcDbLine
 10
107.97953288
 20
18.00809733
 30
0.0
 11
108.01570637
 21
17.97192382
 31
0.0
  0
LINE
  5
84
100
AcDbEntity
  8
レイヤー_1
  6
CONTINUOUS
 62
       3
100
AcDbLine
 10
108.01570637
 20
17.97192382
 30
0.0
 11
108.05015732
 21
17.90129937
 31
0.0
  0
LINE
  5
85
100
AcDbEntity
  8
レイヤー_1
  6
CONTINUOUS
 62
       3
100
AcDbLine
 10
108.05015732
 20
17.90129937
 30
0.0
 11
108.08633084
 21
17.86684841
 31
0.0
  0
LINE
  5
86
100
AcDbEntity
  8
レイヤー_1
  6
CONTINUOUS
 62
       3
100
AcDbLine
 10
108.08633084
 20
17.86684841
 30
0.0
 11
108.12078179
 21
17.86684841
 31
0.0
  0
LINE
  5
87
100
AcDbEntity
  8
レイヤー_1
  6
CONTINUOUS
 62
       3
100
AcDbLine
 10
108.12078179
 20
17.86684841
 30
0.0
 11
108.19140625
 21
17.83067491
 31
0.0
  0
LINE
  5
88
100
AcDbEntity
  8
レイヤー_1
  6
CONTINUOUS
 62
       3
100
AcDbLine
 10
108.19140625
 20
17.83067491
 30
0.0
 11
108.22757975
 21
17.83067491
 31
0.0
  0
LINE
  5
89
100
AcDbEntity
  8
レイヤー_1
  6
CONTINUOUS
 62
       3
100
AcDbLine
 10
108.22757975
 20
17.83067491
 30
0.0
 11
108.26289198
 21
17.79622395
 31
0.0
  0
LINE
  5
8A
100
AcDbEntity
  8
レイヤー_1
  6
CONTINUOUS
 62
       3
100
AcDbLine
 10
108.26289198
 20
17.79622395
 30
0.0
 11
109.03889973
 21
17.79622395
 31
0.0
  0
LINE
  5
8B
100
AcDbEntity
  8
レイヤー_1
  6
CONTINUOUS
 62
       3
100
AcDbLine
 10
107.84086777
 20
18.9615275
 30
0.0
 11
107.97953288
 21
18.04340956
 31
0.0
  0
LINE
  5
8C
100
AcDbEntity
  8
レイヤー_1
  6
CONTINUOUS
 62
       3
100
AcDbLine
 10
109.03889973
 20
17.79622395
 30
0.0
 11
110.83723958
 21
19.5945638
 31
0.0
  0
LINE
  5
8D
100
AcDbEntity
  8
レイヤー_1
  6
CONTINUOUS
 62
       3
100
AcDbLine
 10
2.73302544
 20
-41.68205769
 30
0.0
 11
2.73302544
 21
-41.64760673
 31
0.0
  0
LINE
  5
8E
100
AcDbEntity
  8
レイヤー_1
  6
CONTINUOUS
 62
       3
100
AcDbLine
 10
2.73302544
 20
-41.64760673
 30
0.0
 11
2.73302544
 21
-41.57698227
 31
0.0
  0
LINE
  5
8F
100
AcDbEntity
  8
レイヤー_1
  6
CONTINUOUS
 62
       3
100
AcDbLine
 10
2.73302544
 20
-41.57698227
 30
0.0
 11
2.73302544
 21
-41.47018431
 31
0.0
  0
LINE
  5
90
100
AcDbEntity
  8
レイヤー_1
  6
CONTINUOUS
 62
       3
100
AcDbLine
 10
2.73302544
 20
-41.47018431
 30
0.0
 11
2.73302544
 21
-41.32936604
 31
0.0
  0
LINE
  5
91
100
AcDbEntity
  8
レイヤー_1
  6
CONTINUOUS
 62
       3
100
AcDbLine
 10
2.73302544
 20
-41.32936604
 30
0.0
 11
2.73302544
 21
-41.18811712
 31
0.0
  0
LINE
  5
92
100
AcDbEntity
  8
レイヤー_1
  6
CONTINUOUS
 62
       3
100
AcDbLine
 10
2.73302544
 20
-41.18811712
 30
0.0
 11
2.73302544
 21
-41.08304171
 31
0.0
  0
LINE
  5
93
100
AcDbEntity
  8
レイヤー_1
  6
CONTINUOUS
 62
       3
100
AcDbLine
 10
2.73302544
 20
-41.08304171
 30
0.0
 11
2.73302544
 21
-41.01241725
 31
0.0
  0
LINE
  5
94
100
AcDbEntity
  8
レイヤー_1
  6
CONTINUOUS
 62
       3
100
AcDbLine
 10
2.73302544
 20
-41.01241725
 30
0.0
 11
2.73302544
 21
-40.97624375
 31
0.0
  0
LINE
  5
95
100
AcDbEntity
  8
レイヤー_1
  6
CONTINUOUS
 62
       3
100
AcDbLine
 10
106.04080539
 20
37.37556287
 30
0.0
 11
106.04080539
 21
37.86950344
 31
0.0
  0
LINE
  5
96
100
AcDbEntity
  8
レイヤー_1
  6
CONTINUOUS
 62
       3
100
AcDbLine
 10
106.04080539
 20
37.86950344
 30
0.0
 11
106.00635443
 21
38.1162584
 31
0.0
  0
LINE
  5
97
100
AcDbEntity
  8
レイヤー_1
  6
CONTINUOUS
 62
       3
100
AcDbLine
 10
106.00635443
 20
38.1162584
 30
0.0
 11
106.00635443
 21
38.363444
 31
0.0
  0
LINE
  5
98
100
AcDbEntity
  8
レイヤー_1
  6
CONTINUOUS
 62
       3
100
AcDbLine
 10
106.00635443
 20
38.363444
 30
0.0
 11
105.97018093
 21
38.71527438
 31
0.0
  0
LINE
  5
99
100
AcDbEntity
  8
レイヤー_1
  6
CONTINUOUS
 62
       3
100
AcDbLine
 10
105.97018093
 20
38.71527438
 30
0.0
 11
105.93572998
 21
38.89226616
 31
0.0
  0
LINE
  5
9A
100
AcDbEntity
  8
レイヤー_1
  6
CONTINUOUS
 62
       3
100
AcDbLine
 10
105.93572998
 20
38.89226616
 30
0.0
 11
105.86510551
 21
39.10413953
 31
0.0
  0
LINE
  5
9B
100
AcDbEntity
  8
レイヤー_1
  6
CONTINUOUS
 62
       3
100
AcDbLine
 10
105.86510551
 20
39.10413953
 30
0.0
 11
105.79448106
 21
39.21007622
 31
0.0
  0
LINE
  5
9C
100
AcDbEntity
  8
レイヤー_1
  6
CONTINUOUS
 62
       3
100
AcDbLine
 10
105.79448106
 20
39.21007622
 30
0.0
 11
105.6876831
 21
39.3160129
 31
0.0
  0
LINE
  5
9D
100
AcDbEntity
  8
レイヤー_1
  6
CONTINUOUS
 62
       3
100
AcDbLine
 10
105.6876831
 20
39.3160129
 30
0.0
 11
105.61705864
 21
39.3508945
 31
0.0
  0
LINE
  5
9E
100
AcDbEntity
  8
レイヤー_1
  6
CONTINUOUS
 62
       3
100
AcDbLine
 10
105.61705864
 20
39.3508945
 30
0.0
 11
105.51112196
 21
39.3508945
 31
0.0
  0
LINE
  5
9F
100
AcDbEntity
  8
レイヤー_1
  6
CONTINUOUS
 62
       3
100
AcDbLine
 10
35.54239229
 20
23.37038845
 30
0.0
 11
35.71895344
 21
25.13427734
 31
0.0
  0
LINE
  5
A0
100
AcDbEntity
  8
レイヤー_1
  6
CONTINUOUS
 62
       3
100
AcDbLine
 10
35.71895344
 20
25.13427734
 30
0.0
 11
36.21246336
 21
26.79222954
 31
0.0
  0
LINE
  5
A1
100
AcDbEntity
  8
レイヤー_1
  6
CONTINUOUS
 62
       3
100
AcDbLine
 10
36.21246336
 20
26.79222954
 30
0.0
 11
37.05909557
 21
28.34424506
 31
0.0
  0
LINE
  5
A2
100
AcDbEntity
  8
レイヤー_1
  6
CONTINUOUS
 62
       3
100
AcDbLine
 10
37.05909557
 20
28.34424506
 30
0.0
 11
38.15291339
 21
29.72013007
 31
0.0
  0
LINE
  5
A3
100
AcDbEntity
  8
レイヤー_1
  6
CONTINUOUS
 62
       3
100
AcDbLine
 10
38.15291339
 20
29.72013007
 30
0.0
 11
39.52836776
 21
30.84839884
 31
0.0
  0
LINE
  5
A4
100
AcDbEntity
  8
レイヤー_1
  6
CONTINUOUS
 62
       3
100
AcDbLine
 10
39.52836776
 20
30.84839884
 30
0.0
 11
41.08210582
 21
31.6605801
 31
0.0
  0
LINE
  5
A5
100
AcDbEntity
  8
レイヤー_1
  6
CONTINUOUS
 62
       3
100
AcDbLine
 10
41.08210582
 20
31.6605801
 30
0.0
 11
42.77537025
 21
32.18983289
 31
0.0
  0
LINE
  5
A6
100
AcDbEntity
  8
レイヤー_1
  6
CONTINUOUS
 62
       3
100
AcDbLine
 10
42.77537025
 20
32.18983289
 30
0.0
 11
44.53925914
 21
32.3659634
 31
0.0
  0
LINE
  5
A7
100
AcDbEntity
  8
レイヤー_1
  6
CONTINUOUS
 62
       3
100
AcDbLine
 10
12.04425725
 20
-50.0
 30
0.0
 11
12.04425725
 21
55.0
 31
0.0
  0
LINE
  5
A8
100
AcDbEntity
  8
レイヤー_1
  6
CONTINUOUS
 62
       3
100
AcDbLine
 10
36.53027342
 20
-34.62650213
 30
0.0
 11
34.4477132
 21
-34.45080226
 31
0.0
  0
LINE
  5
A9
100
AcDbEntity
  8
レイヤー_1
  6
CONTINUOUS
 62
       3
100
AcDbLine
 10
34.4477132
 20
-34.45080226
 30
0.0
 11
32.43663871
 21
-33.9206882
 31
0.0
  0
LINE
  5
AA
100
AcDbEntity
  8
レイヤー_1
  6
CONTINUOUS
 62
       3
100
AcDbLine
 10
32.43663871
 20
-33.9206882
 30
0.0
 11
30.53236218
 21
-33.03874375
 31
0.0
  0
LINE
  5
AB
100
AcDbEntity
  8
レイヤー_1
  6
CONTINUOUS
 62
       3
100
AcDbLine
 10
30.53236218
 20
-33.03874375
 30
0.0
 11
28.80292424
 21
-31.83941989
 31
0.0
  0
LINE
  5
AC
100
AcDbEntity
  8
レイヤー_1
  6
CONTINUOUS
 62
       3
100
AcDbLine
 10
28.80292424
 20
-31.83941989
 30
0.0
 11
27.32067191
 21
-30.3588901
 31
0.0
  0
LINE
  5
AD
100
AcDbEntity
  8
レイヤー_1
  6
CONTINUOUS
 62
       3
100
AcDbLine
 10
27.32067191
 20
-30.3588901
 30
0.0
 11
26.12177869
 21
-28.62902153
 31
0.0
  0
LINE
  5
AE
100
AcDbEntity
  8
レイヤー_1
  6
CONTINUOUS
 62
       3
100
AcDbLine
 10
26.12177869
 20
-28.62902153
 30
0.0
 11
25.23983423
 21
-26.75962659
 31
0.0
  0
LINE
  5
AF
100
AcDbEntity
  8
レイヤー_1
  6
CONTINUOUS
 62
       3
100
AcDbLine
 10
25.23983423
 20
-26.75962659
 30
0.0
 11
24.70928954
 21
-24.71323987
 31
0.0
  0
LINE
  5
B0
100
AcDbEntity
  8
レイヤー_1
  6
CONTINUOUS
 62
       3
100
AcDbLine
 10
24.70928954
 20
-24.71323987
 30
0.0
 11
24.53272839
 21
-22.63283284
 31
0.0
  0
LINE
  5
B1
100
AcDbEntity
  8
レイヤー_1
  6
CONTINUOUS
 62
       3
100
AcDbLine
 10
24.53272839
 20
-22.63283284
 30
0.0
 11
24.53272839
 21
27.35550265
 31
0.0
  0
LINE
  5
B2
100
AcDbEntity
  8
レイヤー_1
  6
CONTINUOUS
 62
       3
100
AcDbLine
 10
24.53272839
 20
27.35550265
 30
0.0
 11
24.70928954
 21
29.43806287
 31
0.0
  0
LINE
  5
B3
100
AcDbEntity
  8
レイヤー_1
  6
CONTINUOUS
 62
       3
100
AcDbLine
 10
24.70928954
 20
29.43806287
 30
0.0
 11
25.23983423
 21
31.44870673
 31
0.0
  0
LINE
  5
B4
100
AcDbEntity
  8
レイヤー_1
  6
CONTINUOUS
 62
       3
100
AcDbLine
 10
25.23983423
 20
31.44870673
 30
0.0
 11
26.12177869
 21
33.35384453
 31
0.0
  0
LINE
  5
B5
100
AcDbEntity
  8
レイヤー_1
  6
CONTINUOUS
 62
       3
100
AcDbLine
 10
26.12177869
 20
33.35384453
 30
0.0
 11
27.32067191
 21
35.08242119
 31
0.0
  0
LINE
  5
B6
100
AcDbEntity
  8
レイヤー_1
  6
CONTINUOUS
 62
       3
100
AcDbLine
 10
27.32067191
 20
35.08242119
 30
0.0
 11
28.80292424
 21
36.56424288
 31
0.0
  0
LINE
  5
B7
100
AcDbEntity
  8
レイヤー_1
  6
CONTINUOUS
 62
       3
100
AcDbLine
 10
28.80292424
 20
36.56424288
 30
0.0
 11
30.53236218
 21
37.76356675
 31
0.0
  0
LINE
  5
B8
100
AcDbEntity
  8
レイヤー_1
  6
CONTINUOUS
 62
       3
100
AcDbLine
 10
30.53236218
 20
37.76356675
 30
0.0
 11
32.43663871
 21
38.64551119
 31
0.0
  0
LINE
  5
B9
100
AcDbEntity
  8
レイヤー_1
  6
CONTINUOUS
 62
       3
100
AcDbLine
 10
32.43663871
 20
38.64551119
 30
0.0
 11
34.4477132
 21
39.17476399
 31
0.0
  0
LINE
  5
BA
100
AcDbEntity
  8
レイヤー_1
  6
CONTINUOUS
 62
       3
100
AcDbLine
 10
34.4477132
 20
39.17476399
 30
0.0
 11
36.53027342
 21
39.3508945
 31
0.0
  0
LINE
  5
BB
100
AcDbEntity
  8
レイヤー_1
  6
CONTINUOUS
 62
       3
100
AcDbLine
 10
36.53027342
 20
39.3508945
 30
0.0
 11
105.51112196
 21
39.3508945
 31
0.0
  0
LINE
  5
BC
100
AcDbEntity
  8
レイヤー_1
  6
CONTINUOUS
 62
       3
100
AcDbLine
 10
106.11142984
 20
17.37290785
 30
0.0
 11
106.21736654
 21
17.19677734
 31
0.0
  0
LINE
  5
BD
100
AcDbEntity
  8
レイヤー_1
  6
CONTINUOUS
 62
       3
100
AcDbLine
 10
106.21736654
 20
17.19677734
 30
0.0
 11
106.28712971
 21
16.98490397
 31
0.0
  0
LINE
  5
BE
100
AcDbEntity
  8
レイヤー_1
  6
CONTINUOUS
 62
       3
100
AcDbLine
 10
106.28712971
 20
16.98490397
 30
0.0
 11
106.32244194
 21
16.80748155
 31
0.0
  0
LINE
  5
BF
100
AcDbEntity
  8
レイヤー_1
  6
CONTINUOUS
 62
       3
100
AcDbLine
 10
106.32244194
 20
16.80748155
 30
0.0
 11
106.32244194
 21
16.59690009
 31
0.0
  0
LINE
  5
C0
100
AcDbEntity
  8
レイヤー_1
  6
CONTINUOUS
 62
       3
100
AcDbLine
 10
106.32244194
 20
16.59690009
 30
0.0
 11
106.32244194
 21
16.42033895
 31
0.0
  0
LINE
  5
C1
100
AcDbEntity
  8
レイヤー_1
  6
CONTINUOUS
 62
       3
100
AcDbLine
 10
106.32244194
 20
16.42033895
 30
0.0
 11
106.28712971
 21
16.20803494
 31
0.0
  0
LINE
  5
C2
100
AcDbEntity
  8
レイヤー_1
  6
CONTINUOUS
 62
       3
100
AcDbLine
 10
106.28712971
 20
16.20803494
 30
0.0
 11
106.21736654
 21
16.03233507
 31
0.0
  0
LINE
  5
C3
100
AcDbEntity
  8
レイヤー_1
  6
CONTINUOUS
 62
       3
100
AcDbLine
 10
106.21736654
 20
16.03233507
 30
0.0
 11
106.11142984
 21
15.85620456
 31
0.0
  0
LINE
  5
C4
100
AcDbEntity
  8
レイヤー_1
  6
CONTINUOUS
 62
       3
100
AcDbLine
 10
106.11142984
 20
-11.13138156
 30
0.0
 11
105.51112196
 21
-11.13138156
 31
0.0
  0
LINE
  5
C5
100
AcDbEntity
  8
レイヤー_1
  6
CONTINUOUS
 62
       3
100
AcDbLine
 10
106.11142984
 20
15.85620456
 30
0.0
 11
105.51112196
 21
15.85620456
 31
0.0
  0
LINE
  5
C6
100
AcDbEntity
  8
レイヤー_1
  6
CONTINUOUS
 62
       3
100
AcDbLine
 10
106.11142984
 20
-12.64851549
 30
0.0
 11
106.21736654
 21
-12.47281562
 31
0.0
  0
LINE
  5
C7
100
AcDbEntity
  8
レイヤー_1
  6
CONTINUOUS
 62
       3
100
AcDbLine
 10
106.21736654
 20
-12.47281562
 30
0.0
 11
106.28712971
 21
-12.26137288
 31
0.0
  0
LINE
  5
C8
100
AcDbEntity
  8
レイヤー_1
  6
CONTINUOUS
 62
       3
100
AcDbLine
 10
106.28712971
 20
-12.26137288
 30
0.0
 11
106.32244194
 21
-12.08395046
 31
0.0
  0
LINE
  5
C9
100
AcDbEntity
  8
レイヤー_1
  6
CONTINUOUS
 62
       3
100
AcDbLine
 10
106.32244194
 20
-12.08395046
 30
0.0
 11
106.32244194
 21
-11.87207709
 31
0.0
  0
LINE
  5
CA
100
AcDbEntity
  8
レイヤー_1
  6
CONTINUOUS
 62
       3
100
AcDbLine
 10
106.32244194
 20
-11.87207709
 30
0.0
 11
106.32244194
 21
-11.69594658
 31
0.0
  0
LINE
  5
CB
100
AcDbEntity
  8
レイヤー_1
  6
CONTINUOUS
 62
       3
100
AcDbLine
 10
106.32244194
 20
-11.69594658
 30
0.0
 11
106.28712971
 21
-11.48407321
 31
0.0
  0
LINE
  5
CC
100
AcDbEntity
  8
レイヤー_1
  6
CONTINUOUS
 62
       3
100
AcDbLine
 10
106.28712971
 20
-11.48407321
 30
0.0
 11
106.21736654
 21
-11.30880398
 31
0.0
  0
LINE
  5
CD
100
AcDbEntity
  8
レイヤー_1
  6
CONTINUOUS
 62
       3
100
AcDbLine
 10
106.21736654
 20
-11.30880398
 30
0.0
 11
106.11142984
 21
-11.13138156
 31
0.0
  0
LINE
  5
CE
100
AcDbEntity
  8
レイヤー_1
  6
CONTINUOUS
 62
       3
100
AcDbLine
 10
105.51112196
 20
32.3659634
 30
0.0
 11
105.61705864
 21
32.3659634
 31
0.0
  0
LINE
  5
CF
100
AcDbEntity
  8
レイヤー_1
  6
CONTINUOUS
 62
       3
100
AcDbLine
 10
105.61705864
 20
32.3659634
 30
0.0
 11
105.6876831
 21
32.40127563
 31
0.0
  0
LINE
  5
D0
100
AcDbEntity
  8
レイヤー_1
  6
CONTINUOUS
 62
       3
100
AcDbLine
 10
105.6876831
 20
32.40127563
 30
0.0
 11
105.79448106
 21
32.50635104
 31
0.0
  0
LINE
  5
D1
100
AcDbEntity
  8
レイヤー_1
  6
CONTINUOUS
 62
       3
100
AcDbLine
 10
105.79448106
 20
32.50635104
 30
0.0
 11
105.89955648
 21
32.71865505
 31
0.0
  0
LINE
  5
D2
100
AcDbEntity
  8
レイヤー_1
  6
CONTINUOUS
 62
       3
100
AcDbLine
 10
105.89955648
 20
32.71865505
 30
0.0
 11
106.00635443
 21
33.21259561
 31
0.0
  0
LINE
  5
D3
100
AcDbEntity
  8
レイヤー_1
  6
CONTINUOUS
 62
       3
100
AcDbLine
 10
106.00635443
 20
33.21259561
 30
0.0
 11
106.04080539
 21
33.77716064
 31
0.0
  0
LINE
  5
D4
100
AcDbEntity
  8
レイヤー_1
  6
CONTINUOUS
 62
       3
100
AcDbLine
 10
106.04080539
 20
33.77716064
 30
0.0
 11
106.04080539
 21
34.37703789
 31
0.0
  0
LINE
  5
D5
100
AcDbEntity
  8
レイヤー_1
  6
CONTINUOUS
 62
       3
100
AcDbLine
 10
105.51112196
 20
17.37290785
 30
0.0
 11
106.11142984
 21
17.37290785
 31
0.0
  0
LINE
  5
D6
100
AcDbEntity
  8
レイヤー_1
  6
CONTINUOUS
 62
       3
100
AcDbLine
 10
44.53925914
 20
32.3659634
 30
0.0
 11
105.51112196
 21
32.3659634
 31
0.0
  0
LINE
  5
D7
100
AcDbEntity
  8
レイヤー_1
  6
CONTINUOUS
 62
       3
100
AcDbLine
 10
44.53925914
 20
-27.64157104
 30
0.0
 11
42.77537025
 21
-27.46587117
 31
0.0
  0
LINE
  5
D8
100
AcDbEntity
  8
レイヤー_1
  6
CONTINUOUS
 62
       3
100
AcDbLine
 10
42.77537025
 20
-27.46587117
 30
0.0
 11
41.08210582
 21
-26.9719306
 31
0.0
  0
LINE
  5
D9
100
AcDbEntity
  8
レイヤー_1
  6
CONTINUOUS
 62
       3
100
AcDbLine
 10
41.08210582
 20
-26.9719306
 30
0.0
 11
39.52836776
 21
-26.12443711
 31
0.0
  0
LINE
  5
DA
100
AcDbEntity
  8
レイヤー_1
  6
CONTINUOUS
 62
       3
100
AcDbLine
 10
39.52836776
 20
-26.12443711
 30
0.0
 11
38.15291339
 21
-24.9957377
 31
0.0
  0
LINE
  5
DB
100
AcDbEntity
  8
レイヤー_1
  6
CONTINUOUS
 62
       3
100
AcDbLine
 10
38.15291339
 20
-24.9957377
 30
0.0
 11
37.05909557
 21
-23.6560262
 31
0.0
  0
LINE
  5
DC
100
AcDbEntity
  8
レイヤー_1
  6
CONTINUOUS
 62
       3
100
AcDbLine
 10
37.05909557
 20
-23.6560262
 30
0.0
 11
36.21246336
 21
-22.06740654
 31
0.0
  0
LINE
  5
DD
100
AcDbEntity
  8
レイヤー_1
  6
CONTINUOUS
 62
       3
100
AcDbLine
 10
36.21246336
 20
-22.06740654
 30
0.0
 11
35.71895344
 21
-20.41031561
 31
0.0
  0
LINE
  5
DE
100
AcDbEntity
  8
レイヤー_1
  6
CONTINUOUS
 62
       3
100
AcDbLine
 10
35.71895344
 20
-20.41031561
 30
0.0
 11
35.54239229
 21
-18.64642673
 31
0.0
  0
LINE
  5
DF
100
AcDbEntity
  8
レイヤー_1
  6
CONTINUOUS
 62
       3
100
AcDbLine
 10
35.54239229
 20
-18.64642673
 30
0.0
 11
35.54239229
 21
23.37038845
 31
0.0
  0
LINE
  5
E0
100
AcDbEntity
  8
レイヤー_1
  6
CONTINUOUS
 62
       3
100
AcDbLine
 10
44.53925914
 20
-27.64157104
 30
0.0
 11
105.51112196
 21
-27.64157104
 31
0.0
  0
LINE
  5
E1
100
AcDbEntity
  8
レイヤー_1
  6
CONTINUOUS
 62
       3
100
AcDbLine
 10
105.51112196
 20
-12.64851549
 30
0.0
 11
106.11142984
 21
-12.64851549
 31
0.0
  0
LINE
  5
E2
100
AcDbEntity
  8
レイヤー_1
  6
CONTINUOUS
 62
       3
100
AcDbLine
 10
106.04080539
 20
55.0
 30
0.0
 11
106.04080539
 21
37.37556287
 31
0.0
  0
LINE
  5
E3
100
AcDbEntity
  8
レイヤー_1
  6
CONTINUOUS
 62
       3
100
AcDbLine
 10
106.04080539
 20
-29.65221489
 30
0.0
 11
106.04080539
 21
-29.1229621
 31
0.0
  0
LINE
  5
E4
100
AcDbEntity
  8
レイヤー_1
  6
CONTINUOUS
 62
       3
100
AcDbLine
 10
106.04080539
 20
-29.1229621
 30
0.0
 11
106.00635443
 21
-28.87706841
 31
0.0
  0
LINE
  5
E5
100
AcDbEntity
  8
レイヤー_1
  6
CONTINUOUS
 62
       3
100
AcDbLine
 10
106.00635443
 20
-28.87706841
 30
0.0
 11
106.00635443
 21
-28.62902153
 31
0.0
  0
LINE
  5
E6
100
AcDbEntity
  8
レイヤー_1
  6
CONTINUOUS
 62
       3
100
AcDbLine
 10
106.00635443
 20
-28.62902153
 30
0.0
 11
105.97018093
 21
-28.31164211
 31
0.0
  0
LINE
  5
E7
100
AcDbEntity
  8
レイヤー_1
  6
CONTINUOUS
 62
       3
100
AcDbLine
 10
105.97018093
 20
-28.31164211
 30
0.0
 11
105.93572998
 21
-28.10019937
 31
0.0
  0
LINE
  5
E8
100
AcDbEntity
  8
レイヤー_1
  6
CONTINUOUS
 62
       3
100
AcDbLine
 10
105.93572998
 20
-28.10019937
 30
0.0
 11
105.86510551
 21
-27.9244995
 31
0.0
  0
LINE
  5
E9
100
AcDbEntity
  8
レイヤー_1
  6
CONTINUOUS
 62
       3
100
AcDbLine
 10
105.86510551
 20
-27.9244995
 30
0.0
 11
105.79448106
 21
-27.78325059
 31
0.0
  0
LINE
  5
EA
100
AcDbEntity
  8
レイヤー_1
  6
CONTINUOUS
 62
       3
100
AcDbLine
 10
105.79448106
 20
-27.78325059
 30
0.0
 11
105.6876831
 21
-27.67688327
 31
0.0
  0
LINE
  5
EB
100
AcDbEntity
  8
レイヤー_1
  6
CONTINUOUS
 62
       3
100
AcDbLine
 10
105.6876831
 20
-27.67688327
 30
0.0
 11
105.61705864
 21
-27.64157104
 31
0.0
  0
LINE
  5
EC
100
AcDbEntity
  8
レイヤー_1
  6
CONTINUOUS
 62
       3
100
AcDbLine
 10
105.61705864
 20
-27.64157104
 30
0.0
 11
105.51112196
 21
-27.64157104
 31
0.0
  0
LINE
  5
ED
100
AcDbEntity
  8
レイヤー_1
  6
CONTINUOUS
 62
       3
100
AcDbLine
 10
105.51112196
 20
-34.62650213
 30
0.0
 11
105.61705864
 21
-34.62650213
 31
0.0
  0
LINE
  5
EE
100
AcDbEntity
  8
レイヤー_1
  6
CONTINUOUS
 62
       3
100
AcDbLine
 10
105.61705864
 20
-34.62650213
 30
0.0
 11
105.6876831
 21
-34.59032863
 31
0.0
  0
LINE
  5
EF
100
AcDbEntity
  8
レイヤー_1
  6
CONTINUOUS
 62
       3
100
AcDbLine
 10
105.6876831
 20
-34.59032863
 30
0.0
 11
105.79448106
 21
-34.48525322
 31
0.0
  0
LINE
  5
F0
100
AcDbEntity
  8
レイヤー_1
  6
CONTINUOUS
 62
       3
100
AcDbLine
 10
105.79448106
 20
-34.48525322
 30
0.0
 11
105.82893202
 21
-34.41462876
 31
0.0
  0
LINE
  5
F1
100
AcDbEntity
  8
レイヤー_1
  6
CONTINUOUS
 62
       3
100
AcDbLine
 10
105.82893202
 20
-34.41462876
 30
0.0
 11
105.89955648
 21
-34.30998399
 31
0.0
  0
LINE
  5
F2
100
AcDbEntity
  8
レイヤー_1
  6
CONTINUOUS
 62
       3
100
AcDbLine
 10
105.89955648
 20
-34.30998399
 30
0.0
 11
105.97018093
 21
-34.06193711
 31
0.0
  0
LINE
  5
F3
100
AcDbEntity
  8
レイヤー_1
  6
CONTINUOUS
 62
       3
100
AcDbLine
 10
105.97018093
 20
-34.06193711
 30
0.0
 11
106.00635443
 21
-33.81518215
 31
0.0
  0
LINE
  5
F4
100
AcDbEntity
  8
レイヤー_1
  6
CONTINUOUS
 62
       3
100
AcDbLine
 10
106.00635443
 20
-33.81518215
 30
0.0
 11
106.00635443
 21
-33.53268432
 31
0.0
  0
LINE
  5
F5
100
AcDbEntity
  8
レイヤー_1
  6
CONTINUOUS
 62
       3
100
AcDbLine
 10
106.00635443
 20
-33.53268432
 30
0.0
 11
106.04080539
 21
-33.21616617
 31
0.0
  0
LINE
  5
F6
100
AcDbEntity
  8
レイヤー_1
  6
CONTINUOUS
 62
       3
100
AcDbLine
 10
106.04080539
 20
-33.21616617
 30
0.0
 11
106.04080539
 21
-32.9332377
 31
0.0
  0
LINE
  5
F7
100
AcDbEntity
  8
レイヤー_1
  6
CONTINUOUS
 62
       3
100
AcDbLine
 10
106.04080539
 20
-32.9332377
 30
0.0
 11
106.04080539
 21
-32.65073987
 31
0.0
  0
LINE
  5
F8
100
AcDbEntity
  8
レイヤー_1
  6
CONTINUOUS
 62
       3
100
AcDbLine
 10
106.04080539
 20
19.53384399
 30
0.0
 11
106.04080539
 21
17.37290785
 31
0.0
  0
LINE
  5
F9
100
AcDbEntity
  8
レイヤー_1
  6
CONTINUOUS
 62
       3
100
AcDbLine
 10
106.04080539
 20
34.19444783
 30
0.0
 11
106.04080539
 21
19.53384399
 31
0.0
  0
LINE
  5
FA
100
AcDbEntity
  8
レイヤー_1
  6
CONTINUOUS
 62
       3
100
AcDbLine
 10
106.04080539
 20
15.85620456
 30
0.0
 11
106.04080539
 21
-11.13138156
 31
0.0
  0
LINE
  5
FB
100
AcDbEntity
  8
レイヤー_1
  6
CONTINUOUS
 62
       3
100
AcDbLine
 10
106.04080539
 20
-32.65073987
 30
0.0
 11
106.04080539
 21
-50.0
 31
0.0
  0
LINE
  5
FC
100
AcDbEntity
  8
レイヤー_1
  6
CONTINUOUS
 62
       3
100
AcDbLine
 10
106.04080539
 20
-15.1530999
 30
0.0
 11
106.04080539
 21
-29.65221489
 31
0.0
  0
LINE
  5
FD
100
AcDbEntity
  8
レイヤー_1
  6
CONTINUOUS
 62
       3
100
AcDbLine
 10
106.04080539
 20
-32.65073987
 30
0.0
 11
106.04080539
 21
-29.65221489
 31
0.0
  0
LINE
  5
FE
100
AcDbEntity
  8
レイヤー_1
  6
CONTINUOUS
 62
       3
100
AcDbLine
 10
106.04080539
 20
37.37556287
 30
0.0
 11
106.04080539
 21
34.37703789
 31
0.0
  0
LINE
  5
FF
100
AcDbEntity
  8
レイヤー_1
  6
CONTINUOUS
 62
       3
100
AcDbLine
 10
4.03871663
 20
-49.7
 30
0.0
 11
4.03871663
 21
54.7
 31
0.0
  0
LINE
  5
100
100
AcDbEntity
  8
レイヤー_1
  6
CONTINUOUS
 62
       3
100
AcDbLine
 10
12.04425725
 20
53.35649955
 30
0.0
 11
12.04425725
 21
36.35236951
 31
0.0
  0
LINE
  5
101
100
AcDbEntity
  8
レイヤー_1
  6
CONTINUOUS
 62
       3
100
AcDbLine
 10
-89.83841281
 20
-50.0
 30
0.0
 11
-89.83841281
 21
-54.5
 31
0.0
  0
LINE
  5
102
100
AcDbEntity
  8
レイヤー_1
  6
CONTINUOUS
 62
       3
100
AcDbLine
 10
-73.8221639
 20
-54.5
 30
0.0
 11
-73.8221639
 21
-50.0
 31
0.0
  0
LINE
  5
103
100
AcDbEntity
  8
レイヤー_1
  6
CONTINUOUS
 62
       3
100
AcDbLine
 10
-99.96225653
 20
-43.1302897
 30
0.0
 11
-99.221561
 21
-42.98904079
 31
0.0
  0
LINE
  5
104
100
AcDbEntity
  8
レイヤー_1
  6
CONTINUOUS
 62
       3
100
AcDbLine
 10
-99.221561
 20
-42.98904079
 30
0.0
 11
-98.55192056
 21
-42.5286899
 31
0.0
  0
LINE
  5
105
100
AcDbEntity
  8
レイヤー_1
  6
CONTINUOUS
 62
       3
100
AcDbLine
 10
-98.55192056
 20
-42.5286899
 30
0.0
 11
-98.12860446
 21
-41.89522297
 31
0.0
  0
LINE
  5
106
100
AcDbEntity
  8
レイヤー_1
  6
CONTINUOUS
 62
       3
100
AcDbLine
 10
-98.12860446
 20
-41.89522297
 30
0.0
 11
-97.9869249
 21
-41.11835394
 31
0.0
  0
LINE
  5
107
100
AcDbEntity
  8
レイヤー_1
  6
CONTINUOUS
 62
       3
100
AcDbLine
 10
-97.9869249
 20
-41.11835394
 30
0.0
 11
-98.12860446
 21
-40.37765841
 31
0.0
  0
LINE
  5
108
100
AcDbEntity
  8
レイヤー_1
  6
CONTINUOUS
 62
       3
100
AcDbLine
 10
-98.12860446
 20
-40.37765841
 30
0.0
 11
-98.55192056
 21
-39.7071567
 31
0.0
  0
LINE
  5
109
100
AcDbEntity
  8
レイヤー_1
  6
CONTINUOUS
 62
       3
100
AcDbLine
 10
-98.55192056
 20
-39.7071567
 30
0.0
 11
-99.221561
 21
-39.28384059
 31
0.0
  0
LINE
  5
10A
100
AcDbEntity
  8
レイヤー_1
  6
CONTINUOUS
 62
       3
100
AcDbLine
 10
-99.221561
 20
-39.28384059
 30
0.0
 11
-99.96225653
 21
-39.14302231
 31
0.0
  0
LINE
  5
10B
100
AcDbEntity
  8
レイヤー_1
  6
CONTINUOUS
 62
       3
100
AcDbLine
 10
-99.96225653
 20
-39.14302231
 30
0.0
 11
-100.73912556
 21
-39.28384059
 31
0.0
  0
LINE
  5
10C
100
AcDbEntity
  8
レイヤー_1
  6
CONTINUOUS
 62
       3
100
AcDbLine
 10
-100.73912556
 20
-39.28384059
 30
0.0
 11
-101.37431504
 21
-39.7071567
 31
0.0
  0
LINE
  5
10D
100
AcDbEntity
  8
レイヤー_1
  6
CONTINUOUS
 62
       3
100
AcDbLine
 10
-101.37431504
 20
-39.7071567
 30
0.0
 11
-101.8320821
 21
-40.37765841
 31
0.0
  0
LINE
  5
10E
100
AcDbEntity
  8
レイヤー_1
  6
CONTINUOUS
 62
       3
100
AcDbLine
 10
-101.8320821
 20
-40.37765841
 30
0.0
 11
-101.97419229
 21
-41.11835394
 31
0.0
  0
LINE
  5
10F
100
AcDbEntity
  8
レイヤー_1
  6
CONTINUOUS
 62
       3
100
AcDbLine
 10
-101.97419229
 20
-41.11835394
 30
0.0
 11
-101.8320821
 21
-41.89522297
 31
0.0
  0
LINE
  5
110
100
AcDbEntity
  8
レイヤー_1
  6
CONTINUOUS
 62
       3
100
AcDbLine
 10
-101.8320821
 20
-41.89522297
 30
0.0
 11
-101.37431504
 21
-42.5286899
 31
0.0
  0
LINE
  5
111
100
AcDbEntity
  8
レイヤー_1
  6
CONTINUOUS
 62
       3
100
AcDbLine
 10
-101.37431504
 20
-42.5286899
 30
0.0
 11
-100.73912556
 21
-42.98904079
 31
0.0
  0
LINE
  5
112
100
AcDbEntity
  8
レイヤー_1
  6
CONTINUOUS
 62
       3
100
AcDbLine
 10
-100.73912556
 20
-42.98904079
 30
0.0
 11
-99.96225653
 21
-43.1302897
 31
0.0
  0
LINE
  5
113
100
AcDbEntity
  8
レイヤー_1
  6
CONTINUOUS
 62
       3
100
AcDbLine
 10
-99.96225653
 20
-41.96584743
 30
0.0
 11
-100.31580945
 21
-41.92967393
 31
0.0
  0
LINE
  5
114
100
AcDbEntity
  8
レイヤー_1
  6
CONTINUOUS
 62
       3
100
AcDbLine
 10
-100.31580945
 20
-41.92967393
 30
0.0
 11
-100.56299505
 21
-41.71736992
 31
0.0
  0
LINE
  5
115
100
AcDbEntity
  8
レイヤー_1
  6
CONTINUOUS
 62
       3
100
AcDbLine
 10
-100.56299505
 20
-41.71736992
 30
0.0
 11
-100.77443779
 21
-41.47104559
 31
0.0
  0
LINE
  5
116
100
AcDbEntity
  8
レイヤー_1
  6
CONTINUOUS
 62
       3
100
AcDbLine
 10
-100.77443779
 20
-41.47104559
 30
0.0
 11
-100.80888874
 21
-41.11835394
 31
0.0
  0
LINE
  5
117
100
AcDbEntity
  8
レイヤー_1
  6
CONTINUOUS
 62
       3
100
AcDbLine
 10
-100.80888874
 20
-41.11835394
 30
0.0
 11
-100.77443779
 21
-40.80097452
 31
0.0
  0
LINE
  5
118
100
AcDbEntity
  8
レイヤー_1
  6
CONTINUOUS
 62
       3
100
AcDbLine
 10
-100.77443779
 20
-40.80097452
 30
0.0
 11
-100.56299505
 21
-40.51890732
 31
0.0
  0
LINE
  5
119
100
AcDbEntity
  8
レイヤー_1
  6
CONTINUOUS
 62
       3
100
AcDbLine
 10
-100.56299505
 20
-40.51890732
 30
0.0
 11
-100.31580945
 21
-40.34320745
 31
0.0
  0
LINE
  5
11A
100
AcDbEntity
  8
レイヤー_1
  6
CONTINUOUS
 62
       3
100
AcDbLine
 10
-100.31580945
 20
-40.34320745
 30
0.0
 11
-99.96225653
 21
-40.272583
 31
0.0
  0
LINE
  5
11B
100
AcDbEntity
  8
レイヤー_1
  6
CONTINUOUS
 62
       3
100
AcDbLine
 10
-99.96225653
 20
-40.272583
 30
0.0
 11
-99.64573838
 21
-40.34320745
 31
0.0
  0
LINE
  5
11C
100
AcDbEntity
  8
レイヤー_1
  6
CONTINUOUS
 62
       3
100
AcDbLine
 10
-99.64573838
 20
-40.34320745
 30
0.0
 11
-99.36324054
 21
-40.51890732
 31
0.0
  0
LINE
  5
11D
100
AcDbEntity
  8
レイヤー_1
  6
CONTINUOUS
 62
       3
100
AcDbLine
 10
-99.36324054
 20
-40.51890732
 30
0.0
 11
-99.18624877
 21
-40.80097452
 31
0.0
  0
LINE
  5
11E
100
AcDbEntity
  8
レイヤー_1
  6
CONTINUOUS
 62
       3
100
AcDbLine
 10
-99.18624877
 20
-40.80097452
 30
0.0
 11
-99.11562431
 21
-41.11835394
 31
0.0
  0
LINE
  5
11F
100
AcDbEntity
  8
レイヤー_1
  6
CONTINUOUS
 62
       3
100
AcDbLine
 10
-99.11562431
 20
-41.11835394
 30
0.0
 11
-99.18624877
 21
-41.47104559
 31
0.0
  0
LINE
  5
120
100
AcDbEntity
  8
レイヤー_1
  6
CONTINUOUS
 62
       3
100
AcDbLine
 10
-99.18624877
 20
-41.47104559
 30
0.0
 11
-99.36324054
 21
-41.71736992
 31
0.0
  0
LINE
  5
121
100
AcDbEntity
  8
レイヤー_1
  6
CONTINUOUS
 62
       3
100
AcDbLine
 10
-99.36324054
 20
-41.71736992
 30
0.0
 11
-99.64573838
 21
-41.92967393
 31
0.0
  0
LINE
  5
122
100
AcDbEntity
  8
レイヤー_1
  6
CONTINUOUS
 62
       3
100
AcDbLine
 10
-99.64573838
 20
-41.92967393
 30
0.0
 11
-99.96225653
 21
-41.96584743
 31
0.0
  0
LINE
  5
123
100
AcDbEntity
  8
レイヤー_1
  6
CONTINUOUS
 62
       3
100
AcDbLine
 10
-95.72909545
 20
-28.13723415
 30
0.0
 11
-96.57572767
 21
-27.99598524
 31
0.0
  0
LINE
  5
124
100
AcDbEntity
  8
レイヤー_1
  6
CONTINUOUS
 62
       3
100
AcDbLine
 10
-96.57572767
 20
-27.99598524
 30
0.0
 11
-97.31642319
 21
-27.53563435
 31
0.0
  0
LINE
  5
125
100
AcDbEntity
  8
レイヤー_1
  6
CONTINUOUS
 62
       3
100
AcDbLine
 10
-97.31642319
 20
-27.53563435
 30
0.0
 11
-97.88184949
 21
-26.86599392
 31
0.0
  0
LINE
  5
126
100
AcDbEntity
  8
レイヤー_1
  6
CONTINUOUS
 62
       3
100
AcDbLine
 10
-97.88184949
 20
-26.86599392
 30
0.0
 11
-98.19836764
 21
-26.05467393
 31
0.0
  0
LINE
  5
127
100
AcDbEntity
  8
レイヤー_1
  6
CONTINUOUS
 62
       3
100
AcDbLine
 10
-98.19836764
 20
-26.05467393
 30
0.0
 11
-98.19836764
 21
-25.20890299
 31
0.0
  0
LINE
  5
128
100
AcDbEntity
  8
レイヤー_1
  6
CONTINUOUS
 62
       3
100
AcDbLine
 10
-98.19836764
 20
-25.20890299
 30
0.0
 11
-97.88184949
 21
-24.3614095
 31
0.0
  0
LINE
  5
129
100
AcDbEntity
  8
レイヤー_1
  6
CONTINUOUS
 62
       3
100
AcDbLine
 10
-97.88184949
 20
-24.3614095
 30
0.0
 11
-97.31642319
 21
-23.72751193
 31
0.0
  0
LINE
  5
12A
100
AcDbEntity
  8
レイヤー_1
  6
CONTINUOUS
 62
       3
100
AcDbLine
 10
-97.31642319
 20
-23.72751193
 30
0.0
 11
-96.57572767
 21
-23.26802232
 31
0.0
  0
LINE
  5
12B
100
AcDbEntity
  8
レイヤー_1
  6
CONTINUOUS
 62
       3
100
AcDbLine
 10
-96.57572767
 20
-23.26802232
 30
0.0
 11
-95.72909545
 21
-23.12591213
 31
0.0
  0
LINE
  5
12C
100
AcDbEntity
  8
レイヤー_1
  6
CONTINUOUS
 62
       3
100
AcDbLine
 10
-95.72909545
 20
-23.12591213
 30
0.0
 11
-94.88246323
 21
-23.26802232
 31
0.0
  0
LINE
  5
12D
100
AcDbEntity
  8
レイヤー_1
  6
CONTINUOUS
 62
       3
100
AcDbLine
 10
-94.88246323
 20
-23.26802232
 30
0.0
 11
-94.10688611
 21
-23.72751193
 31
0.0
  0
LINE
  5
12E
100
AcDbEntity
  8
レイヤー_1
  6
CONTINUOUS
 62
       3
100
AcDbLine
 10
-94.10688611
 20
-23.72751193
 30
0.0
 11
-93.57720268
 21
-24.3614095
 31
0.0
  0
LINE
  5
12F
100
AcDbEntity
  8
レイヤー_1
  6
CONTINUOUS
 62
       3
100
AcDbLine
 10
-93.57720268
 20
-24.3614095
 30
0.0
 11
-93.2602539
 21
-25.20890299
 31
0.0
  0
LINE
  5
130
100
AcDbEntity
  8
レイヤー_1
  6
CONTINUOUS
 62
       3
100
AcDbLine
 10
-93.2602539
 20
-25.20890299
 30
0.0
 11
-93.2602539
 21
-26.05467393
 31
0.0
  0
LINE
  5
131
100
AcDbEntity
  8
レイヤー_1
  6
CONTINUOUS
 62
       3
100
AcDbLine
 10
-93.2602539
 20
-26.05467393
 30
0.0
 11
-93.57720268
 21
-26.86599392
 31
0.0
  0
LINE
  5
132
100
AcDbEntity
  8
レイヤー_1
  6
CONTINUOUS
 62
       3
100
AcDbLine
 10
-93.57720268
 20
-26.86599392
 30
0.0
 11
-94.10688611
 21
-27.53563435
 31
0.0
  0
LINE
  5
133
100
AcDbEntity
  8
レイヤー_1
  6
CONTINUOUS
 62
       3
100
AcDbLine
 10
-94.10688611
 20
-27.53563435
 30
0.0
 11
-94.88246323
 21
-27.99598524
 31
0.0
  0
LINE
  5
134
100
AcDbEntity
  8
レイヤー_1
  6
CONTINUOUS
 62
       3
100
AcDbLine
 10
-94.88246323
 20
-27.99598524
 30
0.0
 11
-95.72909545
 21
-28.13723415
 31
0.0
  0
LINE
  5
135
100
AcDbEntity
  8
レイヤー_1
  6
CONTINUOUS
 62
       3
100
AcDbLine
 10
-95.72909545
 20
-26.93661837
 30
0.0
 11
-95.23601616
 21
-26.8319736
 31
0.0
  0
LINE
  5
136
100
AcDbEntity
  8
レイヤー_1
  6
CONTINUOUS
 62
       3
100
AcDbLine
 10
-95.23601616
 20
-26.8319736
 30
0.0
 11
-94.81183878
 21
-26.54861449
 31
0.0
  0
LINE
  5
137
100
AcDbEntity
  8
レイヤー_1
  6
CONTINUOUS
 62
       3
100
AcDbLine
 10
-94.81183878
 20
-26.54861449
 30
0.0
 11
-94.53020222
 21
-26.12529839
 31
0.0
  0
LINE
  5
138
100
AcDbEntity
  8
レイヤー_1
  6
CONTINUOUS
 62
       3
100
AcDbLine
 10
-94.53020222
 20
-26.12529839
 30
0.0
 11
-94.42469617
 21
-25.6322191
 31
0.0
  0
LINE
  5
139
100
AcDbEntity
  8
レイヤー_1
  6
CONTINUOUS
 62
       3
100
AcDbLine
 10
-94.42469617
 20
-25.6322191
 30
0.0
 11
-94.53020222
 21
-25.13827853
 31
0.0
  0
LINE
  5
13A
100
AcDbEntity
  8
レイヤー_1
  6
CONTINUOUS
 62
       3
100
AcDbLine
 10
-94.53020222
 20
-25.13827853
 30
0.0
 11
-94.81183878
 21
-24.71410115
 31
0.0
  0
LINE
  5
13B
100
AcDbEntity
  8
レイヤー_1
  6
CONTINUOUS
 62
       3
100
AcDbLine
 10
-94.81183878
 20
-24.71410115
 30
0.0
 11
-95.23601616
 21
-24.43203396
 31
0.0
  0
LINE
  5
13C
100
AcDbEntity
  8
レイヤー_1
  6
CONTINUOUS
 62
       3
100
AcDbLine
 10
-95.23601616
 20
-24.43203396
 30
0.0
 11
-95.72909545
 21
-24.32695854
 31
0.0
  0
LINE
  5
13D
100
AcDbEntity
  8
レイヤー_1
  6
CONTINUOUS
 62
       3
100
AcDbLine
 10
-95.72909545
 20
-24.32695854
 30
0.0
 11
-96.22303602
 21
-24.43203396
 31
0.0
  0
LINE
  5
13E
100
AcDbEntity
  8
レイヤー_1
  6
CONTINUOUS
 62
       3
100
AcDbLine
 10
-96.22303602
 20
-24.43203396
 30
0.0
 11
-96.64635212
 21
-24.71410115
 31
0.0
  0
LINE
  5
13F
100
AcDbEntity
  8
レイヤー_1
  6
CONTINUOUS
 62
       3
100
AcDbLine
 10
-96.64635212
 20
-24.71410115
 30
0.0
 11
-96.92928059
 21
-25.13827853
 31
0.0
  0
LINE
  5
140
100
AcDbEntity
  8
レイヤー_1
  6
CONTINUOUS
 62
       3
100
AcDbLine
 10
-96.92928059
 20
-25.13827853
 30
0.0
 11
-97.03521728
 21
-25.6322191
 31
0.0
  0
LINE
  5
141
100
AcDbEntity
  8
レイヤー_1
  6
CONTINUOUS
 62
       3
100
AcDbLine
 10
-97.03521728
 20
-25.6322191
 30
0.0
 11
-96.92928059
 21
-26.12529839
 31
0.0
  0
LINE
  5
142
100
AcDbEntity
  8
レイヤー_1
  6
CONTINUOUS
 62
       3
100
AcDbLine
 10
-96.92928059
 20
-26.12529839
 30
0.0
 11
-96.64635212
 21
-26.54861449
 31
0.0
  0
LINE
  5
143
100
AcDbEntity
  8
レイヤー_1
  6
CONTINUOUS
 62
       3
100
AcDbLine
 10
-96.64635212
 20
-26.54861449
 30
0.0
 11
-96.22303602
 21
-26.8319736
 31
0.0
  0
LINE
  5
144
100
AcDbEntity
  8
レイヤー_1
  6
CONTINUOUS
 62
       3
100
AcDbLine
 10
-96.22303602
 20
-26.8319736
 30
0.0
 11
-95.72909545
 21
-26.93661837
 31
0.0
  0
LINE
  5
145
100
AcDbEntity
  8
レイヤー_1
  6
CONTINUOUS
 62
       3
100
AcDbLine
 10
-91.7435506
 20
-25.6322191
 30
0.0
 11
-91.88436889
 21
-24.50265841
 31
0.0
  0
LINE
  5
146
100
AcDbEntity
  8
レイヤー_1
  6
CONTINUOUS
 62
       3
100
AcDbLine
 10
-91.88436889
 20
-24.50265841
 30
0.0
 11
-92.37830944
 21
-23.47946505
 31
0.0
  0
LINE
  5
147
100
AcDbEntity
  8
レイヤー_1
  6
CONTINUOUS
 62
       3
100
AcDbLine
 10
-92.37830944
 20
-23.47946505
 30
0.0
 11
-93.11857434
 21
-22.59752061
 31
0.0
  0
LINE
  5
148
100
AcDbEntity
  8
レイヤー_1
  6
CONTINUOUS
 62
       3
100
AcDbLine
 10
-93.11857434
 20
-22.59752061
 30
0.0
 11
-94.07157389
 21
-21.998074
 31
0.0
  0
LINE
  5
149
100
AcDbEntity
  8
レイヤー_1
  6
CONTINUOUS
 62
       3
100
AcDbLine
 10
-94.07157389
 20
-21.998074
 30
0.0
 11
-95.1653917
 21
-21.68112521
 31
0.0
  0
LINE
  5
14A
100
AcDbEntity
  8
レイヤー_1
  6
CONTINUOUS
 62
       3
100
AcDbLine
 10
-95.1653917
 20
-21.68112521
 30
0.0
 11
-96.29409111
 21
-21.68112521
 31
0.0
  0
LINE
  5
14B
100
AcDbEntity
  8
レイヤー_1
  6
CONTINUOUS
 62
       3
100
AcDbLine
 10
-96.29409111
 20
-21.68112521
 30
0.0
 11
-97.38704764
 21
-21.998074
 31
0.0
  0
LINE
  5
14C
100
AcDbEntity
  8
レイヤー_1
  6
CONTINUOUS
 62
       3
100
AcDbLine
 10
-97.38704764
 20
-21.998074
 30
0.0
 11
-98.33961655
 21
-22.59752061
 31
0.0
  0
LINE
  5
14D
100
AcDbEntity
  8
レイヤー_1
  6
CONTINUOUS
 62
       3
100
AcDbLine
 10
-98.33961655
 20
-22.59752061
 30
0.0
 11
-99.08031207
 21
-23.47946505
 31
0.0
  0
LINE
  5
14E
100
AcDbEntity
  8
レイヤー_1
  6
CONTINUOUS
 62
       3
100
AcDbLine
 10
-99.08031207
 20
-23.47946505
 30
0.0
 11
-99.57511392
 21
-24.50265841
 31
0.0
  0
LINE
  5
14F
100
AcDbEntity
  8
レイヤー_1
  6
CONTINUOUS
 62
       3
100
AcDbLine
 10
-99.57511392
 20
-24.50265841
 30
0.0
 11
-99.71636284
 21
-25.6322191
 31
0.0
  0
LINE
  5
150
100
AcDbEntity
  8
レイヤー_1
  6
CONTINUOUS
 62
       3
100
AcDbLine
 10
-99.71636284
 20
-25.6322191
 30
0.0
 11
-99.57511392
 21
-26.76048787
 31
0.0
  0
LINE
  5
151
100
AcDbEntity
  8
レイヤー_1
  6
CONTINUOUS
 62
       3
100
AcDbLine
 10
-99.57511392
 20
-26.76048787
 30
0.0
 11
-99.08031207
 21
-27.78411186
 31
0.0
  0
LINE
  5
152
100
AcDbEntity
  8
レイヤー_1
  6
CONTINUOUS
 62
       3
100
AcDbLine
 10
-99.08031207
 20
-27.78411186
 30
0.0
 11
-98.33961655
 21
-28.66605631
 31
0.0
  0
LINE
  5
153
100
AcDbEntity
  8
レイヤー_1
  6
CONTINUOUS
 62
       3
100
AcDbLine
 10
-98.33961655
 20
-28.66605631
 30
0.0
 11
-97.38704764
 21
-29.26507228
 31
0.0
  0
LINE
  5
154
100
AcDbEntity
  8
レイヤー_1
  6
CONTINUOUS
 62
       3
100
AcDbLine
 10
-97.38704764
 20
-29.26507228
 30
0.0
 11
-96.29409111
 21
-29.58245171
 31
0.0
  0
LINE
  5
155
100
AcDbEntity
  8
レイヤー_1
  6
CONTINUOUS
 62
       3
100
AcDbLine
 10
-96.29409111
 20
-29.58245171
 30
0.0
 11
-95.1653917
 21
-29.58245171
 31
0.0
  0
LINE
  5
156
100
AcDbEntity
  8
レイヤー_1
  6
CONTINUOUS
 62
       3
100
AcDbLine
 10
-95.1653917
 20
-29.58245171
 30
0.0
 11
-94.07157389
 21
-29.26507228
 31
0.0
  0
LINE
  5
157
100
AcDbEntity
  8
レイヤー_1
  6
CONTINUOUS
 62
       3
100
AcDbLine
 10
-94.07157389
 20
-29.26507228
 30
0.0
 11
-93.11857434
 21
-28.66605631
 31
0.0
  0
LINE
  5
158
100
AcDbEntity
  8
レイヤー_1
  6
CONTINUOUS
 62
       3
100
AcDbLine
 10
-93.11857434
 20
-28.66605631
 30
0.0
 11
-92.37830944
 21
-27.78411186
 31
0.0
  0
LINE
  5
159
100
AcDbEntity
  8
レイヤー_1
  6
CONTINUOUS
 62
       3
100
AcDbLine
 10
-92.37830944
 20
-27.78411186
 30
0.0
 11
-91.88436889
 21
-26.76048787
 31
0.0
  0
LINE
  5
15A
100
AcDbEntity
  8
レイヤー_1
  6
CONTINUOUS
 62
       3
100
AcDbLine
 10
-91.88436889
 20
-26.76048787
 30
0.0
 11
-91.7435506
 21
-25.6322191
 31
0.0
  0
LINE
  5
15B
100
AcDbEntity
  8
レイヤー_1
  6
CONTINUOUS
 62
       3
100
AcDbLine
 10
-97.21134778
 20
-42.1415473
 30
0.0
 11
-97.38704764
 21
-43.05966524
 31
0.0
  0
LINE
  5
15C
100
AcDbEntity
  8
レイヤー_1
  6
CONTINUOUS
 62
       3
100
AcDbLine
 10
-97.38704764
 20
-43.05966524
 30
0.0
 11
-97.88184949
 21
-43.90543619
 31
0.0
  0
LINE
  5
15D
100
AcDbEntity
  8
レイヤー_1
  6
CONTINUOUS
 62
       3
100
AcDbLine
 10
-97.88184949
 20
-43.90543619
 30
0.0
 11
-98.58723278
 21
-44.5048828
 31
0.0
  0
LINE
  5
15E
100
AcDbEntity
  8
レイヤー_1
  6
CONTINUOUS
 62
       3
100
AcDbLine
 10
-98.58723278
 20
-44.5048828
 30
0.0
 11
-99.50448947
 21
-44.82355413
 31
0.0
  0
LINE
  5
15F
100
AcDbEntity
  8
レイヤー_1
  6
CONTINUOUS
 62
       3
100
AcDbLine
 10
-99.50448947
 20
-44.82355413
 30
0.0
 11
-100.45705836
 21
-44.82355413
 31
0.0
  0
LINE
  5
160
100
AcDbEntity
  8
レイヤー_1
  6
CONTINUOUS
 62
       3
100
AcDbLine
 10
-100.45705836
 20
-44.82355413
 30
0.0
 11
-101.33900281
 21
-44.5048828
 31
0.0
  0
LINE
  5
161
100
AcDbEntity
  8
レイヤー_1
  6
CONTINUOUS
 62
       3
100
AcDbLine
 10
-101.33900281
 20
-44.5048828
 30
0.0
 11
-102.07969834
 21
-43.90543619
 31
0.0
  0
LINE
  5
162
100
AcDbEntity
  8
レイヤー_1
  6
CONTINUOUS
 62
       3
100
AcDbLine
 10
-102.07969834
 20
-43.90543619
 30
0.0
 11
-102.57277763
 21
-43.05966524
 31
0.0
  0
LINE
  5
163
100
AcDbEntity
  8
レイヤー_1
  6
CONTINUOUS
 62
       3
100
AcDbLine
 10
-102.57277763
 20
-43.05966524
 30
0.0
 11
-102.71402655
 21
-42.1415473
 31
0.0
  0
LINE
  5
164
100
AcDbEntity
  8
レイヤー_1
  6
CONTINUOUS
 62
       3
100
AcDbLine
 10
-102.71402655
 20
-42.1415473
 30
0.0
 11
-102.71402655
 21
-40.13133408
 31
0.0
  0
LINE
  5
165
100
AcDbEntity
  8
レイヤー_1
  6
CONTINUOUS
 62
       3
100
AcDbLine
 10
-102.71402655
 20
-40.13133408
 30
0.0
 11
-102.57277763
 21
-39.17919582
 31
0.0
  0
LINE
  5
166
100
AcDbEntity
  8
レイヤー_1
  6
CONTINUOUS
 62
       3
100
AcDbLine
 10
-102.57277763
 20
-39.17919582
 30
0.0
 11
-102.07969834
 21
-38.36744519
 31
0.0
  0
LINE
  5
167
100
AcDbEntity
  8
レイヤー_1
  6
CONTINUOUS
 62
       3
100
AcDbLine
 10
-102.07969834
 20
-38.36744519
 30
0.0
 11
-101.33900281
 21
-37.73182508
 31
0.0
  0
LINE
  5
168
100
AcDbEntity
  8
レイヤー_1
  6
CONTINUOUS
 62
       3
100
AcDbLine
 10
-101.33900281
 20
-37.73182508
 30
0.0
 11
-100.45705836
 21
-37.41530693
 31
0.0
  0
LINE
  5
169
100
AcDbEntity
  8
レイヤー_1
  6
CONTINUOUS
 62
       3
100
AcDbLine
 10
-100.45705836
 20
-37.41530693
 30
0.0
 11
-99.50448947
 21
-37.41530693
 31
0.0
  0
LINE
  5
16A
100
AcDbEntity
  8
レイヤー_1
  6
CONTINUOUS
 62
       3
100
AcDbLine
 10
-99.50448947
 20
-37.41530693
 30
0.0
 11
-98.58723278
 21
-37.73182508
 31
0.0
  0
LINE
  5
16B
100
AcDbEntity
  8
レイヤー_1
  6
CONTINUOUS
 62
       3
100
AcDbLine
 10
-98.58723278
 20
-37.73182508
 30
0.0
 11
-97.88184949
 21
-38.36744519
 31
0.0
  0
LINE
  5
16C
100
AcDbEntity
  8
レイヤー_1
  6
CONTINUOUS
 62
       3
100
AcDbLine
 10
-97.88184949
 20
-38.36744519
 30
0.0
 11
-97.38704764
 21
-39.17919582
 31
0.0
  0
LINE
  5
16D
100
AcDbEntity
  8
レイヤー_1
  6
CONTINUOUS
 62
       3
100
AcDbLine
 10
-97.38704764
 20
-39.17919582
 30
0.0
 11
-97.21134778
 21
-40.13133408
 31
0.0
  0
LINE
  5
16E
100
AcDbEntity
  8
レイヤー_1
  6
CONTINUOUS
 62
       3
100
AcDbLine
 10
-97.21134778
 20
-40.13133408
 30
0.0
 11
-97.21134778
 21
-42.1415473
 31
0.0
  0
LINE
  5
16F
100
AcDbEntity
  8
レイヤー_1
  6
CONTINUOUS
 62
       3
100
AcDbLine
 10
-104.83146836
 20
43.76061672
 30
0.0
 11
-58.82910834
 21
43.76061672
 31
0.0
  0
LINE
  5
170
100
AcDbEntity
  8
レイヤー_1
  6
CONTINUOUS
 62
       3
100
AcDbLine
 10
-58.82910834
 20
43.76061672
 30
0.0
 11
-58.51086765
 21
43.83124117
 31
0.0
  0
LINE
  5
171
100
AcDbEntity
  8
レイヤー_1
  6
CONTINUOUS
 62
       3
100
AcDbLine
 10
-58.51086765
 20
43.83124117
 30
0.0
 11
-58.26411269
 21
44.00694104
 31
0.0
  0
LINE
  5
172
100
AcDbEntity
  8
レイヤー_1
  6
CONTINUOUS
 62
       3
100
AcDbLine
 10
-58.26411269
 20
44.00694104
 30
0.0
 11
-58.08841281
 21
44.25369601
 31
0.0
  0
LINE
  5
173
100
AcDbEntity
  8
レイヤー_1
  6
CONTINUOUS
 62
       3
100
AcDbLine
 10
-58.08841281
 20
44.25369601
 30
0.0
 11
-58.01778836
 21
44.57236734
 31
0.0
  0
LINE
  5
174
100
AcDbEntity
  8
レイヤー_1
  6
CONTINUOUS
 62
       3
100
AcDbLine
 10
-58.01778836
 20
44.57236734
 30
0.0
 11
-58.08841281
 21
44.88888549
 31
0.0
  0
LINE
  5
175
100
AcDbEntity
  8
レイヤー_1
  6
CONTINUOUS
 62
       3
100
AcDbLine
 10
-58.08841281
 20
44.88888549
 30
0.0
 11
-58.26411269
 21
45.13564045
 31
0.0
  0
LINE
  5
176
100
AcDbEntity
  8
レイヤー_1
  6
CONTINUOUS
 62
       3
100
AcDbLine
 10
-58.26411269
 20
45.13564045
 30
0.0
 11
-58.51086765
 21
45.3122016
 31
0.0
  0
LINE
  5
177
100
AcDbEntity
  8
レイヤー_1
  6
CONTINUOUS
 62
       3
100
AcDbLine
 10
-58.51086765
 20
45.3122016
 30
0.0
 11
-58.82910834
 21
45.38368733
 31
0.0
  0
LINE
  5
178
100
AcDbEntity
  8
レイヤー_1
  6
CONTINUOUS
 62
       3
100
AcDbLine
 10
-58.82910834
 20
45.38368733
 30
0.0
 11
-104.83146836
 21
45.38368733
 31
0.0
  0
LINE
  5
179
100
AcDbEntity
  8
レイヤー_1
  6
CONTINUOUS
 62
       3
100
AcDbLine
 10
-104.83146836
 20
45.38368733
 30
0.0
 11
-105.14884778
 21
45.3122016
 31
0.0
  0
LINE
  5
17A
100
AcDbEntity
  8
レイヤー_1
  6
CONTINUOUS
 62
       3
100
AcDbLine
 10
-105.14884778
 20
45.3122016
 30
0.0
 11
-105.39517211
 21
45.13564045
 31
0.0
  0
LINE
  5
17B
100
AcDbEntity
  8
レイヤー_1
  6
CONTINUOUS
 62
       3
100
AcDbLine
 10
-105.39517211
 20
45.13564045
 30
0.0
 11
-105.57216389
 21
44.88888549
 31
0.0
  0
LINE
  5
17C
100
AcDbEntity
  8
レイヤー_1
  6
CONTINUOUS
 62
       3
100
AcDbLine
 10
-105.57216389
 20
44.88888549
 30
0.0
 11
-105.64278835
 21
44.57236734
 31
0.0
  0
LINE
  5
17D
100
AcDbEntity
  8
レイヤー_1
  6
CONTINUOUS
 62
       3
100
AcDbLine
 10
-105.64278835
 20
44.57236734
 30
0.0
 11
-105.57216389
 21
44.25369601
 31
0.0
  0
LINE
  5
17E
100
AcDbEntity
  8
レイヤー_1
  6
CONTINUOUS
 62
       3
100
AcDbLine
 10
-105.57216389
 20
44.25369601
 30
0.0
 11
-105.39517211
 21
44.00694104
 31
0.0
  0
LINE
  5
17F
100
AcDbEntity
  8
レイヤー_1
  6
CONTINUOUS
 62
       3
100
AcDbLine
 10
-105.39517211
 20
44.00694104
 30
0.0
 11
-105.14884778
 21
43.83124117
 31
0.0
  0
LINE
  5
180
100
AcDbEntity
  8
レイヤー_1
  6
CONTINUOUS
 62
       3
100
AcDbLine
 10
-105.14884778
 20
43.83124117
 30
0.0
 11
-104.83146836
 21
43.76061672
 31
0.0
  0
LINE
  5
181
100
AcDbEntity
  8
レイヤー_1
  6
CONTINUOUS
 62
       3
100
AcDbLine
 10
106.81767442
 20
-15.1530999
 30
0.0
 11
106.04080539
 21
-15.1530999
 31
0.0
  0
LINE
  5
182
100
AcDbEntity
  8
レイヤー_1
  6
CONTINUOUS
 62
       3
100
AcDbLine
 10
106.04080539
 20
-15.1530999
 30
0.0
 11
106.04080539
 21
-12.68167453
 31
0.0
  0
LINE
  5
183
100
AcDbEntity
  8
レイヤー_1
  6
CONTINUOUS
 62
       3
100
AcDbLine
 10
107.84431288
 20
-15.12209404
 30
0.0
 11
106.84437391
 21
-15.12209404
 31
0.0
  0
LINE
  5
184
100
AcDbEntity
  8
レイヤー_1
  6
CONTINUOUS
 62
       3
100
AcDbLine
 10
106.04080539
 20
19.87878418
 30
0.0
 11
107.84431288
 21
19.87878418
 31
0.0
  0
LINE
  5
185
100
AcDbEntity
  8
レイヤー_1
  6
CONTINUOUS
 62
       3
100
AcDbLine
 10
-58.8088684
 20
45.40220472
 30
0.0
 11
-58.8088684
 21
45.22219848
 31
0.0
  0
LINE
  5
186
100
AcDbEntity
  8
レイヤー_1
  6
CONTINUOUS
 62
       3
100
AcDbLine
 10
-58.8088684
 20
45.22219848
 30
0.0
 11
-58.8088684
 21
45.0219523
 31
0.0
  0
LINE
  5
187
100
AcDbEntity
  8
レイヤー_1
  6
CONTINUOUS
 62
       3
100
AcDbLine
 10
-58.8088684
 20
45.0219523
 30
0.0
 11
-58.8088684
 21
44.80921765
 31
0.0
  0
LINE
  5
188
100
AcDbEntity
  8
レイヤー_1
  6
CONTINUOUS
 62
       3
100
AcDbLine
 10
-58.8088684
 20
44.80921765
 30
0.0
 11
-58.8088684
 21
44.58959282
 31
0.0
  0
LINE
  5
189
100
AcDbEntity
  8
レイヤー_1
  6
CONTINUOUS
 62
       3
100
AcDbLine
 10
-58.8088684
 20
44.58959282
 30
0.0
 11
-58.8088684
 21
44.36910671
 31
0.0
  0
LINE
  5
18A
100
AcDbEntity
  8
レイヤー_1
  6
CONTINUOUS
 62
       3
100
AcDbLine
 10
-58.8088684
 20
44.36910671
 30
0.0
 11
-58.8088684
 21
44.1568027
 31
0.0
  0
LINE
  5
18B
100
AcDbEntity
  8
レイヤー_1
  6
CONTINUOUS
 62
       3
100
AcDbLine
 10
-58.8088684
 20
44.1568027
 30
0.0
 11
-58.8088684
 21
43.95655652
 31
0.0
  0
LINE
  5
18C
100
AcDbEntity
  8
レイヤー_1
  6
CONTINUOUS
 62
       3
100
AcDbLine
 10
-58.8088684
 20
43.95655652
 30
0.0
 11
-58.8088684
 21
43.77741156
 31
0.0
  0
LINE
  5
18D
100
AcDbEntity
  8
レイヤー_1
  6
CONTINUOUS
 62
       3
100
AcDbLine
 10
-104.8086446
 20
45.40220472
 30
0.0
 11
-104.8086446
 21
45.22219848
 31
0.0
  0
LINE
  5
18E
100
AcDbEntity
  8
レイヤー_1
  6
CONTINUOUS
 62
       3
100
AcDbLine
 10
-104.8086446
 20
45.22219848
 30
0.0
 11
-104.8086446
 21
45.0219523
 31
0.0
  0
LINE
  5
18F
100
AcDbEntity
  8
レイヤー_1
  6
CONTINUOUS
 62
       3
100
AcDbLine
 10
-104.8086446
 20
45.0219523
 30
0.0
 11
-104.8086446
 21
44.80921765
 31
0.0
  0
LINE
  5
190
100
AcDbEntity
  8
レイヤー_1
  6
CONTINUOUS
 62
       3
100
AcDbLine
 10
-104.8086446
 20
44.80921765
 30
0.0
 11
-104.8086446
 21
44.58959282
 31
0.0
  0
LINE
  5
191
100
AcDbEntity
  8
レイヤー_1
  6
CONTINUOUS
 62
       3
100
AcDbLine
 10
-104.8086446
 20
44.58959282
 30
0.0
 11
-104.8086446
 21
44.36910671
 31
0.0
  0
LINE
  5
192
100
AcDbEntity
  8
レイヤー_1
  6
CONTINUOUS
 62
       3
100
AcDbLine
 10
-104.8086446
 20
44.36910671
 30
0.0
 11
-104.8086446
 21
44.1568027
 31
0.0
  0
LINE
  5
193
100
AcDbEntity
  8
レイヤー_1
  6
CONTINUOUS
 62
       3
100
AcDbLine
 10
-104.8086446
 20
44.1568027
 30
0.0
 11
-104.8086446
 21
43.95655652
 31
0.0
  0
LINE
  5
194
100
AcDbEntity
  8
レイヤー_1
  6
CONTINUOUS
 62
       3
100
AcDbLine
 10
-104.8086446
 20
43.95655652
 30
0.0
 11
-104.8086446
 21
43.77741156
 31
0.0
  0
LINE
  5
195
100
AcDbEntity
  8
レイヤー_1
  6
DIVIDE
 62
       3
100
AcDbLine
 10
-7.96128337
 20
-18.82212659
 30
0.0
 11
-7.96128337
 21
40.37408785
 31
0.0
  0
LINE
  5
196
100
AcDbEntity
  8
レイヤー_1
  6
DIVIDE
 62
       3
100
AcDbLine
 10
3.01552326
 20
1.14435493
 30
0.0
 11
3.02516454
 21
1.14435493
 31
0.0
  0
LINE
  5
197
100
AcDbEntity
  8
レイヤー_1
  6
DIVIDE
 62
       3
100
AcDbLine
 10
3.02516454
 20
1.14435493
 30
0.0
 11
3.05256107
 21
1.14435493
 31
0.0
  0
LINE
  5
198
100
AcDbEntity
  8
レイヤー_1
  6
DIVIDE
 62
       3
100
AcDbLine
 10
3.05256107
 20
1.14435493
 30
0.0
 11
3.09542183
 21
1.14435493
 31
0.0
  0
LINE
  5
199
100
AcDbEntity
  8
レイヤー_1
  6
DIVIDE
 62
       3
100
AcDbLine
 10
3.09542183
 20
1.14435493
 30
0.0
 11
3.15145584
 21
1.14435493
 31
0.0
  0
LINE
  5
19A
100
AcDbEntity
  8
レイヤー_1
  6
DIVIDE
 62
       3
100
AcDbLine
 10
3.15145584
 20
1.14435493
 30
0.0
 11
3.2183721
 21
1.14435493
 31
0.0
  0
LINE
  5
19B
100
AcDbEntity
  8
レイヤー_1
  6
DIVIDE
 62
       3
100
AcDbLine
 10
3.2183721
 20
1.14435493
 30
0.0
 11
3.29387958
 21
1.14435493
 31
0.0
  0
LINE
  5
19C
100
AcDbEntity
  8
レイヤー_1
  6
DIVIDE
 62
       3
100
AcDbLine
 10
3.29387958
 20
1.14435493
 30
0.0
 11
3.37568733
 21
1.14435493
 31
0.0
  0
LINE
  5
19D
100
AcDbEntity
  8
レイヤー_1
  6
DIVIDE
 62
       3
100
AcDbLine
 10
3.37568733
 20
1.14435493
 30
0.0
 11
3.46150431
 21
1.14435493
 31
0.0
  0
LINE
  5
19E
100
AcDbEntity
  8
レイヤー_1
  6
DIVIDE
 62
       3
100
AcDbLine
 10
3.46150431
 20
1.14435493
 30
0.0
 11
3.54903954
 21
1.14435493
 31
0.0
  0
LINE
  5
19F
100
AcDbEntity
  8
レイヤー_1
  6
DIVIDE
 62
       3
100
AcDbLine
 10
3.54903954
 20
1.14435493
 30
0.0
 11
3.63600203
 21
1.14435493
 31
0.0
  0
LINE
  5
1A0
100
AcDbEntity
  8
レイヤー_1
  6
DIVIDE
 62
       3
100
AcDbLine
 10
3.63600203
 20
1.14435493
 30
0.0
 11
3.72010077
 21
1.14435493
 31
0.0
  0
LINE
  5
1A1
100
AcDbEntity
  8
レイヤー_1
  6
DIVIDE
 62
       3
100
AcDbLine
 10
3.72010077
 20
1.14435493
 30
0.0
 11
3.79904476
 21
1.14435493
 31
0.0
  0
LINE
  5
1A2
100
AcDbEntity
  8
レイヤー_1
  6
DIVIDE
 62
       3
100
AcDbLine
 10
3.79904476
 20
1.14435493
 30
0.0
 11
3.87054302
 21
1.14435493
 31
0.0
  0
LINE
  5
1A3
100
AcDbEntity
  8
レイヤー_1
  6
DIVIDE
 62
       3
100
AcDbLine
 10
3.87054302
 20
1.14435493
 30
0.0
 11
3.93230451
 21
1.14435493
 31
0.0
  0
LINE
  5
1A4
100
AcDbEntity
  8
レイヤー_1
  6
DIVIDE
 62
       3
100
AcDbLine
 10
3.93230451
 20
1.14435493
 30
0.0
 11
3.98203828
 21
1.14435493
 31
0.0
  0
LINE
  5
1A5
100
AcDbEntity
  8
レイヤー_1
  6
DIVIDE
 62
       3
100
AcDbLine
 10
3.98203828
 20
1.14435493
 30
0.0
 11
4.01745329
 21
1.14435493
 31
0.0
  0
LINE
  5
1A6
100
AcDbEntity
  8
レイヤー_1
  6
DIVIDE
 62
       3
100
AcDbLine
 10
4.01745329
 20
1.14435493
 30
0.0
 11
4.03625858
 21
1.14435493
 31
0.0
  0
LINE
  5
1A7
100
AcDbEntity
  8
レイヤー_1
  6
DIVIDE
 62
       3
100
AcDbLine
 10
4.03871663
 20
10.84574381
 30
0.0
 11
3.29543727
 21
10.84574381
 31
0.0
  0
LINE
  5
1A8
100
AcDbEntity
  8
レイヤー_1
  6
DIVIDE
 62
       3
100
AcDbLine
 10
3.29543727
 20
11.09465196
 30
0.0
 11
3.19122314
 21
11.09465196
 31
0.0
  0
LINE
  5
1A9
100
AcDbEntity
  8
レイヤー_1
  6
DIVIDE
 62
       3
100
AcDbLine
 10
3.19122314
 20
11.09465196
 30
0.0
 11
2.30927869
 21
11.09465196
 31
0.0
  0
LINE
  5
1AA
100
AcDbEntity
  8
レイヤー_1
  6
DIVIDE
 62
       3
100
AcDbLine
 10
-7.96128337
 20
11.09465196
 30
0.0
 11
2.30927869
 21
11.09465196
 31
0.0
  0
LINE
  5
1AB
100
AcDbEntity
  8
レイヤー_1
  6
DIVIDE
 62
       3
100
AcDbLine
 10
3.01552326
 20
1.14435493
 30
0.0
 11
2.94489881
 21
1.14435493
 31
0.0
  0
LINE
  5
1AC
100
AcDbEntity
  8
レイヤー_1
  6
DIVIDE
 62
       3
100
AcDbLine
 10
3.01552326
 20
2.41516452
 30
0.0
 11
2.94489881
 21
2.41516452
 31
0.0
  0
LINE
  5
1AD
100
AcDbEntity
  8
レイヤー_1
  6
DIVIDE
 62
       3
100
AcDbLine
 10
2.94489881
 20
9.92934841
 30
0.0
 11
2.94489881
 21
7.38859049
 31
0.0
  0
LINE
  5
1AE
100
AcDbEntity
  8
レイヤー_1
  6
DIVIDE
 62
       3
100
AcDbLine
 10
2.94489881
 20
7.38859049
 30
0.0
 11
2.94489881
 21
6.15481567
 31
0.0
  0
LINE
  5
1AF
100
AcDbEntity
  8
レイヤー_1
  6
DIVIDE
 62
       3
100
AcDbLine
 10
2.94489881
 20
9.92934841
 30
0.0
 11
2.94489881
 21
11.09465196
 31
0.0
  0
LINE
  5
1B0
100
AcDbEntity
  8
レイヤー_1
  6
DIVIDE
 62
       3
100
AcDbLine
 10
2.41435411
 20
1.14435493
 30
0.0
 11
2.94489881
 21
1.14435493
 31
0.0
  0
LINE
  5
1B1
100
AcDbEntity
  8
レイヤー_1
  6
DIVIDE
 62
       3
100
AcDbLine
 10
2.94489881
 20
4.56705729
 30
0.0
 11
2.94489881
 21
2.41516452
 31
0.0
  0
LINE
  5
1B2
100
AcDbEntity
  8
レイヤー_1
  6
DIVIDE
 62
       3
100
AcDbLine
 10
2.94489881
 20
2.41516452
 30
0.0
 11
2.94489881
 21
1.14435493
 31
0.0
  0
LINE
  5
1B3
100
AcDbEntity
  8
レイヤー_1
  6
DIVIDE
 62
       3
100
AcDbLine
 10
4.03871663
 20
4.56705729
 30
0.0
 11
2.69685193
 21
4.56705729
 31
0.0
  0
LINE
  5
1B4
100
AcDbEntity
  8
レイヤー_1
  6
DIVIDE
 62
       3
100
AcDbLine
 10
4.03871663
 20
6.15481567
 30
0.0
 11
2.69685193
 21
6.15481567
 31
0.0
  0
LINE
  5
1B5
100
AcDbEntity
  8
レイヤー_1
  6
DIVIDE
 62
       3
100
AcDbLine
 10
2.44966633
 20
4.56705729
 30
0.0
 11
2.48497855
 21
4.56705729
 31
0.0
  0
LINE
  5
1B6
100
AcDbEntity
  8
レイヤー_1
  6
DIVIDE
 62
       3
100
AcDbLine
 10
2.48497855
 20
4.56705729
 30
0.0
 11
2.52029078
 21
4.56705729
 31
0.0
  0
LINE
  5
1B7
100
AcDbEntity
  8
レイヤー_1
  6
DIVIDE
 62
       3
100
AcDbLine
 10
2.52029078
 20
4.56705729
 30
0.0
 11
2.55560302
 21
4.56705729
 31
0.0
  0
LINE
  5
1B8
100
AcDbEntity
  8
レイヤー_1
  6
DIVIDE
 62
       3
100
AcDbLine
 10
2.55560302
 20
4.56705729
 30
0.0
 11
2.59177651
 21
4.56705729
 31
0.0
  0
LINE
  5
1B9
100
AcDbEntity
  8
レイヤー_1
  6
DIVIDE
 62
       3
100
AcDbLine
 10
2.59177651
 20
4.56705729
 30
0.0
 11
2.66240097
 21
4.56705729
 31
0.0
  0
LINE
  5
1BA
100
AcDbEntity
  8
レイヤー_1
  6
DIVIDE
 62
       3
100
AcDbLine
 10
2.66240097
 20
4.56705729
 30
0.0
 11
2.69685193
 21
4.56705729
 31
0.0
  0
LINE
  5
1BB
100
AcDbEntity
  8
レイヤー_1
  6
DIVIDE
 62
       3
100
AcDbLine
 10
2.69685193
 20
6.15481567
 30
0.0
 11
2.66240097
 21
6.15481567
 31
0.0
  0
LINE
  5
1BC
100
AcDbEntity
  8
レイヤー_1
  6
DIVIDE
 62
       3
100
AcDbLine
 10
2.66240097
 20
6.15481567
 30
0.0
 11
2.59177651
 21
6.15481567
 31
0.0
  0
LINE
  5
1BD
100
AcDbEntity
  8
レイヤー_1
  6
DIVIDE
 62
       3
100
AcDbLine
 10
2.59177651
 20
6.15481567
 30
0.0
 11
2.55560302
 21
6.15481567
 31
0.0
  0
LINE
  5
1BE
100
AcDbEntity
  8
レイヤー_1
  6
DIVIDE
 62
       3
100
AcDbLine
 10
2.55560302
 20
6.15481567
 30
0.0
 11
2.52029078
 21
6.15481567
 31
0.0
  0
LINE
  5
1BF
100
AcDbEntity
  8
レイヤー_1
  6
DIVIDE
 62
       3
100
AcDbLine
 10
2.52029078
 20
6.15481567
 30
0.0
 11
2.48497855
 21
6.15481567
 31
0.0
  0
LINE
  5
1C0
100
AcDbEntity
  8
レイヤー_1
  6
DIVIDE
 62
       3
100
AcDbLine
 10
2.48497855
 20
6.15481567
 30
0.0
 11
2.44966633
 21
6.15481567
 31
0.0
  0
LINE
  5
1C1
100
AcDbEntity
  8
レイヤー_1
  6
DIVIDE
 62
       3
100
AcDbLine
 10
2.44966633
 20
4.56705729
 30
0.0
 11
2.41435411
 21
4.56705729
 31
0.0
  0
LINE
  5
1C2
100
AcDbEntity
  8
レイヤー_1
  6
DIVIDE
 62
       3
100
AcDbLine
 10
2.41435411
 20
6.15481567
 30
0.0
 11
2.44966633
 21
6.15481567
 31
0.0
  0
LINE
  5
1C3
100
AcDbEntity
  8
レイヤー_1
  6
DIVIDE
 62
       3
100
AcDbLine
 10
2.06295436
 20
1.14435493
 30
0.0
 11
2.41435411
 21
1.14435493
 31
0.0
  0
LINE
  5
1C4
100
AcDbEntity
  8
レイヤー_1
  6
DIVIDE
 62
       3
100
AcDbLine
 10
2.41435411
 20
4.56705729
 30
0.0
 11
2.41435411
 21
6.15481567
 31
0.0
  0
LINE
  5
1C5
100
AcDbEntity
  8
レイヤー_1
  6
DIVIDE
 62
       3
100
AcDbLine
 10
-0.47780356
 20
2.09692383
 30
0.0
 11
-0.40717911
 21
2.13309733
 31
0.0
  0
LINE
  5
1C6
100
AcDbEntity
  8
レイヤー_1
  6
DIVIDE
 62
       3
100
AcDbLine
 10
-0.40717911
 20
2.13309733
 30
0.0
 11
-0.33655465
 21
2.20372179
 31
0.0
  0
LINE
  5
1C7
100
AcDbEntity
  8
レイヤー_1
  6
DIVIDE
 62
       3
100
AcDbLine
 10
-0.33655465
 20
2.20372179
 30
0.0
 11
-0.26679146
 21
2.27520752
 31
0.0
  0
LINE
  5
1C8
100
AcDbEntity
  8
レイヤー_1
  6
DIVIDE
 62
       3
100
AcDbLine
 10
-0.26679146
 20
2.27520752
 30
0.0
 11
-0.19616701
 21
2.30922784
 31
0.0
  0
LINE
  5
1C9
100
AcDbEntity
  8
レイヤー_1
  6
DIVIDE
 62
       3
100
AcDbLine
 10
-0.19616701
 20
2.30922784
 30
0.0
 11
-0.12554255
 21
2.3798523
 31
0.0
  0
LINE
  5
1CA
100
AcDbEntity
  8
レイヤー_1
  6
DIVIDE
 62
       3
100
AcDbLine
 10
-0.12554255
 20
2.3798523
 30
0.0
 11
-0.08936905
 21
2.45047675
 31
0.0
  0
LINE
  5
1CB
100
AcDbEntity
  8
レイヤー_1
  6
DIVIDE
 62
       3
100
AcDbLine
 10
-0.08936905
 20
2.45047675
 30
0.0
 11
-0.01788332
 21
2.52110121
 31
0.0
  0
LINE
  5
1CC
100
AcDbEntity
  8
レイヤー_1
  6
DIVIDE
 62
       3
100
AcDbLine
 10
-0.01788332
 20
2.52110121
 30
0.0
 11
0.01656765
 21
2.59172567
 31
0.0
  0
LINE
  5
1CD
100
AcDbEntity
  8
レイヤー_1
  6
DIVIDE
 62
       3
100
AcDbLine
 10
-2.59309218
 20
5.237559
 30
0.0
 11
-2.66371664
 21
5.16693454
 31
0.0
  0
LINE
  5
1CE
100
AcDbEntity
  8
レイヤー_1
  6
DIVIDE
 62
       3
100
AcDbLine
 10
-2.66371664
 20
5.16693454
 30
0.0
 11
-2.73520238
 21
5.13162231
 31
0.0
  0
LINE
  5
1CF
100
AcDbEntity
  8
レイヤー_1
  6
DIVIDE
 62
       3
100
AcDbLine
 10
-2.73520238
 20
5.13162231
 30
0.0
 11
-2.80582684
 21
5.06099786
 31
0.0
  0
LINE
  5
1D0
100
AcDbEntity
  8
レイヤー_1
  6
DIVIDE
 62
       3
100
AcDbLine
 10
-2.80582684
 20
5.06099786
 30
0.0
 11
-2.8764513
 21
4.9903734
 31
0.0
  0
LINE
  5
1D1
100
AcDbEntity
  8
レイヤー_1
  6
DIVIDE
 62
       3
100
AcDbLine
 10
-2.8764513
 20
4.9903734
 30
0.0
 11
-2.94707575
 21
4.92104085
 31
0.0
  0
LINE
  5
1D2
100
AcDbEntity
  8
レイヤー_1
  6
DIVIDE
 62
       3
100
AcDbLine
 10
-2.94707575
 20
4.92104085
 30
0.0
 11
-2.98066543
 21
4.88486735
 31
0.0
  0
LINE
  5
1D3
100
AcDbEntity
  8
レイヤー_1
  6
DIVIDE
 62
       3
100
AcDbLine
 10
-2.98066543
 20
4.88486735
 30
0.0
 11
-3.05128989
 21
4.81424289
 31
0.0
  0
LINE
  5
1D4
100
AcDbEntity
  8
レイヤー_1
  6
DIVIDE
 62
       3
100
AcDbLine
 10
-3.05128989
 20
4.81424289
 30
0.0
 11
-3.08746339
 21
4.74275716
 31
0.0
  0
LINE
  5
1D5
100
AcDbEntity
  8
レイヤー_1
  6
DIVIDE
 62
       3
100
AcDbLine
 10
-0.47780356
 20
7.10609266
 30
0.0
 11
-0.40717911
 21
7.14226617
 31
0.0
  0
LINE
  5
1D6
100
AcDbEntity
  8
レイヤー_1
  6
DIVIDE
 62
       3
100
AcDbLine
 10
-0.40717911
 20
7.14226617
 30
0.0
 11
-0.33655465
 21
7.21289062
 31
0.0
  0
LINE
  5
1D7
100
AcDbEntity
  8
レイヤー_1
  6
DIVIDE
 62
       3
100
AcDbLine
 10
-0.33655465
 20
7.21289062
 30
0.0
 11
-0.26679146
 21
7.24734158
 31
0.0
  0
LINE
  5
1D8
100
AcDbEntity
  8
レイヤー_1
  6
DIVIDE
 62
       3
100
AcDbLine
 10
-0.26679146
 20
7.24734158
 30
0.0
 11
-0.19616701
 21
7.31796604
 31
0.0
  0
LINE
  5
1D9
100
AcDbEntity
  8
レイヤー_1
  6
DIVIDE
 62
       3
100
AcDbLine
 10
-0.19616701
 20
7.31796604
 30
0.0
 11
-0.12554255
 21
7.38859049
 31
0.0
  0
LINE
  5
1DA
100
AcDbEntity
  8
レイヤー_1
  6
DIVIDE
 62
       3
100
AcDbLine
 10
-0.12554255
 20
7.38859049
 30
0.0
 11
-0.08936905
 21
7.46007623
 31
0.0
  0
LINE
  5
1DB
100
AcDbEntity
  8
レイヤー_1
  6
DIVIDE
 62
       3
100
AcDbLine
 10
-0.08936905
 20
7.46007623
 30
0.0
 11
-0.01788332
 21
7.53070068
 31
0.0
  0
LINE
  5
1DC
100
AcDbEntity
  8
レイヤー_1
  6
DIVIDE
 62
       3
100
AcDbLine
 10
-0.01788332
 20
7.53070068
 30
0.0
 11
0.01656765
 21
7.6008945
 31
0.0
  0
LINE
  5
1DD
100
AcDbEntity
  8
レイヤー_1
  6
DIVIDE
 62
       3
100
AcDbLine
 10
-2.59309218
 20
10.21270752
 30
0.0
 11
-2.66371664
 21
10.17653402
 31
0.0
  0
LINE
  5
1DE
100
AcDbEntity
  8
レイヤー_1
  6
DIVIDE
 62
       3
100
AcDbLine
 10
-2.66371664
 20
10.17653402
 30
0.0
 11
-2.73520238
 21
10.10590956
 31
0.0
  0
LINE
  5
1DF
100
AcDbEntity
  8
レイヤー_1
  6
DIVIDE
 62
       3
100
AcDbLine
 10
-2.73520238
 20
10.10590956
 30
0.0
 11
-2.80582684
 21
10.07059733
 31
0.0
  0
LINE
  5
1E0
100
AcDbEntity
  8
レイヤー_1
  6
DIVIDE
 62
       3
100
AcDbLine
 10
-2.80582684
 20
10.07059733
 30
0.0
 11
-2.8764513
 21
9.99997287
 31
0.0
  0
LINE
  5
1E1
100
AcDbEntity
  8
レイヤー_1
  6
DIVIDE
 62
       3
100
AcDbLine
 10
-2.8764513
 20
9.99997287
 30
0.0
 11
-2.94707575
 21
9.92934841
 31
0.0
  0
LINE
  5
1E2
100
AcDbEntity
  8
レイヤー_1
  6
DIVIDE
 62
       3
100
AcDbLine
 10
-2.94707575
 20
9.92934841
 30
0.0
 11
-2.98066543
 21
9.85872396
 31
0.0
  0
LINE
  5
1E3
100
AcDbEntity
  8
レイヤー_1
  6
DIVIDE
 62
       3
100
AcDbLine
 10
-2.98066543
 20
9.85872396
 30
0.0
 11
-3.05128989
 21
9.7880995
 31
0.0
  0
LINE
  5
1E4
100
AcDbEntity
  8
レイヤー_1
  6
DIVIDE
 62
       3
100
AcDbLine
 10
-3.05128989
 20
9.7880995
 30
0.0
 11
-3.08746339
 21
9.71790568
 31
0.0
  0
LINE
  5
1E5
100
AcDbEntity
  8
レイヤー_1
  6
DIVIDE
 62
       3
100
AcDbLine
 10
-0.47780356
 20
2.09692383
 30
0.0
 11
-0.75857885
 21
1.92122396
 31
0.0
  0
LINE
  5
1E6
100
AcDbEntity
  8
レイヤー_1
  6
DIVIDE
 62
       3
100
AcDbLine
 10
-0.75857885
 20
1.92122396
 30
0.0
 11
-1.07725017
 21
1.814426
 31
0.0
  0
LINE
  5
1E7
100
AcDbEntity
  8
レイヤー_1
  6
DIVIDE
 62
       3
100
AcDbLine
 10
-1.07725017
 20
1.814426
 30
0.0
 11
-1.39419896
 21
1.78040568
 31
0.0
  0
LINE
  5
1E8
100
AcDbEntity
  8
レイヤー_1
  6
DIVIDE
 62
       3
100
AcDbLine
 10
-1.39419896
 20
1.78040568
 30
0.0
 11
-1.71114775
 21
1.78040568
 31
0.0
  0
LINE
  5
1E9
100
AcDbEntity
  8
レイヤー_1
  6
DIVIDE
 62
       3
100
AcDbLine
 10
-1.71114775
 20
1.78040568
 30
0.0
 11
-2.02895781
 21
1.8505995
 31
0.0
  0
LINE
  5
1EA
100
AcDbEntity
  8
レイヤー_1
  6
DIVIDE
 62
       3
100
AcDbLine
 10
-2.02895781
 20
1.8505995
 30
0.0
 11
-2.34676785
 21
1.95567491
 31
0.0
  0
LINE
  5
1EB
100
AcDbEntity
  8
レイヤー_1
  6
DIVIDE
 62
       3
100
AcDbLine
 10
-2.34676785
 20
1.95567491
 30
0.0
 11
-2.62926569
 21
2.09692383
 31
0.0
  0
LINE
  5
1EC
100
AcDbEntity
  8
レイヤー_1
  6
DIVIDE
 62
       3
100
AcDbLine
 10
-2.62926569
 20
2.09692383
 30
0.0
 11
-2.8764513
 21
2.30922784
 31
0.0
  0
LINE
  5
1ED
100
AcDbEntity
  8
レイヤー_1
  6
DIVIDE
 62
       3
100
AcDbLine
 10
-2.8764513
 20
2.30922784
 30
0.0
 11
-3.08746339
 21
2.55555217
 31
0.0
  0
LINE
  5
1EE
100
AcDbEntity
  8
レイヤー_1
  6
DIVIDE
 62
       3
100
AcDbLine
 10
-3.08746339
 20
2.55555217
 30
0.0
 11
-3.26316325
 21
2.87379286
 31
0.0
  0
LINE
  5
1EF
100
AcDbEntity
  8
レイヤー_1
  6
DIVIDE
 62
       3
100
AcDbLine
 10
-3.26316325
 20
2.87379286
 30
0.0
 11
-3.36909995
 21
3.15715196
 31
0.0
  0
LINE
  5
1F0
100
AcDbEntity
  8
レイヤー_1
  6
DIVIDE
 62
       3
100
AcDbLine
 10
-3.36909995
 20
3.15715196
 30
0.0
 11
-3.40441218
 21
3.47367011
 31
0.0
  0
LINE
  5
1F1
100
AcDbEntity
  8
レイヤー_1
  6
DIVIDE
 62
       3
100
AcDbLine
 10
-3.40441218
 20
3.47367011
 30
0.0
 11
-3.4397244
 21
3.82636176
 31
0.0
  0
LINE
  5
1F2
100
AcDbEntity
  8
レイヤー_1
  6
DIVIDE
 62
       3
100
AcDbLine
 10
-3.4397244
 20
3.82636176
 30
0.0
 11
-3.36909995
 21
4.14374118
 31
0.0
  0
LINE
  5
1F3
100
AcDbEntity
  8
レイヤー_1
  6
DIVIDE
 62
       3
100
AcDbLine
 10
-3.36909995
 20
4.14374118
 30
0.0
 11
-3.26316325
 21
4.42623901
 31
0.0
  0
LINE
  5
1F4
100
AcDbEntity
  8
レイヤー_1
  6
DIVIDE
 62
       3
100
AcDbLine
 10
-3.26316325
 20
4.42623901
 30
0.0
 11
-3.08746339
 21
4.74275716
 31
0.0
  0
LINE
  5
1F5
100
AcDbEntity
  8
レイヤー_1
  6
DIVIDE
 62
       3
100
AcDbLine
 10
-0.47780356
 20
2.09692383
 30
0.0
 11
-3.08746339
 21
4.74275716
 31
0.0
  0
LINE
  5
1F6
100
AcDbEntity
  8
レイヤー_1
  6
DIVIDE
 62
       3
100
AcDbLine
 10
-2.59309218
 20
10.21270752
 30
0.0
 11
-2.31059436
 21
10.38797675
 31
0.0
  0
LINE
  5
1F7
100
AcDbEntity
  8
レイヤー_1
  6
DIVIDE
 62
       3
100
AcDbLine
 10
-2.31059436
 20
10.38797675
 30
0.0
 11
-2.02895781
 21
10.49305216
 31
0.0
  0
LINE
  5
1F8
100
AcDbEntity
  8
レイヤー_1
  6
DIVIDE
 62
       3
100
AcDbLine
 10
-2.02895781
 20
10.49305216
 30
0.0
 11
-1.67669678
 21
10.52922567
 31
0.0
  0
LINE
  5
1F9
100
AcDbEntity
  8
レイヤー_1
  6
DIVIDE
 62
       3
100
AcDbLine
 10
-1.67669678
 20
10.52922567
 30
0.0
 11
-1.35888672
 21
10.52922567
 31
0.0
  0
LINE
  5
1FA
100
AcDbEntity
  8
レイヤー_1
  6
DIVIDE
 62
       3
100
AcDbLine
 10
-1.35888672
 20
10.52922567
 30
0.0
 11
-1.04193795
 21
10.49305216
 31
0.0
  0
LINE
  5
1FB
100
AcDbEntity
  8
レイヤー_1
  6
DIVIDE
 62
       3
100
AcDbLine
 10
-1.04193795
 20
10.49305216
 30
0.0
 11
-0.72412789
 21
10.38797675
 31
0.0
  0
LINE
  5
1FC
100
AcDbEntity
  8
レイヤー_1
  6
DIVIDE
 62
       3
100
AcDbLine
 10
-0.72412789
 20
10.38797675
 30
0.0
 11
-0.44163005
 21
10.21270752
 31
0.0
  0
LINE
  5
1FD
100
AcDbEntity
  8
レイヤー_1
  6
DIVIDE
 62
       3
100
AcDbLine
 10
-0.44163005
 20
10.21270752
 30
0.0
 11
-0.19616701
 21
9.99997287
 31
0.0
  0
LINE
  5
1FE
100
AcDbEntity
  8
レイヤー_1
  6
DIVIDE
 62
       3
100
AcDbLine
 10
-0.19616701
 20
9.99997287
 30
0.0
 11
0.01656765
 21
9.751926
 31
0.0
  0
LINE
  5
1FF
100
AcDbEntity
  8
レイヤー_1
  6
DIVIDE
 62
       3
100
AcDbLine
 10
0.01656765
 20
9.751926
 30
0.0
 11
0.15781656
 21
9.47072008
 31
0.0
  0
LINE
  5
200
100
AcDbEntity
  8
レイヤー_1
  6
DIVIDE
 62
       3
100
AcDbLine
 10
0.15781656
 20
9.47072008
 30
0.0
 11
0.29906547
 21
9.15247938
 31
0.0
  0
LINE
  5
201
100
AcDbEntity
  8
レイヤー_1
  6
DIVIDE
 62
       3
100
AcDbLine
 10
0.29906547
 20
9.15247938
 30
0.0
 11
0.33437771
 21
8.83596123
 31
0.0
  0
LINE
  5
202
100
AcDbEntity
  8
レイヤー_1
  6
DIVIDE
 62
       3
100
AcDbLine
 10
0.33437771
 20
8.83596123
 30
0.0
 11
0.33437771
 21
8.51815118
 31
0.0
  0
LINE
  5
203
100
AcDbEntity
  8
レイヤー_1
  6
DIVIDE
 62
       3
100
AcDbLine
 10
0.33437771
 20
8.51815118
 30
0.0
 11
0.29906547
 21
8.19991048
 31
0.0
  0
LINE
  5
204
100
AcDbEntity
  8
レイヤー_1
  6
DIVIDE
 62
       3
100
AcDbLine
 10
0.29906547
 20
8.19991048
 30
0.0
 11
0.19312878
 21
7.88339233
 31
0.0
  0
LINE
  5
205
100
AcDbEntity
  8
レイヤー_1
  6
DIVIDE
 62
       3
100
AcDbLine
 10
0.19312878
 20
7.88339233
 30
0.0
 11
0.01656765
 21
7.6008945
 31
0.0
  0
LINE
  5
206
100
AcDbEntity
  8
レイヤー_1
  6
DIVIDE
 62
       3
100
AcDbLine
 10
-2.59309218
 20
10.21270752
 30
0.0
 11
0.01656765
 21
7.6008945
 31
0.0
  0
LINE
  5
207
100
AcDbEntity
  8
レイヤー_1
  6
DIVIDE
 62
       3
100
AcDbLine
 10
-2.59309218
 20
5.237559
 30
0.0
 11
-2.31059436
 21
5.37837728
 31
0.0
  0
LINE
  5
208
100
AcDbEntity
  8
レイヤー_1
  6
DIVIDE
 62
       3
100
AcDbLine
 10
-2.31059436
 20
5.37837728
 30
0.0
 11
-2.02895781
 21
5.48345269
 31
0.0
  0
LINE
  5
209
100
AcDbEntity
  8
レイヤー_1
  6
DIVIDE
 62
       3
100
AcDbLine
 10
-2.02895781
 20
5.48345269
 30
0.0
 11
-1.67669678
 21
5.55407715
 31
0.0
  0
LINE
  5
20A
100
AcDbEntity
  8
レイヤー_1
  6
DIVIDE
 62
       3
100
AcDbLine
 10
-1.67669678
 20
5.55407715
 30
0.0
 11
-1.35888672
 21
5.55407715
 31
0.0
  0
LINE
  5
20B
100
AcDbEntity
  8
レイヤー_1
  6
DIVIDE
 62
       3
100
AcDbLine
 10
-1.35888672
 20
5.55407715
 30
0.0
 11
-1.04193795
 21
5.48345269
 31
0.0
  0
LINE
  5
20C
100
AcDbEntity
  8
レイヤー_1
  6
DIVIDE
 62
       3
100
AcDbLine
 10
-1.04193795
 20
5.48345269
 30
0.0
 11
-0.72412789
 21
5.37837728
 31
0.0
  0
LINE
  5
20D
100
AcDbEntity
  8
レイヤー_1
  6
DIVIDE
 62
       3
100
AcDbLine
 10
-0.72412789
 20
5.37837728
 30
0.0
 11
-0.44163005
 21
5.2013855
 31
0.0
  0
LINE
  5
20E
100
AcDbEntity
  8
レイヤー_1
  6
DIVIDE
 62
       3
100
AcDbLine
 10
-0.44163005
 20
5.2013855
 30
0.0
 11
-0.19616701
 21
4.9903734
 31
0.0
  0
LINE
  5
20F
100
AcDbEntity
  8
レイヤー_1
  6
DIVIDE
 62
       3
100
AcDbLine
 10
-2.59309218
 20
5.237559
 30
0.0
 11
0.01656765
 21
2.59172567
 31
0.0
  0
LINE
  5
210
100
AcDbEntity
  8
レイヤー_1
  6
DIVIDE
 62
       3
100
AcDbLine
 10
-0.19616701
 20
4.9903734
 30
0.0
 11
0.01656765
 21
4.74275716
 31
0.0
  0
LINE
  5
211
100
AcDbEntity
  8
レイヤー_1
  6
DIVIDE
 62
       3
100
AcDbLine
 10
0.01656765
 20
4.74275716
 30
0.0
 11
0.15781656
 21
4.46025933
 31
0.0
  0
LINE
  5
212
100
AcDbEntity
  8
レイヤー_1
  6
DIVIDE
 62
       3
100
AcDbLine
 10
0.15781656
 20
4.46025933
 30
0.0
 11
0.29906547
 21
4.14374118
 31
0.0
  0
LINE
  5
213
100
AcDbEntity
  8
レイヤー_1
  6
DIVIDE
 62
       3
100
AcDbLine
 10
0.29906547
 20
4.14374118
 30
0.0
 11
0.33437771
 21
3.82636176
 31
0.0
  0
LINE
  5
214
100
AcDbEntity
  8
レイヤー_1
  6
DIVIDE
 62
       3
100
AcDbLine
 10
0.33437771
 20
3.82636176
 30
0.0
 11
0.33437771
 21
3.50898234
 31
0.0
  0
LINE
  5
215
100
AcDbEntity
  8
レイヤー_1
  6
DIVIDE
 62
       3
100
AcDbLine
 10
0.33437771
 20
3.50898234
 30
0.0
 11
0.29906547
 21
3.19117228
 31
0.0
  0
LINE
  5
216
100
AcDbEntity
  8
レイヤー_1
  6
DIVIDE
 62
       3
100
AcDbLine
 10
0.29906547
 20
3.19117228
 30
0.0
 11
0.19312878
 21
2.87379286
 31
0.0
  0
LINE
  5
217
100
AcDbEntity
  8
レイヤー_1
  6
DIVIDE
 62
       3
100
AcDbLine
 10
0.19312878
 20
2.87379286
 30
0.0
 11
0.01656765
 21
2.59172567
 31
0.0
  0
LINE
  5
218
100
AcDbEntity
  8
レイヤー_1
  6
DIVIDE
 62
       3
100
AcDbLine
 10
-0.47780356
 20
7.10609266
 30
0.0
 11
-0.75857885
 21
6.93082343
 31
0.0
  0
LINE
  5
219
100
AcDbEntity
  8
レイヤー_1
  6
DIVIDE
 62
       3
100
AcDbLine
 10
-0.75857885
 20
6.93082343
 30
0.0
 11
-1.07725017
 21
6.82488675
 31
0.0
  0
LINE
  5
21A
100
AcDbEntity
  8
レイヤー_1
  6
DIVIDE
 62
       3
100
AcDbLine
 10
-1.07725017
 20
6.82488675
 30
0.0
 11
-1.39419896
 21
6.78957452
 31
0.0
  0
LINE
  5
21B
100
AcDbEntity
  8
レイヤー_1
  6
DIVIDE
 62
       3
100
AcDbLine
 10
-1.39419896
 20
6.78957452
 30
0.0
 11
-1.71114775
 21
6.78957452
 31
0.0
  0
LINE
  5
21C
100
AcDbEntity
  8
レイヤー_1
  6
DIVIDE
 62
       3
100
AcDbLine
 10
-1.71114775
 20
6.78957452
 30
0.0
 11
-2.02895781
 21
6.82488675
 31
0.0
  0
LINE
  5
21D
100
AcDbEntity
  8
レイヤー_1
  6
DIVIDE
 62
       3
100
AcDbLine
 10
-2.02895781
 20
6.82488675
 30
0.0
 11
-2.34676785
 21
6.96527439
 31
0.0
  0
LINE
  5
21E
100
AcDbEntity
  8
レイヤー_1
  6
DIVIDE
 62
       3
100
AcDbLine
 10
-2.34676785
 20
6.96527439
 30
0.0
 11
-2.62926569
 21
7.10609266
 31
0.0
  0
LINE
  5
21F
100
AcDbEntity
  8
レイヤー_1
  6
DIVIDE
 62
       3
100
AcDbLine
 10
-2.62926569
 20
7.10609266
 30
0.0
 11
-2.8764513
 21
7.31796604
 31
0.0
  0
LINE
  5
220
100
AcDbEntity
  8
レイヤー_1
  6
DIVIDE
 62
       3
100
AcDbLine
 10
-2.8764513
 20
7.31796604
 30
0.0
 11
-3.08746339
 21
7.56687419
 31
0.0
  0
LINE
  5
221
100
AcDbEntity
  8
レイヤー_1
  6
DIVIDE
 62
       3
100
AcDbLine
 10
-3.08746339
 20
7.56687419
 30
0.0
 11
-3.26316325
 21
7.84721883
 31
0.0
  0
LINE
  5
222
100
AcDbEntity
  8
レイヤー_1
  6
DIVIDE
 62
       3
100
AcDbLine
 10
-3.26316325
 20
7.84721883
 30
0.0
 11
-3.36909995
 21
8.16545953
 31
0.0
  0
LINE
  5
223
100
AcDbEntity
  8
レイヤー_1
  6
DIVIDE
 62
       3
100
AcDbLine
 10
-3.36909995
 20
8.16545953
 30
0.0
 11
-3.40441218
 21
8.48283895
 31
0.0
  0
LINE
  5
224
100
AcDbEntity
  8
レイヤー_1
  6
DIVIDE
 62
       3
100
AcDbLine
 10
-3.40441218
 20
8.48283895
 30
0.0
 11
-3.4397244
 21
8.80064901
 31
0.0
  0
LINE
  5
225
100
AcDbEntity
  8
レイヤー_1
  6
DIVIDE
 62
       3
100
AcDbLine
 10
-3.4397244
 20
8.80064901
 30
0.0
 11
-3.36909995
 21
9.11802843
 31
0.0
  0
LINE
  5
226
100
AcDbEntity
  8
レイヤー_1
  6
DIVIDE
 62
       3
100
AcDbLine
 10
-3.36909995
 20
9.11802843
 30
0.0
 11
-3.26316325
 21
9.43540785
 31
0.0
  0
LINE
  5
227
100
AcDbEntity
  8
レイヤー_1
  6
DIVIDE
 62
       3
100
AcDbLine
 10
-3.26316325
 20
9.43540785
 30
0.0
 11
-3.08746339
 21
9.71790568
 31
0.0
  0
LINE
  5
228
100
AcDbEntity
  8
レイヤー_1
  6
DIVIDE
 62
       3
100
AcDbLine
 10
-0.47780356
 20
7.10609266
 30
0.0
 11
-3.08746339
 21
9.71790568
 31
0.0
  0
LINE
  5
229
100
AcDbEntity
  8
レイヤー_1
  6
DIVIDE
 62
       3
100
AcDbLine
 10
-6.19149443
 20
1.14435493
 30
0.0
 11
-7.96128337
 21
1.14435493
 31
0.0
  0
LINE
  5
22A
100
AcDbEntity
  8
レイヤー_1
  6
DIVIDE
 62
       3
100
AcDbLine
 10
-6.19149443
 20
1.14435493
 30
0.0
 11
-6.1561822
 21
1.14435493
 31
0.0
  0
LINE
  5
22B
100
AcDbEntity
  8
レイヤー_1
  6
DIVIDE
 62
       3
100
AcDbLine
 10
-6.1561822
 20
1.14435493
 30
0.0
 11
-6.12086996
 21
1.14435493
 31
0.0
  0
LINE
  5
22C
100
AcDbEntity
  8
レイヤー_1
  6
DIVIDE
 62
       3
100
AcDbLine
 10
-6.12086996
 20
1.14435493
 30
0.0
 11
-6.08555774
 21
1.14435493
 31
0.0
  0
LINE
  5
22D
100
AcDbEntity
  8
レイヤー_1
  6
DIVIDE
 62
       3
100
AcDbLine
 10
-6.08555774
 20
1.14435493
 30
0.0
 11
-6.0502455
 21
1.14435493
 31
0.0
  0
LINE
  5
22E
100
AcDbEntity
  8
レイヤー_1
  6
DIVIDE
 62
       3
100
AcDbLine
 10
-6.0502455
 20
1.14435493
 30
0.0
 11
-6.01493328
 21
1.14435493
 31
0.0
  0
LINE
  5
22F
100
AcDbEntity
  8
レイヤー_1
  6
DIVIDE
 62
       3
100
AcDbLine
 10
-6.01493328
 20
1.14435493
 30
0.0
 11
-5.97962105
 21
1.14435493
 31
0.0
  0
LINE
  5
230
100
AcDbEntity
  8
レイヤー_1
  6
DIVIDE
 62
       3
100
AcDbLine
 10
1.46264647
 20
1.14435493
 30
0.0
 11
-5.97962105
 21
1.14435493
 31
0.0
  0
LINE
  5
231
100
AcDbEntity
  8
レイヤー_1
  6
DIVIDE
 62
       3
100
AcDbLine
 10
1.46264647
 20
1.14435493
 30
0.0
 11
1.56772188
 21
1.14435493
 31
0.0
  0
LINE
  5
232
100
AcDbEntity
  8
レイヤー_1
  6
DIVIDE
 62
       3
100
AcDbLine
 10
1.56772188
 20
1.14435493
 30
0.0
 11
1.67451984
 21
1.14435493
 31
0.0
  0
LINE
  5
233
100
AcDbEntity
  8
レイヤー_1
  6
DIVIDE
 62
       3
100
AcDbLine
 10
1.67451984
 20
1.14435493
 30
0.0
 11
1.78045653
 21
1.14435493
 31
0.0
  0
LINE
  5
234
100
AcDbEntity
  8
レイヤー_1
  6
DIVIDE
 62
       3
100
AcDbLine
 10
1.78045653
 20
1.14435493
 30
0.0
 11
1.88553194
 21
1.14435493
 31
0.0
  0
LINE
  5
235
100
AcDbEntity
  8
レイヤー_1
  6
DIVIDE
 62
       3
100
AcDbLine
 10
1.88553194
 20
1.14435493
 30
0.0
 11
1.95615641
 21
1.14435493
 31
0.0
  0
LINE
  5
236
100
AcDbEntity
  8
レイヤー_1
  6
DIVIDE
 62
       3
100
AcDbLine
 10
1.95615641
 20
1.14435493
 30
0.0
 11
2.02678085
 21
1.14435493
 31
0.0
  0
LINE
  5
237
100
AcDbEntity
  8
レイヤー_1
  6
DIVIDE
 62
       3
100
AcDbLine
 10
2.02678085
 20
1.14435493
 30
0.0
 11
2.06295436
 21
1.14435493
 31
0.0
  0
LINE
  5
238
100
AcDbEntity
  8
レイヤー_1
  6
DIVIDE
 62
       3
100
AcDbLine
 10
3.01552326
 20
1.14435493
 30
0.0
 11
2.94489881
 21
1.14435493
 31
0.0
  0
LINE
  5
239
100
AcDbEntity
  8
レイヤー_1
  6
DIVIDE
 62
       3
100
AcDbLine
 10
2.94489881
 20
-10.07416788
 30
0.0
 11
2.94489881
 21
-12.57789103
 31
0.0
  0
LINE
  5
23A
100
AcDbEntity
  8
レイヤー_1
  6
DIVIDE
 62
       3
100
AcDbLine
 10
2.94489881
 20
-12.57789103
 30
0.0
 11
2.94489881
 21
-13.84783935
 31
0.0
  0
LINE
  5
23B
100
AcDbEntity
  8
レイヤー_1
  6
DIVIDE
 62
       3
100
AcDbLine
 10
2.94489881
 20
-10.07416788
 30
0.0
 11
2.94489881
 21
-7.60360378
 31
0.0
  0
LINE
  5
23C
100
AcDbEntity
  8
レイヤー_1
  6
DIVIDE
 62
       3
100
AcDbLine
 10
2.94489881
 20
-5.09901937
 30
0.0
 11
2.94489881
 21
-7.60360378
 31
0.0
  0
LINE
  5
23D
100
AcDbEntity
  8
レイヤー_1
  6
DIVIDE
 62
       3
100
AcDbLine
 10
2.94489881
 20
-5.09901937
 30
0.0
 11
2.94489881
 21
-3.82907104
 31
0.0
  0
LINE
  5
23E
100
AcDbEntity
  8
レイヤー_1
  6
DIVIDE
 62
       3
100
AcDbLine
 10
2.41435411
 20
1.14435493
 30
0.0
 11
2.94489881
 21
1.14435493
 31
0.0
  0
LINE
  5
23F
100
AcDbEntity
  8
レイヤー_1
  6
DIVIDE
 62
       3
100
AcDbLine
 10
2.94489881
 20
1.14435493
 30
0.0
 11
2.94489881
 21
-0.08941989
 31
0.0
  0
LINE
  5
240
100
AcDbEntity
  8
レイヤー_1
  6
DIVIDE
 62
       3
100
AcDbLine
 10
2.94489881
 20
-0.08941989
 30
0.0
 11
2.94489881
 21
-2.24131266
 31
0.0
  0
LINE
  5
241
100
AcDbEntity
  8
レイヤー_1
  6
DIVIDE
 62
       3
100
AcDbLine
 10
2.94489881
 20
-15.43602837
 30
0.0
 11
2.94489881
 21
-17.5874905
 31
0.0
  0
LINE
  5
242
100
AcDbEntity
  8
レイヤー_1
  6
DIVIDE
 62
       3
100
AcDbLine
 10
2.94489881
 20
-17.5874905
 30
0.0
 11
2.94489881
 21
-18.82212659
 31
0.0
  0
LINE
  5
243
100
AcDbEntity
  8
レイヤー_1
  6
DIVIDE
 62
       3
100
AcDbLine
 10
4.03871663
 20
-15.43602837
 30
0.0
 11
2.69685193
 21
-15.43602837
 31
0.0
  0
LINE
  5
244
100
AcDbEntity
  8
レイヤー_1
  6
DIVIDE
 62
       3
100
AcDbLine
 10
4.03871663
 20
-13.84783935
 30
0.0
 11
2.69685193
 21
-13.84783935
 31
0.0
  0
LINE
  5
245
100
AcDbEntity
  8
レイヤー_1
  6
DIVIDE
 62
       3
100
AcDbLine
 10
2.69685193
 20
-2.24131266
 30
0.0
 11
4.03871663
 21
-2.24131266
 31
0.0
  0
LINE
  5
246
100
AcDbEntity
  8
レイヤー_1
  6
DIVIDE
 62
       3
100
AcDbLine
 10
2.69685193
 20
-3.82907104
 30
0.0
 11
4.03871663
 21
-3.82907104
 31
0.0
  0
LINE
  5
247
100
AcDbEntity
  8
レイヤー_1
  6
DIVIDE
 62
       3
100
AcDbLine
 10
2.44966633
 20
-15.43602837
 30
0.0
 11
2.48497855
 21
-15.43602837
 31
0.0
  0
LINE
  5
248
100
AcDbEntity
  8
レイヤー_1
  6
DIVIDE
 62
       3
100
AcDbLine
 10
2.48497855
 20
-15.43602837
 30
0.0
 11
2.52029078
 21
-15.43602837
 31
0.0
  0
LINE
  5
249
100
AcDbEntity
  8
レイヤー_1
  6
DIVIDE
 62
       3
100
AcDbLine
 10
2.52029078
 20
-15.43602837
 30
0.0
 11
2.55560302
 21
-15.43602837
 31
0.0
  0
LINE
  5
24A
100
AcDbEntity
  8
レイヤー_1
  6
DIVIDE
 62
       3
100
AcDbLine
 10
2.55560302
 20
-15.43602837
 30
0.0
 11
2.59177651
 21
-15.43602837
 31
0.0
  0
LINE
  5
24B
100
AcDbEntity
  8
レイヤー_1
  6
DIVIDE
 62
       3
100
AcDbLine
 10
2.59177651
 20
-15.43602837
 30
0.0
 11
2.66240097
 21
-15.43602837
 31
0.0
  0
LINE
  5
24C
100
AcDbEntity
  8
レイヤー_1
  6
DIVIDE
 62
       3
100
AcDbLine
 10
2.66240097
 20
-15.43602837
 30
0.0
 11
2.69685193
 21
-15.43602837
 31
0.0
  0
LINE
  5
24D
100
AcDbEntity
  8
レイヤー_1
  6
DIVIDE
 62
       3
100
AcDbLine
 10
2.69685193
 20
-13.84783935
 30
0.0
 11
2.66240097
 21
-13.84783935
 31
0.0
  0
LINE
  5
24E
100
AcDbEntity
  8
レイヤー_1
  6
DIVIDE
 62
       3
100
AcDbLine
 10
2.66240097
 20
-13.84783935
 30
0.0
 11
2.59177651
 21
-13.84783935
 31
0.0
  0
LINE
  5
24F
100
AcDbEntity
  8
レイヤー_1
  6
DIVIDE
 62
       3
100
AcDbLine
 10
2.59177651
 20
-13.84783935
 30
0.0
 11
2.55560302
 21
-13.84783935
 31
0.0
  0
LINE
  5
250
100
AcDbEntity
  8
レイヤー_1
  6
DIVIDE
 62
       3
100
AcDbLine
 10
2.55560302
 20
-13.84783935
 30
0.0
 11
2.52029078
 21
-13.84783935
 31
0.0
  0
LINE
  5
251
100
AcDbEntity
  8
レイヤー_1
  6
DIVIDE
 62
       3
100
AcDbLine
 10
2.52029078
 20
-13.84783935
 30
0.0
 11
2.48497855
 21
-13.84783935
 31
0.0
  0
LINE
  5
252
100
AcDbEntity
  8
レイヤー_1
  6
DIVIDE
 62
       3
100
AcDbLine
 10
2.48497855
 20
-13.84783935
 30
0.0
 11
2.44966633
 21
-13.84783935
 31
0.0
  0
LINE
  5
253
100
AcDbEntity
  8
レイヤー_1
  6
DIVIDE
 62
       3
100
AcDbLine
 10
2.69685193
 20
-2.24131266
 30
0.0
 11
2.66240097
 21
-2.24131266
 31
0.0
  0
LINE
  5
254
100
AcDbEntity
  8
レイヤー_1
  6
DIVIDE
 62
       3
100
AcDbLine
 10
2.66240097
 20
-2.24131266
 30
0.0
 11
2.59177651
 21
-2.24131266
 31
0.0
  0
LINE
  5
255
100
AcDbEntity
  8
レイヤー_1
  6
DIVIDE
 62
       3
100
AcDbLine
 10
2.59177651
 20
-2.24131266
 30
0.0
 11
2.55560302
 21
-2.24131266
 31
0.0
  0
LINE
  5
256
100
AcDbEntity
  8
レイヤー_1
  6
DIVIDE
 62
       3
100
AcDbLine
 10
2.55560302
 20
-2.24131266
 30
0.0
 11
2.52029078
 21
-2.24131266
 31
0.0
  0
LINE
  5
257
100
AcDbEntity
  8
レイヤー_1
  6
DIVIDE
 62
       3
100
AcDbLine
 10
2.52029078
 20
-2.24131266
 30
0.0
 11
2.48497855
 21
-2.24131266
 31
0.0
  0
LINE
  5
258
100
AcDbEntity
  8
レイヤー_1
  6
DIVIDE
 62
       3
100
AcDbLine
 10
2.48497855
 20
-2.24131266
 30
0.0
 11
2.44966633
 21
-2.24131266
 31
0.0
  0
LINE
  5
259
100
AcDbEntity
  8
レイヤー_1
  6
DIVIDE
 62
       3
100
AcDbLine
 10
2.69685193
 20
-3.82907104
 30
0.0
 11
2.66240097
 21
-3.82907104
 31
0.0
  0
LINE
  5
25A
100
AcDbEntity
  8
レイヤー_1
  6
DIVIDE
 62
       3
100
AcDbLine
 10
2.66240097
 20
-3.82907104
 30
0.0
 11
2.59177651
 21
-3.82907104
 31
0.0
  0
LINE
  5
25B
100
AcDbEntity
  8
レイヤー_1
  6
DIVIDE
 62
       3
100
AcDbLine
 10
2.59177651
 20
-3.82907104
 30
0.0
 11
2.55560302
 21
-3.82907104
 31
0.0
  0
LINE
  5
25C
100
AcDbEntity
  8
レイヤー_1
  6
DIVIDE
 62
       3
100
AcDbLine
 10
2.55560302
 20
-3.82907104
 30
0.0
 11
2.52029078
 21
-3.82907104
 31
0.0
  0
LINE
  5
25D
100
AcDbEntity
  8
レイヤー_1
  6
DIVIDE
 62
       3
100
AcDbLine
 10
2.52029078
 20
-3.82907104
 30
0.0
 11
2.48497855
 21
-3.82907104
 31
0.0
  0
LINE
  5
25E
100
AcDbEntity
  8
レイヤー_1
  6
DIVIDE
 62
       3
100
AcDbLine
 10
2.48497855
 20
-3.82907104
 30
0.0
 11
2.44966633
 21
-3.82907104
 31
0.0
  0
LINE
  5
25F
100
AcDbEntity
  8
レイヤー_1
  6
DIVIDE
 62
       3
100
AcDbLine
 10
2.44966633
 20
-15.43602837
 30
0.0
 11
2.41435411
 21
-15.43602837
 31
0.0
  0
LINE
  5
260
100
AcDbEntity
  8
レイヤー_1
  6
DIVIDE
 62
       3
100
AcDbLine
 10
2.41435411
 20
-13.84783935
 30
0.0
 11
2.44966633
 21
-13.84783935
 31
0.0
  0
LINE
  5
261
100
AcDbEntity
  8
レイヤー_1
  6
DIVIDE
 62
       3
100
AcDbLine
 10
2.41435411
 20
-2.24131266
 30
0.0
 11
2.44966633
 21
-2.24131266
 31
0.0
  0
LINE
  5
262
100
AcDbEntity
  8
レイヤー_1
  6
DIVIDE
 62
       3
100
AcDbLine
 10
2.41435411
 20
-3.82907104
 30
0.0
 11
2.44966633
 21
-3.82907104
 31
0.0
  0
LINE
  5
263
100
AcDbEntity
  8
レイヤー_1
  6
DIVIDE
 62
       3
100
AcDbLine
 10
2.41435411
 20
1.14435493
 30
0.0
 11
2.06295436
 21
1.14435493
 31
0.0
  0
LINE
  5
264
100
AcDbEntity
  8
レイヤー_1
  6
DIVIDE
 62
       3
100
AcDbLine
 10
2.41435411
 20
-15.43602837
 30
0.0
 11
2.41435411
 21
-13.84783935
 31
0.0
  0
LINE
  5
265
100
AcDbEntity
  8
レイヤー_1
  6
DIVIDE
 62
       3
100
AcDbLine
 10
2.41435411
 20
-3.82907104
 30
0.0
 11
2.41435411
 21
-2.24131266
 31
0.0
  0
LINE
  5
266
100
AcDbEntity
  8
レイヤー_1
  6
DIVIDE
 62
       3
100
AcDbLine
 10
-0.47780356
 20
-17.9057312
 30
0.0
 11
-0.40717911
 21
-17.83338419
 31
0.0
  0
LINE
  5
267
100
AcDbEntity
  8
レイヤー_1
  6
DIVIDE
 62
       3
100
AcDbLine
 10
-0.40717911
 20
-17.83338419
 30
0.0
 11
-0.33655465
 21
-17.79893324
 31
0.0
  0
LINE
  5
268
100
AcDbEntity
  8
レイヤー_1
  6
DIVIDE
 62
       3
100
AcDbLine
 10
-0.33655465
 20
-17.79893324
 30
0.0
 11
-0.26679146
 21
-17.72830878
 31
0.0
  0
LINE
  5
269
100
AcDbEntity
  8
レイヤー_1
  6
DIVIDE
 62
       3
100
AcDbLine
 10
-0.26679146
 20
-17.72830878
 30
0.0
 11
-0.19616701
 21
-17.69385782
 31
0.0
  0
LINE
  5
26A
100
AcDbEntity
  8
レイヤー_1
  6
DIVIDE
 62
       3
100
AcDbLine
 10
-0.19616701
 20
-17.69385782
 30
0.0
 11
-0.12554255
 21
-17.623664
 31
0.0
  0
LINE
  5
26B
100
AcDbEntity
  8
レイヤー_1
  6
DIVIDE
 62
       3
100
AcDbLine
 10
-0.12554255
 20
-17.623664
 30
0.0
 11
-0.08936905
 21
-17.55303955
 31
0.0
  0
LINE
  5
26C
100
AcDbEntity
  8
レイヤー_1
  6
DIVIDE
 62
       3
100
AcDbLine
 10
-0.08936905
 20
-17.55303955
 30
0.0
 11
-0.01788332
 21
-17.48241509
 31
0.0
  0
LINE
  5
26D
100
AcDbEntity
  8
レイヤー_1
  6
DIVIDE
 62
       3
100
AcDbLine
 10
-0.01788332
 20
-17.48241509
 30
0.0
 11
0.01656765
 21
-17.41179063
 31
0.0
  0
LINE
  5
26E
100
AcDbEntity
  8
レイヤー_1
  6
DIVIDE
 62
       3
100
AcDbLine
 10
-2.59309218
 20
-14.7659573
 30
0.0
 11
-2.66371664
 21
-14.83658176
 31
0.0
  0
LINE
  5
26F
100
AcDbEntity
  8
レイヤー_1
  6
DIVIDE
 62
       3
100
AcDbLine
 10
-2.66371664
 20
-14.83658176
 30
0.0
 11
-2.73520238
 21
-14.87103271
 31
0.0
  0
LINE
  5
270
100
AcDbEntity
  8
レイヤー_1
  6
DIVIDE
 62
       3
100
AcDbLine
 10
-2.73520238
 20
-14.87103271
 30
0.0
 11
-2.80582684
 21
-14.94165717
 31
0.0
  0
LINE
  5
271
100
AcDbEntity
  8
レイヤー_1
  6
DIVIDE
 62
       3
100
AcDbLine
 10
-2.80582684
 20
-14.94165717
 30
0.0
 11
-2.8764513
 21
-15.01185099
 31
0.0
  0
LINE
  5
272
100
AcDbEntity
  8
レイヤー_1
  6
DIVIDE
 62
       3
100
AcDbLine
 10
-2.8764513
 20
-15.01185099
 30
0.0
 11
-2.94707575
 21
-15.08247545
 31
0.0
  0
LINE
  5
273
100
AcDbEntity
  8
レイヤー_1
  6
DIVIDE
 62
       3
100
AcDbLine
 10
-2.94707575
 20
-15.08247545
 30
0.0
 11
-2.98066543
 21
-15.11864895
 31
0.0
  0
LINE
  5
274
100
AcDbEntity
  8
レイヤー_1
  6
DIVIDE
 62
       3
100
AcDbLine
 10
-2.98066543
 20
-15.11864895
 30
0.0
 11
-3.05128989
 21
-15.18755086
 31
0.0
  0
LINE
  5
275
100
AcDbEntity
  8
レイヤー_1
  6
DIVIDE
 62
       3
100
AcDbLine
 10
-3.05128989
 20
-15.18755086
 30
0.0
 11
-3.08746339
 21
-15.25989786
 31
0.0
  0
LINE
  5
276
100
AcDbEntity
  8
レイヤー_1
  6
DIVIDE
 62
       3
100
AcDbLine
 10
-0.47780356
 20
-12.89527045
 30
0.0
 11
-0.40717911
 21
-12.86081949
 31
0.0
  0
LINE
  5
277
100
AcDbEntity
  8
レイヤー_1
  6
DIVIDE
 62
       3
100
AcDbLine
 10
-0.40717911
 20
-12.86081949
 30
0.0
 11
-0.33655465
 21
-12.79019504
 31
0.0
  0
LINE
  5
278
100
AcDbEntity
  8
レイヤー_1
  6
DIVIDE
 62
       3
100
AcDbLine
 10
-0.33655465
 20
-12.79019504
 30
0.0
 11
-0.26679146
 21
-12.75402153
 31
0.0
  0
LINE
  5
279
100
AcDbEntity
  8
レイヤー_1
  6
DIVIDE
 62
       3
100
AcDbLine
 10
-0.26679146
 20
-12.75402153
 30
0.0
 11
-0.19616701
 21
-12.68382771
 31
0.0
  0
LINE
  5
27A
100
AcDbEntity
  8
レイヤー_1
  6
DIVIDE
 62
       3
100
AcDbLine
 10
-0.19616701
 20
-12.68382771
 30
0.0
 11
-0.12554255
 21
-12.61406453
 31
0.0
  0
LINE
  5
27B
100
AcDbEntity
  8
レイヤー_1
  6
DIVIDE
 62
       3
100
AcDbLine
 10
-0.12554255
 20
-12.61406453
 30
0.0
 11
-0.08936905
 21
-12.54171753
 31
0.0
  0
LINE
  5
27C
100
AcDbEntity
  8
レイヤー_1
  6
DIVIDE
 62
       3
100
AcDbLine
 10
-0.08936905
 20
-12.54171753
 30
0.0
 11
-0.01788332
 21
-12.47281562
 31
0.0
  0
LINE
  5
27D
100
AcDbEntity
  8
レイヤー_1
  6
DIVIDE
 62
       3
100
AcDbLine
 10
-0.01788332
 20
-12.47281562
 30
0.0
 11
0.01656765
 21
-12.40219116
 31
0.0
  0
LINE
  5
27E
100
AcDbEntity
  8
レイヤー_1
  6
DIVIDE
 62
       3
100
AcDbLine
 10
-2.59309218
 20
-9.79080878
 30
0.0
 11
-2.66371664
 21
-9.82698228
 31
0.0
  0
LINE
  5
27F
100
AcDbEntity
  8
レイヤー_1
  6
DIVIDE
 62
       3
100
AcDbLine
 10
-2.66371664
 20
-9.82698228
 30
0.0
 11
-2.73520238
 21
-9.89588419
 31
0.0
  0
LINE
  5
280
100
AcDbEntity
  8
レイヤー_1
  6
DIVIDE
 62
       3
100
AcDbLine
 10
-2.73520238
 20
-9.89588419
 30
0.0
 11
-2.80582684
 21
-9.9320577
 31
0.0
  0
LINE
  5
281
100
AcDbEntity
  8
レイヤー_1
  6
DIVIDE
 62
       3
100
AcDbLine
 10
-2.80582684
 20
-9.9320577
 30
0.0
 11
-2.8764513
 21
-10.00268215
 31
0.0
  0
LINE
  5
282
100
AcDbEntity
  8
レイヤー_1
  6
DIVIDE
 62
       3
100
AcDbLine
 10
-2.8764513
 20
-10.00268215
 30
0.0
 11
-2.94707575
 21
-10.07416788
 31
0.0
  0
LINE
  5
283
100
AcDbEntity
  8
レイヤー_1
  6
DIVIDE
 62
       3
100
AcDbLine
 10
-2.94707575
 20
-10.07416788
 30
0.0
 11
-2.98066543
 21
-10.1443617
 31
0.0
  0
LINE
  5
284
100
AcDbEntity
  8
レイヤー_1
  6
DIVIDE
 62
       3
100
AcDbLine
 10
-2.98066543
 20
-10.1443617
 30
0.0
 11
-3.05128989
 21
-10.21498616
 31
0.0
  0
LINE
  5
285
100
AcDbEntity
  8
レイヤー_1
  6
DIVIDE
 62
       3
100
AcDbLine
 10
-3.05128989
 20
-10.21498616
 30
0.0
 11
-3.08746339
 21
-10.28561062
 31
0.0
  0
LINE
  5
286
100
AcDbEntity
  8
レイヤー_1
  6
DIVIDE
 62
       3
100
AcDbLine
 10
-0.47780356
 20
-7.88610161
 30
0.0
 11
-0.40717911
 21
-7.85165066
 31
0.0
  0
LINE
  5
287
100
AcDbEntity
  8
レイヤー_1
  6
DIVIDE
 62
       3
100
AcDbLine
 10
-0.40717911
 20
-7.85165066
 30
0.0
 11
-0.33655465
 21
-7.7810262
 31
0.0
  0
LINE
  5
288
100
AcDbEntity
  8
レイヤー_1
  6
DIVIDE
 62
       3
100
AcDbLine
 10
-0.33655465
 20
-7.7810262
 30
0.0
 11
-0.26679146
 21
-7.7448527
 31
0.0
  0
LINE
  5
289
100
AcDbEntity
  8
レイヤー_1
  6
DIVIDE
 62
       3
100
AcDbLine
 10
-0.26679146
 20
-7.7448527
 30
0.0
 11
-0.19616701
 21
-7.67422824
 31
0.0
  0
LINE
  5
28A
100
AcDbEntity
  8
レイヤー_1
  6
DIVIDE
 62
       3
100
AcDbLine
 10
-0.19616701
 20
-7.67422824
 30
0.0
 11
-0.12554255
 21
-7.60360378
 31
0.0
  0
LINE
  5
28B
100
AcDbEntity
  8
レイヤー_1
  6
DIVIDE
 62
       3
100
AcDbLine
 10
-0.12554255
 20
-7.60360378
 30
0.0
 11
-0.08936905
 21
-7.53297933
 31
0.0
  0
LINE
  5
28C
100
AcDbEntity
  8
レイヤー_1
  6
DIVIDE
 62
       3
100
AcDbLine
 10
-0.08936905
 20
-7.53297933
 30
0.0
 11
-0.01788332
 21
-7.46235487
 31
0.0
  0
LINE
  5
28D
100
AcDbEntity
  8
レイヤー_1
  6
DIVIDE
 62
       3
100
AcDbLine
 10
-0.01788332
 20
-7.46235487
 30
0.0
 11
0.01656765
 21
-7.39216105
 31
0.0
  0
LINE
  5
28E
100
AcDbEntity
  8
レイヤー_1
  6
DIVIDE
 62
       3
100
AcDbLine
 10
-2.59309218
 20
-4.78250122
 30
0.0
 11
-2.66371664
 21
-4.81652154
 31
0.0
  0
LINE
  5
28F
100
AcDbEntity
  8
レイヤー_1
  6
DIVIDE
 62
       3
100
AcDbLine
 10
-2.66371664
 20
-4.81652154
 30
0.0
 11
-2.73520238
 21
-4.88714599
 31
0.0
  0
LINE
  5
290
100
AcDbEntity
  8
レイヤー_1
  6
DIVIDE
 62
       3
100
AcDbLine
 10
-2.73520238
 20
-4.88714599
 30
0.0
 11
-2.80582684
 21
-4.95777045
 31
0.0
  0
LINE
  5
291
100
AcDbEntity
  8
レイヤー_1
  6
DIVIDE
 62
       3
100
AcDbLine
 10
-2.80582684
 20
-4.95777045
 30
0.0
 11
-2.8764513
 21
-4.99394395
 31
0.0
  0
LINE
  5
292
100
AcDbEntity
  8
レイヤー_1
  6
DIVIDE
 62
       3
100
AcDbLine
 10
-2.8764513
 20
-4.99394395
 30
0.0
 11
-2.94707575
 21
-5.06456841
 31
0.0
  0
LINE
  5
293
100
AcDbEntity
  8
レイヤー_1
  6
DIVIDE
 62
       3
100
AcDbLine
 10
-2.94707575
 20
-5.06456841
 30
0.0
 11
-2.98066543
 21
-5.13519287
 31
0.0
  0
LINE
  5
294
100
AcDbEntity
  8
レイヤー_1
  6
DIVIDE
 62
       3
100
AcDbLine
 10
-2.98066543
 20
-5.13519287
 30
0.0
 11
-3.05128989
 21
-5.20581733
 31
0.0
  0
LINE
  5
295
100
AcDbEntity
  8
レイヤー_1
  6
DIVIDE
 62
       3
100
AcDbLine
 10
-3.05128989
 20
-5.20581733
 30
0.0
 11
-3.08746339
 21
-5.27644178
 31
0.0
  0
LINE
  5
296
100
AcDbEntity
  8
レイヤー_1
  6
DIVIDE
 62
       3
100
AcDbLine
 10
-0.47780356
 20
-2.91267564
 30
0.0
 11
-0.40717911
 21
-2.84032864
 31
0.0
  0
LINE
  5
297
100
AcDbEntity
  8
レイヤー_1
  6
DIVIDE
 62
       3
100
AcDbLine
 10
-0.40717911
 20
-2.84032864
 30
0.0
 11
-0.33655465
 21
-2.80587768
 31
0.0
  0
LINE
  5
298
100
AcDbEntity
  8
レイヤー_1
  6
DIVIDE
 62
       3
100
AcDbLine
 10
-0.33655465
 20
-2.80587768
 30
0.0
 11
-0.26679146
 21
-2.73525323
 31
0.0
  0
LINE
  5
299
100
AcDbEntity
  8
レイヤー_1
  6
DIVIDE
 62
       3
100
AcDbLine
 10
-0.26679146
 20
-2.73525323
 30
0.0
 11
-0.19616701
 21
-2.66462877
 31
0.0
  0
LINE
  5
29A
100
AcDbEntity
  8
レイヤー_1
  6
DIVIDE
 62
       3
100
AcDbLine
 10
-0.19616701
 20
-2.66462877
 30
0.0
 11
-0.12554255
 21
-2.63060845
 31
0.0
  0
LINE
  5
29B
100
AcDbEntity
  8
レイヤー_1
  6
DIVIDE
 62
       3
100
AcDbLine
 10
-0.12554255
 20
-2.63060845
 30
0.0
 11
-0.08936905
 21
-2.55998399
 31
0.0
  0
LINE
  5
29C
100
AcDbEntity
  8
レイヤー_1
  6
DIVIDE
 62
       3
100
AcDbLine
 10
-0.08936905
 20
-2.55998399
 30
0.0
 11
-0.01788332
 21
-2.48935954
 31
0.0
  0
LINE
  5
29D
100
AcDbEntity
  8
レイヤー_1
  6
DIVIDE
 62
       3
100
AcDbLine
 10
-0.01788332
 20
-2.48935954
 30
0.0
 11
0.01656765
 21
-2.41873508
 31
0.0
  0
LINE
  5
29E
100
AcDbEntity
  8
レイヤー_1
  6
DIVIDE
 62
       3
100
AcDbLine
 10
-2.59309218
 20
0.22709825
 30
0.0
 11
-2.66371664
 21
0.1564738
 31
0.0
  0
LINE
  5
29F
100
AcDbEntity
  8
レイヤー_1
  6
DIVIDE
 62
       3
100
AcDbLine
 10
-2.66371664
 20
0.1564738
 30
0.0
 11
-2.73520238
 21
0.12202284
 31
0.0
  0
LINE
  5
2A0
100
AcDbEntity
  8
レイヤー_1
  6
DIVIDE
 62
       3
100
AcDbLine
 10
-2.73520238
 20
0.12202284
 30
0.0
 11
-2.80582684
 21
0.05139838
 31
0.0
  0
LINE
  5
2A1
100
AcDbEntity
  8
レイヤー_1
  6
DIVIDE
 62
       3
100
AcDbLine
 10
-2.80582684
 20
0.05139838
 30
0.0
 11
-2.8764513
 21
-0.01879544
 31
0.0
  0
LINE
  5
2A2
100
AcDbEntity
  8
レイヤー_1
  6
DIVIDE
 62
       3
100
AcDbLine
 10
-2.8764513
 20
-0.01879544
 30
0.0
 11
-2.94707575
 21
-0.05496894
 31
0.0
  0
LINE
  5
2A3
100
AcDbEntity
  8
レイヤー_1
  6
DIVIDE
 62
       3
100
AcDbLine
 10
-2.94707575
 20
-0.05496894
 30
0.0
 11
-2.98066543
 21
-0.1255934
 31
0.0
  0
LINE
  5
2A4
100
AcDbEntity
  8
レイヤー_1
  6
DIVIDE
 62
       3
100
AcDbLine
 10
-2.98066543
 20
-0.1255934
 30
0.0
 11
-3.05128989
 21
-0.19449531
 31
0.0
  0
LINE
  5
2A5
100
AcDbEntity
  8
レイヤー_1
  6
DIVIDE
 62
       3
100
AcDbLine
 10
-3.05128989
 20
-0.19449531
 30
0.0
 11
-3.08746339
 21
-0.26684231
 31
0.0
  0
LINE
  5
2A6
100
AcDbEntity
  8
レイヤー_1
  6
DIVIDE
 62
       3
100
AcDbLine
 10
-0.47780356
 20
-17.9057312
 30
0.0
 11
-0.75857885
 21
-18.0456882
 31
0.0
  0
LINE
  5
2A7
100
AcDbEntity
  8
レイヤー_1
  6
DIVIDE
 62
       3
100
AcDbLine
 10
-0.75857885
 20
-18.0456882
 30
0.0
 11
-1.07725017
 21
-18.18693711
 31
0.0
  0
LINE
  5
2A8
100
AcDbEntity
  8
レイヤー_1
  6
DIVIDE
 62
       3
100
AcDbLine
 10
-1.07725017
 20
-18.18693711
 30
0.0
 11
-1.39419896
 21
-18.22311062
 31
0.0
  0
LINE
  5
2A9
100
AcDbEntity
  8
レイヤー_1
  6
DIVIDE
 62
       3
100
AcDbLine
 10
-1.39419896
 20
-18.22311062
 30
0.0
 11
-1.71114775
 21
-18.22311062
 31
0.0
  0
LINE
  5
2AA
100
AcDbEntity
  8
レイヤー_1
  6
DIVIDE
 62
       3
100
AcDbLine
 10
-1.71114775
 20
-18.22311062
 30
0.0
 11
-2.02895781
 21
-18.15248616
 31
0.0
  0
LINE
  5
2AB
100
AcDbEntity
  8
レイヤー_1
  6
DIVIDE
 62
       3
100
AcDbLine
 10
-2.02895781
 20
-18.15248616
 30
0.0
 11
-2.34676785
 21
-18.0456882
 31
0.0
  0
LINE
  5
2AC
100
AcDbEntity
  8
レイヤー_1
  6
DIVIDE
 62
       3
100
AcDbLine
 10
-2.34676785
 20
-18.0456882
 30
0.0
 11
-2.62926569
 21
-17.86955769
 31
0.0
  0
LINE
  5
2AD
100
AcDbEntity
  8
レイヤー_1
  6
DIVIDE
 62
       3
100
AcDbLine
 10
-2.62926569
 20
-17.86955769
 30
0.0
 11
-2.8764513
 21
-17.69385782
 31
0.0
  0
LINE
  5
2AE
100
AcDbEntity
  8
レイヤー_1
  6
DIVIDE
 62
       3
100
AcDbLine
 10
-2.8764513
 20
-17.69385782
 30
0.0
 11
-3.08746339
 21
-17.41179063
 31
0.0
  0
LINE
  5
2AF
100
AcDbEntity
  8
レイヤー_1
  6
DIVIDE
 62
       3
100
AcDbLine
 10
-3.08746339
 20
-17.41179063
 30
0.0
 11
-3.26316325
 21
-17.12972344
 31
0.0
  0
LINE
  5
2B0
100
AcDbEntity
  8
レイヤー_1
  6
DIVIDE
 62
       3
100
AcDbLine
 10
-3.26316325
 20
-17.12972344
 30
0.0
 11
-3.36909995
 21
-16.84636433
 31
0.0
  0
LINE
  5
2B1
100
AcDbEntity
  8
レイヤー_1
  6
DIVIDE
 62
       3
100
AcDbLine
 10
-3.36909995
 20
-16.84636433
 30
0.0
 11
-3.40441218
 21
-16.52984619
 31
0.0
  0
LINE
  5
2B2
100
AcDbEntity
  8
レイヤー_1
  6
DIVIDE
 62
       3
100
AcDbLine
 10
-3.40441218
 20
-16.52984619
 30
0.0
 11
-3.4397244
 21
-16.17629326
 31
0.0
  0
LINE
  5
2B3
100
AcDbEntity
  8
レイヤー_1
  6
DIVIDE
 62
       3
100
AcDbLine
 10
-3.4397244
 20
-16.17629326
 30
0.0
 11
-3.36909995
 21
-15.85977511
 31
0.0
  0
LINE
  5
2B4
100
AcDbEntity
  8
レイヤー_1
  6
DIVIDE
 62
       3
100
AcDbLine
 10
-3.36909995
 20
-15.85977511
 30
0.0
 11
-3.26316325
 21
-15.54110378
 31
0.0
  0
LINE
  5
2B5
100
AcDbEntity
  8
レイヤー_1
  6
DIVIDE
 62
       3
100
AcDbLine
 10
-3.26316325
 20
-15.54110378
 30
0.0
 11
-3.08746339
 21
-15.25989786
 31
0.0
  0
LINE
  5
2B6
100
AcDbEntity
  8
レイヤー_1
  6
DIVIDE
 62
       3
100
AcDbLine
 10
-0.47780356
 20
-17.9057312
 30
0.0
 11
-3.08746339
 21
-15.25989786
 31
0.0
  0
LINE
  5
2B7
100
AcDbEntity
  8
レイヤー_1
  6
DIVIDE
 62
       3
100
AcDbLine
 10
-2.59309218
 20
-9.79080878
 30
0.0
 11
-2.31059436
 21
-9.61553955
 31
0.0
  0
LINE
  5
2B8
100
AcDbEntity
  8
レイヤー_1
  6
DIVIDE
 62
       3
100
AcDbLine
 10
-2.31059436
 20
-9.61553955
 30
0.0
 11
-2.02895781
 21
-9.50874159
 31
0.0
  0
LINE
  5
2B9
100
AcDbEntity
  8
レイヤー_1
  6
DIVIDE
 62
       3
100
AcDbLine
 10
-2.02895781
 20
-9.50874159
 30
0.0
 11
-1.67669678
 21
-9.43811713
 31
0.0
  0
LINE
  5
2BA
100
AcDbEntity
  8
レイヤー_1
  6
DIVIDE
 62
       3
100
AcDbLine
 10
-1.67669678
 20
-9.43811713
 30
0.0
 11
-1.35888672
 21
-9.47429063
 31
0.0
  0
LINE
  5
2BB
100
AcDbEntity
  8
レイヤー_1
  6
DIVIDE
 62
       3
100
AcDbLine
 10
-1.35888672
 20
-9.47429063
 30
0.0
 11
-1.04193795
 21
-9.50874159
 31
0.0
  0
LINE
  5
2BC
100
AcDbEntity
  8
レイヤー_1
  6
DIVIDE
 62
       3
100
AcDbLine
 10
-1.04193795
 20
-9.50874159
 30
0.0
 11
-0.72412789
 21
-9.61553955
 31
0.0
  0
LINE
  5
2BD
100
AcDbEntity
  8
レイヤー_1
  6
DIVIDE
 62
       3
100
AcDbLine
 10
-0.72412789
 20
-9.61553955
 30
0.0
 11
-0.44163005
 21
-9.79080878
 31
0.0
  0
LINE
  5
2BE
100
AcDbEntity
  8
レイヤー_1
  6
DIVIDE
 62
       3
100
AcDbLine
 10
-0.44163005
 20
-9.79080878
 30
0.0
 11
-0.19616701
 21
-10.00268215
 31
0.0
  0
LINE
  5
2BF
100
AcDbEntity
  8
レイヤー_1
  6
DIVIDE
 62
       3
100
AcDbLine
 10
-0.19616701
 20
-10.00268215
 30
0.0
 11
0.01656765
 21
-10.24943712
 31
0.0
  0
LINE
  5
2C0
100
AcDbEntity
  8
レイヤー_1
  6
DIVIDE
 62
       3
100
AcDbLine
 10
0.01656765
 20
-10.24943712
 30
0.0
 11
0.15781656
 21
-10.53193495
 31
0.0
  0
LINE
  5
2C1
100
AcDbEntity
  8
レイヤー_1
  6
DIVIDE
 62
       3
100
AcDbLine
 10
0.15781656
 20
-10.53193495
 30
0.0
 11
0.29906547
 21
-10.85017564
 31
0.0
  0
LINE
  5
2C2
100
AcDbEntity
  8
レイヤー_1
  6
DIVIDE
 62
       3
100
AcDbLine
 10
0.29906547
 20
-10.85017564
 30
0.0
 11
0.33437771
 21
-11.16755506
 31
0.0
  0
LINE
  5
2C3
100
AcDbEntity
  8
レイヤー_1
  6
DIVIDE
 62
       3
100
AcDbLine
 10
0.33437771
 20
-11.16755506
 30
0.0
 11
0.33437771
 21
-11.48407321
 31
0.0
  0
LINE
  5
2C4
100
AcDbEntity
  8
レイヤー_1
  6
DIVIDE
 62
       3
100
AcDbLine
 10
0.33437771
 20
-11.48407321
 30
0.0
 11
0.29906547
 21
-11.80188327
 31
0.0
  0
LINE
  5
2C5
100
AcDbEntity
  8
レイヤー_1
  6
DIVIDE
 62
       3
100
AcDbLine
 10
0.29906547
 20
-11.80188327
 30
0.0
 11
0.19312878
 21
-12.12012397
 31
0.0
  0
LINE
  5
2C6
100
AcDbEntity
  8
レイヤー_1
  6
DIVIDE
 62
       3
100
AcDbLine
 10
0.19312878
 20
-12.12012397
 30
0.0
 11
0.01656765
 21
-12.40219116
 31
0.0
  0
LINE
  5
2C7
100
AcDbEntity
  8
レイヤー_1
  6
DIVIDE
 62
       3
100
AcDbLine
 10
-2.59309218
 20
-9.79080878
 30
0.0
 11
0.01656765
 21
-12.40219116
 31
0.0
  0
LINE
  5
2C8
100
AcDbEntity
  8
レイヤー_1
  6
DIVIDE
 62
       3
100
AcDbLine
 10
-2.59309218
 20
-4.78250122
 30
0.0
 11
-2.31059436
 21
-4.60421753
 31
0.0
  0
LINE
  5
2C9
100
AcDbEntity
  8
レイヤー_1
  6
DIVIDE
 62
       3
100
AcDbLine
 10
-2.31059436
 20
-4.60421753
 30
0.0
 11
-2.02895781
 21
-4.49914211
 31
0.0
  0
LINE
  5
2CA
100
AcDbEntity
  8
レイヤー_1
  6
DIVIDE
 62
       3
100
AcDbLine
 10
-2.02895781
 20
-4.49914211
 30
0.0
 11
-1.67669678
 21
-4.46469116
 31
0.0
  0
LINE
  5
2CB
100
AcDbEntity
  8
レイヤー_1
  6
DIVIDE
 62
       3
100
AcDbLine
 10
-1.67669678
 20
-4.46469116
 30
0.0
 11
-1.35888672
 21
-4.46469116
 31
0.0
  0
LINE
  5
2CC
100
AcDbEntity
  8
レイヤー_1
  6
DIVIDE
 62
       3
100
AcDbLine
 10
-1.35888672
 20
-4.46469116
 30
0.0
 11
-1.04193795
 21
-4.49914211
 31
0.0
  0
LINE
  5
2CD
100
AcDbEntity
  8
レイヤー_1
  6
DIVIDE
 62
       3
100
AcDbLine
 10
-1.04193795
 20
-4.49914211
 30
0.0
 11
-0.72412789
 21
-4.64039103
 31
0.0
  0
LINE
  5
2CE
100
AcDbEntity
  8
レイヤー_1
  6
DIVIDE
 62
       3
100
AcDbLine
 10
-0.72412789
 20
-4.64039103
 30
0.0
 11
-0.44163005
 21
-4.78250122
 31
0.0
  0
LINE
  5
2CF
100
AcDbEntity
  8
レイヤー_1
  6
DIVIDE
 62
       3
100
AcDbLine
 10
-0.44163005
 20
-4.78250122
 30
0.0
 11
-0.19616701
 21
-4.99394395
 31
0.0
  0
LINE
  5
2D0
100
AcDbEntity
  8
レイヤー_1
  6
DIVIDE
 62
       3
100
AcDbLine
 10
-0.19616701
 20
-4.99394395
 30
0.0
 11
0.01656765
 21
-5.24026828
 31
0.0
  0
LINE
  5
2D1
100
AcDbEntity
  8
レイヤー_1
  6
DIVIDE
 62
       3
100
AcDbLine
 10
0.01656765
 20
-5.24026828
 30
0.0
 11
0.15781656
 21
-5.52233547
 31
0.0
  0
LINE
  5
2D2
100
AcDbEntity
  8
レイヤー_1
  6
DIVIDE
 62
       3
100
AcDbLine
 10
0.15781656
 20
-5.52233547
 30
0.0
 11
0.29906547
 21
-5.8397149
 31
0.0
  0
LINE
  5
2D3
100
AcDbEntity
  8
レイヤー_1
  6
DIVIDE
 62
       3
100
AcDbLine
 10
0.29906547
 20
-5.8397149
 30
0.0
 11
0.33437771
 21
-6.15838623
 31
0.0
  0
LINE
  5
2D4
100
AcDbEntity
  8
レイヤー_1
  6
DIVIDE
 62
       3
100
AcDbLine
 10
0.33437771
 20
-6.15838623
 30
0.0
 11
0.33437771
 21
-6.47490438
 31
0.0
  0
LINE
  5
2D5
100
AcDbEntity
  8
レイヤー_1
  6
DIVIDE
 62
       3
100
AcDbLine
 10
0.33437771
 20
-6.47490438
 30
0.0
 11
0.29906547
 21
-6.8284573
 31
0.0
  0
LINE
  5
2D6
100
AcDbEntity
  8
レイヤー_1
  6
DIVIDE
 62
       3
100
AcDbLine
 10
0.29906547
 20
-6.8284573
 30
0.0
 11
0.19312878
 21
-7.11052449
 31
0.0
  0
LINE
  5
2D7
100
AcDbEntity
  8
レイヤー_1
  6
DIVIDE
 62
       3
100
AcDbLine
 10
0.19312878
 20
-7.11052449
 30
0.0
 11
0.01656765
 21
-7.39216105
 31
0.0
  0
LINE
  5
2D8
100
AcDbEntity
  8
レイヤー_1
  6
DIVIDE
 62
       3
100
AcDbLine
 10
-2.59309218
 20
-4.78250122
 30
0.0
 11
0.01656765
 21
-7.39216105
 31
0.0
  0
LINE
  5
2D9
100
AcDbEntity
  8
レイヤー_1
  6
DIVIDE
 62
       3
100
AcDbLine
 10
-2.59309218
 20
0.22709825
 30
0.0
 11
-2.31059436
 21
0.36834717
 31
0.0
  0
LINE
  5
2DA
100
AcDbEntity
  8
レイヤー_1
  6
DIVIDE
 62
       3
100
AcDbLine
 10
-2.31059436
 20
0.36834717
 30
0.0
 11
-2.02895781
 21
0.4760064
 31
0.0
  0
LINE
  5
2DB
100
AcDbEntity
  8
レイヤー_1
  6
DIVIDE
 62
       3
100
AcDbLine
 10
-2.02895781
 20
0.4760064
 30
0.0
 11
-1.67669678
 21
0.54620022
 31
0.0
  0
LINE
  5
2DC
100
AcDbEntity
  8
レイヤー_1
  6
DIVIDE
 62
       3
100
AcDbLine
 10
-1.67669678
 20
0.54620022
 30
0.0
 11
-1.35888672
 21
0.54620022
 31
0.0
  0
LINE
  5
2DD
100
AcDbEntity
  8
レイヤー_1
  6
DIVIDE
 62
       3
100
AcDbLine
 10
-1.35888672
 20
0.54620022
 30
0.0
 11
-1.04193795
 21
0.4760064
 31
0.0
  0
LINE
  5
2DE
100
AcDbEntity
  8
レイヤー_1
  6
DIVIDE
 62
       3
100
AcDbLine
 10
-1.04193795
 20
0.4760064
 30
0.0
 11
-0.72412789
 21
0.36834717
 31
0.0
  0
LINE
  5
2DF
100
AcDbEntity
  8
レイヤー_1
  6
DIVIDE
 62
       3
100
AcDbLine
 10
-0.72412789
 20
0.36834717
 30
0.0
 11
-0.44163005
 21
0.1926473
 31
0.0
  0
LINE
  5
2E0
100
AcDbEntity
  8
レイヤー_1
  6
DIVIDE
 62
       3
100
AcDbLine
 10
-0.44163005
 20
0.1926473
 30
0.0
 11
-0.19616701
 21
-0.01879544
 31
0.0
  0
LINE
  5
2E1
100
AcDbEntity
  8
レイヤー_1
  6
DIVIDE
 62
       3
100
AcDbLine
 10
-0.19616701
 20
-0.01879544
 30
0.0
 11
0.01656765
 21
-0.26684231
 31
0.0
  0
LINE
  5
2E2
100
AcDbEntity
  8
レイヤー_1
  6
DIVIDE
 62
       3
100
AcDbLine
 10
0.01656765
 20
-0.26684231
 30
0.0
 11
0.15781656
 21
-0.54804823
 31
0.0
  0
LINE
  5
2E3
100
AcDbEntity
  8
レイヤー_1
  6
DIVIDE
 62
       3
100
AcDbLine
 10
0.15781656
 20
-0.54804823
 30
0.0
 11
0.29906547
 21
-0.83054606
 31
0.0
  0
LINE
  5
2E4
100
AcDbEntity
  8
レイヤー_1
  6
DIVIDE
 62
       3
100
AcDbLine
 10
0.29906547
 20
-0.83054606
 30
0.0
 11
0.33437771
 21
-1.14878676
 31
0.0
  0
LINE
  5
2E5
100
AcDbEntity
  8
レイヤー_1
  6
DIVIDE
 62
       3
100
AcDbLine
 10
0.33437771
 20
-1.14878676
 30
0.0
 11
0.33437771
 21
-1.50061713
 31
0.0
  0
LINE
  5
2E6
100
AcDbEntity
  8
レイヤー_1
  6
DIVIDE
 62
       3
100
AcDbLine
 10
0.33437771
 20
-1.50061713
 30
0.0
 11
0.29906547
 21
-1.81885783
 31
0.0
  0
LINE
  5
2E7
100
AcDbEntity
  8
レイヤー_1
  6
DIVIDE
 62
       3
100
AcDbLine
 10
0.29906547
 20
-1.81885783
 30
0.0
 11
0.19312878
 21
-2.13666789
 31
0.0
  0
LINE
  5
2E8
100
AcDbEntity
  8
レイヤー_1
  6
DIVIDE
 62
       3
100
AcDbLine
 10
0.19312878
 20
-2.13666789
 30
0.0
 11
0.01656765
 21
-2.41873508
 31
0.0
  0
LINE
  5
2E9
100
AcDbEntity
  8
レイヤー_1
  6
DIVIDE
 62
       3
100
AcDbLine
 10
-2.59309218
 20
0.22709825
 30
0.0
 11
0.01656765
 21
-2.41873508
 31
0.0
  0
LINE
  5
2EA
100
AcDbEntity
  8
レイヤー_1
  6
DIVIDE
 62
       3
100
AcDbLine
 10
-2.59309218
 20
-14.7659573
 30
0.0
 11
-2.31059436
 21
-14.62470838
 31
0.0
  0
LINE
  5
2EB
100
AcDbEntity
  8
レイヤー_1
  6
DIVIDE
 62
       3
100
AcDbLine
 10
-2.31059436
 20
-14.62470838
 30
0.0
 11
-2.02895781
 21
-14.51791042
 31
0.0
  0
LINE
  5
2EC
100
AcDbEntity
  8
レイヤー_1
  6
DIVIDE
 62
       3
100
AcDbLine
 10
-2.02895781
 20
-14.51791042
 30
0.0
 11
-1.67669678
 21
-14.4477166
 31
0.0
  0
LINE
  5
2ED
100
AcDbEntity
  8
レイヤー_1
  6
DIVIDE
 62
       3
100
AcDbLine
 10
-1.67669678
 20
-14.4477166
 30
0.0
 11
-1.35888672
 21
-14.4477166
 31
0.0
  0
LINE
  5
2EE
100
AcDbEntity
  8
レイヤー_1
  6
DIVIDE
 62
       3
100
AcDbLine
 10
-1.35888672
 20
-14.4477166
 30
0.0
 11
-1.04193795
 21
-14.51791042
 31
0.0
  0
LINE
  5
2EF
100
AcDbEntity
  8
レイヤー_1
  6
DIVIDE
 62
       3
100
AcDbLine
 10
-1.04193795
 20
-14.51791042
 30
0.0
 11
-0.72412789
 21
-14.62470838
 31
0.0
  0
LINE
  5
2F0
100
AcDbEntity
  8
レイヤー_1
  6
DIVIDE
 62
       3
100
AcDbLine
 10
-0.72412789
 20
-14.62470838
 30
0.0
 11
-0.44163005
 21
-14.80040825
 31
0.0
  0
LINE
  5
2F1
100
AcDbEntity
  8
レイヤー_1
  6
DIVIDE
 62
       3
100
AcDbLine
 10
-0.44163005
 20
-14.80040825
 30
0.0
 11
-0.19616701
 21
-15.01185099
 31
0.0
  0
LINE
  5
2F2
100
AcDbEntity
  8
レイヤー_1
  6
DIVIDE
 62
       3
100
AcDbLine
 10
-2.59309218
 20
-14.7659573
 30
0.0
 11
0.01656765
 21
-17.41179063
 31
0.0
  0
LINE
  5
2F3
100
AcDbEntity
  8
レイヤー_1
  6
DIVIDE
 62
       3
100
AcDbLine
 10
-0.19616701
 20
-15.01185099
 30
0.0
 11
0.01656765
 21
-15.25989786
 31
0.0
  0
LINE
  5
2F4
100
AcDbEntity
  8
レイヤー_1
  6
DIVIDE
 62
       3
100
AcDbLine
 10
0.01656765
 20
-15.25989786
 30
0.0
 11
0.15781656
 21
-15.54110378
 31
0.0
  0
LINE
  5
2F5
100
AcDbEntity
  8
レイヤー_1
  6
DIVIDE
 62
       3
100
AcDbLine
 10
0.15781656
 20
-15.54110378
 30
0.0
 11
0.29906547
 21
-15.85977511
 31
0.0
  0
LINE
  5
2F6
100
AcDbEntity
  8
レイヤー_1
  6
DIVIDE
 62
       3
100
AcDbLine
 10
0.29906547
 20
-15.85977511
 30
0.0
 11
0.33437771
 21
-16.17629326
 31
0.0
  0
LINE
  5
2F7
100
AcDbEntity
  8
レイヤー_1
  6
DIVIDE
 62
       3
100
AcDbLine
 10
0.33437771
 20
-16.17629326
 30
0.0
 11
0.33437771
 21
-16.49367268
 31
0.0
  0
LINE
  5
2F8
100
AcDbEntity
  8
レイヤー_1
  6
DIVIDE
 62
       3
100
AcDbLine
 10
0.33437771
 20
-16.49367268
 30
0.0
 11
0.29906547
 21
-16.81191338
 31
0.0
  0
LINE
  5
2F9
100
AcDbEntity
  8
レイヤー_1
  6
DIVIDE
 62
       3
100
AcDbLine
 10
0.29906547
 20
-16.81191338
 30
0.0
 11
0.19312878
 21
-17.12972344
 31
0.0
  0
LINE
  5
2FA
100
AcDbEntity
  8
レイヤー_1
  6
DIVIDE
 62
       3
100
AcDbLine
 10
0.19312878
 20
-17.12972344
 30
0.0
 11
0.01656765
 21
-17.41179063
 31
0.0
  0
LINE
  5
2FB
100
AcDbEntity
  8
レイヤー_1
  6
DIVIDE
 62
       3
100
AcDbLine
 10
-0.47780356
 20
-12.89527045
 30
0.0
 11
-0.75857885
 21
-13.07269287
 31
0.0
  0
LINE
  5
2FC
100
AcDbEntity
  8
レイヤー_1
  6
DIVIDE
 62
       3
100
AcDbLine
 10
-0.75857885
 20
-13.07269287
 30
0.0
 11
-1.07725017
 21
-13.17776828
 31
0.0
  0
LINE
  5
2FD
100
AcDbEntity
  8
レイヤー_1
  6
DIVIDE
 62
       3
100
AcDbLine
 10
-1.07725017
 20
-13.17776828
 30
0.0
 11
-1.39419896
 21
-13.21394178
 31
0.0
  0
LINE
  5
2FE
100
AcDbEntity
  8
レイヤー_1
  6
DIVIDE
 62
       3
100
AcDbLine
 10
-1.39419896
 20
-13.21394178
 30
0.0
 11
-1.71114775
 21
-13.21394178
 31
0.0
  0
LINE
  5
2FF
100
AcDbEntity
  8
レイヤー_1
  6
DIVIDE
 62
       3
100
AcDbLine
 10
-1.71114775
 20
-13.21394178
 30
0.0
 11
-2.02895781
 21
-13.17776828
 31
0.0
  0
LINE
  5
300
100
AcDbEntity
  8
レイヤー_1
  6
DIVIDE
 62
       3
100
AcDbLine
 10
-2.02895781
 20
-13.17776828
 30
0.0
 11
-2.34676785
 21
-13.03651936
 31
0.0
  0
LINE
  5
301
100
AcDbEntity
  8
レイヤー_1
  6
DIVIDE
 62
       3
100
AcDbLine
 10
-2.34676785
 20
-13.03651936
 30
0.0
 11
-2.62926569
 21
-12.89527045
 31
0.0
  0
LINE
  5
302
100
AcDbEntity
  8
レイヤー_1
  6
DIVIDE
 62
       3
100
AcDbLine
 10
-2.62926569
 20
-12.89527045
 30
0.0
 11
-2.8764513
 21
-12.68382771
 31
0.0
  0
LINE
  5
303
100
AcDbEntity
  8
レイヤー_1
  6
DIVIDE
 62
       3
100
AcDbLine
 10
-2.8764513
 20
-12.68382771
 30
0.0
 11
-3.08746339
 21
-12.43664211
 31
0.0
  0
LINE
  5
304
100
AcDbEntity
  8
レイヤー_1
  6
DIVIDE
 62
       3
100
AcDbLine
 10
-3.08746339
 20
-12.43664211
 30
0.0
 11
-3.26316325
 21
-12.15457492
 31
0.0
  0
LINE
  5
305
100
AcDbEntity
  8
レイヤー_1
  6
DIVIDE
 62
       3
100
AcDbLine
 10
-3.26316325
 20
-12.15457492
 30
0.0
 11
-3.36909995
 21
-11.83805677
 31
0.0
  0
LINE
  5
306
100
AcDbEntity
  8
レイヤー_1
  6
DIVIDE
 62
       3
100
AcDbLine
 10
-3.36909995
 20
-11.83805677
 30
0.0
 11
-3.40441218
 21
-11.52024671
 31
0.0
  0
LINE
  5
307
100
AcDbEntity
  8
レイヤー_1
  6
DIVIDE
 62
       3
100
AcDbLine
 10
-3.40441218
 20
-11.52024671
 30
0.0
 11
-3.4397244
 21
-11.20200602
 31
0.0
  0
LINE
  5
308
100
AcDbEntity
  8
レイヤー_1
  6
DIVIDE
 62
       3
100
AcDbLine
 10
-3.4397244
 20
-11.20200602
 30
0.0
 11
-3.36909995
 21
-10.85017564
 31
0.0
  0
LINE
  5
309
100
AcDbEntity
  8
レイヤー_1
  6
DIVIDE
 62
       3
100
AcDbLine
 10
-3.36909995
 20
-10.85017564
 30
0.0
 11
-3.26316325
 21
-10.56810845
 31
0.0
  0
LINE
  5
30A
100
AcDbEntity
  8
レイヤー_1
  6
DIVIDE
 62
       3
100
AcDbLine
 10
-3.26316325
 20
-10.56810845
 30
0.0
 11
-3.08746339
 21
-10.28561062
 31
0.0
  0
LINE
  5
30B
100
AcDbEntity
  8
レイヤー_1
  6
DIVIDE
 62
       3
100
AcDbLine
 10
-0.47780356
 20
-12.89527045
 30
0.0
 11
-3.08746339
 21
-10.28561062
 31
0.0
  0
LINE
  5
30C
100
AcDbEntity
  8
レイヤー_1
  6
DIVIDE
 62
       3
100
AcDbLine
 10
-0.47780356
 20
-7.88610161
 30
0.0
 11
-0.75857885
 21
-8.06309339
 31
0.0
  0
LINE
  5
30D
100
AcDbEntity
  8
レイヤー_1
  6
DIVIDE
 62
       3
100
AcDbLine
 10
-0.75857885
 20
-8.06309339
 30
0.0
 11
-1.07725017
 21
-8.16816881
 31
0.0
  0
LINE
  5
30E
100
AcDbEntity
  8
レイヤー_1
  6
DIVIDE
 62
       3
100
AcDbLine
 10
-1.07725017
 20
-8.16816881
 30
0.0
 11
-1.39419896
 21
-8.23879326
 31
0.0
  0
LINE
  5
30F
100
AcDbEntity
  8
レイヤー_1
  6
DIVIDE
 62
       3
100
AcDbLine
 10
-1.39419896
 20
-8.23879326
 30
0.0
 11
-1.71114775
 21
-8.23879326
 31
0.0
  0
LINE
  5
310
100
AcDbEntity
  8
レイヤー_1
  6
DIVIDE
 62
       3
100
AcDbLine
 10
-1.71114775
 20
-8.23879326
 30
0.0
 11
-2.02895781
 21
-8.16816881
 31
0.0
  0
LINE
  5
311
100
AcDbEntity
  8
レイヤー_1
  6
DIVIDE
 62
       3
100
AcDbLine
 10
-2.02895781
 20
-8.16816881
 30
0.0
 11
-2.34676785
 21
-8.06309339
 31
0.0
  0
LINE
  5
312
100
AcDbEntity
  8
レイヤー_1
  6
DIVIDE
 62
       3
100
AcDbLine
 10
-2.34676785
 20
-8.06309339
 30
0.0
 11
-2.62926569
 21
-7.88610161
 31
0.0
  0
LINE
  5
313
100
AcDbEntity
  8
レイヤー_1
  6
DIVIDE
 62
       3
100
AcDbLine
 10
-2.62926569
 20
-7.88610161
 30
0.0
 11
-2.8764513
 21
-7.67422824
 31
0.0
  0
LINE
  5
314
100
AcDbEntity
  8
レイヤー_1
  6
DIVIDE
 62
       3
100
AcDbLine
 10
-2.8764513
 20
-7.67422824
 30
0.0
 11
-3.08746339
 21
-7.42833455
 31
0.0
  0
LINE
  5
315
100
AcDbEntity
  8
レイヤー_1
  6
DIVIDE
 62
       3
100
AcDbLine
 10
-3.08746339
 20
-7.42833455
 30
0.0
 11
-3.26316325
 21
-7.14497545
 31
0.0
  0
LINE
  5
316
100
AcDbEntity
  8
レイヤー_1
  6
DIVIDE
 62
       3
100
AcDbLine
 10
-3.26316325
 20
-7.14497545
 30
0.0
 11
-3.36909995
 21
-6.8284573
 31
0.0
  0
LINE
  5
317
100
AcDbEntity
  8
レイヤー_1
  6
DIVIDE
 62
       3
100
AcDbLine
 10
-3.36909995
 20
-6.8284573
 30
0.0
 11
-3.40441218
 21
-6.5102166
 31
0.0
  0
LINE
  5
318
100
AcDbEntity
  8
レイヤー_1
  6
DIVIDE
 62
       3
100
AcDbLine
 10
-3.40441218
 20
-6.5102166
 30
0.0
 11
-3.4397244
 21
-6.19240655
 31
0.0
  0
LINE
  5
319
100
AcDbEntity
  8
レイヤー_1
  6
DIVIDE
 62
       3
100
AcDbLine
 10
-3.4397244
 20
-6.19240655
 30
0.0
 11
-3.36909995
 21
-5.8758884
 31
0.0
  0
LINE
  5
31A
100
AcDbEntity
  8
レイヤー_1
  6
DIVIDE
 62
       3
100
AcDbLine
 10
-3.36909995
 20
-5.8758884
 30
0.0
 11
-3.26316325
 21
-5.55850898
 31
0.0
  0
LINE
  5
31B
100
AcDbEntity
  8
レイヤー_1
  6
DIVIDE
 62
       3
100
AcDbLine
 10
-3.26316325
 20
-5.55850898
 30
0.0
 11
-3.08746339
 21
-5.27644178
 31
0.0
  0
LINE
  5
31C
100
AcDbEntity
  8
レイヤー_1
  6
DIVIDE
 62
       3
100
AcDbLine
 10
-0.47780356
 20
-7.88610161
 30
0.0
 11
-3.08746339
 21
-5.27644178
 31
0.0
  0
LINE
  5
31D
100
AcDbEntity
  8
レイヤー_1
  6
DIVIDE
 62
       3
100
AcDbLine
 10
-0.47780356
 20
-2.91267564
 30
0.0
 11
-0.75857885
 21
-3.05263265
 31
0.0
  0
LINE
  5
31E
100
AcDbEntity
  8
レイヤー_1
  6
DIVIDE
 62
       3
100
AcDbLine
 10
-0.75857885
 20
-3.05263265
 30
0.0
 11
-1.07725017
 21
-3.15943061
 31
0.0
  0
LINE
  5
31F
100
AcDbEntity
  8
レイヤー_1
  6
DIVIDE
 62
       3
100
AcDbLine
 10
-1.07725017
 20
-3.15943061
 30
0.0
 11
-1.39419896
 21
-3.23005507
 31
0.0
  0
LINE
  5
320
100
AcDbEntity
  8
レイヤー_1
  6
DIVIDE
 62
       3
100
AcDbLine
 10
-1.39419896
 20
-3.23005507
 30
0.0
 11
-1.71114775
 21
-3.23005507
 31
0.0
  0
LINE
  5
321
100
AcDbEntity
  8
レイヤー_1
  6
DIVIDE
 62
       3
100
AcDbLine
 10
-1.71114775
 20
-3.23005507
 30
0.0
 11
-2.02895781
 21
-3.15943061
 31
0.0
  0
LINE
  5
322
100
AcDbEntity
  8
レイヤー_1
  6
DIVIDE
 62
       3
100
AcDbLine
 10
-2.02895781
 20
-3.15943061
 30
0.0
 11
-2.34676785
 21
-3.05263265
 31
0.0
  0
LINE
  5
323
100
AcDbEntity
  8
レイヤー_1
  6
DIVIDE
 62
       3
100
AcDbLine
 10
-2.34676785
 20
-3.05263265
 30
0.0
 11
-2.62926569
 21
-2.87650214
 31
0.0
  0
LINE
  5
324
100
AcDbEntity
  8
レイヤー_1
  6
DIVIDE
 62
       3
100
AcDbLine
 10
-2.62926569
 20
-2.87650214
 30
0.0
 11
-2.8764513
 21
-2.66462877
 31
0.0
  0
LINE
  5
325
100
AcDbEntity
  8
レイヤー_1
  6
DIVIDE
 62
       3
100
AcDbLine
 10
-2.8764513
 20
-2.66462877
 30
0.0
 11
-3.08746339
 21
-2.41873508
 31
0.0
  0
LINE
  5
326
100
AcDbEntity
  8
レイヤー_1
  6
DIVIDE
 62
       3
100
AcDbLine
 10
-3.08746339
 20
-2.41873508
 30
0.0
 11
-3.26316325
 21
-2.13666789
 31
0.0
  0
LINE
  5
327
100
AcDbEntity
  8
レイヤー_1
  6
DIVIDE
 62
       3
100
AcDbLine
 10
-3.26316325
 20
-2.13666789
 30
0.0
 11
-3.36909995
 21
-1.85330878
 31
0.0
  0
LINE
  5
328
100
AcDbEntity
  8
レイヤー_1
  6
DIVIDE
 62
       3
100
AcDbLine
 10
-3.36909995
 20
-1.85330878
 30
0.0
 11
-3.40441218
 21
-1.50061713
 31
0.0
  0
LINE
  5
329
100
AcDbEntity
  8
レイヤー_1
  6
DIVIDE
 62
       3
100
AcDbLine
 10
-3.40441218
 20
-1.50061713
 30
0.0
 11
-3.4397244
 21
-1.18323771
 31
0.0
  0
LINE
  5
32A
100
AcDbEntity
  8
レイヤー_1
  6
DIVIDE
 62
       3
100
AcDbLine
 10
-3.4397244
 20
-1.18323771
 30
0.0
 11
-3.36909995
 21
-0.86671956
 31
0.0
  0
LINE
  5
32B
100
AcDbEntity
  8
レイヤー_1
  6
DIVIDE
 62
       3
100
AcDbLine
 10
-3.36909995
 20
-0.86671956
 30
0.0
 11
-3.26316325
 21
-0.54804823
 31
0.0
  0
LINE
  5
32C
100
AcDbEntity
  8
レイヤー_1
  6
DIVIDE
 62
       3
100
AcDbLine
 10
-3.26316325
 20
-0.54804823
 30
0.0
 11
-3.08746339
 21
-0.26684231
 31
0.0
  0
LINE
  5
32D
100
AcDbEntity
  8
レイヤー_1
  6
DIVIDE
 62
       3
100
AcDbLine
 10
-0.47780356
 20
-2.91267564
 30
0.0
 11
-3.08746339
 21
-0.26684231
 31
0.0
  0
LINE
  5
32E
100
AcDbEntity
  8
レイヤー_1
  6
DIVIDE
 62
       3
100
AcDbLine
 10
-6.68500435
 20
1.14435493
 30
0.0
 11
-6.19149443
 21
1.14435493
 31
0.0
  0
LINE
  5
32F
100
AcDbEntity
  8
レイヤー_1
  6
DIVIDE
 62
       3
100
AcDbLine
 10
-6.1561822
 20
1.14435493
 30
0.0
 11
-6.19149443
 21
1.14435493
 31
0.0
  0
LINE
  5
330
100
AcDbEntity
  8
レイヤー_1
  6
DIVIDE
 62
       3
100
AcDbLine
 10
-6.1561822
 20
1.14435493
 30
0.0
 11
-6.12086996
 21
1.14435493
 31
0.0
  0
LINE
  5
331
100
AcDbEntity
  8
レイヤー_1
  6
DIVIDE
 62
       3
100
AcDbLine
 10
-6.12086996
 20
1.14435493
 30
0.0
 11
-6.08555774
 21
1.14435493
 31
0.0
  0
LINE
  5
332
100
AcDbEntity
  8
レイヤー_1
  6
DIVIDE
 62
       3
100
AcDbLine
 10
-6.08555774
 20
1.14435493
 30
0.0
 11
-6.0502455
 21
1.14435493
 31
0.0
  0
LINE
  5
333
100
AcDbEntity
  8
レイヤー_1
  6
DIVIDE
 62
       3
100
AcDbLine
 10
-6.0502455
 20
1.14435493
 30
0.0
 11
-6.01493328
 21
1.14435493
 31
0.0
  0
LINE
  5
334
100
AcDbEntity
  8
レイヤー_1
  6
DIVIDE
 62
       3
100
AcDbLine
 10
-6.01493328
 20
1.14435493
 30
0.0
 11
-5.97962105
 21
1.14435493
 31
0.0
  0
LINE
  5
335
100
AcDbEntity
  8
レイヤー_1
  6
DIVIDE
 62
       3
100
AcDbLine
 10
1.46264647
 20
1.14435493
 30
0.0
 11
-5.97962105
 21
1.14435493
 31
0.0
  0
LINE
  5
336
100
AcDbEntity
  8
レイヤー_1
  6
DIVIDE
 62
       3
100
AcDbLine
 10
1.46264647
 20
1.14435493
 30
0.0
 11
1.56772188
 21
1.14435493
 31
0.0
  0
LINE
  5
337
100
AcDbEntity
  8
レイヤー_1
  6
DIVIDE
 62
       3
100
AcDbLine
 10
1.56772188
 20
1.14435493
 30
0.0
 11
1.67451984
 21
1.14435493
 31
0.0
  0
LINE
  5
338
100
AcDbEntity
  8
レイヤー_1
  6
DIVIDE
 62
       3
100
AcDbLine
 10
1.67451984
 20
1.14435493
 30
0.0
 11
1.78045653
 21
1.14435493
 31
0.0
  0
LINE
  5
339
100
AcDbEntity
  8
レイヤー_1
  6
DIVIDE
 62
       3
100
AcDbLine
 10
1.78045653
 20
1.14435493
 30
0.0
 11
1.88553194
 21
1.14435493
 31
0.0
  0
LINE
  5
33A
100
AcDbEntity
  8
レイヤー_1
  6
DIVIDE
 62
       3
100
AcDbLine
 10
1.88553194
 20
1.14435493
 30
0.0
 11
1.95615641
 21
1.14435493
 31
0.0
  0
LINE
  5
33B
100
AcDbEntity
  8
レイヤー_1
  6
DIVIDE
 62
       3
100
AcDbLine
 10
1.95615641
 20
1.14435493
 30
0.0
 11
2.02678085
 21
1.14435493
 31
0.0
  0
LINE
  5
33C
100
AcDbEntity
  8
レイヤー_1
  6
DIVIDE
 62
       3
100
AcDbLine
 10
2.02678085
 20
1.14435493
 30
0.0
 11
2.06295436
 21
1.14435493
 31
0.0
  0
LINE
  5
33D
100
AcDbEntity
  8
レイヤー_1
  6
DIVIDE
 62
       3
100
AcDbLine
 10
1.47728813
 20
-18.82212659
 30
0.0
 11
1.47728813
 21
1.17794461
 31
0.0
  0
LINE
  5
33E
100
AcDbEntity
  8
レイヤー_1
  6
DIVIDE
 62
       3
100
AcDbLine
 10
1.47728813
 20
1.17794461
 30
0.0
 11
1.47728813
 21
11.12867228
 31
0.0
  0
LINE
  5
33F
100
AcDbEntity
  8
レイヤー_1
  6
DIVIDE
 62
       3
100
AcDbLine
 10
-100.06819321
 20
35.04710896
 30
0.0
 11
-93.33087835
 21
35.04710896
 31
0.0
  0
LINE
  5
340
100
AcDbEntity
  8
レイヤー_1
  6
DIVIDE
 62
       3
100
AcDbLine
 10
-93.33087835
 20
35.04710896
 30
0.0
 11
-93.33087835
 21
31.0951538
 31
0.0
  0
LINE
  5
341
100
AcDbEntity
  8
レイヤー_1
  6
DIVIDE
 62
       3
100
AcDbLine
 10
-93.33087835
 20
31.0951538
 30
0.0
 11
-100.06819321
 21
31.0951538
 31
0.0
  0
LINE
  5
342
100
AcDbEntity
  8
レイヤー_1
  6
DIVIDE
 62
       3
100
AcDbLine
 10
-100.06819321
 20
26.50973171
 30
0.0
 11
-100.06819321
 21
30.07196044
 31
0.0
  0
LINE
  5
343
100
AcDbEntity
  8
レイヤー_1
  6
DIVIDE
 62
       3
100
AcDbLine
 10
-100.06819321
 20
30.07196044
 30
0.0
 11
-93.33087835
 21
30.07196044
 31
0.0
  0
LINE
  5
344
100
AcDbEntity
  8
レイヤー_1
  6
DIVIDE
 62
       3
100
AcDbLine
 10
-92.87138875
 20
25.55673217
 30
0.0
 11
-102.07969834
 21
25.55673217
 31
0.0
  0
LINE
  5
345
100
AcDbEntity
  8
レイヤー_1
  6
DIVIDE
 62
       3
100
AcDbLine
 10
-102.07969834
 20
40.58466932
 30
0.0
 11
-92.87138875
 21
40.58466932
 31
0.0
  0
LINE
  5
346
100
AcDbEntity
  8
レイヤー_1
  6
DIVIDE
 62
       3
100
AcDbLine
 10
-93.33087835
 20
26.54418267
 30
0.0
 11
-95.97671168
 21
26.65011935
 31
0.0
  0
LINE
  5
347
100
AcDbEntity
  8
レイヤー_1
  6
DIVIDE
 62
       3
100
AcDbLine
 10
-95.97671168
 20
26.65011935
 30
0.0
 11
-99.18624877
 21
26.65011935
 31
0.0
  0
LINE
  5
348
100
AcDbEntity
  8
レイヤー_1
  6
DIVIDE
 62
       3
100
AcDbLine
 10
-93.33087835
 20
26.50973171
 30
0.0
 11
-100.06819321
 21
26.50973171
 31
0.0
  0
LINE
  5
349
100
AcDbEntity
  8
レイヤー_1
  6
DIVIDE
 62
       3
100
AcDbLine
 10
-100.06819321
 20
26.50973171
 30
0.0
 11
-99.18624877
 21
26.65011935
 31
0.0
  0
LINE
  5
34A
100
AcDbEntity
  8
レイヤー_1
  6
DIVIDE
 62
       3
100
AcDbLine
 10
-74.17442491
 20
-18.96466742
 30
0.0
 11
-74.06848822
 21
-18.99911838
 31
0.0
  0
LINE
  5
34B
100
AcDbEntity
  8
レイヤー_1
  6
DIVIDE
 62
       3
100
AcDbLine
 10
-74.06848822
 20
-18.99911838
 30
0.0
 11
-73.92723931
 21
-18.99911838
 31
0.0
  0
LINE
  5
34C
100
AcDbEntity
  8
レイヤー_1
  6
DIVIDE
 62
       3
100
AcDbLine
 10
-73.92723931
 20
-18.99911838
 30
0.0
 11
-73.78599039
 21
-19.03529188
 31
0.0
  0
LINE
  5
34D
100
AcDbEntity
  8
レイヤー_1
  6
DIVIDE
 62
       3
100
AcDbLine
 10
-73.78599039
 20
-19.03529188
 30
0.0
 11
-73.68134561
 21
-19.03529188
 31
0.0
  0
LINE
  5
34E
100
AcDbEntity
  8
レイヤー_1
  6
DIVIDE
 62
       3
100
AcDbLine
 10
-73.68134561
 20
-19.03529188
 30
0.0
 11
-73.5400967
 21
-19.03529188
 31
0.0
  0
LINE
  5
34F
100
AcDbEntity
  8
レイヤー_1
  6
DIVIDE
 62
       3
100
AcDbLine
 10
-73.5400967
 20
-19.03529188
 30
0.0
 11
-73.43416002
 21
-18.99911838
 31
0.0
  0
LINE
  5
350
100
AcDbEntity
  8
レイヤー_1
  6
DIVIDE
 62
       3
100
AcDbLine
 10
-73.43416002
 20
-18.99911838
 30
0.0
 11
-73.29248046
 21
-18.99911838
 31
0.0
  0
LINE
  5
351
100
AcDbEntity
  8
レイヤー_1
  6
DIVIDE
 62
       3
100
AcDbLine
 10
-73.29248046
 20
-18.99911838
 30
0.0
 11
-73.18654378
 21
-18.96466742
 31
0.0
  0
LINE
  5
352
100
AcDbEntity
  8
レイヤー_1
  6
DIVIDE
 62
       3
100
AcDbLine
 10
-73.18654378
 20
-15.89465671
 30
0.0
 11
-73.29248046
 21
-15.8584832
 31
0.0
  0
LINE
  5
353
100
AcDbEntity
  8
レイヤー_1
  6
DIVIDE
 62
       3
100
AcDbLine
 10
-73.29248046
 20
-15.8584832
 30
0.0
 11
-73.43416002
 21
-15.8584832
 31
0.0
  0
LINE
  5
354
100
AcDbEntity
  8
レイヤー_1
  6
DIVIDE
 62
       3
100
AcDbLine
 10
-73.43416002
 20
-15.8584832
 30
0.0
 11
-73.5400967
 21
-15.82446289
 31
0.0
  0
LINE
  5
355
100
AcDbEntity
  8
レイヤー_1
  6
DIVIDE
 62
       3
100
AcDbLine
 10
-73.5400967
 20
-15.82446289
 30
0.0
 11
-73.68134561
 21
-15.82446289
 31
0.0
  0
LINE
  5
356
100
AcDbEntity
  8
レイヤー_1
  6
DIVIDE
 62
       3
100
AcDbLine
 10
-73.68134561
 20
-15.82446289
 30
0.0
 11
-73.78599039
 21
-15.82446289
 31
0.0
  0
LINE
  5
357
100
AcDbEntity
  8
レイヤー_1
  6
DIVIDE
 62
       3
100
AcDbLine
 10
-73.78599039
 20
-15.82446289
 30
0.0
 11
-73.92723931
 21
-15.8584832
 31
0.0
  0
LINE
  5
358
100
AcDbEntity
  8
レイヤー_1
  6
DIVIDE
 62
       3
100
AcDbLine
 10
-73.92723931
 20
-15.8584832
 30
0.0
 11
-74.06848822
 21
-15.8584832
 31
0.0
  0
LINE
  5
359
100
AcDbEntity
  8
レイヤー_1
  6
DIVIDE
 62
       3
100
AcDbLine
 10
-74.06848822
 20
-15.8584832
 30
0.0
 11
-74.17442491
 21
-15.89465671
 31
0.0
  0
LINE
  5
35A
100
AcDbEntity
  8
レイヤー_1
  6
DIVIDE
 62
       3
100
AcDbLine
 10
-74.17442491
 20
3.54429457
 30
0.0
 11
-74.06848822
 21
3.50812107
 31
0.0
  0
LINE
  5
35B
100
AcDbEntity
  8
レイヤー_1
  6
DIVIDE
 62
       3
100
AcDbLine
 10
-74.06848822
 20
3.50812107
 30
0.0
 11
-73.92723931
 21
3.50812107
 31
0.0
  0
LINE
  5
35C
100
AcDbEntity
  8
レイヤー_1
  6
DIVIDE
 62
       3
100
AcDbLine
 10
-73.92723931
 20
3.50812107
 30
0.0
 11
-73.78599039
 21
3.47367011
 31
0.0
  0
LINE
  5
35D
100
AcDbEntity
  8
レイヤー_1
  6
DIVIDE
 62
       3
100
AcDbLine
 10
-73.78599039
 20
3.47367011
 30
0.0
 11
-73.68134561
 21
3.47367011
 31
0.0
  0
LINE
  5
35E
100
AcDbEntity
  8
レイヤー_1
  6
DIVIDE
 62
       3
100
AcDbLine
 10
-73.68134561
 20
3.47367011
 30
0.0
 11
-73.5400967
 21
3.47367011
 31
0.0
  0
LINE
  5
35F
100
AcDbEntity
  8
レイヤー_1
  6
DIVIDE
 62
       3
100
AcDbLine
 10
-73.5400967
 20
3.47367011
 30
0.0
 11
-73.43416002
 21
3.50812107
 31
0.0
  0
LINE
  5
360
100
AcDbEntity
  8
レイヤー_1
  6
DIVIDE
 62
       3
100
AcDbLine
 10
-73.43416002
 20
3.50812107
 30
0.0
 11
-73.29248046
 21
3.50812107
 31
0.0
  0
LINE
  5
361
100
AcDbEntity
  8
レイヤー_1
  6
DIVIDE
 62
       3
100
AcDbLine
 10
-73.29248046
 20
3.50812107
 30
0.0
 11
-73.18654378
 21
3.54429457
 31
0.0
  0
LINE
  5
362
100
AcDbEntity
  8
レイヤー_1
  6
DIVIDE
 62
       3
100
AcDbLine
 10
-73.18654378
 20
6.57813178
 30
0.0
 11
-73.29248046
 21
6.61430528
 31
0.0
  0
LINE
  5
363
100
AcDbEntity
  8
レイヤー_1
  6
DIVIDE
 62
       3
100
AcDbLine
 10
-73.29248046
 20
6.61430528
 30
0.0
 11
-73.43416002
 21
6.64875624
 31
0.0
  0
LINE
  5
364
100
AcDbEntity
  8
レイヤー_1
  6
DIVIDE
 62
       3
100
AcDbLine
 10
-73.43416002
 20
6.64875624
 30
0.0
 11
-73.5400967
 21
6.68492974
 31
0.0
  0
LINE
  5
365
100
AcDbEntity
  8
レイヤー_1
  6
DIVIDE
 62
       3
100
AcDbLine
 10
-73.5400967
 20
6.68492974
 30
0.0
 11
-73.68134561
 21
6.68492974
 31
0.0
  0
LINE
  5
366
100
AcDbEntity
  8
レイヤー_1
  6
DIVIDE
 62
       3
100
AcDbLine
 10
-73.68134561
 20
6.68492974
 30
0.0
 11
-73.78599039
 21
6.68492974
 31
0.0
  0
LINE
  5
367
100
AcDbEntity
  8
レイヤー_1
  6
DIVIDE
 62
       3
100
AcDbLine
 10
-73.78599039
 20
6.68492974
 30
0.0
 11
-73.92723931
 21
6.64875624
 31
0.0
  0
LINE
  5
368
100
AcDbEntity
  8
レイヤー_1
  6
DIVIDE
 62
       3
100
AcDbLine
 10
-73.92723931
 20
6.64875624
 30
0.0
 11
-74.06848822
 21
6.61430528
 31
0.0
  0
LINE
  5
369
100
AcDbEntity
  8
レイヤー_1
  6
DIVIDE
 62
       3
100
AcDbLine
 10
-74.06848822
 20
6.61430528
 30
0.0
 11
-74.17442491
 21
6.57813178
 31
0.0
  0
LINE
  5
36A
100
AcDbEntity
  8
レイヤー_1
  6
DIVIDE
 62
       3
100
AcDbLine
 10
-74.17442491
 20
-11.44876098
 30
0.0
 11
-74.06848822
 21
-11.48493449
 31
0.0
  0
LINE
  5
36B
100
AcDbEntity
  8
レイヤー_1
  6
DIVIDE
 62
       3
100
AcDbLine
 10
-74.06848822
 20
-11.48493449
 30
0.0
 11
-73.92723931
 21
-11.52110799
 31
0.0
  0
LINE
  5
36C
100
AcDbEntity
  8
レイヤー_1
  6
DIVIDE
 62
       3
100
AcDbLine
 10
-73.92723931
 20
-11.52110799
 30
0.0
 11
-73.78599039
 21
-11.52110799
 31
0.0
  0
LINE
  5
36D
100
AcDbEntity
  8
レイヤー_1
  6
DIVIDE
 62
       3
100
AcDbLine
 10
-73.78599039
 20
-11.52110799
 30
0.0
 11
-73.68134561
 21
-11.52110799
 31
0.0
  0
LINE
  5
36E
100
AcDbEntity
  8
レイヤー_1
  6
DIVIDE
 62
       3
100
AcDbLine
 10
-73.68134561
 20
-11.52110799
 30
0.0
 11
-73.5400967
 21
-11.52110799
 31
0.0
  0
LINE
  5
36F
100
AcDbEntity
  8
レイヤー_1
  6
DIVIDE
 62
       3
100
AcDbLine
 10
-73.5400967
 20
-11.52110799
 30
0.0
 11
-73.43416002
 21
-11.52110799
 31
0.0
  0
LINE
  5
370
100
AcDbEntity
  8
レイヤー_1
  6
DIVIDE
 62
       3
100
AcDbLine
 10
-73.43416002
 20
-11.52110799
 30
0.0
 11
-73.29248046
 21
-11.48493449
 31
0.0
  0
LINE
  5
371
100
AcDbEntity
  8
レイヤー_1
  6
DIVIDE
 62
       3
100
AcDbLine
 10
-73.29248046
 20
-11.48493449
 30
0.0
 11
-73.18654378
 21
-11.44876098
 31
0.0
  0
LINE
  5
372
100
AcDbEntity
  8
レイヤー_1
  6
DIVIDE
 62
       3
100
AcDbLine
 10
-73.18654378
 20
-8.41578504
 30
0.0
 11
-73.29248046
 21
-8.38133409
 31
0.0
  0
LINE
  5
373
100
AcDbEntity
  8
レイヤー_1
  6
DIVIDE
 62
       3
100
AcDbLine
 10
-73.29248046
 20
-8.38133409
 30
0.0
 11
-73.43416002
 21
-8.34516059
 31
0.0
  0
LINE
  5
374
100
AcDbEntity
  8
レイヤー_1
  6
DIVIDE
 62
       3
100
AcDbLine
 10
-73.43416002
 20
-8.34516059
 30
0.0
 11
-73.5400967
 21
-8.34516059
 31
0.0
  0
LINE
  5
375
100
AcDbEntity
  8
レイヤー_1
  6
DIVIDE
 62
       3
100
AcDbLine
 10
-73.5400967
 20
-8.34516059
 30
0.0
 11
-73.68134561
 21
-8.34516059
 31
0.0
  0
LINE
  5
376
100
AcDbEntity
  8
レイヤー_1
  6
DIVIDE
 62
       3
100
AcDbLine
 10
-73.68134561
 20
-8.34516059
 30
0.0
 11
-73.78599039
 21
-8.34516059
 31
0.0
  0
LINE
  5
377
100
AcDbEntity
  8
レイヤー_1
  6
DIVIDE
 62
       3
100
AcDbLine
 10
-73.78599039
 20
-8.34516059
 30
0.0
 11
-73.92723931
 21
-8.34516059
 31
0.0
  0
LINE
  5
378
100
AcDbEntity
  8
レイヤー_1
  6
DIVIDE
 62
       3
100
AcDbLine
 10
-73.92723931
 20
-8.34516059
 30
0.0
 11
-74.06848822
 21
-8.38133409
 31
0.0
  0
LINE
  5
379
100
AcDbEntity
  8
レイヤー_1
  6
DIVIDE
 62
       3
100
AcDbLine
 10
-74.06848822
 20
-8.38133409
 30
0.0
 11
-74.17442491
 21
-8.41578504
 31
0.0
  0
LINE
  5
37A
100
AcDbEntity
  8
レイヤー_1
  6
DIVIDE
 62
       3
100
AcDbLine
 10
-74.17442491
 20
-26.44181653
 30
0.0
 11
-74.06848822
 21
-26.47799004
 31
0.0
  0
LINE
  5
37B
100
AcDbEntity
  8
レイヤー_1
  6
DIVIDE
 62
       3
100
AcDbLine
 10
-74.06848822
 20
-26.47799004
 30
0.0
 11
-73.92723931
 21
-26.51416354
 31
0.0
  0
LINE
  5
37C
100
AcDbEntity
  8
レイヤー_1
  6
DIVIDE
 62
       3
100
AcDbLine
 10
-73.92723931
 20
-26.51416354
 30
0.0
 11
-73.78599039
 21
-26.51416354
 31
0.0
  0
LINE
  5
37D
100
AcDbEntity
  8
レイヤー_1
  6
DIVIDE
 62
       3
100
AcDbLine
 10
-73.78599039
 20
-26.51416354
 30
0.0
 11
-73.68134561
 21
-26.51416354
 31
0.0
  0
LINE
  5
37E
100
AcDbEntity
  8
レイヤー_1
  6
DIVIDE
 62
       3
100
AcDbLine
 10
-73.68134561
 20
-26.51416354
 30
0.0
 11
-73.5400967
 21
-26.51416354
 31
0.0
  0
LINE
  5
37F
100
AcDbEntity
  8
レイヤー_1
  6
DIVIDE
 62
       3
100
AcDbLine
 10
-73.5400967
 20
-26.51416354
 30
0.0
 11
-73.43416002
 21
-26.51416354
 31
0.0
  0
LINE
  5
380
100
AcDbEntity
  8
レイヤー_1
  6
DIVIDE
 62
       3
100
AcDbLine
 10
-73.43416002
 20
-26.51416354
 30
0.0
 11
-73.29248046
 21
-26.47799004
 31
0.0
  0
LINE
  5
381
100
AcDbEntity
  8
レイヤー_1
  6
DIVIDE
 62
       3
100
AcDbLine
 10
-73.29248046
 20
-26.47799004
 30
0.0
 11
-73.18654378
 21
-26.44181653
 31
0.0
  0
LINE
  5
382
100
AcDbEntity
  8
レイヤー_1
  6
DIVIDE
 62
       3
100
AcDbLine
 10
-73.18654378
 20
-23.4088406
 30
0.0
 11
-73.29248046
 21
-23.37438964
 31
0.0
  0
LINE
  5
383
100
AcDbEntity
  8
レイヤー_1
  6
DIVIDE
 62
       3
100
AcDbLine
 10
-73.29248046
 20
-23.37438964
 30
0.0
 11
-73.43416002
 21
-23.33821614
 31
0.0
  0
LINE
  5
384
100
AcDbEntity
  8
レイヤー_1
  6
DIVIDE
 62
       3
100
AcDbLine
 10
-73.43416002
 20
-23.33821614
 30
0.0
 11
-73.5400967
 21
-23.33821614
 31
0.0
  0
LINE
  5
385
100
AcDbEntity
  8
レイヤー_1
  6
DIVIDE
 62
       3
100
AcDbLine
 10
-73.5400967
 20
-23.33821614
 30
0.0
 11
-73.68134561
 21
-23.33821614
 31
0.0
  0
LINE
  5
386
100
AcDbEntity
  8
レイヤー_1
  6
DIVIDE
 62
       3
100
AcDbLine
 10
-73.68134561
 20
-23.33821614
 30
0.0
 11
-73.78599039
 21
-23.33821614
 31
0.0
  0
LINE
  5
387
100
AcDbEntity
  8
レイヤー_1
  6
DIVIDE
 62
       3
100
AcDbLine
 10
-73.78599039
 20
-23.33821614
 30
0.0
 11
-73.92723931
 21
-23.33821614
 31
0.0
  0
LINE
  5
388
100
AcDbEntity
  8
レイヤー_1
  6
DIVIDE
 62
       3
100
AcDbLine
 10
-73.92723931
 20
-23.33821614
 30
0.0
 11
-74.06848822
 21
-23.37438964
 31
0.0
  0
LINE
  5
389
100
AcDbEntity
  8
レイヤー_1
  6
DIVIDE
 62
       3
100
AcDbLine
 10
-74.06848822
 20
-23.37438964
 30
0.0
 11
-74.17442491
 21
-23.4088406
 31
0.0
  0
LINE
  5
38A
100
AcDbEntity
  8
レイヤー_1
  6
DIVIDE
 62
       3
100
AcDbLine
 10
-74.17442491
 20
-3.93543837
 30
0.0
 11
-74.06848822
 21
-3.97161187
 31
0.0
  0
LINE
  5
38B
100
AcDbEntity
  8
レイヤー_1
  6
DIVIDE
 62
       3
100
AcDbLine
 10
-74.06848822
 20
-3.97161187
 30
0.0
 11
-73.92723931
 21
-4.00606282
 31
0.0
  0
LINE
  5
38C
100
AcDbEntity
  8
レイヤー_1
  6
DIVIDE
 62
       3
100
AcDbLine
 10
-73.92723931
 20
-4.00606282
 30
0.0
 11
-73.78599039
 21
-4.00606282
 31
0.0
  0
LINE
  5
38D
100
AcDbEntity
  8
レイヤー_1
  6
DIVIDE
 62
       3
100
AcDbLine
 10
-73.78599039
 20
-4.00606282
 30
0.0
 11
-73.68134561
 21
-4.04223633
 31
0.0
  0
LINE
  5
38E
100
AcDbEntity
  8
レイヤー_1
  6
DIVIDE
 62
       3
100
AcDbLine
 10
-73.68134561
 20
-4.04223633
 30
0.0
 11
-73.5400967
 21
-4.00606282
 31
0.0
  0
LINE
  5
38F
100
AcDbEntity
  8
レイヤー_1
  6
DIVIDE
 62
       3
100
AcDbLine
 10
-73.5400967
 20
-4.00606282
 30
0.0
 11
-73.43416002
 21
-4.00606282
 31
0.0
  0
LINE
  5
390
100
AcDbEntity
  8
レイヤー_1
  6
DIVIDE
 62
       3
100
AcDbLine
 10
-73.43416002
 20
-4.00606282
 30
0.0
 11
-73.29248046
 21
-3.97161187
 31
0.0
  0
LINE
  5
391
100
AcDbEntity
  8
レイヤー_1
  6
DIVIDE
 62
       3
100
AcDbLine
 10
-73.29248046
 20
-3.97161187
 30
0.0
 11
-73.18654378
 21
-3.93543837
 31
0.0
  0
LINE
  5
392
100
AcDbEntity
  8
レイヤー_1
  6
DIVIDE
 62
       3
100
AcDbLine
 10
-73.18654378
 20
-0.90160115
 30
0.0
 11
-73.29248046
 21
-0.86542765
 31
0.0
  0
LINE
  5
393
100
AcDbEntity
  8
レイヤー_1
  6
DIVIDE
 62
       3
100
AcDbLine
 10
-73.29248046
 20
-0.86542765
 30
0.0
 11
-73.43416002
 21
-0.83140733
 31
0.0
  0
LINE
  5
394
100
AcDbEntity
  8
レイヤー_1
  6
DIVIDE
 62
       3
100
AcDbLine
 10
-73.43416002
 20
-0.83140733
 30
0.0
 11
-73.5400967
 21
-0.83140733
 31
0.0
  0
LINE
  5
395
100
AcDbEntity
  8
レイヤー_1
  6
DIVIDE
 62
       3
100
AcDbLine
 10
-73.5400967
 20
-0.83140733
 30
0.0
 11
-73.68134561
 21
-0.83140733
 31
0.0
  0
LINE
  5
396
100
AcDbEntity
  8
レイヤー_1
  6
DIVIDE
 62
       3
100
AcDbLine
 10
-73.68134561
 20
-0.83140733
 30
0.0
 11
-73.78599039
 21
-0.83140733
 31
0.0
  0
LINE
  5
397
100
AcDbEntity
  8
レイヤー_1
  6
DIVIDE
 62
       3
100
AcDbLine
 10
-73.78599039
 20
-0.83140733
 30
0.0
 11
-73.92723931
 21
-0.83140733
 31
0.0
  0
LINE
  5
398
100
AcDbEntity
  8
レイヤー_1
  6
DIVIDE
 62
       3
100
AcDbLine
 10
-73.92723931
 20
-0.83140733
 30
0.0
 11
-74.06848822
 21
-0.86542765
 31
0.0
  0
LINE
  5
399
100
AcDbEntity
  8
レイヤー_1
  6
DIVIDE
 62
       3
100
AcDbLine
 10
-74.06848822
 20
-0.86542765
 30
0.0
 11
-74.17442491
 21
-0.90160115
 31
0.0
  0
LINE
  5
39A
100
AcDbEntity
  8
レイヤー_1
  6
DIVIDE
 62
       3
100
AcDbLine
 10
-74.17442491
 20
-33.95772297
 30
0.0
 11
-74.06848822
 21
-33.99217393
 31
0.0
  0
LINE
  5
39B
100
AcDbEntity
  8
レイヤー_1
  6
DIVIDE
 62
       3
100
AcDbLine
 10
-74.06848822
 20
-33.99217393
 30
0.0
 11
-73.92723931
 21
-33.99217393
 31
0.0
  0
LINE
  5
39C
100
AcDbEntity
  8
レイヤー_1
  6
DIVIDE
 62
       3
100
AcDbLine
 10
-73.92723931
 20
-33.99217393
 30
0.0
 11
-73.78599039
 21
-34.02834743
 31
0.0
  0
LINE
  5
39D
100
AcDbEntity
  8
レイヤー_1
  6
DIVIDE
 62
       3
100
AcDbLine
 10
-73.78599039
 20
-34.02834743
 30
0.0
 11
-73.68134561
 21
-34.02834743
 31
0.0
  0
LINE
  5
39E
100
AcDbEntity
  8
レイヤー_1
  6
DIVIDE
 62
       3
100
AcDbLine
 10
-73.68134561
 20
-34.02834743
 30
0.0
 11
-73.5400967
 21
-34.02834743
 31
0.0
  0
LINE
  5
39F
100
AcDbEntity
  8
レイヤー_1
  6
DIVIDE
 62
       3
100
AcDbLine
 10
-73.5400967
 20
-34.02834743
 30
0.0
 11
-73.43416002
 21
-33.99217393
 31
0.0
  0
LINE
  5
3A0
100
AcDbEntity
  8
レイヤー_1
  6
DIVIDE
 62
       3
100
AcDbLine
 10
-73.43416002
 20
-33.99217393
 30
0.0
 11
-73.29248046
 21
-33.99217393
 31
0.0
  0
LINE
  5
3A1
100
AcDbEntity
  8
レイヤー_1
  6
DIVIDE
 62
       3
100
AcDbLine
 10
-73.29248046
 20
-33.99217393
 30
0.0
 11
-73.18654378
 21
-33.95772297
 31
0.0
  0
LINE
  5
3A2
100
AcDbEntity
  8
レイヤー_1
  6
DIVIDE
 62
       3
100
AcDbLine
 10
-73.18654378
 20
-30.92388576
 30
0.0
 11
-73.29248046
 21
-30.88771226
 31
0.0
  0
LINE
  5
3A3
100
AcDbEntity
  8
レイヤー_1
  6
DIVIDE
 62
       3
100
AcDbLine
 10
-73.29248046
 20
-30.88771226
 30
0.0
 11
-73.43416002
 21
-30.85153876
 31
0.0
  0
LINE
  5
3A4
100
AcDbEntity
  8
レイヤー_1
  6
DIVIDE
 62
       3
100
AcDbLine
 10
-73.43416002
 20
-30.85153876
 30
0.0
 11
-73.5400967
 21
-30.81751844
 31
0.0
  0
LINE
  5
3A5
100
AcDbEntity
  8
レイヤー_1
  6
DIVIDE
 62
       3
100
AcDbLine
 10
-73.5400967
 20
-30.81751844
 30
0.0
 11
-73.68134561
 21
-30.81751844
 31
0.0
  0
LINE
  5
3A6
100
AcDbEntity
  8
レイヤー_1
  6
DIVIDE
 62
       3
100
AcDbLine
 10
-73.68134561
 20
-30.81751844
 30
0.0
 11
-73.78599039
 21
-30.81751844
 31
0.0
  0
LINE
  5
3A7
100
AcDbEntity
  8
レイヤー_1
  6
DIVIDE
 62
       3
100
AcDbLine
 10
-73.78599039
 20
-30.81751844
 30
0.0
 11
-73.92723931
 21
-30.85153876
 31
0.0
  0
LINE
  5
3A8
100
AcDbEntity
  8
レイヤー_1
  6
DIVIDE
 62
       3
100
AcDbLine
 10
-73.92723931
 20
-30.85153876
 30
0.0
 11
-74.06848822
 21
-30.88771226
 31
0.0
  0
LINE
  5
3A9
100
AcDbEntity
  8
レイヤー_1
  6
DIVIDE
 62
       3
100
AcDbLine
 10
-74.06848822
 20
-30.88771226
 30
0.0
 11
-74.17442491
 21
-30.92388576
 31
0.0
  0
LINE
  5
3AA
100
AcDbEntity
  8
レイヤー_1
  6
DIVIDE
 62
       3
100
AcDbLine
 10
-73.18654378
 20
-18.96466742
 30
0.0
 11
-73.18654378
 21
-15.89465671
 31
0.0
  0
LINE
  5
3AB
100
AcDbEntity
  8
レイヤー_1
  6
DIVIDE
 62
       3
100
AcDbLine
 10
-74.17442491
 20
-15.89465671
 30
0.0
 11
-74.17442491
 21
-18.96466742
 31
0.0
  0
LINE
  5
3AC
100
AcDbEntity
  8
レイヤー_1
  6
DIVIDE
 62
       3
100
AcDbLine
 10
-73.18654378
 20
-11.44876098
 30
0.0
 11
-73.18654378
 21
-8.41578504
 31
0.0
  0
LINE
  5
3AD
100
AcDbEntity
  8
レイヤー_1
  6
DIVIDE
 62
       3
100
AcDbLine
 10
-73.18654378
 20
-3.93543837
 30
0.0
 11
-73.18654378
 21
-0.90160115
 31
0.0
  0
LINE
  5
3AE
100
AcDbEntity
  8
レイヤー_1
  6
DIVIDE
 62
       3
100
AcDbLine
 10
-74.17442491
 20
6.57813178
 30
0.0
 11
-74.17442491
 21
3.54429457
 31
0.0
  0
LINE
  5
3AF
100
AcDbEntity
  8
レイヤー_1
  6
DIVIDE
 62
       3
100
AcDbLine
 10
-74.17442491
 20
-8.41578504
 30
0.0
 11
-74.17442491
 21
-11.44876098
 31
0.0
  0
LINE
  5
3B0
100
AcDbEntity
  8
レイヤー_1
  6
DIVIDE
 62
       3
100
AcDbLine
 10
-73.18654378
 20
3.54429457
 30
0.0
 11
-73.18654378
 21
6.57813178
 31
0.0
  0
LINE
  5
3B1
100
AcDbEntity
  8
レイヤー_1
  6
DIVIDE
 62
       3
100
AcDbLine
 10
-74.17442491
 20
-0.90160115
 30
0.0
 11
-74.17442491
 21
-3.93543837
 31
0.0
  0
LINE
  5
3B2
100
AcDbEntity
  8
レイヤー_1
  6
DIVIDE
 62
       3
100
AcDbLine
 10
-74.17442491
 20
-23.4088406
 30
0.0
 11
-74.17442491
 21
-26.44181653
 31
0.0
  0
LINE
  5
3B3
100
AcDbEntity
  8
レイヤー_1
  6
DIVIDE
 62
       3
100
AcDbLine
 10
-74.17442491
 20
-30.92388576
 30
0.0
 11
-74.17442491
 21
-33.95772297
 31
0.0
  0
LINE
  5
3B4
100
AcDbEntity
  8
レイヤー_1
  6
DIVIDE
 62
       3
100
AcDbLine
 10
-73.18654378
 20
-33.95772297
 30
0.0
 11
-73.18654378
 21
-30.92388576
 31
0.0
  0
LINE
  5
3B5
100
AcDbEntity
  8
レイヤー_1
  6
DIVIDE
 62
       3
100
AcDbLine
 10
-73.18654378
 20
-26.44181653
 30
0.0
 11
-73.18654378
 21
-23.4088406
 31
0.0
  0
LINE
  5
3B6
100
AcDbEntity
  8
レイヤー_1
  6
DIVIDE
 62
       3
100
AcDbLine
 10
-79.92558118
 20
0.08498807
 30
0.0
 11
-79.92558118
 21
-4.92418077
 31
0.0
  0
LINE
  5
3B7
100
AcDbEntity
  8
レイヤー_1
  6
DIVIDE
 62
       3
100
AcDbLine
 10
-79.92558118
 20
7.56687419
 30
0.0
 11
-79.92558118
 21
2.55555217
 31
0.0
  0
LINE
  5
3B8
100
AcDbEntity
  8
レイヤー_1
  6
DIVIDE
 62
       3
100
AcDbLine
 10
-79.92558118
 20
-7.42919583
 30
0.0
 11
-79.92558118
 21
-12.43750339
 31
0.0
  0
LINE
  5
3B9
100
AcDbEntity
  8
レイヤー_1
  6
DIVIDE
 62
       3
100
AcDbLine
 10
-79.92558118
 20
-14.94251844
 30
0.0
 11
-79.92558118
 21
-19.91723632
 31
0.0
  0
LINE
  5
3BA
100
AcDbEntity
  8
レイヤー_1
  6
DIVIDE
 62
       3
100
AcDbLine
 10
-79.92558118
 20
-29.93557399
 30
0.0
 11
-79.92558118
 21
-34.94474283
 31
0.0
  0
LINE
  5
3BB
100
AcDbEntity
  8
レイヤー_1
  6
DIVIDE
 62
       3
100
AcDbLine
 10
-79.92558118
 20
-34.94474283
 30
0.0
 11
-76.43182373
 21
-34.94474283
 31
0.0
  0
LINE
  5
3BC
100
AcDbEntity
  8
レイヤー_1
  6
DIVIDE
 62
       3
100
AcDbLine
 10
-79.92558118
 20
-22.42225138
 30
0.0
 11
-79.92558118
 21
-27.43055894
 31
0.0
  0
LINE
  5
3BD
100
AcDbEntity
  8
レイヤー_1
  6
DIVIDE
 62
       3
100
AcDbLine
 10
-68.0369873
 20
-15.68321397
 30
0.0
 11
-68.0369873
 21
-19.17654079
 31
0.0
  0
LINE
  5
3BE
100
AcDbEntity
  8
レイヤー_1
  6
DIVIDE
 62
       3
100
AcDbLine
 10
-68.0369873
 20
-8.20348104
 30
0.0
 11
-68.0369873
 21
-11.66063435
 31
0.0
  0
LINE
  5
3BF
100
AcDbEntity
  8
レイヤー_1
  6
DIVIDE
 62
       3
100
AcDbLine
 10
-68.0369873
 20
-0.69015842
 30
0.0
 11
-68.0369873
 21
-4.18348524
 31
0.0
  0
LINE
  5
3C0
100
AcDbEntity
  8
レイヤー_1
  6
DIVIDE
 62
       3
100
AcDbLine
 10
-68.0369873
 20
6.82402547
 30
0.0
 11
-68.0369873
 21
3.3324212
 31
0.0
  0
LINE
  5
3C1
100
AcDbEntity
  8
レイヤー_1
  6
DIVIDE
 62
       3
100
AcDbLine
 10
-68.0369873
 20
-23.19653659
 30
0.0
 11
-68.0369873
 21
-26.65368991
 31
0.0
  0
LINE
  5
3C2
100
AcDbEntity
  8
レイヤー_1
  6
DIVIDE
 62
       3
100
AcDbLine
 10
-76.43182373
 20
-34.94474283
 30
0.0
 11
-75.93831379
 21
-34.94474283
 31
0.0
  0
LINE
  5
3C3
100
AcDbEntity
  8
レイヤー_1
  6
DIVIDE
 62
       3
100
AcDbLine
 10
-68.0369873
 20
-30.67626952
 30
0.0
 11
-68.0369873
 21
-34.16959634
 31
0.0
  0
LINE
  5
3C4
100
AcDbEntity
  8
レイヤー_1
  6
DIVIDE
 62
       3
100
AcDbLine
 10
-73.92723931
 20
-23.16208563
 30
0.0
 11
-74.59774101
 21
-23.30419582
 31
0.0
  0
LINE
  5
3C5
100
AcDbEntity
  8
レイヤー_1
  6
DIVIDE
 62
       3
100
AcDbLine
 10
-74.59774101
 20
-23.30419582
 30
0.0
 11
-75.16273668
 21
-23.69133843
 31
0.0
  0
LINE
  5
3C6
100
AcDbEntity
  8
レイヤー_1
  6
DIVIDE
 62
       3
100
AcDbLine
 10
-75.16273668
 20
-23.69133843
 30
0.0
 11
-75.54987928
 21
-24.25633409
 31
0.0
  0
LINE
  5
3C7
100
AcDbEntity
  8
レイヤー_1
  6
DIVIDE
 62
       3
100
AcDbLine
 10
-75.54987928
 20
-24.25633409
 30
0.0
 11
-75.6911282
 21
-24.92597452
 31
0.0
  0
LINE
  5
3C8
100
AcDbEntity
  8
レイヤー_1
  6
DIVIDE
 62
       3
100
AcDbLine
 10
-75.6911282
 20
-24.92597452
 30
0.0
 11
-75.54987928
 21
-25.59604559
 31
0.0
  0
LINE
  5
3C9
100
AcDbEntity
  8
レイヤー_1
  6
DIVIDE
 62
       3
100
AcDbLine
 10
-75.54987928
 20
-25.59604559
 30
0.0
 11
-75.16273668
 21
-26.16147189
 31
0.0
  0
LINE
  5
3CA
100
AcDbEntity
  8
レイヤー_1
  6
DIVIDE
 62
       3
100
AcDbLine
 10
-75.16273668
 20
-26.16147189
 30
0.0
 11
-74.59774101
 21
-26.54861449
 31
0.0
  0
LINE
  5
3CB
100
AcDbEntity
  8
レイヤー_1
  6
DIVIDE
 62
       3
100
AcDbLine
 10
-74.59774101
 20
-26.54861449
 30
0.0
 11
-73.92723931
 21
-26.68986341
 31
0.0
  0
LINE
  5
3CC
100
AcDbEntity
  8
レイヤー_1
  6
DIVIDE
 62
       3
100
AcDbLine
 10
-73.43416002
 20
-30.67626952
 30
0.0
 11
-73.92723931
 21
-30.67626952
 31
0.0
  0
LINE
  5
3CD
100
AcDbEntity
  8
レイヤー_1
  6
DIVIDE
 62
       3
100
AcDbLine
 10
-73.43416002
 20
-26.68986341
 30
0.0
 11
-72.76322767
 21
-26.54861449
 31
0.0
  0
LINE
  5
3CE
100
AcDbEntity
  8
レイヤー_1
  6
DIVIDE
 62
       3
100
AcDbLine
 10
-72.76322767
 20
-26.54861449
 30
0.0
 11
-72.19952392
 21
-26.16147189
 31
0.0
  0
LINE
  5
3CF
100
AcDbEntity
  8
レイヤー_1
  6
DIVIDE
 62
       3
100
AcDbLine
 10
-72.19952392
 20
-26.16147189
 30
0.0
 11
-71.81065876
 21
-25.59604559
 31
0.0
  0
LINE
  5
3D0
100
AcDbEntity
  8
レイヤー_1
  6
DIVIDE
 62
       3
100
AcDbLine
 10
-71.81065876
 20
-25.59604559
 30
0.0
 11
-71.67027112
 21
-24.92597452
 31
0.0
  0
LINE
  5
3D1
100
AcDbEntity
  8
レイヤー_1
  6
DIVIDE
 62
       3
100
AcDbLine
 10
-71.67027112
 20
-24.92597452
 30
0.0
 11
-71.81065876
 21
-24.25633409
 31
0.0
  0
LINE
  5
3D2
100
AcDbEntity
  8
レイヤー_1
  6
DIVIDE
 62
       3
100
AcDbLine
 10
-71.81065876
 20
-24.25633409
 30
0.0
 11
-72.19952392
 21
-23.69133843
 31
0.0
  0
LINE
  5
3D3
100
AcDbEntity
  8
レイヤー_1
  6
DIVIDE
 62
       3
100
AcDbLine
 10
-72.19952392
 20
-23.69133843
 30
0.0
 11
-72.76322767
 21
-23.30419582
 31
0.0
  0
LINE
  5
3D4
100
AcDbEntity
  8
レイヤー_1
  6
DIVIDE
 62
       3
100
AcDbLine
 10
-72.76322767
 20
-23.30419582
 30
0.0
 11
-73.43416002
 21
-23.16208563
 31
0.0
  0
LINE
  5
3D5
100
AcDbEntity
  8
レイヤー_1
  6
DIVIDE
 62
       3
100
AcDbLine
 10
-73.43416002
 20
-23.16208563
 30
0.0
 11
-73.92723931
 21
-23.16208563
 31
0.0
  0
LINE
  5
3D6
100
AcDbEntity
  8
レイヤー_1
  6
DIVIDE
 62
       3
100
AcDbLine
 10
-79.92558118
 20
-27.43055894
 30
0.0
 11
-75.93831379
 21
-27.43055894
 31
0.0
  0
LINE
  5
3D7
100
AcDbEntity
  8
レイヤー_1
  6
DIVIDE
 62
       3
100
AcDbLine
 10
-73.43416002
 20
-34.16959634
 30
0.0
 11
-72.76322767
 21
-34.06279838
 31
0.0
  0
LINE
  5
3D8
100
AcDbEntity
  8
レイヤー_1
  6
DIVIDE
 62
       3
100
AcDbLine
 10
-72.76322767
 20
-34.06279838
 30
0.0
 11
-72.19952392
 21
-33.67479451
 31
0.0
  0
LINE
  5
3D9
100
AcDbEntity
  8
レイヤー_1
  6
DIVIDE
 62
       3
100
AcDbLine
 10
-72.19952392
 20
-33.67479451
 30
0.0
 11
-71.81065876
 21
-33.11022948
 31
0.0
  0
LINE
  5
3DA
100
AcDbEntity
  8
レイヤー_1
  6
DIVIDE
 62
       3
100
AcDbLine
 10
-71.81065876
 20
-33.11022948
 30
0.0
 11
-71.67027112
 21
-32.44015841
 31
0.0
  0
LINE
  5
3DB
100
AcDbEntity
  8
レイヤー_1
  6
DIVIDE
 62
       3
100
AcDbLine
 10
-71.67027112
 20
-32.44015841
 30
0.0
 11
-71.81065876
 21
-31.7696567
 31
0.0
  0
LINE
  5
3DC
100
AcDbEntity
  8
レイヤー_1
  6
DIVIDE
 62
       3
100
AcDbLine
 10
-71.81065876
 20
-31.7696567
 30
0.0
 11
-72.19952392
 21
-31.20552232
 31
0.0
  0
LINE
  5
3DD
100
AcDbEntity
  8
レイヤー_1
  6
DIVIDE
 62
       3
100
AcDbLine
 10
-72.19952392
 20
-31.20552232
 30
0.0
 11
-72.76322767
 21
-30.81751844
 31
0.0
  0
LINE
  5
3DE
100
AcDbEntity
  8
レイヤー_1
  6
DIVIDE
 62
       3
100
AcDbLine
 10
-72.76322767
 20
-30.81751844
 30
0.0
 11
-73.43416002
 21
-30.67626952
 31
0.0
  0
LINE
  5
3DF
100
AcDbEntity
  8
レイヤー_1
  6
DIVIDE
 62
       3
100
AcDbLine
 10
-73.43416002
 20
3.3324212
 30
0.0
 11
-72.76322767
 21
3.43749661
 31
0.0
  0
LINE
  5
3E0
100
AcDbEntity
  8
レイヤー_1
  6
DIVIDE
 62
       3
100
AcDbLine
 10
-72.76322767
 20
3.43749661
 30
0.0
 11
-72.19952392
 21
3.82636176
 31
0.0
  0
LINE
  5
3E1
100
AcDbEntity
  8
レイヤー_1
  6
DIVIDE
 62
       3
100
AcDbLine
 10
-72.19952392
 20
3.82636176
 30
0.0
 11
-71.81065876
 21
4.39006551
 31
0.0
  0
LINE
  5
3E2
100
AcDbEntity
  8
レイヤー_1
  6
DIVIDE
 62
       3
100
AcDbLine
 10
-71.81065876
 20
4.39006551
 30
0.0
 11
-71.67027112
 21
5.06013658
 31
0.0
  0
LINE
  5
3E3
100
AcDbEntity
  8
レイヤー_1
  6
DIVIDE
 62
       3
100
AcDbLine
 10
-71.67027112
 20
5.06013658
 30
0.0
 11
-71.81065876
 21
5.73236084
 31
0.0
  0
LINE
  5
3E4
100
AcDbEntity
  8
レイヤー_1
  6
DIVIDE
 62
       3
100
AcDbLine
 10
-71.81065876
 20
5.73236084
 30
0.0
 11
-72.19952392
 21
6.29477268
 31
0.0
  0
LINE
  5
3E5
100
AcDbEntity
  8
レイヤー_1
  6
DIVIDE
 62
       3
100
AcDbLine
 10
-72.19952392
 20
6.29477268
 30
0.0
 11
-72.76322767
 21
6.68492974
 31
0.0
  0
LINE
  5
3E6
100
AcDbEntity
  8
レイヤー_1
  6
DIVIDE
 62
       3
100
AcDbLine
 10
-72.76322767
 20
6.68492974
 30
0.0
 11
-73.43416002
 21
6.82402547
 31
0.0
  0
LINE
  5
3E7
100
AcDbEntity
  8
レイヤー_1
  6
DIVIDE
 62
       3
100
AcDbLine
 10
-73.43416002
 20
6.82402547
 30
0.0
 11
-73.92723931
 21
6.82402547
 31
0.0
  0
LINE
  5
3E8
100
AcDbEntity
  8
レイヤー_1
  6
DIVIDE
 62
       3
100
AcDbLine
 10
-73.92723931
 20
6.82402547
 30
0.0
 11
-74.59774101
 21
6.68492974
 31
0.0
  0
LINE
  5
3E9
100
AcDbEntity
  8
レイヤー_1
  6
DIVIDE
 62
       3
100
AcDbLine
 10
-74.59774101
 20
6.68492974
 30
0.0
 11
-75.16273668
 21
6.29477268
 31
0.0
  0
LINE
  5
3EA
100
AcDbEntity
  8
レイヤー_1
  6
DIVIDE
 62
       3
100
AcDbLine
 10
-75.16273668
 20
6.29477268
 30
0.0
 11
-75.54987928
 21
5.73236084
 31
0.0
  0
LINE
  5
3EB
100
AcDbEntity
  8
レイヤー_1
  6
DIVIDE
 62
       3
100
AcDbLine
 10
-75.54987928
 20
5.73236084
 30
0.0
 11
-75.6911282
 21
5.06013658
 31
0.0
  0
LINE
  5
3EC
100
AcDbEntity
  8
レイヤー_1
  6
DIVIDE
 62
       3
100
AcDbLine
 10
-75.6911282
 20
5.06013658
 30
0.0
 11
-75.54987928
 21
4.39006551
 31
0.0
  0
LINE
  5
3ED
100
AcDbEntity
  8
レイヤー_1
  6
DIVIDE
 62
       3
100
AcDbLine
 10
-75.54987928
 20
4.39006551
 30
0.0
 11
-75.16273668
 21
3.82636176
 31
0.0
  0
LINE
  5
3EE
100
AcDbEntity
  8
レイヤー_1
  6
DIVIDE
 62
       3
100
AcDbLine
 10
-75.16273668
 20
3.82636176
 30
0.0
 11
-74.59774101
 21
3.43749661
 31
0.0
  0
LINE
  5
3EF
100
AcDbEntity
  8
レイヤー_1
  6
DIVIDE
 62
       3
100
AcDbLine
 10
-74.59774101
 20
3.43749661
 30
0.0
 11
-73.92723931
 21
3.3324212
 31
0.0
  0
LINE
  5
3F0
100
AcDbEntity
  8
レイヤー_1
  6
DIVIDE
 62
       3
100
AcDbLine
 10
-73.92723931
 20
3.3324212
 30
0.0
 11
-73.43416002
 21
3.3324212
 31
0.0
  0
LINE
  5
3F1
100
AcDbEntity
  8
レイヤー_1
  6
DIVIDE
 62
       3
100
AcDbLine
 10
-73.43416002
 20
-4.18348524
 30
0.0
 11
-72.76322767
 21
-4.04223633
 31
0.0
  0
LINE
  5
3F2
100
AcDbEntity
  8
レイヤー_1
  6
DIVIDE
 62
       3
100
AcDbLine
 10
-72.76322767
 20
-4.04223633
 30
0.0
 11
-72.19952392
 21
-3.6525099
 31
0.0
  0
LINE
  5
3F3
100
AcDbEntity
  8
レイヤー_1
  6
DIVIDE
 62
       3
100
AcDbLine
 10
-72.19952392
 20
-3.6525099
 30
0.0
 11
-71.81065876
 21
-3.08966742
 31
0.0
  0
LINE
  5
3F4
100
AcDbEntity
  8
レイヤー_1
  6
DIVIDE
 62
       3
100
AcDbLine
 10
-71.81065876
 20
-3.08966742
 30
0.0
 11
-71.67027112
 21
-2.41959635
 31
0.0
  0
LINE
  5
3F5
100
AcDbEntity
  8
レイヤー_1
  6
DIVIDE
 62
       3
100
AcDbLine
 10
-71.67027112
 20
-2.41959635
 30
0.0
 11
-71.81065876
 21
-1.7473721
 31
0.0
  0
LINE
  5
3F6
100
AcDbEntity
  8
レイヤー_1
  6
DIVIDE
 62
       3
100
AcDbLine
 10
-71.81065876
 20
-1.7473721
 30
0.0
 11
-72.19952392
 21
-1.18409898
 31
0.0
  0
LINE
  5
3F7
100
AcDbEntity
  8
レイヤー_1
  6
DIVIDE
 62
       3
100
AcDbLine
 10
-72.19952392
 20
-1.18409898
 30
0.0
 11
-72.76322767
 21
-0.79695638
 31
0.0
  0
LINE
  5
3F8
100
AcDbEntity
  8
レイヤー_1
  6
DIVIDE
 62
       3
100
AcDbLine
 10
-72.76322767
 20
-0.79695638
 30
0.0
 11
-73.43416002
 21
-0.69015842
 31
0.0
  0
LINE
  5
3F9
100
AcDbEntity
  8
レイヤー_1
  6
DIVIDE
 62
       3
100
AcDbLine
 10
-73.43416002
 20
-0.69015842
 30
0.0
 11
-73.92723931
 21
-0.69015842
 31
0.0
  0
LINE
  5
3FA
100
AcDbEntity
  8
レイヤー_1
  6
DIVIDE
 62
       3
100
AcDbLine
 10
-73.92723931
 20
-0.69015842
 30
0.0
 11
-74.59774101
 21
-0.79695638
 31
0.0
  0
LINE
  5
3FB
100
AcDbEntity
  8
レイヤー_1
  6
DIVIDE
 62
       3
100
AcDbLine
 10
-74.59774101
 20
-0.79695638
 30
0.0
 11
-75.16273668
 21
-1.18409898
 31
0.0
  0
LINE
  5
3FC
100
AcDbEntity
  8
レイヤー_1
  6
DIVIDE
 62
       3
100
AcDbLine
 10
-75.16273668
 20
-1.18409898
 30
0.0
 11
-75.54987928
 21
-1.7473721
 31
0.0
  0
LINE
  5
3FD
100
AcDbEntity
  8
レイヤー_1
  6
DIVIDE
 62
       3
100
AcDbLine
 10
-75.54987928
 20
-1.7473721
 30
0.0
 11
-75.6911282
 21
-2.41959635
 31
0.0
  0
LINE
  5
3FE
100
AcDbEntity
  8
レイヤー_1
  6
DIVIDE
 62
       3
100
AcDbLine
 10
-75.6911282
 20
-2.41959635
 30
0.0
 11
-75.54987928
 21
-3.08966742
 31
0.0
  0
LINE
  5
3FF
100
AcDbEntity
  8
レイヤー_1
  6
DIVIDE
 62
       3
100
AcDbLine
 10
-75.54987928
 20
-3.08966742
 30
0.0
 11
-75.16273668
 21
-3.6525099
 31
0.0
  0
LINE
  5
400
100
AcDbEntity
  8
レイヤー_1
  6
DIVIDE
 62
       3
100
AcDbLine
 10
-75.16273668
 20
-3.6525099
 30
0.0
 11
-74.59774101
 21
-4.04223633
 31
0.0
  0
LINE
  5
401
100
AcDbEntity
  8
レイヤー_1
  6
DIVIDE
 62
       3
100
AcDbLine
 10
-74.59774101
 20
-4.04223633
 30
0.0
 11
-73.92723931
 21
-4.18348524
 31
0.0
  0
LINE
  5
402
100
AcDbEntity
  8
レイヤー_1
  6
DIVIDE
 62
       3
100
AcDbLine
 10
-73.92723931
 20
-4.18348524
 30
0.0
 11
-73.43416002
 21
-4.18348524
 31
0.0
  0
LINE
  5
403
100
AcDbEntity
  8
レイヤー_1
  6
DIVIDE
 62
       3
100
AcDbLine
 10
-73.43416002
 20
-11.66063435
 30
0.0
 11
-72.76322767
 21
-11.55555894
 31
0.0
  0
LINE
  5
404
100
AcDbEntity
  8
レイヤー_1
  6
DIVIDE
 62
       3
100
AcDbLine
 10
-72.76322767
 20
-11.55555894
 30
0.0
 11
-72.19952392
 21
-11.16841634
 31
0.0
  0
LINE
  5
405
100
AcDbEntity
  8
レイヤー_1
  6
DIVIDE
 62
       3
100
AcDbLine
 10
-72.19952392
 20
-11.16841634
 30
0.0
 11
-71.81065876
 21
-10.60299004
 31
0.0
  0
LINE
  5
406
100
AcDbEntity
  8
レイヤー_1
  6
DIVIDE
 62
       3
100
AcDbLine
 10
-71.81065876
 20
-10.60299004
 30
0.0
 11
-71.67027112
 21
-9.93291897
 31
0.0
  0
LINE
  5
407
100
AcDbEntity
  8
レイヤー_1
  6
DIVIDE
 62
       3
100
AcDbLine
 10
-71.67027112
 20
-9.93291897
 30
0.0
 11
-71.81065876
 21
-9.26327853
 31
0.0
  0
LINE
  5
408
100
AcDbEntity
  8
レイヤー_1
  6
DIVIDE
 62
       3
100
AcDbLine
 10
-71.81065876
 20
-9.26327853
 30
0.0
 11
-72.19952392
 21
-8.69828287
 31
0.0
  0
LINE
  5
409
100
AcDbEntity
  8
レイヤー_1
  6
DIVIDE
 62
       3
100
AcDbLine
 10
-72.19952392
 20
-8.69828287
 30
0.0
 11
-72.76322767
 21
-8.31114027
 31
0.0
  0
LINE
  5
40A
100
AcDbEntity
  8
レイヤー_1
  6
DIVIDE
 62
       3
100
AcDbLine
 10
-72.76322767
 20
-8.31114027
 30
0.0
 11
-73.43416002
 21
-8.16903008
 31
0.0
  0
LINE
  5
40B
100
AcDbEntity
  8
レイヤー_1
  6
DIVIDE
 62
       3
100
AcDbLine
 10
-73.43416002
 20
-8.16903008
 30
0.0
 11
-73.92723931
 21
-8.16903008
 31
0.0
  0
LINE
  5
40C
100
AcDbEntity
  8
レイヤー_1
  6
DIVIDE
 62
       3
100
AcDbLine
 10
-73.92723931
 20
-8.16903008
 30
0.0
 11
-74.59774101
 21
-8.31114027
 31
0.0
  0
LINE
  5
40D
100
AcDbEntity
  8
レイヤー_1
  6
DIVIDE
 62
       3
100
AcDbLine
 10
-74.59774101
 20
-8.31114027
 30
0.0
 11
-75.16273668
 21
-8.69828287
 31
0.0
  0
LINE
  5
40E
100
AcDbEntity
  8
レイヤー_1
  6
DIVIDE
 62
       3
100
AcDbLine
 10
-75.16273668
 20
-8.69828287
 30
0.0
 11
-75.54987928
 21
-9.26327853
 31
0.0
  0
LINE
  5
40F
100
AcDbEntity
  8
レイヤー_1
  6
DIVIDE
 62
       3
100
AcDbLine
 10
-75.54987928
 20
-9.26327853
 30
0.0
 11
-75.6911282
 21
-9.93291897
 31
0.0
  0
LINE
  5
410
100
AcDbEntity
  8
レイヤー_1
  6
DIVIDE
 62
       3
100
AcDbLine
 10
-75.6911282
 20
-9.93291897
 30
0.0
 11
-75.54987928
 21
-10.60299004
 31
0.0
  0
LINE
  5
411
100
AcDbEntity
  8
レイヤー_1
  6
DIVIDE
 62
       3
100
AcDbLine
 10
-75.54987928
 20
-10.60299004
 30
0.0
 11
-75.16273668
 21
-11.16841634
 31
0.0
  0
LINE
  5
412
100
AcDbEntity
  8
レイヤー_1
  6
DIVIDE
 62
       3
100
AcDbLine
 10
-75.16273668
 20
-11.16841634
 30
0.0
 11
-74.59774101
 21
-11.55555894
 31
0.0
  0
LINE
  5
413
100
AcDbEntity
  8
レイヤー_1
  6
DIVIDE
 62
       3
100
AcDbLine
 10
-74.59774101
 20
-11.55555894
 30
0.0
 11
-73.92723931
 21
-11.66063435
 31
0.0
  0
LINE
  5
414
100
AcDbEntity
  8
レイヤー_1
  6
DIVIDE
 62
       3
100
AcDbLine
 10
-73.92723931
 20
-11.66063435
 30
0.0
 11
-73.43416002
 21
-11.66063435
 31
0.0
  0
LINE
  5
415
100
AcDbEntity
  8
レイヤー_1
  6
DIVIDE
 62
       3
100
AcDbLine
 10
-73.43416002
 20
-19.17654079
 30
0.0
 11
-72.76322767
 21
-19.03529188
 31
0.0
  0
LINE
  5
416
100
AcDbEntity
  8
レイヤー_1
  6
DIVIDE
 62
       3
100
AcDbLine
 10
-72.76322767
 20
-19.03529188
 30
0.0
 11
-72.19952392
 21
-18.68173895
 31
0.0
  0
LINE
  5
417
100
AcDbEntity
  8
レイヤー_1
  6
DIVIDE
 62
       3
100
AcDbLine
 10
-72.19952392
 20
-18.68173895
 30
0.0
 11
-71.81065876
 21
-18.08272298
 31
0.0
  0
LINE
  5
418
100
AcDbEntity
  8
レイヤー_1
  6
DIVIDE
 62
       3
100
AcDbLine
 10
-71.81065876
 20
-18.08272298
 30
0.0
 11
-71.67027112
 21
-17.4126519
 31
0.0
  0
LINE
  5
419
100
AcDbEntity
  8
レイヤー_1
  6
DIVIDE
 62
       3
100
AcDbLine
 10
-71.67027112
 20
-17.4126519
 30
0.0
 11
-71.81065876
 21
-16.74042765
 31
0.0
  0
LINE
  5
41A
100
AcDbEntity
  8
レイヤー_1
  6
DIVIDE
 62
       3
100
AcDbLine
 10
-71.81065876
 20
-16.74042765
 30
0.0
 11
-72.19952392
 21
-16.17715454
 31
0.0
  0
LINE
  5
41B
100
AcDbEntity
  8
レイヤー_1
  6
DIVIDE
 62
       3
100
AcDbLine
 10
-72.19952392
 20
-16.17715454
 30
0.0
 11
-72.76322767
 21
-15.82446289
 31
0.0
  0
LINE
  5
41C
100
AcDbEntity
  8
レイヤー_1
  6
DIVIDE
 62
       3
100
AcDbLine
 10
-72.76322767
 20
-15.82446289
 30
0.0
 11
-73.43416002
 21
-15.68321397
 31
0.0
  0
LINE
  5
41D
100
AcDbEntity
  8
レイヤー_1
  6
DIVIDE
 62
       3
100
AcDbLine
 10
-73.43416002
 20
-15.68321397
 30
0.0
 11
-73.92723931
 21
-15.68321397
 31
0.0
  0
LINE
  5
41E
100
AcDbEntity
  8
レイヤー_1
  6
DIVIDE
 62
       3
100
AcDbLine
 10
-73.92723931
 20
-15.68321397
 30
0.0
 11
-74.59774101
 21
-15.82446289
 31
0.0
  0
LINE
  5
41F
100
AcDbEntity
  8
レイヤー_1
  6
DIVIDE
 62
       3
100
AcDbLine
 10
-74.59774101
 20
-15.82446289
 30
0.0
 11
-75.16273668
 21
-16.17715454
 31
0.0
  0
LINE
  5
420
100
AcDbEntity
  8
レイヤー_1
  6
DIVIDE
 62
       3
100
AcDbLine
 10
-75.16273668
 20
-16.17715454
 30
0.0
 11
-75.54987928
 21
-16.74042765
 31
0.0
  0
LINE
  5
421
100
AcDbEntity
  8
レイヤー_1
  6
DIVIDE
 62
       3
100
AcDbLine
 10
-75.54987928
 20
-16.74042765
 30
0.0
 11
-75.6911282
 21
-17.4126519
 31
0.0
  0
LINE
  5
422
100
AcDbEntity
  8
レイヤー_1
  6
DIVIDE
 62
       3
100
AcDbLine
 10
-75.6911282
 20
-17.4126519
 30
0.0
 11
-75.54987928
 21
-18.08272298
 31
0.0
  0
LINE
  5
423
100
AcDbEntity
  8
レイヤー_1
  6
DIVIDE
 62
       3
100
AcDbLine
 10
-75.54987928
 20
-18.08272298
 30
0.0
 11
-75.16273668
 21
-18.68173895
 31
0.0
  0
LINE
  5
424
100
AcDbEntity
  8
レイヤー_1
  6
DIVIDE
 62
       3
100
AcDbLine
 10
-75.16273668
 20
-18.68173895
 30
0.0
 11
-74.59774101
 21
-19.03529188
 31
0.0
  0
LINE
  5
425
100
AcDbEntity
  8
レイヤー_1
  6
DIVIDE
 62
       3
100
AcDbLine
 10
-74.59774101
 20
-19.03529188
 30
0.0
 11
-73.92723931
 21
-19.17654079
 31
0.0
  0
LINE
  5
426
100
AcDbEntity
  8
レイヤー_1
  6
DIVIDE
 62
       3
100
AcDbLine
 10
-73.92723931
 20
-19.17654079
 30
0.0
 11
-73.43416002
 21
-19.17654079
 31
0.0
  0
LINE
  5
427
100
AcDbEntity
  8
レイヤー_1
  6
DIVIDE
 62
       3
100
AcDbLine
 10
-73.92723931
 20
-26.68986341
 30
0.0
 11
-73.43416002
 21
-26.68986341
 31
0.0
  0
LINE
  5
428
100
AcDbEntity
  8
レイヤー_1
  6
DIVIDE
 62
       3
100
AcDbLine
 10
-63.90933227
 20
-22.91403876
 30
0.0
 11
-70.92871433
 21
-22.91403876
 31
0.0
  0
LINE
  5
429
100
AcDbEntity
  8
レイヤー_1
  6
DIVIDE
 62
       3
100
AcDbLine
 10
-70.92871433
 20
-22.91403876
 30
0.0
 11
-70.92871433
 21
-26.93661837
 31
0.0
  0
LINE
  5
42A
100
AcDbEntity
  8
レイヤー_1
  6
DIVIDE
 62
       3
100
AcDbLine
 10
-70.92871433
 20
-26.93661837
 30
0.0
 11
-63.90933227
 21
-26.93661837
 31
0.0
  0
LINE
  5
42B
100
AcDbEntity
  8
レイヤー_1
  6
DIVIDE
 62
       3
100
AcDbLine
 10
-63.90933227
 20
-26.93661837
 30
0.0
 11
-63.90933227
 21
-22.91403876
 31
0.0
  0
LINE
  5
42C
100
AcDbEntity
  8
レイヤー_1
  6
DIVIDE
 62
       3
100
AcDbLine
 10
-73.92723931
 20
-30.67626952
 30
0.0
 11
-74.59774101
 21
-30.81751844
 31
0.0
  0
LINE
  5
42D
100
AcDbEntity
  8
レイヤー_1
  6
DIVIDE
 62
       3
100
AcDbLine
 10
-74.59774101
 20
-30.81751844
 30
0.0
 11
-75.16273668
 21
-31.20552232
 31
0.0
  0
LINE
  5
42E
100
AcDbEntity
  8
レイヤー_1
  6
DIVIDE
 62
       3
100
AcDbLine
 10
-75.16273668
 20
-31.20552232
 30
0.0
 11
-75.54987928
 21
-31.7696567
 31
0.0
  0
LINE
  5
42F
100
AcDbEntity
  8
レイヤー_1
  6
DIVIDE
 62
       3
100
AcDbLine
 10
-75.54987928
 20
-31.7696567
 30
0.0
 11
-75.6911282
 21
-32.44015841
 31
0.0
  0
LINE
  5
430
100
AcDbEntity
  8
レイヤー_1
  6
DIVIDE
 62
       3
100
AcDbLine
 10
-75.6911282
 20
-32.44015841
 30
0.0
 11
-75.54987928
 21
-33.11022948
 31
0.0
  0
LINE
  5
431
100
AcDbEntity
  8
レイヤー_1
  6
DIVIDE
 62
       3
100
AcDbLine
 10
-75.54987928
 20
-33.11022948
 30
0.0
 11
-75.16273668
 21
-33.67479451
 31
0.0
  0
LINE
  5
432
100
AcDbEntity
  8
レイヤー_1
  6
DIVIDE
 62
       3
100
AcDbLine
 10
-75.16273668
 20
-33.67479451
 30
0.0
 11
-74.59774101
 21
-34.06279838
 31
0.0
  0
LINE
  5
433
100
AcDbEntity
  8
レイヤー_1
  6
DIVIDE
 62
       3
100
AcDbLine
 10
-74.59774101
 20
-34.06279838
 30
0.0
 11
-73.92723931
 21
-34.16959634
 31
0.0
  0
LINE
  5
434
100
AcDbEntity
  8
レイヤー_1
  6
DIVIDE
 62
       3
100
AcDbLine
 10
-73.92723931
 20
-34.16959634
 30
0.0
 11
-73.43416002
 21
-34.16959634
 31
0.0
  0
LINE
  5
435
100
AcDbEntity
  8
レイヤー_1
  6
DIVIDE
 62
       3
100
AcDbLine
 10
-70.92871433
 20
-30.4299452
 30
0.0
 11
-70.92871433
 21
-34.41549003
 31
0.0
  0
LINE
  5
436
100
AcDbEntity
  8
レイヤー_1
  6
DIVIDE
 62
       3
100
AcDbLine
 10
-79.92558118
 20
2.55555217
 30
0.0
 11
-75.93831379
 21
2.55555217
 31
0.0
  0
LINE
  5
437
100
AcDbEntity
  8
レイヤー_1
  6
DIVIDE
 62
       3
100
AcDbLine
 10
-75.93831379
 20
2.55555217
 30
0.0
 11
-75.93831379
 21
7.56687419
 31
0.0
  0
LINE
  5
438
100
AcDbEntity
  8
レイヤー_1
  6
DIVIDE
 62
       3
100
AcDbLine
 10
-79.92558118
 20
2.55555217
 30
0.0
 11
-79.92558118
 21
0.08498807
 31
0.0
  0
LINE
  5
439
100
AcDbEntity
  8
レイヤー_1
  6
DIVIDE
 62
       3
100
AcDbLine
 10
-79.92558118
 20
-4.92418077
 30
0.0
 11
-75.93831379
 21
-4.92418077
 31
0.0
  0
LINE
  5
43A
100
AcDbEntity
  8
レイヤー_1
  6
DIVIDE
 62
       3
100
AcDbLine
 10
-75.93831379
 20
-4.92418077
 30
0.0
 11
-75.93831379
 21
0.08498807
 31
0.0
  0
LINE
  5
43B
100
AcDbEntity
  8
レイヤー_1
  6
DIVIDE
 62
       3
100
AcDbLine
 10
-75.93831379
 20
0.08498807
 30
0.0
 11
-79.92558118
 21
0.08498807
 31
0.0
  0
LINE
  5
43C
100
AcDbEntity
  8
レイヤー_1
  6
DIVIDE
 62
       3
100
AcDbLine
 10
-79.92558118
 20
-4.92418077
 30
0.0
 11
-79.92558118
 21
-7.42919583
 31
0.0
  0
LINE
  5
43D
100
AcDbEntity
  8
レイヤー_1
  6
DIVIDE
 62
       3
100
AcDbLine
 10
-79.92558118
 20
-12.43750339
 30
0.0
 11
-75.93831379
 21
-12.43750339
 31
0.0
  0
LINE
  5
43E
100
AcDbEntity
  8
レイヤー_1
  6
DIVIDE
 62
       3
100
AcDbLine
 10
-75.93831379
 20
-12.43750339
 30
0.0
 11
-75.93831379
 21
-7.42919583
 31
0.0
  0
LINE
  5
43F
100
AcDbEntity
  8
レイヤー_1
  6
DIVIDE
 62
       3
100
AcDbLine
 10
-75.93831379
 20
-7.42919583
 30
0.0
 11
-79.92558118
 21
-7.42919583
 31
0.0
  0
LINE
  5
440
100
AcDbEntity
  8
レイヤー_1
  6
DIVIDE
 62
       3
100
AcDbLine
 10
-79.92558118
 20
-12.43750339
 30
0.0
 11
-79.92558118
 21
-14.94251844
 31
0.0
  0
LINE
  5
441
100
AcDbEntity
  8
レイヤー_1
  6
DIVIDE
 62
       3
100
AcDbLine
 10
-79.92558118
 20
-19.91723632
 30
0.0
 11
-75.93831379
 21
-19.91723632
 31
0.0
  0
LINE
  5
442
100
AcDbEntity
  8
レイヤー_1
  6
DIVIDE
 62
       3
100
AcDbLine
 10
-75.93831379
 20
-19.91723632
 30
0.0
 11
-75.93831379
 21
-14.94251844
 31
0.0
  0
LINE
  5
443
100
AcDbEntity
  8
レイヤー_1
  6
DIVIDE
 62
       3
100
AcDbLine
 10
-75.93831379
 20
-14.94251844
 30
0.0
 11
-79.92558118
 21
-14.94251844
 31
0.0
  0
LINE
  5
444
100
AcDbEntity
  8
レイヤー_1
  6
DIVIDE
 62
       3
100
AcDbLine
 10
-79.92558118
 20
-19.91723632
 30
0.0
 11
-79.92558118
 21
-22.42225138
 31
0.0
  0
LINE
  5
445
100
AcDbEntity
  8
レイヤー_1
  6
DIVIDE
 62
       3
100
AcDbLine
 10
-75.93831379
 20
-27.43055894
 30
0.0
 11
-75.93831379
 21
-22.42225138
 31
0.0
  0
LINE
  5
446
100
AcDbEntity
  8
レイヤー_1
  6
DIVIDE
 62
       3
100
AcDbLine
 10
-75.93831379
 20
-22.42225138
 30
0.0
 11
-79.92558118
 21
-22.42225138
 31
0.0
  0
LINE
  5
447
100
AcDbEntity
  8
レイヤー_1
  6
DIVIDE
 62
       3
100
AcDbLine
 10
-79.92558118
 20
-27.43055894
 30
0.0
 11
-79.92558118
 21
-29.93557399
 31
0.0
  0
LINE
  5
448
100
AcDbEntity
  8
レイヤー_1
  6
DIVIDE
 62
       3
100
AcDbLine
 10
-75.93831379
 20
-34.94474283
 30
0.0
 11
-75.93831379
 21
-29.93557399
 31
0.0
  0
LINE
  5
449
100
AcDbEntity
  8
レイヤー_1
  6
DIVIDE
 62
       3
100
AcDbLine
 10
-75.93831379
 20
-29.93557399
 30
0.0
 11
-79.92558118
 21
-29.93557399
 31
0.0
  0
LINE
  5
44A
100
AcDbEntity
  8
レイヤー_1
  6
DIVIDE
 62
       3
100
AcDbLine
 10
-75.93831379
 20
-34.94474283
 30
0.0
 11
-61.43876816
 21
-34.94474283
 31
0.0
  0
LINE
  5
44B
100
AcDbEntity
  8
レイヤー_1
  6
DIVIDE
 62
       3
100
AcDbLine
 10
-61.43876816
 20
-34.94474283
 30
0.0
 11
-61.43876816
 21
10.07059733
 31
0.0
  0
LINE
  5
44C
100
AcDbEntity
  8
レイヤー_1
  6
DIVIDE
 62
       3
100
AcDbLine
 10
-61.43876816
 20
10.07059733
 30
0.0
 11
-79.92558118
 21
10.07059733
 31
0.0
  0
LINE
  5
44D
100
AcDbEntity
  8
レイヤー_1
  6
DIVIDE
 62
       3
100
AcDbLine
 10
-79.92558118
 20
10.07059733
 30
0.0
 11
-79.92558118
 21
7.56687419
 31
0.0
  0
LINE
  5
44E
100
AcDbEntity
  8
レイヤー_1
  6
DIVIDE
 62
       3
100
AcDbLine
 10
-75.93831379
 20
7.56687419
 30
0.0
 11
-79.92558118
 21
7.56687419
 31
0.0
  0
LINE
  5
44F
100
AcDbEntity
  8
レイヤー_1
  6
DIVIDE
 62
       3
100
AcDbLine
 10
-63.90933227
 20
-19.42243448
 30
0.0
 11
-63.90933227
 21
-15.43688964
 31
0.0
  0
LINE
  5
450
100
AcDbEntity
  8
レイヤー_1
  6
DIVIDE
 62
       3
100
AcDbLine
 10
-63.90933227
 20
-15.43688964
 30
0.0
 11
-70.92871433
 21
-15.43688964
 31
0.0
  0
LINE
  5
451
100
AcDbEntity
  8
レイヤー_1
  6
DIVIDE
 62
       3
100
AcDbLine
 10
-70.92871433
 20
-15.43688964
 30
0.0
 11
-70.92871433
 21
-19.42243448
 31
0.0
  0
LINE
  5
452
100
AcDbEntity
  8
レイヤー_1
  6
DIVIDE
 62
       3
100
AcDbLine
 10
-70.92871433
 20
-19.42243448
 30
0.0
 11
-63.90933227
 21
-19.42243448
 31
0.0
  0
LINE
  5
453
100
AcDbEntity
  8
レイヤー_1
  6
DIVIDE
 62
       3
100
AcDbLine
 10
-63.90933227
 20
-11.94356282
 30
0.0
 11
-63.90933227
 21
-7.92098321
 31
0.0
  0
LINE
  5
454
100
AcDbEntity
  8
レイヤー_1
  6
DIVIDE
 62
       3
100
AcDbLine
 10
-63.90933227
 20
-7.92098321
 30
0.0
 11
-70.92871433
 21
-7.92098321
 31
0.0
  0
LINE
  5
455
100
AcDbEntity
  8
レイヤー_1
  6
DIVIDE
 62
       3
100
AcDbLine
 10
-70.92871433
 20
-7.92098321
 30
0.0
 11
-70.92871433
 21
-11.94356282
 31
0.0
  0
LINE
  5
456
100
AcDbEntity
  8
レイヤー_1
  6
DIVIDE
 62
       3
100
AcDbLine
 10
-70.92871433
 20
-11.94356282
 30
0.0
 11
-63.90933227
 21
-11.94356282
 31
0.0
  0
LINE
  5
457
100
AcDbEntity
  8
レイヤー_1
  6
DIVIDE
 62
       3
100
AcDbLine
 10
-63.90933227
 20
-4.42937893
 30
0.0
 11
-63.90933227
 21
-0.44383409
 31
0.0
  0
LINE
  5
458
100
AcDbEntity
  8
レイヤー_1
  6
DIVIDE
 62
       3
100
AcDbLine
 10
-63.90933227
 20
-0.44383409
 30
0.0
 11
-70.92871433
 21
-0.44383409
 31
0.0
  0
LINE
  5
459
100
AcDbEntity
  8
レイヤー_1
  6
DIVIDE
 62
       3
100
AcDbLine
 10
-70.92871433
 20
-0.44383409
 30
0.0
 11
-70.92871433
 21
-4.42937893
 31
0.0
  0
LINE
  5
45A
100
AcDbEntity
  8
レイヤー_1
  6
DIVIDE
 62
       3
100
AcDbLine
 10
-70.92871433
 20
-4.42937893
 30
0.0
 11
-63.90933227
 21
-4.42937893
 31
0.0
  0
LINE
  5
45B
100
AcDbEntity
  8
レイヤー_1
  6
DIVIDE
 62
       3
100
AcDbLine
 10
-63.90933227
 20
3.08652751
 30
0.0
 11
-63.90933227
 21
7.07207235
 31
0.0
  0
LINE
  5
45C
100
AcDbEntity
  8
レイヤー_1
  6
DIVIDE
 62
       3
100
AcDbLine
 10
-63.90933227
 20
7.07207235
 30
0.0
 11
-70.92871433
 21
7.07207235
 31
0.0
  0
LINE
  5
45D
100
AcDbEntity
  8
レイヤー_1
  6
DIVIDE
 62
       3
100
AcDbLine
 10
-70.92871433
 20
7.07207235
 30
0.0
 11
-70.92871433
 21
3.08652751
 31
0.0
  0
LINE
  5
45E
100
AcDbEntity
  8
レイヤー_1
  6
DIVIDE
 62
       3
100
AcDbLine
 10
-70.92871433
 20
3.08652751
 30
0.0
 11
-63.90933227
 21
3.08652751
 31
0.0
  0
LINE
  5
45F
100
AcDbEntity
  8
レイヤー_1
  6
DIVIDE
 62
       3
100
AcDbLine
 10
-70.92871433
 20
-34.41549003
 30
0.0
 11
-63.90933227
 21
-34.41549003
 31
0.0
  0
LINE
  5
460
100
AcDbEntity
  8
レイヤー_1
  6
DIVIDE
 62
       3
100
AcDbLine
 10
-63.90933227
 20
-34.41549003
 30
0.0
 11
-63.90933227
 21
-30.4299452
 31
0.0
  0
LINE
  5
461
100
AcDbEntity
  8
レイヤー_1
  6
DIVIDE
 62
       3
100
AcDbLine
 10
-63.90933227
 20
-30.4299452
 30
0.0
 11
-70.92871433
 21
-30.4299452
 31
0.0
  0
LINE
  5
462
100
AcDbEntity
  8
レイヤー_1
  6
DIVIDE
 62
       3
100
AcDbLine
 10
-76.57307264
 20
11.3060947
 30
0.0
 11
-76.53862169
 21
11.3060947
 31
0.0
  0
LINE
  5
463
100
AcDbEntity
  8
レイヤー_1
  6
DIVIDE
 62
       3
100
AcDbLine
 10
-76.53862169
 20
11.3060947
 30
0.0
 11
-76.50244817
 21
11.3060947
 31
0.0
  0
LINE
  5
464
100
AcDbEntity
  8
レイヤー_1
  6
DIVIDE
 62
       3
100
AcDbLine
 10
-76.50244817
 20
11.3060947
 30
0.0
 11
-76.46799723
 21
11.3060947
 31
0.0
  0
LINE
  5
465
100
AcDbEntity
  8
レイヤー_1
  6
DIVIDE
 62
       3
100
AcDbLine
 10
-76.46799723
 20
11.3060947
 30
0.0
 11
-76.43182373
 21
11.3060947
 31
0.0
  0
LINE
  5
466
100
AcDbEntity
  8
レイヤー_1
  6
DIVIDE
 62
       3
100
AcDbLine
 10
-76.43182373
 20
11.3060947
 30
0.0
 11
-76.39780341
 21
11.3060947
 31
0.0
  0
LINE
  5
467
100
AcDbEntity
  8
レイヤー_1
  6
DIVIDE
 62
       3
100
AcDbLine
 10
-76.39780341
 20
11.3060947
 30
0.0
 11
-76.36162991
 21
11.3060947
 31
0.0
  0
LINE
  5
468
100
AcDbEntity
  8
レイヤー_1
  6
DIVIDE
 62
       3
100
AcDbLine
 10
-76.36162991
 20
39.3160129
 30
0.0
 11
-76.39780341
 21
39.3160129
 31
0.0
  0
LINE
  5
469
100
AcDbEntity
  8
レイヤー_1
  6
DIVIDE
 62
       3
100
AcDbLine
 10
-76.39780341
 20
39.3160129
 30
0.0
 11
-76.43182373
 21
39.3160129
 31
0.0
  0
LINE
  5
46A
100
AcDbEntity
  8
レイヤー_1
  6
DIVIDE
 62
       3
100
AcDbLine
 10
-76.43182373
 20
39.3160129
 30
0.0
 11
-76.46799723
 21
39.3160129
 31
0.0
  0
LINE
  5
46B
100
AcDbEntity
  8
レイヤー_1
  6
DIVIDE
 62
       3
100
AcDbLine
 10
-76.46799723
 20
39.3160129
 30
0.0
 11
-76.50244817
 21
39.3160129
 31
0.0
  0
LINE
  5
46C
100
AcDbEntity
  8
レイヤー_1
  6
DIVIDE
 62
       3
100
AcDbLine
 10
-76.50244817
 20
39.3160129
 30
0.0
 11
-76.53862169
 21
39.3160129
 31
0.0
  0
LINE
  5
46D
100
AcDbEntity
  8
レイヤー_1
  6
DIVIDE
 62
       3
100
AcDbLine
 10
-76.53862169
 20
39.3160129
 30
0.0
 11
-76.57307264
 21
39.3160129
 31
0.0
  0
LINE
  5
46E
100
AcDbEntity
  8
レイヤー_1
  6
DIVIDE
 62
       3
100
AcDbLine
 10
-76.57307264
 20
11.3060947
 30
0.0
 11
-76.57307264
 21
39.3160129
 31
0.0
  0
LINE
  5
46F
100
AcDbEntity
  8
レイヤー_1
  6
DIVIDE
 62
       3
100
AcDbLine
 10
-75.83237711
 20
11.3060947
 30
0.0
 11
-75.62050374
 21
11.3060947
 31
0.0
  0
LINE
  5
470
100
AcDbEntity
  8
レイヤー_1
  6
DIVIDE
 62
       3
100
AcDbLine
 10
-75.62050374
 20
39.3160129
 30
0.0
 11
-75.83237711
 21
39.3160129
 31
0.0
  0
LINE
  5
471
100
AcDbEntity
  8
レイヤー_1
  6
DIVIDE
 62
       3
100
AcDbLine
 10
-75.83237711
 20
11.3060947
 30
0.0
 11
-76.36162991
 21
11.3060947
 31
0.0
  0
LINE
  5
472
100
AcDbEntity
  8
レイヤー_1
  6
DIVIDE
 62
       3
100
AcDbLine
 10
-76.36162991
 20
39.3160129
 30
0.0
 11
-75.83237711
 21
39.3160129
 31
0.0
  0
LINE
  5
473
100
AcDbEntity
  8
レイヤー_1
  6
DIVIDE
 62
       3
100
AcDbLine
 10
-75.83237711
 20
39.3160129
 30
0.0
 11
-75.83237711
 21
11.3060947
 31
0.0
  0
LINE
  5
474
100
AcDbEntity
  8
レイヤー_1
  6
DIVIDE
 62
       3
100
AcDbLine
 10
-70.96488783
 20
11.3060947
 30
0.0
 11
-75.62050374
 21
11.3060947
 31
0.0
  0
LINE
  5
475
100
AcDbEntity
  8
レイヤー_1
  6
DIVIDE
 62
       3
100
AcDbLine
 10
-70.96488783
 20
39.3160129
 30
0.0
 11
-75.62050374
 21
39.3160129
 31
0.0
  0
LINE
  5
476
100
AcDbEntity
  8
レイヤー_1
  6
DIVIDE
 62
       3
100
AcDbLine
 10
-67.68300374
 20
27.46230061
 30
0.0
 11
-69.23544989
 21
27.17937215
 31
0.0
  0
LINE
  5
477
100
AcDbEntity
  8
レイヤー_1
  6
DIVIDE
 62
       3
100
AcDbLine
 10
-67.68300374
 20
27.46230061
 30
0.0
 11
-67.68300374
 21
30.67269897
 31
0.0
  0
LINE
  5
478
100
AcDbEntity
  8
レイヤー_1
  6
DIVIDE
 62
       3
100
AcDbLine
 10
-67.68300374
 20
30.67269897
 30
0.0
 11
-69.23544989
 21
30.95390489
 31
0.0
  0
LINE
  5
479
100
AcDbEntity
  8
レイヤー_1
  6
DIVIDE
 62
       3
100
AcDbLine
 10
-69.23544989
 20
15.96171061
 30
0.0
 11
-67.68300374
 21
15.67964342
 31
0.0
  0
LINE
  5
47A
100
AcDbEntity
  8
レイヤー_1
  6
DIVIDE
 62
       3
100
AcDbLine
 10
-67.68300374
 20
15.67964342
 30
0.0
 11
-67.68300374
 21
12.6458062
 31
0.0
  0
LINE
  5
47B
100
AcDbEntity
  8
レイヤー_1
  6
DIVIDE
 62
       3
100
AcDbLine
 10
-69.23544989
 20
34.69355604
 30
0.0
 11
-67.68300374
 21
34.9764845
 31
0.0
  0
LINE
  5
47C
100
AcDbEntity
  8
レイヤー_1
  6
DIVIDE
 62
       3
100
AcDbLine
 10
-67.68300374
 20
34.9764845
 30
0.0
 11
-67.68300374
 21
38.00946044
 31
0.0
  0
LINE
  5
47D
100
AcDbEntity
  8
レイヤー_1
  6
DIVIDE
 62
       3
100
AcDbLine
 10
-67.68300374
 20
19.94811672
 30
0.0
 11
-69.23544989
 21
19.70136176
 31
0.0
  0
LINE
  5
47E
100
AcDbEntity
  8
レイヤー_1
  6
DIVIDE
 62
       3
100
AcDbLine
 10
-67.68300374
 20
19.94811672
 30
0.0
 11
-67.68300374
 21
23.19296603
 31
0.0
  0
LINE
  5
47F
100
AcDbEntity
  8
レイヤー_1
  6
DIVIDE
 62
       3
100
AcDbLine
 10
-67.68300374
 20
23.19296603
 30
0.0
 11
-69.23544989
 21
23.44101291
 31
0.0
  0
LINE
  5
480
100
AcDbEntity
  8
レイヤー_1
  6
DIVIDE
 62
       3
100
AcDbLine
 10
-70.32883707
 20
27.10960896
 30
0.0
 11
-69.23544989
 21
27.17937215
 31
0.0
  0
LINE
  5
481
100
AcDbEntity
  8
レイヤー_1
  6
DIVIDE
 62
       3
100
AcDbLine
 10
-69.23544989
 20
23.44101291
 30
0.0
 11
-70.32883707
 21
23.51120673
 31
0.0
  0
LINE
  5
482
100
AcDbEntity
  8
レイヤー_1
  6
DIVIDE
 62
       3
100
AcDbLine
 10
-69.23544989
 20
34.69355604
 30
0.0
 11
-70.32883707
 21
34.62293158
 31
0.0
  0
LINE
  5
483
100
AcDbEntity
  8
レイヤー_1
  6
DIVIDE
 62
       3
100
AcDbLine
 10
-69.23544989
 20
30.95390489
 30
0.0
 11
-70.32883707
 21
31.02452934
 31
0.0
  0
LINE
  5
484
100
AcDbEntity
  8
レイヤー_1
  6
DIVIDE
 62
       3
100
AcDbLine
 10
-63.59109158
 20
31.05984157
 30
0.0
 11
-64.05058118
 21
30.95390489
 31
0.0
  0
LINE
  5
485
100
AcDbEntity
  8
レイヤー_1
  6
DIVIDE
 62
       3
100
AcDbLine
 10
-64.05058118
 20
30.95390489
 30
0.0
 11
-64.47303602
 21
30.67269897
 31
0.0
  0
LINE
  5
486
100
AcDbEntity
  8
レイヤー_1
  6
DIVIDE
 62
       3
100
AcDbLine
 10
-64.47303602
 20
30.67269897
 30
0.0
 11
-64.47303602
 21
27.46230061
 31
0.0
  0
LINE
  5
487
100
AcDbEntity
  8
レイヤー_1
  6
DIVIDE
 62
       3
100
AcDbLine
 10
-64.47303602
 20
27.46230061
 30
0.0
 11
-64.05058118
 21
27.17937215
 31
0.0
  0
LINE
  5
488
100
AcDbEntity
  8
レイヤー_1
  6
DIVIDE
 62
       3
100
AcDbLine
 10
-63.59109158
 20
27.07429673
 30
0.0
 11
-64.05058118
 21
27.17937215
 31
0.0
  0
LINE
  5
489
100
AcDbEntity
  8
レイヤー_1
  6
DIVIDE
 62
       3
100
AcDbLine
 10
-69.23544989
 20
15.96171061
 30
0.0
 11
-70.32883707
 21
16.03233507
 31
0.0
  0
LINE
  5
48A
100
AcDbEntity
  8
レイヤー_1
  6
DIVIDE
 62
       3
100
AcDbLine
 10
-64.05058118
 20
15.96171061
 30
0.0
 11
-63.59109158
 21
16.06678602
 31
0.0
  0
LINE
  5
48B
100
AcDbEntity
  8
レイヤー_1
  6
DIVIDE
 62
       3
100
AcDbLine
 10
-64.05058118
 20
15.96171061
 30
0.0
 11
-64.47303602
 21
15.67964342
 31
0.0
  0
LINE
  5
48C
100
AcDbEntity
  8
レイヤー_1
  6
DIVIDE
 62
       3
100
AcDbLine
 10
-64.47303602
 20
12.6458062
 30
0.0
 11
-64.47303602
 21
15.67964342
 31
0.0
  0
LINE
  5
48D
100
AcDbEntity
  8
レイヤー_1
  6
DIVIDE
 62
       3
100
AcDbLine
 10
-70.32883707
 20
12.53900824
 30
0.0
 11
-67.68300374
 21
12.6458062
 31
0.0
  0
LINE
  5
48E
100
AcDbEntity
  8
レイヤー_1
  6
DIVIDE
 62
       3
100
AcDbLine
 10
-67.68300374
 20
12.6458062
 30
0.0
 11
-64.47303602
 21
12.6458062
 31
0.0
  0
LINE
  5
48F
100
AcDbEntity
  8
レイヤー_1
  6
DIVIDE
 62
       3
100
AcDbLine
 10
-64.47303602
 20
12.6458062
 30
0.0
 11
-63.59109158
 21
12.50455729
 31
0.0
  0
LINE
  5
490
100
AcDbEntity
  8
レイヤー_1
  6
DIVIDE
 62
       3
100
AcDbLine
 10
-64.47303602
 20
38.00946044
 30
0.0
 11
-64.47303602
 21
34.9764845
 31
0.0
  0
LINE
  5
491
100
AcDbEntity
  8
レイヤー_1
  6
DIVIDE
 62
       3
100
AcDbLine
 10
-64.47303602
 20
34.9764845
 30
0.0
 11
-64.05058118
 21
34.69355604
 31
0.0
  0
LINE
  5
492
100
AcDbEntity
  8
レイヤー_1
  6
DIVIDE
 62
       3
100
AcDbLine
 10
-63.59109158
 20
34.58761935
 30
0.0
 11
-64.05058118
 21
34.69355604
 31
0.0
  0
LINE
  5
493
100
AcDbEntity
  8
レイヤー_1
  6
DIVIDE
 62
       3
100
AcDbLine
 10
-70.32883707
 20
38.11539713
 30
0.0
 11
-67.68300374
 21
38.00946044
 31
0.0
  0
LINE
  5
494
100
AcDbEntity
  8
レイヤー_1
  6
DIVIDE
 62
       3
100
AcDbLine
 10
-67.68300374
 20
38.00946044
 30
0.0
 11
-64.47303602
 21
38.00946044
 31
0.0
  0
LINE
  5
495
100
AcDbEntity
  8
レイヤー_1
  6
DIVIDE
 62
       3
100
AcDbLine
 10
-64.47303602
 20
38.00946044
 30
0.0
 11
-63.59109158
 21
38.11539713
 31
0.0
  0
LINE
  5
496
100
AcDbEntity
  8
レイヤー_1
  6
DIVIDE
 62
       3
100
AcDbLine
 10
-63.59109158
 20
23.54651896
 30
0.0
 11
-64.05058118
 21
23.44101291
 31
0.0
  0
LINE
  5
497
100
AcDbEntity
  8
レイヤー_1
  6
DIVIDE
 62
       3
100
AcDbLine
 10
-64.05058118
 20
23.44101291
 30
0.0
 11
-64.47303602
 21
23.19296603
 31
0.0
  0
LINE
  5
498
100
AcDbEntity
  8
レイヤー_1
  6
DIVIDE
 62
       3
100
AcDbLine
 10
-64.47303602
 20
23.19296603
 30
0.0
 11
-64.47303602
 21
19.94811672
 31
0.0
  0
LINE
  5
499
100
AcDbEntity
  8
レイヤー_1
  6
DIVIDE
 62
       3
100
AcDbLine
 10
-64.47303602
 20
19.94811672
 30
0.0
 11
-64.05058118
 21
19.70136176
 31
0.0
  0
LINE
  5
49A
100
AcDbEntity
  8
レイヤー_1
  6
DIVIDE
 62
       3
100
AcDbLine
 10
-63.59109158
 20
19.5945638
 30
0.0
 11
-64.05058118
 21
19.70136176
 31
0.0
  0
LINE
  5
49B
100
AcDbEntity
  8
レイヤー_1
  6
DIVIDE
 62
       3
100
AcDbLine
 10
-70.32883707
 20
19.6307373
 30
0.0
 11
-69.23544989
 21
19.70136176
 31
0.0
  0
LINE
  5
49C
100
AcDbEntity
  8
レイヤー_1
  6
DIVIDE
 62
       3
100
AcDbLine
 10
-70.96488783
 20
11.3060947
 30
0.0
 11
-70.92871433
 21
11.3060947
 31
0.0
  0
LINE
  5
49D
100
AcDbEntity
  8
レイヤー_1
  6
DIVIDE
 62
       3
100
AcDbLine
 10
-70.92871433
 20
11.3060947
 30
0.0
 11
-70.89426337
 21
11.3060947
 31
0.0
  0
LINE
  5
49E
100
AcDbEntity
  8
レイヤー_1
  6
DIVIDE
 62
       3
100
AcDbLine
 10
-70.89426337
 20
11.3060947
 30
0.0
 11
-70.85808986
 21
11.3060947
 31
0.0
  0
LINE
  5
49F
100
AcDbEntity
  8
レイヤー_1
  6
DIVIDE
 62
       3
100
AcDbLine
 10
-70.85808986
 20
11.3060947
 30
0.0
 11
-70.78832668
 21
11.3060947
 31
0.0
  0
LINE
  5
4A0
100
AcDbEntity
  8
レイヤー_1
  6
DIVIDE
 62
       3
100
AcDbLine
 10
-70.78832668
 20
11.3060947
 30
0.0
 11
-70.75301445
 21
11.3060947
 31
0.0
  0
LINE
  5
4A1
100
AcDbEntity
  8
レイヤー_1
  6
DIVIDE
 62
       3
100
AcDbLine
 10
-70.75301445
 20
39.3160129
 30
0.0
 11
-70.78832668
 21
39.3160129
 31
0.0
  0
LINE
  5
4A2
100
AcDbEntity
  8
レイヤー_1
  6
DIVIDE
 62
       3
100
AcDbLine
 10
-70.78832668
 20
39.3160129
 30
0.0
 11
-70.85808986
 21
39.3160129
 31
0.0
  0
LINE
  5
4A3
100
AcDbEntity
  8
レイヤー_1
  6
DIVIDE
 62
       3
100
AcDbLine
 10
-70.85808986
 20
39.3160129
 30
0.0
 11
-70.89426337
 21
39.3160129
 31
0.0
  0
LINE
  5
4A4
100
AcDbEntity
  8
レイヤー_1
  6
DIVIDE
 62
       3
100
AcDbLine
 10
-70.89426337
 20
39.3160129
 30
0.0
 11
-70.92871433
 21
39.3160129
 31
0.0
  0
LINE
  5
4A5
100
AcDbEntity
  8
レイヤー_1
  6
DIVIDE
 62
       3
100
AcDbLine
 10
-70.92871433
 20
39.3160129
 30
0.0
 11
-70.96488783
 21
39.3160129
 31
0.0
  0
LINE
  5
4A6
100
AcDbEntity
  8
レイヤー_1
  6
DIVIDE
 62
       3
100
AcDbLine
 10
-70.96488783
 20
39.3160129
 30
0.0
 11
-70.96488783
 21
11.3060947
 31
0.0
  0
LINE
  5
4A7
100
AcDbEntity
  8
レイヤー_1
  6
DIVIDE
 62
       3
100
AcDbLine
 10
-61.58001709
 20
11.3060947
 30
0.0
 11
-70.75301445
 21
11.3060947
 31
0.0
  0
LINE
  5
4A8
100
AcDbEntity
  8
レイヤー_1
  6
DIVIDE
 62
       3
100
AcDbLine
 10
-63.59109158
 20
31.05984157
 30
0.0
 11
-63.59109158
 21
27.07429673
 31
0.0
  0
LINE
  5
4A9
100
AcDbEntity
  8
レイヤー_1
  6
DIVIDE
 62
       3
100
AcDbLine
 10
-63.59109158
 20
27.07429673
 30
0.0
 11
-70.32883707
 21
27.07429673
 31
0.0
  0
LINE
  5
4AA
100
AcDbEntity
  8
レイヤー_1
  6
DIVIDE
 62
       3
100
AcDbLine
 10
-70.32883707
 20
27.07429673
 30
0.0
 11
-70.32883707
 21
31.05984157
 31
0.0
  0
LINE
  5
4AB
100
AcDbEntity
  8
レイヤー_1
  6
DIVIDE
 62
       3
100
AcDbLine
 10
-70.32883707
 20
31.05984157
 30
0.0
 11
-63.59109158
 21
31.05984157
 31
0.0
  0
LINE
  5
4AC
100
AcDbEntity
  8
レイヤー_1
  6
DIVIDE
 62
       3
100
AcDbLine
 10
-70.32883707
 20
34.58761935
 30
0.0
 11
-70.32883707
 21
38.11539713
 31
0.0
  0
LINE
  5
4AD
100
AcDbEntity
  8
レイヤー_1
  6
DIVIDE
 62
       3
100
AcDbLine
 10
-70.32883707
 20
38.11539713
 30
0.0
 11
-63.59109158
 21
38.11539713
 31
0.0
  0
LINE
  5
4AE
100
AcDbEntity
  8
レイヤー_1
  6
DIVIDE
 62
       3
100
AcDbLine
 10
-63.59109158
 20
38.11539713
 30
0.0
 11
-63.59109158
 21
34.58761935
 31
0.0
  0
LINE
  5
4AF
100
AcDbEntity
  8
レイヤー_1
  6
DIVIDE
 62
       3
100
AcDbLine
 10
-63.59109158
 20
34.58761935
 30
0.0
 11
-70.32883707
 21
34.58761935
 31
0.0
  0
LINE
  5
4B0
100
AcDbEntity
  8
レイヤー_1
  6
DIVIDE
 62
       3
100
AcDbLine
 10
-61.58001709
 20
39.3160129
 30
0.0
 11
-61.58001709
 21
11.3060947
 31
0.0
  0
LINE
  5
4B1
100
AcDbEntity
  8
レイヤー_1
  6
DIVIDE
 62
       3
100
AcDbLine
 10
-61.58001709
 20
39.3160129
 30
0.0
 11
-70.75301445
 21
39.3160129
 31
0.0
  0
LINE
  5
4B2
100
AcDbEntity
  8
レイヤー_1
  6
DIVIDE
 62
       3
100
AcDbLine
 10
-63.59109158
 20
16.06678602
 30
0.0
 11
-63.59109158
 21
12.50455729
 31
0.0
  0
LINE
  5
4B3
100
AcDbEntity
  8
レイヤー_1
  6
DIVIDE
 62
       3
100
AcDbLine
 10
-63.59109158
 20
12.50455729
 30
0.0
 11
-70.32883707
 21
12.50455729
 31
0.0
  0
LINE
  5
4B4
100
AcDbEntity
  8
レイヤー_1
  6
DIVIDE
 62
       3
100
AcDbLine
 10
-70.32883707
 20
12.50455729
 30
0.0
 11
-70.32883707
 21
16.06678602
 31
0.0
  0
LINE
  5
4B5
100
AcDbEntity
  8
レイヤー_1
  6
DIVIDE
 62
       3
100
AcDbLine
 10
-70.32883707
 20
16.06678602
 30
0.0
 11
-63.59109158
 21
16.06678602
 31
0.0
  0
LINE
  5
4B6
100
AcDbEntity
  8
レイヤー_1
  6
DIVIDE
 62
       3
100
AcDbLine
 10
-63.59109158
 20
23.54651896
 30
0.0
 11
-63.59109158
 21
19.5945638
 31
0.0
  0
LINE
  5
4B7
100
AcDbEntity
  8
レイヤー_1
  6
DIVIDE
 62
       3
100
AcDbLine
 10
-63.59109158
 20
19.5945638
 30
0.0
 11
-70.32883707
 21
19.5945638
 31
0.0
  0
LINE
  5
4B8
100
AcDbEntity
  8
レイヤー_1
  6
DIVIDE
 62
       3
100
AcDbLine
 10
-70.32883707
 20
19.5945638
 30
0.0
 11
-70.32883707
 21
23.54651896
 31
0.0
  0
LINE
  5
4B9
100
AcDbEntity
  8
レイヤー_1
  6
DIVIDE
 62
       3
100
AcDbLine
 10
-70.32883707
 20
23.54651896
 30
0.0
 11
-63.59109158
 21
23.54651896
 31
0.0
  0
LINE
  5
4BA
100
AcDbEntity
  8
レイヤー_1
  6
DIVIDE
 62
       3
100
AcDbLine
 10
-102.22094726
 20
-18.6111145
 30
0.0
 11
-102.07969834
 21
-18.6111145
 31
0.0
  0
LINE
  5
4BB
100
AcDbEntity
  8
レイヤー_1
  6
DIVIDE
 62
       3
100
AcDbLine
 10
-102.07969834
 20
1.35708957
 30
0.0
 11
-102.22094726
 21
1.35708957
 31
0.0
  0
LINE
  5
4BC
100
AcDbEntity
  8
レイヤー_1
  6
DIVIDE
 62
       3
100
AcDbLine
 10
-102.22094726
 20
-18.6111145
 30
0.0
 11
-102.22094726
 21
1.35708957
 31
0.0
  0
LINE
  5
4BD
100
AcDbEntity
  8
レイヤー_1
  6
DIVIDE
 62
       3
100
AcDbLine
 10
-102.22094726
 20
1.35708957
 30
0.0
 11
-102.07969834
 21
1.35708957
 31
0.0
  0
LINE
  5
4BE
100
AcDbEntity
  8
レイヤー_1
  6
DIVIDE
 62
       3
100
AcDbLine
 10
-102.07969834
 20
21.35845269
 30
0.0
 11
-102.22094726
 21
21.35845269
 31
0.0
  0
LINE
  5
4BF
100
AcDbEntity
  8
レイヤー_1
  6
DIVIDE
 62
       3
100
AcDbLine
 10
-102.22094726
 20
1.35708957
 30
0.0
 11
-102.22094726
 21
21.35845269
 31
0.0
  0
LINE
  5
4C0
100
AcDbEntity
  8
レイヤー_1
  6
DIVIDE
 62
       3
100
AcDbLine
 10
-102.07969834
 20
25.55673217
 30
0.0
 11
-102.22094726
 21
25.55673217
 31
0.0
  0
LINE
  5
4C1
100
AcDbEntity
  8
レイヤー_1
  6
DIVIDE
 62
       3
100
AcDbLine
 10
-102.07969834
 20
40.58466932
 30
0.0
 11
-102.22094726
 21
40.58466932
 31
0.0
  0
LINE
  5
4C2
100
AcDbEntity
  8
レイヤー_1
  6
DIVIDE
 62
       3
100
AcDbLine
 10
-102.22094726
 20
25.55673217
 30
0.0
 11
-102.22094726
 21
40.58466932
 31
0.0
  0
LINE
  5
4C3
100
AcDbEntity
  8
レイヤー_1
  6
DIVIDE
 62
       3
100
AcDbLine
 10
-87.26320392
 20
1.35708957
 30
0.0
 11
-87.22703043
 21
1.35708957
 31
0.0
  0
LINE
  5
4C4
100
AcDbEntity
  8
レイヤー_1
  6
DIVIDE
 62
       3
100
AcDbLine
 10
-87.22703043
 20
1.35708957
 30
0.0
 11
-87.19257947
 21
1.35708957
 31
0.0
  0
LINE
  5
4C5
100
AcDbEntity
  8
レイヤー_1
  6
DIVIDE
 62
       3
100
AcDbLine
 10
-87.19257947
 20
1.35708957
 30
0.0
 11
-87.15640597
 21
1.35708957
 31
0.0
  0
LINE
  5
4C6
100
AcDbEntity
  8
レイヤー_1
  6
DIVIDE
 62
       3
100
AcDbLine
 10
-87.15640597
 20
1.35708957
 30
0.0
 11
-87.12195501
 21
1.35708957
 31
0.0
  0
LINE
  5
4C7
100
AcDbEntity
  8
レイヤー_1
  6
DIVIDE
 62
       3
100
AcDbLine
 10
-87.12195501
 20
1.35708957
 30
0.0
 11
-87.08578151
 21
1.35708957
 31
0.0
  0
LINE
  5
4C8
100
AcDbEntity
  8
レイヤー_1
  6
DIVIDE
 62
       3
100
AcDbLine
 10
-87.26320392
 20
-18.6111145
 30
0.0
 11
-87.22703043
 21
-18.6111145
 31
0.0
  0
LINE
  5
4C9
100
AcDbEntity
  8
レイヤー_1
  6
DIVIDE
 62
       3
100
AcDbLine
 10
-87.22703043
 20
-18.6111145
 30
0.0
 11
-87.19257947
 21
-18.6111145
 31
0.0
  0
LINE
  5
4CA
100
AcDbEntity
  8
レイヤー_1
  6
DIVIDE
 62
       3
100
AcDbLine
 10
-87.19257947
 20
-18.6111145
 30
0.0
 11
-87.15640597
 21
-18.6111145
 31
0.0
  0
LINE
  5
4CB
100
AcDbEntity
  8
レイヤー_1
  6
DIVIDE
 62
       3
100
AcDbLine
 10
-87.15640597
 20
-18.6111145
 30
0.0
 11
-87.12195501
 21
-18.6111145
 31
0.0
  0
LINE
  5
4CC
100
AcDbEntity
  8
レイヤー_1
  6
DIVIDE
 62
       3
100
AcDbLine
 10
-87.12195501
 20
-18.6111145
 30
0.0
 11
-87.08578151
 21
-18.6111145
 31
0.0
  0
LINE
  5
4CD
100
AcDbEntity
  8
レイヤー_1
  6
DIVIDE
 62
       3
100
AcDbLine
 10
-87.08578151
 20
1.35708957
 30
0.0
 11
-87.08578151
 21
-18.6111145
 31
0.0
  0
LINE
  5
4CE
100
AcDbEntity
  8
レイヤー_1
  6
DIVIDE
 62
       3
100
AcDbLine
 10
-87.82690768
 20
1.35708957
 30
0.0
 11
-88.03835041
 21
1.35708957
 31
0.0
  0
LINE
  5
4CF
100
AcDbEntity
  8
レイヤー_1
  6
DIVIDE
 62
       3
100
AcDbLine
 10
-88.03835041
 20
-18.6111145
 30
0.0
 11
-87.82690768
 21
-18.6111145
 31
0.0
  0
LINE
  5
4D0
100
AcDbEntity
  8
レイヤー_1
  6
DIVIDE
 62
       3
100
AcDbLine
 10
-87.26320392
 20
1.35708957
 30
0.0
 11
-87.82690768
 21
1.35708957
 31
0.0
  0
LINE
  5
4D1
100
AcDbEntity
  8
レイヤー_1
  6
DIVIDE
 62
       3
100
AcDbLine
 10
-87.82690768
 20
-18.6111145
 30
0.0
 11
-87.26320392
 21
-18.6111145
 31
0.0
  0
LINE
  5
4D2
100
AcDbEntity
  8
レイヤー_1
  6
DIVIDE
 62
       3
100
AcDbLine
 10
-87.82690768
 20
-18.6111145
 30
0.0
 11
-87.82690768
 21
1.35708957
 31
0.0
  0
LINE
  5
4D3
100
AcDbEntity
  8
レイヤー_1
  6
DIVIDE
 62
       3
100
AcDbLine
 10
-92.69525823
 20
1.35708957
 30
0.0
 11
-88.03835041
 21
1.35708957
 31
0.0
  0
LINE
  5
4D4
100
AcDbEntity
  8
レイヤー_1
  6
DIVIDE
 62
       3
100
AcDbLine
 10
-88.03835041
 20
-18.6111145
 30
0.0
 11
-92.69525823
 21
-18.6111145
 31
0.0
  0
LINE
  5
4D5
100
AcDbEntity
  8
レイヤー_1
  6
DIVIDE
 62
       3
100
AcDbLine
 10
-95.97671168
 20
0.29686144
 30
0.0
 11
-95.97671168
 21
-2.7361145
 31
0.0
  0
LINE
  5
4D6
100
AcDbEntity
  8
レイヤー_1
  6
DIVIDE
 62
       3
100
AcDbLine
 10
-95.97671168
 20
-2.7361145
 30
0.0
 11
-94.42469617
 21
-3.0194736
 31
0.0
  0
LINE
  5
4D7
100
AcDbEntity
  8
レイヤー_1
  6
DIVIDE
 62
       3
100
AcDbLine
 10
-95.97671168
 20
-9.50960286
 30
0.0
 11
-94.42469617
 21
-9.26327853
 31
0.0
  0
LINE
  5
4D8
100
AcDbEntity
  8
レイヤー_1
  6
DIVIDE
 62
       3
100
AcDbLine
 10
-95.97671168
 20
-9.50960286
 30
0.0
 11
-95.97671168
 21
-12.75488281
 31
0.0
  0
LINE
  5
4D9
100
AcDbEntity
  8
レイヤー_1
  6
DIVIDE
 62
       3
100
AcDbLine
 10
-94.42469617
 20
-13.00292968
 30
0.0
 11
-95.97671168
 21
-12.75488281
 31
0.0
  0
LINE
  5
4DA
100
AcDbEntity
  8
レイヤー_1
  6
DIVIDE
 62
       3
100
AcDbLine
 10
-95.97671168
 20
-4.53445434
 30
0.0
 11
-94.42469617
 21
-4.2541097
 31
0.0
  0
LINE
  5
4DB
100
AcDbEntity
  8
レイヤー_1
  6
DIVIDE
 62
       3
100
AcDbLine
 10
-95.97671168
 20
-4.53445434
 30
0.0
 11
-95.97671168
 21
-7.74571397
 31
0.0
  0
LINE
  5
4DC
100
AcDbEntity
  8
レイヤー_1
  6
DIVIDE
 62
       3
100
AcDbLine
 10
-94.42469617
 20
-7.99333021
 30
0.0
 11
-95.97671168
 21
-7.74571397
 31
0.0
  0
LINE
  5
4DD
100
AcDbEntity
  8
レイヤー_1
  6
DIVIDE
 62
       3
100
AcDbLine
 10
-95.97671168
 20
-14.5187717
 30
0.0
 11
-94.42469617
 21
-14.23584323
 31
0.0
  0
LINE
  5
4DE
100
AcDbEntity
  8
レイヤー_1
  6
DIVIDE
 62
       3
100
AcDbLine
 10
-95.97671168
 20
-14.5187717
 30
0.0
 11
-95.97671168
 21
-17.55390082
 31
0.0
  0
LINE
  5
4DF
100
AcDbEntity
  8
レイヤー_1
  6
DIVIDE
 62
       3
100
AcDbLine
 10
-99.18624877
 20
-12.75488281
 30
0.0
 11
-99.61042615
 21
-13.00292968
 31
0.0
  0
LINE
  5
4E0
100
AcDbEntity
  8
レイヤー_1
  6
DIVIDE
 62
       3
100
AcDbLine
 10
-99.18624877
 20
-12.75488281
 30
0.0
 11
-99.18624877
 21
-9.50960286
 31
0.0
  0
LINE
  5
4E1
100
AcDbEntity
  8
レイヤー_1
  6
DIVIDE
 62
       3
100
AcDbLine
 10
-99.18624877
 20
-9.50960286
 30
0.0
 11
-99.61042615
 21
-9.26327853
 31
0.0
  0
LINE
  5
4E2
100
AcDbEntity
  8
レイヤー_1
  6
DIVIDE
 62
       3
100
AcDbLine
 10
-92.87138875
 20
1.35708957
 30
0.0
 11
-92.83693779
 21
1.35708957
 31
0.0
  0
LINE
  5
4E3
100
AcDbEntity
  8
レイヤー_1
  6
DIVIDE
 62
       3
100
AcDbLine
 10
-92.83693779
 20
1.35708957
 30
0.0
 11
-92.80162556
 21
1.35708957
 31
0.0
  0
LINE
  5
4E4
100
AcDbEntity
  8
レイヤー_1
  6
DIVIDE
 62
       3
100
AcDbLine
 10
-92.80162556
 20
1.35708957
 30
0.0
 11
-92.76631332
 21
1.35708957
 31
0.0
  0
LINE
  5
4E5
100
AcDbEntity
  8
レイヤー_1
  6
DIVIDE
 62
       3
100
AcDbLine
 10
-92.76631332
 20
1.35708957
 30
0.0
 11
-92.73143174
 21
1.35708957
 31
0.0
  0
LINE
  5
4E6
100
AcDbEntity
  8
レイヤー_1
  6
DIVIDE
 62
       3
100
AcDbLine
 10
-92.73143174
 20
1.35708957
 30
0.0
 11
-92.69525823
 21
1.35708957
 31
0.0
  0
LINE
  5
4E7
100
AcDbEntity
  8
レイヤー_1
  6
DIVIDE
 62
       3
100
AcDbLine
 10
-92.87138875
 20
-18.6111145
 30
0.0
 11
-92.83693779
 21
-18.6111145
 31
0.0
  0
LINE
  5
4E8
100
AcDbEntity
  8
レイヤー_1
  6
DIVIDE
 62
       3
100
AcDbLine
 10
-92.83693779
 20
-18.6111145
 30
0.0
 11
-92.80162556
 21
-18.6111145
 31
0.0
  0
LINE
  5
4E9
100
AcDbEntity
  8
レイヤー_1
  6
DIVIDE
 62
       3
100
AcDbLine
 10
-92.80162556
 20
-18.6111145
 30
0.0
 11
-92.76631332
 21
-18.6111145
 31
0.0
  0
LINE
  5
4EA
100
AcDbEntity
  8
レイヤー_1
  6
DIVIDE
 62
       3
100
AcDbLine
 10
-92.76631332
 20
-18.6111145
 30
0.0
 11
-92.73143174
 21
-18.6111145
 31
0.0
  0
LINE
  5
4EB
100
AcDbEntity
  8
レイヤー_1
  6
DIVIDE
 62
       3
100
AcDbLine
 10
-92.73143174
 20
-18.6111145
 30
0.0
 11
-92.69525823
 21
-18.6111145
 31
0.0
  0
LINE
  5
4EC
100
AcDbEntity
  8
レイヤー_1
  6
DIVIDE
 62
       3
100
AcDbLine
 10
-92.69525823
 20
-18.6111145
 30
0.0
 11
-92.69525823
 21
1.35708957
 31
0.0
  0
LINE
  5
4ED
100
AcDbEntity
  8
レイヤー_1
  6
DIVIDE
 62
       3
100
AcDbLine
 10
-99.18624877
 20
-7.74571397
 30
0.0
 11
-99.61042615
 21
-7.99333021
 31
0.0
  0
LINE
  5
4EE
100
AcDbEntity
  8
レイヤー_1
  6
DIVIDE
 62
       3
100
AcDbLine
 10
-99.18624877
 20
-7.74571397
 30
0.0
 11
-99.18624877
 21
-4.53445434
 31
0.0
  0
LINE
  5
4EF
100
AcDbEntity
  8
レイヤー_1
  6
DIVIDE
 62
       3
100
AcDbLine
 10
-99.18624877
 20
-4.53445434
 30
0.0
 11
-99.61042615
 21
-4.2541097
 31
0.0
  0
LINE
  5
4F0
100
AcDbEntity
  8
レイヤー_1
  6
DIVIDE
 62
       3
100
AcDbLine
 10
-99.18624877
 20
-17.55390082
 30
0.0
 11
-99.18624877
 21
-14.5187717
 31
0.0
  0
LINE
  5
4F1
100
AcDbEntity
  8
レイヤー_1
  6
DIVIDE
 62
       3
100
AcDbLine
 10
-99.18624877
 20
-14.5187717
 30
0.0
 11
-99.61042615
 21
-14.23584323
 31
0.0
  0
LINE
  5
4F2
100
AcDbEntity
  8
レイヤー_1
  6
DIVIDE
 62
       3
100
AcDbLine
 10
-99.18624877
 20
-2.7361145
 30
0.0
 11
-99.61042615
 21
-3.0194736
 31
0.0
  0
LINE
  5
4F3
100
AcDbEntity
  8
レイヤー_1
  6
DIVIDE
 62
       3
100
AcDbLine
 10
-99.18624877
 20
-2.7361145
 30
0.0
 11
-99.18624877
 21
0.29686144
 31
0.0
  0
LINE
  5
4F4
100
AcDbEntity
  8
レイヤー_1
  6
DIVIDE
 62
       3
100
AcDbLine
 10
-100.06819321
 20
-9.15691121
 30
0.0
 11
-99.61042615
 21
-9.26327853
 31
0.0
  0
LINE
  5
4F5
100
AcDbEntity
  8
レイヤー_1
  6
DIVIDE
 62
       3
100
AcDbLine
 10
-93.33087835
 20
-9.19308471
 30
0.0
 11
-94.42469617
 21
-9.26327853
 31
0.0
  0
LINE
  5
4F6
100
AcDbEntity
  8
レイヤー_1
  6
DIVIDE
 62
       3
100
AcDbLine
 10
-100.06819321
 20
-13.1080051
 30
0.0
 11
-99.61042615
 21
-13.00292968
 31
0.0
  0
LINE
  5
4F7
100
AcDbEntity
  8
レイヤー_1
  6
DIVIDE
 62
       3
100
AcDbLine
 10
-94.42469617
 20
-13.00292968
 30
0.0
 11
-93.33087835
 21
-13.07355414
 31
0.0
  0
LINE
  5
4F8
100
AcDbEntity
  8
レイヤー_1
  6
DIVIDE
 62
       3
100
AcDbLine
 10
-100.06819321
 20
-8.09840562
 30
0.0
 11
-99.61042615
 21
-7.99333021
 31
0.0
  0
LINE
  5
4F9
100
AcDbEntity
  8
レイヤー_1
  6
DIVIDE
 62
       3
100
AcDbLine
 10
-94.42469617
 20
-7.99333021
 30
0.0
 11
-93.33087835
 21
-8.06223212
 31
0.0
  0
LINE
  5
4FA
100
AcDbEntity
  8
レイヤー_1
  6
DIVIDE
 62
       3
100
AcDbLine
 10
-100.06819321
 20
-4.14731174
 30
0.0
 11
-99.61042615
 21
-4.2541097
 31
0.0
  0
LINE
  5
4FB
100
AcDbEntity
  8
レイヤー_1
  6
DIVIDE
 62
       3
100
AcDbLine
 10
-93.33087835
 20
-4.18348524
 30
0.0
 11
-94.42469617
 21
-4.2541097
 31
0.0
  0
LINE
  5
4FC
100
AcDbEntity
  8
レイヤー_1
  6
DIVIDE
 62
       3
100
AcDbLine
 10
-100.06819321
 20
-3.12411838
 30
0.0
 11
-99.61042615
 21
-3.0194736
 31
0.0
  0
LINE
  5
4FD
100
AcDbEntity
  8
レイヤー_1
  6
DIVIDE
 62
       3
100
AcDbLine
 10
-93.33087835
 20
-3.08966742
 30
0.0
 11
-94.42469617
 21
-3.0194736
 31
0.0
  0
LINE
  5
4FE
100
AcDbEntity
  8
レイヤー_1
  6
DIVIDE
 62
       3
100
AcDbLine
 10
-100.06819321
 20
-14.13076782
 30
0.0
 11
-99.61042615
 21
-14.23584323
 31
0.0
  0
LINE
  5
4FF
100
AcDbEntity
  8
レイヤー_1
  6
DIVIDE
 62
       3
100
AcDbLine
 10
-93.33087835
 20
-14.16694132
 30
0.0
 11
-94.42469617
 21
-14.23584323
 31
0.0
  0
LINE
  5
500
100
AcDbEntity
  8
レイヤー_1
  6
DIVIDE
 62
       3
100
AcDbLine
 10
-95.97671168
 20
0.29686144
 30
0.0
 11
-93.33087835
 21
0.40452067
 31
0.0
  0
LINE
  5
501
100
AcDbEntity
  8
レイヤー_1
  6
DIVIDE
 62
       3
100
AcDbLine
 10
-100.06819321
 20
0.43811035
 30
0.0
 11
-99.18624877
 21
0.29686144
 31
0.0
  0
LINE
  5
502
100
AcDbEntity
  8
レイヤー_1
  6
DIVIDE
 62
       3
100
AcDbLine
 10
-99.18624877
 20
0.29686144
 30
0.0
 11
-95.97671168
 21
0.29686144
 31
0.0
  0
LINE
  5
503
100
AcDbEntity
  8
レイヤー_1
  6
DIVIDE
 62
       3
100
AcDbLine
 10
-100.06819321
 20
-3.12411838
 30
0.0
 11
-100.06819321
 21
0.43811035
 31
0.0
  0
LINE
  5
504
100
AcDbEntity
  8
レイヤー_1
  6
DIVIDE
 62
       3
100
AcDbLine
 10
-100.06819321
 20
0.43811035
 30
0.0
 11
-93.33087835
 21
0.43811035
 31
0.0
  0
LINE
  5
505
100
AcDbEntity
  8
レイヤー_1
  6
DIVIDE
 62
       3
100
AcDbLine
 10
-93.33087835
 20
0.43811035
 30
0.0
 11
-93.33087835
 21
-3.12411838
 31
0.0
  0
LINE
  5
506
100
AcDbEntity
  8
レイヤー_1
  6
DIVIDE
 62
       3
100
AcDbLine
 10
-93.33087835
 20
-3.12411838
 30
0.0
 11
-100.06819321
 21
-3.12411838
 31
0.0
  0
LINE
  5
507
100
AcDbEntity
  8
レイヤー_1
  6
DIVIDE
 62
       3
100
AcDbLine
 10
-100.06819321
 20
-8.09840562
 30
0.0
 11
-100.06819321
 21
-4.14731174
 31
0.0
  0
LINE
  5
508
100
AcDbEntity
  8
レイヤー_1
  6
DIVIDE
 62
       3
100
AcDbLine
 10
-100.06819321
 20
-4.14731174
 30
0.0
 11
-93.33087835
 21
-4.14731174
 31
0.0
  0
LINE
  5
509
100
AcDbEntity
  8
レイヤー_1
  6
DIVIDE
 62
       3
100
AcDbLine
 10
-93.33087835
 20
-4.14731174
 30
0.0
 11
-93.33087835
 21
-8.09840562
 31
0.0
  0
LINE
  5
50A
100
AcDbEntity
  8
レイヤー_1
  6
DIVIDE
 62
       3
100
AcDbLine
 10
-93.33087835
 20
-8.09840562
 30
0.0
 11
-100.06819321
 21
-8.09840562
 31
0.0
  0
LINE
  5
50B
100
AcDbEntity
  8
レイヤー_1
  6
DIVIDE
 62
       3
100
AcDbLine
 10
-100.06819321
 20
-13.1080051
 30
0.0
 11
-100.06819321
 21
-9.15691121
 31
0.0
  0
LINE
  5
50C
100
AcDbEntity
  8
レイヤー_1
  6
DIVIDE
 62
       3
100
AcDbLine
 10
-100.06819321
 20
-9.15691121
 30
0.0
 11
-93.33087835
 21
-9.15691121
 31
0.0
  0
LINE
  5
50D
100
AcDbEntity
  8
レイヤー_1
  6
DIVIDE
 62
       3
100
AcDbLine
 10
-93.33087835
 20
-9.15691121
 30
0.0
 11
-93.33087835
 21
-13.1080051
 31
0.0
  0
LINE
  5
50E
100
AcDbEntity
  8
レイヤー_1
  6
DIVIDE
 62
       3
100
AcDbLine
 10
-93.33087835
 20
-13.1080051
 30
0.0
 11
-100.06819321
 21
-13.1080051
 31
0.0
  0
LINE
  5
50F
100
AcDbEntity
  8
レイヤー_1
  6
DIVIDE
 62
       3
100
AcDbLine
 10
-100.06819321
 20
-17.6947191
 30
0.0
 11
-100.06819321
 21
-14.13076782
 31
0.0
  0
LINE
  5
510
100
AcDbEntity
  8
レイヤー_1
  6
DIVIDE
 62
       3
100
AcDbLine
 10
-100.06819321
 20
-14.13076782
 30
0.0
 11
-93.33087835
 21
-14.13076782
 31
0.0
  0
LINE
  5
511
100
AcDbEntity
  8
レイヤー_1
  6
DIVIDE
 62
       3
100
AcDbLine
 10
-93.33087835
 20
-14.13076782
 30
0.0
 11
-93.33087835
 21
-17.6947191
 31
0.0
  0
LINE
  5
512
100
AcDbEntity
  8
レイヤー_1
  6
DIVIDE
 62
       3
100
AcDbLine
 10
-92.87138875
 20
-18.6111145
 30
0.0
 11
-102.07969834
 21
-18.6111145
 31
0.0
  0
LINE
  5
513
100
AcDbEntity
  8
レイヤー_1
  6
DIVIDE
 62
       3
100
AcDbLine
 10
-102.07969834
 20
1.35708957
 30
0.0
 11
-92.87138875
 21
1.35708957
 31
0.0
  0
LINE
  5
514
100
AcDbEntity
  8
レイヤー_1
  6
DIVIDE
 62
       3
100
AcDbLine
 10
-93.33087835
 20
-17.65854559
 30
0.0
 11
-95.97671168
 21
-17.55390082
 31
0.0
  0
LINE
  5
515
100
AcDbEntity
  8
レイヤー_1
  6
DIVIDE
 62
       3
100
AcDbLine
 10
-95.97671168
 20
-17.55390082
 30
0.0
 11
-99.18624877
 21
-17.55390082
 31
0.0
  0
LINE
  5
516
100
AcDbEntity
  8
レイヤー_1
  6
DIVIDE
 62
       3
100
AcDbLine
 10
-93.33087835
 20
-17.6947191
 30
0.0
 11
-100.06819321
 21
-17.6947191
 31
0.0
  0
LINE
  5
517
100
AcDbEntity
  8
レイヤー_1
  6
DIVIDE
 62
       3
100
AcDbLine
 10
-100.06819321
 20
-17.6947191
 30
0.0
 11
-99.18624877
 21
-17.55390082
 31
0.0
  0
LINE
  5
518
100
AcDbEntity
  8
レイヤー_1
  6
DIVIDE
 62
       3
100
AcDbLine
 10
-99.18624877
 20
17.4435323
 30
0.0
 11
-95.97671168
 21
17.4435323
 31
0.0
  0
LINE
  5
519
100
AcDbEntity
  8
レイヤー_1
  6
DIVIDE
 62
       3
100
AcDbLine
 10
-87.26320392
 20
21.35845269
 30
0.0
 11
-87.22703043
 21
21.35845269
 31
0.0
  0
LINE
  5
51A
100
AcDbEntity
  8
レイヤー_1
  6
DIVIDE
 62
       3
100
AcDbLine
 10
-87.22703043
 20
21.35845269
 30
0.0
 11
-87.19257947
 21
21.35845269
 31
0.0
  0
LINE
  5
51B
100
AcDbEntity
  8
レイヤー_1
  6
DIVIDE
 62
       3
100
AcDbLine
 10
-87.19257947
 20
21.35845269
 30
0.0
 11
-87.15640597
 21
21.35845269
 31
0.0
  0
LINE
  5
51C
100
AcDbEntity
  8
レイヤー_1
  6
DIVIDE
 62
       3
100
AcDbLine
 10
-87.15640597
 20
21.35845269
 30
0.0
 11
-87.12195501
 21
21.35845269
 31
0.0
  0
LINE
  5
51D
100
AcDbEntity
  8
レイヤー_1
  6
DIVIDE
 62
       3
100
AcDbLine
 10
-87.12195501
 20
21.35845269
 30
0.0
 11
-87.08578151
 21
21.35845269
 31
0.0
  0
LINE
  5
51E
100
AcDbEntity
  8
レイヤー_1
  6
DIVIDE
 62
       3
100
AcDbLine
 10
-87.26320392
 20
1.35708957
 30
0.0
 11
-87.22703043
 21
1.35708957
 31
0.0
  0
LINE
  5
51F
100
AcDbEntity
  8
レイヤー_1
  6
DIVIDE
 62
       3
100
AcDbLine
 10
-87.22703043
 20
1.35708957
 30
0.0
 11
-87.19257947
 21
1.35708957
 31
0.0
  0
LINE
  5
520
100
AcDbEntity
  8
レイヤー_1
  6
DIVIDE
 62
       3
100
AcDbLine
 10
-87.19257947
 20
1.35708957
 30
0.0
 11
-87.15640597
 21
1.35708957
 31
0.0
  0
LINE
  5
521
100
AcDbEntity
  8
レイヤー_1
  6
DIVIDE
 62
       3
100
AcDbLine
 10
-87.15640597
 20
1.35708957
 30
0.0
 11
-87.12195501
 21
1.35708957
 31
0.0
  0
LINE
  5
522
100
AcDbEntity
  8
レイヤー_1
  6
DIVIDE
 62
       3
100
AcDbLine
 10
-87.12195501
 20
1.35708957
 30
0.0
 11
-87.08578151
 21
1.35708957
 31
0.0
  0
LINE
  5
523
100
AcDbEntity
  8
レイヤー_1
  6
DIVIDE
 62
       3
100
AcDbLine
 10
-87.08578151
 20
21.35845269
 30
0.0
 11
-87.08578151
 21
1.35708957
 31
0.0
  0
LINE
  5
524
100
AcDbEntity
  8
レイヤー_1
  6
DIVIDE
 62
       3
100
AcDbLine
 10
-87.26320392
 20
21.35845269
 30
0.0
 11
-87.82690768
 21
21.35845269
 31
0.0
  0
LINE
  5
525
100
AcDbEntity
  8
レイヤー_1
  6
DIVIDE
 62
       3
100
AcDbLine
 10
-87.82690768
 20
1.35708957
 30
0.0
 11
-87.26320392
 21
1.35708957
 31
0.0
  0
LINE
  5
526
100
AcDbEntity
  8
レイヤー_1
  6
DIVIDE
 62
       3
100
AcDbLine
 10
-87.82690768
 20
21.35845269
 30
0.0
 11
-88.03835041
 21
21.35845269
 31
0.0
  0
LINE
  5
527
100
AcDbEntity
  8
レイヤー_1
  6
DIVIDE
 62
       3
100
AcDbLine
 10
-88.03835041
 20
1.35708957
 30
0.0
 11
-87.82690768
 21
1.35708957
 31
0.0
  0
LINE
  5
528
100
AcDbEntity
  8
レイヤー_1
  6
DIVIDE
 62
       3
100
AcDbLine
 10
-87.82690768
 20
1.35708957
 30
0.0
 11
-87.82690768
 21
21.35845269
 31
0.0
  0
LINE
  5
529
100
AcDbEntity
  8
レイヤー_1
  6
DIVIDE
 62
       3
100
AcDbLine
 10
-92.69525823
 20
21.35845269
 30
0.0
 11
-88.03835041
 21
21.35845269
 31
0.0
  0
LINE
  5
52A
100
AcDbEntity
  8
レイヤー_1
  6
DIVIDE
 62
       3
100
AcDbLine
 10
-88.03835041
 20
1.35708957
 30
0.0
 11
-92.69525823
 21
1.35708957
 31
0.0
  0
LINE
  5
52B
100
AcDbEntity
  8
レイヤー_1
  6
DIVIDE
 62
       3
100
AcDbLine
 10
-95.97671168
 20
20.30123901
 30
0.0
 11
-95.97671168
 21
17.26826307
 31
0.0
  0
LINE
  5
52C
100
AcDbEntity
  8
レイヤー_1
  6
DIVIDE
 62
       3
100
AcDbLine
 10
-95.97671168
 20
17.26826307
 30
0.0
 11
-94.42469617
 21
16.98490397
 31
0.0
  0
LINE
  5
52D
100
AcDbEntity
  8
レイヤー_1
  6
DIVIDE
 62
       3
100
AcDbLine
 10
-95.97671168
 20
10.49305216
 30
0.0
 11
-94.42469617
 21
10.7406684
 31
0.0
  0
LINE
  5
52E
100
AcDbEntity
  8
レイヤー_1
  6
DIVIDE
 62
       3
100
AcDbLine
 10
-95.97671168
 20
10.49305216
 30
0.0
 11
-95.97671168
 21
7.24734158
 31
0.0
  0
LINE
  5
52F
100
AcDbEntity
  8
レイヤー_1
  6
DIVIDE
 62
       3
100
AcDbLine
 10
-94.42469617
 20
7.00144789
 30
0.0
 11
-95.97671168
 21
7.24734158
 31
0.0
  0
LINE
  5
530
100
AcDbEntity
  8
レイヤー_1
  6
DIVIDE
 62
       3
100
AcDbLine
 10
-95.97671168
 20
15.46820068
 30
0.0
 11
-94.42469617
 21
15.75026787
 31
0.0
  0
LINE
  5
531
100
AcDbEntity
  8
レイヤー_1
  6
DIVIDE
 62
       3
100
AcDbLine
 10
-95.97671168
 20
15.46820068
 30
0.0
 11
-95.97671168
 21
12.25694105
 31
0.0
  0
LINE
  5
532
100
AcDbEntity
  8
レイヤー_1
  6
DIVIDE
 62
       3
100
AcDbLine
 10
-94.42469617
 20
12.01061672
 30
0.0
 11
-95.97671168
 21
12.25694105
 31
0.0
  0
LINE
  5
533
100
AcDbEntity
  8
レイヤー_1
  6
DIVIDE
 62
       3
100
AcDbLine
 10
-95.97671168
 20
5.48345269
 30
0.0
 11
-94.42469617
 21
5.73236084
 31
0.0
  0
LINE
  5
534
100
AcDbEntity
  8
レイヤー_1
  6
DIVIDE
 62
       3
100
AcDbLine
 10
-95.97671168
 20
5.48345269
 30
0.0
 11
-95.97671168
 21
2.45047675
 31
0.0
  0
LINE
  5
535
100
AcDbEntity
  8
レイヤー_1
  6
DIVIDE
 62
       3
100
AcDbLine
 10
-99.18624877
 20
12.25694105
 30
0.0
 11
-99.61042615
 21
12.01061672
 31
0.0
  0
LINE
  5
536
100
AcDbEntity
  8
レイヤー_1
  6
DIVIDE
 62
       3
100
AcDbLine
 10
-99.18624877
 20
12.25694105
 30
0.0
 11
-99.18624877
 21
15.46820068
 31
0.0
  0
LINE
  5
537
100
AcDbEntity
  8
レイヤー_1
  6
DIVIDE
 62
       3
100
AcDbLine
 10
-99.18624877
 20
15.46820068
 30
0.0
 11
-99.61042615
 21
15.75026787
 31
0.0
  0
LINE
  5
538
100
AcDbEntity
  8
レイヤー_1
  6
DIVIDE
 62
       3
100
AcDbLine
 10
-92.87138875
 20
21.35845269
 30
0.0
 11
-92.83693779
 21
21.35845269
 31
0.0
  0
LINE
  5
539
100
AcDbEntity
  8
レイヤー_1
  6
DIVIDE
 62
       3
100
AcDbLine
 10
-92.83693779
 20
21.35845269
 30
0.0
 11
-92.80162556
 21
21.35845269
 31
0.0
  0
LINE
  5
53A
100
AcDbEntity
  8
レイヤー_1
  6
DIVIDE
 62
       3
100
AcDbLine
 10
-92.80162556
 20
21.35845269
 30
0.0
 11
-92.76631332
 21
21.35845269
 31
0.0
  0
LINE
  5
53B
100
AcDbEntity
  8
レイヤー_1
  6
DIVIDE
 62
       3
100
AcDbLine
 10
-92.76631332
 20
21.35845269
 30
0.0
 11
-92.73143174
 21
21.35845269
 31
0.0
  0
LINE
  5
53C
100
AcDbEntity
  8
レイヤー_1
  6
DIVIDE
 62
       3
100
AcDbLine
 10
-92.73143174
 20
21.35845269
 30
0.0
 11
-92.69525823
 21
21.35845269
 31
0.0
  0
LINE
  5
53D
100
AcDbEntity
  8
レイヤー_1
  6
DIVIDE
 62
       3
100
AcDbLine
 10
-92.87138875
 20
1.35708957
 30
0.0
 11
-92.83693779
 21
1.35708957
 31
0.0
  0
LINE
  5
53E
100
AcDbEntity
  8
レイヤー_1
  6
DIVIDE
 62
       3
100
AcDbLine
 10
-92.83693779
 20
1.35708957
 30
0.0
 11
-92.80162556
 21
1.35708957
 31
0.0
  0
LINE
  5
53F
100
AcDbEntity
  8
レイヤー_1
  6
DIVIDE
 62
       3
100
AcDbLine
 10
-92.80162556
 20
1.35708957
 30
0.0
 11
-92.76631332
 21
1.35708957
 31
0.0
  0
LINE
  5
540
100
AcDbEntity
  8
レイヤー_1
  6
DIVIDE
 62
       3
100
AcDbLine
 10
-92.76631332
 20
1.35708957
 30
0.0
 11
-92.73143174
 21
1.35708957
 31
0.0
  0
LINE
  5
541
100
AcDbEntity
  8
レイヤー_1
  6
DIVIDE
 62
       3
100
AcDbLine
 10
-92.73143174
 20
1.35708957
 30
0.0
 11
-92.69525823
 21
1.35708957
 31
0.0
  0
LINE
  5
542
100
AcDbEntity
  8
レイヤー_1
  6
DIVIDE
 62
       3
100
AcDbLine
 10
-92.69525823
 20
1.35708957
 30
0.0
 11
-92.69525823
 21
21.35845269
 31
0.0
  0
LINE
  5
543
100
AcDbEntity
  8
レイヤー_1
  6
DIVIDE
 62
       3
100
AcDbLine
 10
-99.18624877
 20
2.45047675
 30
0.0
 11
-99.18624877
 21
5.48345269
 31
0.0
  0
LINE
  5
544
100
AcDbEntity
  8
レイヤー_1
  6
DIVIDE
 62
       3
100
AcDbLine
 10
-99.18624877
 20
5.48345269
 30
0.0
 11
-99.61042615
 21
5.73236084
 31
0.0
  0
LINE
  5
545
100
AcDbEntity
  8
レイヤー_1
  6
DIVIDE
 62
       3
100
AcDbLine
 10
-99.18624877
 20
7.24734158
 30
0.0
 11
-99.61042615
 21
7.00144789
 31
0.0
  0
LINE
  5
546
100
AcDbEntity
  8
レイヤー_1
  6
DIVIDE
 62
       3
100
AcDbLine
 10
-99.18624877
 20
7.24734158
 30
0.0
 11
-99.18624877
 21
10.49305216
 31
0.0
  0
LINE
  5
547
100
AcDbEntity
  8
レイヤー_1
  6
DIVIDE
 62
       3
100
AcDbLine
 10
-99.18624877
 20
10.49305216
 30
0.0
 11
-99.61042615
 21
10.7406684
 31
0.0
  0
LINE
  5
548
100
AcDbEntity
  8
レイヤー_1
  6
DIVIDE
 62
       3
100
AcDbLine
 10
-99.18624877
 20
17.26826307
 30
0.0
 11
-99.61042615
 21
16.98490397
 31
0.0
  0
LINE
  5
549
100
AcDbEntity
  8
レイヤー_1
  6
DIVIDE
 62
       3
100
AcDbLine
 10
-99.18624877
 20
17.26826307
 30
0.0
 11
-99.18624877
 21
20.30123901
 31
0.0
  0
LINE
  5
54A
100
AcDbEntity
  8
レイヤー_1
  6
DIVIDE
 62
       3
100
AcDbLine
 10
-100.06819321
 20
15.85534329
 30
0.0
 11
-99.61042615
 21
15.75026787
 31
0.0
  0
LINE
  5
54B
100
AcDbEntity
  8
レイヤー_1
  6
DIVIDE
 62
       3
100
AcDbLine
 10
-93.33087835
 20
15.82089233
 30
0.0
 11
-94.42469617
 21
15.75026787
 31
0.0
  0
LINE
  5
54C
100
AcDbEntity
  8
レイヤー_1
  6
DIVIDE
 62
       3
100
AcDbLine
 10
-100.06819321
 20
11.86979845
 30
0.0
 11
-99.61042615
 21
12.01061672
 31
0.0
  0
LINE
  5
54D
100
AcDbEntity
  8
レイヤー_1
  6
DIVIDE
 62
       3
100
AcDbLine
 10
-94.42469617
 20
12.01061672
 30
0.0
 11
-93.33087835
 21
11.9404229
 31
0.0
  0
LINE
  5
54E
100
AcDbEntity
  8
レイヤー_1
  6
DIVIDE
 62
       3
100
AcDbLine
 10
-100.06819321
 20
16.87810601
 30
0.0
 11
-99.61042615
 21
16.98490397
 31
0.0
  0
LINE
  5
54F
100
AcDbEntity
  8
レイヤー_1
  6
DIVIDE
 62
       3
100
AcDbLine
 10
-93.33087835
 20
16.91427951
 30
0.0
 11
-94.42469617
 21
16.98490397
 31
0.0
  0
LINE
  5
550
100
AcDbEntity
  8
レイヤー_1
  6
DIVIDE
 62
       3
100
AcDbLine
 10
-100.06819321
 20
10.84574381
 30
0.0
 11
-99.61042615
 21
10.7406684
 31
0.0
  0
LINE
  5
551
100
AcDbEntity
  8
レイヤー_1
  6
DIVIDE
 62
       3
100
AcDbLine
 10
-93.33087835
 20
10.81129286
 30
0.0
 11
-94.42469617
 21
10.7406684
 31
0.0
  0
LINE
  5
552
100
AcDbEntity
  8
レイヤー_1
  6
DIVIDE
 62
       3
100
AcDbLine
 10
-100.06819321
 20
6.89637248
 30
0.0
 11
-99.61042615
 21
7.00144789
 31
0.0
  0
LINE
  5
553
100
AcDbEntity
  8
レイヤー_1
  6
DIVIDE
 62
       3
100
AcDbLine
 10
-94.42469617
 20
7.00144789
 30
0.0
 11
-93.33087835
 21
6.93082343
 31
0.0
  0
LINE
  5
554
100
AcDbEntity
  8
レイヤー_1
  6
DIVIDE
 62
       3
100
AcDbLine
 10
-100.06819321
 20
5.87317912
 30
0.0
 11
-99.61042615
 21
5.73236084
 31
0.0
  0
LINE
  5
555
100
AcDbEntity
  8
レイヤー_1
  6
DIVIDE
 62
       3
100
AcDbLine
 10
-93.33087835
 20
5.8029853
 30
0.0
 11
-94.42469617
 21
5.73236084
 31
0.0
  0
LINE
  5
556
100
AcDbEntity
  8
レイヤー_1
  6
DIVIDE
 62
       3
100
AcDbLine
 10
-95.97671168
 20
20.30123901
 30
0.0
 11
-93.33087835
 21
20.40588378
 31
0.0
  0
LINE
  5
557
100
AcDbEntity
  8
レイヤー_1
  6
DIVIDE
 62
       3
100
AcDbLine
 10
-100.06819321
 20
20.44205729
 30
0.0
 11
-99.18624877
 21
20.30123901
 31
0.0
  0
LINE
  5
558
100
AcDbEntity
  8
レイヤー_1
  6
DIVIDE
 62
       3
100
AcDbLine
 10
-99.18624877
 20
20.30123901
 30
0.0
 11
-95.97671168
 21
20.30123901
 31
0.0
  0
LINE
  5
559
100
AcDbEntity
  8
レイヤー_1
  6
DIVIDE
 62
       3
100
AcDbLine
 10
-93.33087835
 20
5.87317912
 30
0.0
 11
-93.33087835
 21
2.30922784
 31
0.0
  0
LINE
  5
55A
100
AcDbEntity
  8
レイヤー_1
  6
DIVIDE
 62
       3
100
AcDbLine
 10
-100.06819321
 20
16.87810601
 30
0.0
 11
-100.06819321
 21
20.44205729
 31
0.0
  0
LINE
  5
55B
100
AcDbEntity
  8
レイヤー_1
  6
DIVIDE
 62
       3
100
AcDbLine
 10
-100.06819321
 20
20.44205729
 30
0.0
 11
-93.33087835
 21
20.44205729
 31
0.0
  0
LINE
  5
55C
100
AcDbEntity
  8
レイヤー_1
  6
DIVIDE
 62
       3
100
AcDbLine
 10
-93.33087835
 20
20.44205729
 30
0.0
 11
-93.33087835
 21
16.87810601
 31
0.0
  0
LINE
  5
55D
100
AcDbEntity
  8
レイヤー_1
  6
DIVIDE
 62
       3
100
AcDbLine
 10
-93.33087835
 20
16.87810601
 30
0.0
 11
-100.06819321
 21
16.87810601
 31
0.0
  0
LINE
  5
55E
100
AcDbEntity
  8
レイヤー_1
  6
DIVIDE
 62
       3
100
AcDbLine
 10
-100.06819321
 20
11.86979845
 30
0.0
 11
-100.06819321
 21
15.85534329
 31
0.0
  0
LINE
  5
55F
100
AcDbEntity
  8
レイヤー_1
  6
DIVIDE
 62
       3
100
AcDbLine
 10
-100.06819321
 20
15.85534329
 30
0.0
 11
-93.33087835
 21
15.85534329
 31
0.0
  0
LINE
  5
560
100
AcDbEntity
  8
レイヤー_1
  6
DIVIDE
 62
       3
100
AcDbLine
 10
-93.33087835
 20
15.85534329
 30
0.0
 11
-93.33087835
 21
11.86979845
 31
0.0
  0
LINE
  5
561
100
AcDbEntity
  8
レイヤー_1
  6
DIVIDE
 62
       3
100
AcDbLine
 10
-93.33087835
 20
11.86979845
 30
0.0
 11
-100.06819321
 21
11.86979845
 31
0.0
  0
LINE
  5
562
100
AcDbEntity
  8
レイヤー_1
  6
DIVIDE
 62
       3
100
AcDbLine
 10
-100.06819321
 20
6.89637248
 30
0.0
 11
-100.06819321
 21
10.84574381
 31
0.0
  0
LINE
  5
563
100
AcDbEntity
  8
レイヤー_1
  6
DIVIDE
 62
       3
100
AcDbLine
 10
-100.06819321
 20
10.84574381
 30
0.0
 11
-93.33087835
 21
10.84574381
 31
0.0
  0
LINE
  5
564
100
AcDbEntity
  8
レイヤー_1
  6
DIVIDE
 62
       3
100
AcDbLine
 10
-93.33087835
 20
10.84574381
 30
0.0
 11
-93.33087835
 21
6.89637248
 31
0.0
  0
LINE
  5
565
100
AcDbEntity
  8
レイヤー_1
  6
DIVIDE
 62
       3
100
AcDbLine
 10
-93.33087835
 20
6.89637248
 30
0.0
 11
-100.06819321
 21
6.89637248
 31
0.0
  0
LINE
  5
566
100
AcDbEntity
  8
レイヤー_1
  6
DIVIDE
 62
       3
100
AcDbLine
 10
-100.06819321
 20
2.30922784
 30
0.0
 11
-100.06819321
 21
5.87317912
 31
0.0
  0
LINE
  5
567
100
AcDbEntity
  8
レイヤー_1
  6
DIVIDE
 62
       3
100
AcDbLine
 10
-100.06819321
 20
5.87317912
 30
0.0
 11
-93.33087835
 21
5.87317912
 31
0.0
  0
LINE
  5
568
100
AcDbEntity
  8
レイヤー_1
  6
DIVIDE
 62
       3
100
AcDbLine
 10
-92.87138875
 20
1.35708957
 30
0.0
 11
-102.07969834
 21
1.35708957
 31
0.0
  0
LINE
  5
569
100
AcDbEntity
  8
レイヤー_1
  6
DIVIDE
 62
       3
100
AcDbLine
 10
-102.07969834
 20
21.35845269
 30
0.0
 11
-92.87138875
 21
21.35845269
 31
0.0
  0
LINE
  5
56A
100
AcDbEntity
  8
レイヤー_1
  6
DIVIDE
 62
       3
100
AcDbLine
 10
-93.33087835
 20
2.34540134
 30
0.0
 11
-95.97671168
 21
2.45047675
 31
0.0
  0
LINE
  5
56B
100
AcDbEntity
  8
レイヤー_1
  6
DIVIDE
 62
       3
100
AcDbLine
 10
-95.97671168
 20
2.45047675
 30
0.0
 11
-99.18624877
 21
2.45047675
 31
0.0
  0
LINE
  5
56C
100
AcDbEntity
  8
レイヤー_1
  6
DIVIDE
 62
       3
100
AcDbLine
 10
-93.33087835
 20
2.30922784
 30
0.0
 11
-100.06819321
 21
2.30922784
 31
0.0
  0
LINE
  5
56D
100
AcDbEntity
  8
レイヤー_1
  6
DIVIDE
 62
       3
100
AcDbLine
 10
-100.06819321
 20
2.30922784
 30
0.0
 11
-99.18624877
 21
2.45047675
 31
0.0
  0
LINE
  5
56E
100
AcDbEntity
  8
レイヤー_1
  6
DIVIDE
 62
       3
100
AcDbLine
 10
-87.08578151
 20
25.55673217
 30
0.0
 11
-87.12195501
 21
25.55673217
 31
0.0
  0
LINE
  5
56F
100
AcDbEntity
  8
レイヤー_1
  6
DIVIDE
 62
       3
100
AcDbLine
 10
-87.12195501
 20
25.55673217
 30
0.0
 11
-87.15640597
 21
25.55673217
 31
0.0
  0
LINE
  5
570
100
AcDbEntity
  8
レイヤー_1
  6
DIVIDE
 62
       3
100
AcDbLine
 10
-87.15640597
 20
25.55673217
 30
0.0
 11
-87.19257947
 21
25.55673217
 31
0.0
  0
LINE
  5
571
100
AcDbEntity
  8
レイヤー_1
  6
DIVIDE
 62
       3
100
AcDbLine
 10
-87.19257947
 20
25.55673217
 30
0.0
 11
-87.22703043
 21
25.55673217
 31
0.0
  0
LINE
  5
572
100
AcDbEntity
  8
レイヤー_1
  6
DIVIDE
 62
       3
100
AcDbLine
 10
-87.22703043
 20
25.55673217
 30
0.0
 11
-87.26320392
 21
25.55673217
 31
0.0
  0
LINE
  5
573
100
AcDbEntity
  8
レイヤー_1
  6
DIVIDE
 62
       3
100
AcDbLine
 10
-87.26320392
 20
40.58466932
 30
0.0
 11
-87.22703043
 21
40.58466932
 31
0.0
  0
LINE
  5
574
100
AcDbEntity
  8
レイヤー_1
  6
DIVIDE
 62
       3
100
AcDbLine
 10
-87.22703043
 20
40.58466932
 30
0.0
 11
-87.19257947
 21
40.58466932
 31
0.0
  0
LINE
  5
575
100
AcDbEntity
  8
レイヤー_1
  6
DIVIDE
 62
       3
100
AcDbLine
 10
-87.19257947
 20
40.58466932
 30
0.0
 11
-87.15640597
 21
40.58466932
 31
0.0
  0
LINE
  5
576
100
AcDbEntity
  8
レイヤー_1
  6
DIVIDE
 62
       3
100
AcDbLine
 10
-87.15640597
 20
40.58466932
 30
0.0
 11
-87.12195501
 21
40.58466932
 31
0.0
  0
LINE
  5
577
100
AcDbEntity
  8
レイヤー_1
  6
DIVIDE
 62
       3
100
AcDbLine
 10
-87.12195501
 20
40.58466932
 30
0.0
 11
-87.08578151
 21
40.58466932
 31
0.0
  0
LINE
  5
578
100
AcDbEntity
  8
レイヤー_1
  6
DIVIDE
 62
       3
100
AcDbLine
 10
-87.08578151
 20
25.55673217
 30
0.0
 11
-87.08578151
 21
40.58466932
 31
0.0
  0
LINE
  5
579
100
AcDbEntity
  8
レイヤー_1
  6
DIVIDE
 62
       3
100
AcDbLine
 10
-87.26320392
 20
25.55673217
 30
0.0
 11
-87.82690768
 21
25.55673217
 31
0.0
  0
LINE
  5
57A
100
AcDbEntity
  8
レイヤー_1
  6
DIVIDE
 62
       3
100
AcDbLine
 10
-87.82690768
 20
40.58466932
 30
0.0
 11
-87.26320392
 21
40.58466932
 31
0.0
  0
LINE
  5
57B
100
AcDbEntity
  8
レイヤー_1
  6
DIVIDE
 62
       3
100
AcDbLine
 10
-88.03835041
 20
25.55673217
 30
0.0
 11
-87.82690768
 21
25.55673217
 31
0.0
  0
LINE
  5
57C
100
AcDbEntity
  8
レイヤー_1
  6
DIVIDE
 62
       3
100
AcDbLine
 10
-87.82690768
 20
40.58466932
 30
0.0
 11
-88.03835041
 21
40.58466932
 31
0.0
  0
LINE
  5
57D
100
AcDbEntity
  8
レイヤー_1
  6
DIVIDE
 62
       3
100
AcDbLine
 10
-87.82690768
 20
40.58466932
 30
0.0
 11
-87.82690768
 21
25.55673217
 31
0.0
  0
LINE
  5
57E
100
AcDbEntity
  8
レイヤー_1
  6
DIVIDE
 62
       3
100
AcDbLine
 10
-88.03835041
 20
25.55673217
 30
0.0
 11
-92.69525823
 21
25.55673217
 31
0.0
  0
LINE
  5
57F
100
AcDbEntity
  8
レイヤー_1
  6
DIVIDE
 62
       3
100
AcDbLine
 10
-92.69525823
 20
40.58466932
 30
0.0
 11
-88.03835041
 21
40.58466932
 31
0.0
  0
LINE
  5
580
100
AcDbEntity
  8
レイヤー_1
  6
DIVIDE
 62
       3
100
AcDbLine
 10
-95.97671168
 20
39.49214341
 30
0.0
 11
-95.97671168
 21
36.45744492
 31
0.0
  0
LINE
  5
581
100
AcDbEntity
  8
レイヤー_1
  6
DIVIDE
 62
       3
100
AcDbLine
 10
-95.97671168
 20
36.45744492
 30
0.0
 11
-94.42469617
 21
36.2111206
 31
0.0
  0
LINE
  5
582
100
AcDbEntity
  8
レイヤー_1
  6
DIVIDE
 62
       3
100
AcDbLine
 10
-95.97671168
 20
29.68481784
 30
0.0
 11
-94.42469617
 21
29.93200344
 31
0.0
  0
LINE
  5
583
100
AcDbEntity
  8
レイヤー_1
  6
DIVIDE
 62
       3
100
AcDbLine
 10
-95.97671168
 20
29.68481784
 30
0.0
 11
-95.97671168
 21
26.65011935
 31
0.0
  0
LINE
  5
584
100
AcDbEntity
  8
レイヤー_1
  6
DIVIDE
 62
       3
100
AcDbLine
 10
-95.97671168
 20
34.69355604
 30
0.0
 11
-94.42469617
 21
34.94117227
 31
0.0
  0
LINE
  5
585
100
AcDbEntity
  8
レイヤー_1
  6
DIVIDE
 62
       3
100
AcDbLine
 10
-95.97671168
 20
34.69355604
 30
0.0
 11
-95.97671168
 21
31.44870673
 31
0.0
  0
LINE
  5
586
100
AcDbEntity
  8
レイヤー_1
  6
DIVIDE
 62
       3
100
AcDbLine
 10
-94.42469617
 20
31.20109049
 30
0.0
 11
-95.97671168
 21
31.44870673
 31
0.0
  0
LINE
  5
587
100
AcDbEntity
  8
レイヤー_1
  6
DIVIDE
 62
       3
100
AcDbLine
 10
-99.18624877
 20
31.44870673
 30
0.0
 11
-99.61042615
 21
31.20109049
 31
0.0
  0
LINE
  5
588
100
AcDbEntity
  8
レイヤー_1
  6
DIVIDE
 62
       3
100
AcDbLine
 10
-99.18624877
 20
31.44870673
 30
0.0
 11
-99.18624877
 21
34.69355604
 31
0.0
  0
LINE
  5
589
100
AcDbEntity
  8
レイヤー_1
  6
DIVIDE
 62
       3
100
AcDbLine
 10
-99.18624877
 20
34.69355604
 30
0.0
 11
-99.61042615
 21
34.94117227
 31
0.0
  0
LINE
  5
58A
100
AcDbEntity
  8
レイヤー_1
  6
DIVIDE
 62
       3
100
AcDbLine
 10
-99.18624877
 20
36.45744492
 30
0.0
 11
-99.61042615
 21
36.2111206
 31
0.0
  0
LINE
  5
58B
100
AcDbEntity
  8
レイヤー_1
  6
DIVIDE
 62
       3
100
AcDbLine
 10
-99.18624877
 20
36.45744492
 30
0.0
 11
-99.18624877
 21
39.49214341
 31
0.0
  0
LINE
  5
58C
100
AcDbEntity
  8
レイヤー_1
  6
DIVIDE
 62
       3
100
AcDbLine
 10
-92.87138875
 20
25.55673217
 30
0.0
 11
-92.83693779
 21
25.55673217
 31
0.0
  0
LINE
  5
58D
100
AcDbEntity
  8
レイヤー_1
  6
DIVIDE
 62
       3
100
AcDbLine
 10
-92.83693779
 20
25.55673217
 30
0.0
 11
-92.80162556
 21
25.55673217
 31
0.0
  0
LINE
  5
58E
100
AcDbEntity
  8
レイヤー_1
  6
DIVIDE
 62
       3
100
AcDbLine
 10
-92.80162556
 20
25.55673217
 30
0.0
 11
-92.76631332
 21
25.55673217
 31
0.0
  0
LINE
  5
58F
100
AcDbEntity
  8
レイヤー_1
  6
DIVIDE
 62
       3
100
AcDbLine
 10
-92.76631332
 20
25.55673217
 30
0.0
 11
-92.73143174
 21
25.55673217
 31
0.0
  0
LINE
  5
590
100
AcDbEntity
  8
レイヤー_1
  6
DIVIDE
 62
       3
100
AcDbLine
 10
-92.73143174
 20
25.55673217
 30
0.0
 11
-92.69525823
 21
25.55673217
 31
0.0
  0
LINE
  5
591
100
AcDbEntity
  8
レイヤー_1
  6
DIVIDE
 62
       3
100
AcDbLine
 10
-92.87138875
 20
40.58466932
 30
0.0
 11
-92.83693779
 21
40.58466932
 31
0.0
  0
LINE
  5
592
100
AcDbEntity
  8
レイヤー_1
  6
DIVIDE
 62
       3
100
AcDbLine
 10
-92.83693779
 20
40.58466932
 30
0.0
 11
-92.80162556
 21
40.58466932
 31
0.0
  0
LINE
  5
593
100
AcDbEntity
  8
レイヤー_1
  6
DIVIDE
 62
       3
100
AcDbLine
 10
-92.80162556
 20
40.58466932
 30
0.0
 11
-92.76631332
 21
40.58466932
 31
0.0
  0
LINE
  5
594
100
AcDbEntity
  8
レイヤー_1
  6
DIVIDE
 62
       3
100
AcDbLine
 10
-92.76631332
 20
40.58466932
 30
0.0
 11
-92.73143174
 21
40.58466932
 31
0.0
  0
LINE
  5
595
100
AcDbEntity
  8
レイヤー_1
  6
DIVIDE
 62
       3
100
AcDbLine
 10
-92.73143174
 20
40.58466932
 30
0.0
 11
-92.69525823
 21
40.58466932
 31
0.0
  0
LINE
  5
596
100
AcDbEntity
  8
レイヤー_1
  6
DIVIDE
 62
       3
100
AcDbLine
 10
-92.69525823
 20
40.58466932
 30
0.0
 11
-92.69525823
 21
25.55673217
 31
0.0
  0
LINE
  5
597
100
AcDbEntity
  8
レイヤー_1
  6
DIVIDE
 62
       3
100
AcDbLine
 10
-99.18624877
 20
26.65011935
 30
0.0
 11
-99.18624877
 21
29.68481784
 31
0.0
  0
LINE
  5
598
100
AcDbEntity
  8
レイヤー_1
  6
DIVIDE
 62
       3
100
AcDbLine
 10
-99.18624877
 20
29.68481784
 30
0.0
 11
-99.61042615
 21
29.93200344
 31
0.0
  0
LINE
  5
599
100
AcDbEntity
  8
レイヤー_1
  6
DIVIDE
 62
       3
100
AcDbLine
 10
-100.06819321
 20
36.06944105
 30
0.0
 11
-99.61042615
 21
36.2111206
 31
0.0
  0
LINE
  5
59A
100
AcDbEntity
  8
レイヤー_1
  6
DIVIDE
 62
       3
100
AcDbLine
 10
-93.33087835
 20
36.1400655
 30
0.0
 11
-94.42469617
 21
36.2111206
 31
0.0
  0
LINE
  5
59B
100
AcDbEntity
  8
レイヤー_1
  6
DIVIDE
 62
       3
100
AcDbLine
 10
-100.06819321
 20
31.0951538
 30
0.0
 11
-99.61042615
 21
31.20109049
 31
0.0
  0
LINE
  5
59C
100
AcDbEntity
  8
レイヤー_1
  6
DIVIDE
 62
       3
100
AcDbLine
 10
-94.42469617
 20
31.20109049
 30
0.0
 11
-93.33087835
 21
31.13046603
 31
0.0
  0
LINE
  5
59D
100
AcDbEntity
  8
レイヤー_1
  6
DIVIDE
 62
       3
100
AcDbLine
 10
-100.06819321
 20
35.04710896
 30
0.0
 11
-99.61042615
 21
34.94117227
 31
0.0
  0
LINE
  5
59E
100
AcDbEntity
  8
レイヤー_1
  6
DIVIDE
 62
       3
100
AcDbLine
 10
-93.33087835
 20
35.01179673
 30
0.0
 11
-94.42469617
 21
34.94117227
 31
0.0
  0
LINE
  5
59F
100
AcDbEntity
  8
レイヤー_1
  6
DIVIDE
 62
       3
100
AcDbLine
 10
-100.06819321
 20
30.07196044
 30
0.0
 11
-99.61042615
 21
29.93200344
 31
0.0
  0
LINE
  5
5A0
100
AcDbEntity
  8
レイヤー_1
  6
DIVIDE
 62
       3
100
AcDbLine
 10
-93.33087835
 20
30.00133599
 30
0.0
 11
-94.42469617
 21
29.93200344
 31
0.0
  0
LINE
  5
5A1
100
AcDbEntity
  8
レイヤー_1
  6
DIVIDE
 62
       3
100
AcDbLine
 10
-95.97671168
 20
39.49214341
 30
0.0
 11
-93.33087835
 21
39.59721882
 31
0.0
  0
LINE
  5
5A2
100
AcDbEntity
  8
レイヤー_1
  6
DIVIDE
 62
       3
100
AcDbLine
 10
-100.06819321
 20
39.63339233
 30
0.0
 11
-99.18624877
 21
39.49214341
 31
0.0
  0
LINE
  5
5A3
100
AcDbEntity
  8
レイヤー_1
  6
DIVIDE
 62
       3
100
AcDbLine
 10
-99.18624877
 20
39.49214341
 30
0.0
 11
-95.97671168
 21
39.49214341
 31
0.0
  0
LINE
  5
5A4
100
AcDbEntity
  8
レイヤー_1
  6
DIVIDE
 62
       3
100
AcDbLine
 10
-93.33087835
 20
30.07196044
 30
0.0
 11
-93.33087835
 21
26.50973171
 31
0.0
  0
LINE
  5
5A5
100
AcDbEntity
  8
レイヤー_1
  6
DIVIDE
 62
       3
100
AcDbLine
 10
-100.06819321
 20
36.06944105
 30
0.0
 11
-100.06819321
 21
39.63339233
 31
0.0
  0
LINE
  5
5A6
100
AcDbEntity
  8
レイヤー_1
  6
DIVIDE
 62
       3
100
AcDbLine
 10
-100.06819321
 20
39.63339233
 30
0.0
 11
-93.33087835
 21
39.63339233
 31
0.0
  0
LINE
  5
5A7
100
AcDbEntity
  8
レイヤー_1
  6
DIVIDE
 62
       3
100
AcDbLine
 10
-93.33087835
 20
39.63339233
 30
0.0
 11
-93.33087835
 21
36.06944105
 31
0.0
  0
LINE
  5
5A8
100
AcDbEntity
  8
レイヤー_1
  6
DIVIDE
 62
       3
100
AcDbLine
 10
-93.33087835
 20
36.06944105
 30
0.0
 11
-100.06819321
 21
36.06944105
 31
0.0
  0
LINE
  5
5A9
100
AcDbEntity
  8
レイヤー_1
  6
DIVIDE
 62
       3
100
AcDbLine
 10
-100.06819321
 20
31.0951538
 30
0.0
 11
-100.06819321
 21
35.04710896
 31
0.0
  0
LINE
  5
5AA
100
AcDbEntity
  8
レイヤー_1
  6
DIVIDE
 62
       3
100
AcDbLine
 10
4.03871663
 20
-18.82212659
 30
0.0
 11
-7.96128337
 21
-18.82212659
 31
0.0
  0
LINE
  5
5AB
100
AcDbEntity
  8
レイヤー_1
  6
DIVIDE
 62
       3
100
AcDbLine
 10
-7.96128337
 20
40.37408785
 30
0.0
 11
4.03871663
 21
40.37408785
 31
0.0
  0
LINE
  5
5AC
100
AcDbEntity
  8
レイヤー_1
  6
DIVIDE
 62
       3
100
AcDbLine
 10
-95.96896022
 20
-12.72172376
 30
0.0
 11
-99.16859265
 21
-12.72172376
 31
0.0
  0
LINE
  5
5AD
100
AcDbEntity
  8
レイヤー_1
  6
DIVIDE
 62
       3
100
AcDbLine
 10
-99.16859265
 20
-14.49939303
 30
0.0
 11
-95.96896022
 21
-14.49939303
 31
0.0
  0
LINE
  5
5AE
100
AcDbEntity
  8
レイヤー_1
  6
DIVIDE
 62
       3
100
AcDbLine
 10
-99.16859265
 20
-4.50000339
 30
0.0
 11
-95.96896022
 21
-4.50000339
 31
0.0
  0
LINE
  5
5AF
100
AcDbEntity
  8
レイヤー_1
  6
DIVIDE
 62
       3
100
AcDbLine
 10
-99.16859265
 20
-9.50055949
 30
0.0
 11
-95.96896022
 21
-9.50055949
 31
0.0
  0
LINE
  5
5B0
100
AcDbEntity
  8
レイヤー_1
  6
DIVIDE
 62
       3
100
AcDbLine
 10
-95.96896022
 20
-7.72202894
 30
0.0
 11
-99.16859265
 21
-7.72202894
 31
0.0
  0
LINE
  5
5B1
100
AcDbEntity
  8
レイヤー_1
  6
DIVIDE
 62
       3
100
AcDbLine
 10
-95.96896022
 20
-2.72104221
 30
0.0
 11
-99.16859265
 21
-2.72104221
 31
0.0
  0
LINE
  5
5B2
100
AcDbEntity
  8
レイヤー_1
  6
DIVIDE
 62
       3
100
AcDbLine
 10
-95.96896022
 20
7.27834744
 30
0.0
 11
-99.16859265
 21
7.27834744
 31
0.0
  0
LINE
  5
5B3
100
AcDbEntity
  8
レイヤー_1
  6
DIVIDE
 62
       3
100
AcDbLine
 10
-99.16859265
 20
10.49994235
 30
0.0
 11
-95.96896022
 21
10.49994235
 31
0.0
  0
LINE
  5
5B4
100
AcDbEntity
  8
レイヤー_1
  6
DIVIDE
 62
       3
100
AcDbLine
 10
-99.16859265
 20
5.5011088
 30
0.0
 11
-95.96896022
 21
5.5011088
 31
0.0
  0
LINE
  5
5B5
100
AcDbEntity
  8
レイヤー_1
  6
DIVIDE
 62
       3
100
AcDbLine
 10
-99.16859265
 20
15.50049845
 30
0.0
 11
-95.96896022
 21
15.50049845
 31
0.0
  0
LINE
  5
5B6
100
AcDbEntity
  8
レイヤー_1
  6
DIVIDE
 62
       3
100
AcDbLine
 10
-95.96896022
 20
12.27890354
 30
0.0
 11
-99.16859265
 21
12.27890354
 31
0.0
  0
LINE
  5
5B7
100
AcDbEntity
  8
レイヤー_1
  6
DIVIDE
 62
       3
100
AcDbLine
 10
-99.16859265
 20
29.69989013
 30
0.0
 11
-95.96896022
 21
29.69989013
 31
0.0
  0
LINE
  5
5B8
100
AcDbEntity
  8
レイヤー_1
  6
DIVIDE
 62
       3
100
AcDbLine
 10
-99.16859265
 20
34.70044623
 30
0.0
 11
-95.96896022
 21
34.70044623
 31
0.0
  0
LINE
  5
5B9
100
AcDbEntity
  8
レイヤー_1
  6
DIVIDE
 62
       3
100
AcDbLine
 10
-95.96896022
 20
31.47885131
 30
0.0
 11
-99.16859265
 21
31.47885131
 31
0.0
  0
LINE
  5
5BA
100
AcDbEntity
  8
レイヤー_1
  6
DIVIDE
 62
       3
100
AcDbLine
 10
-95.96896022
 20
36.47940741
 30
0.0
 11
-99.16859265
 21
36.47940741
 31
0.0
  0
LINE
  5
5BB
100
AcDbEntity
  8
レイヤー_1
  6
DIVIDE
 62
       3
100
AcDbLine
 10
-64.44805908
 20
27.47909545
 30
0.0
 11
-67.64855279
 21
27.47909545
 31
0.0
  0
LINE
  5
5BC
100
AcDbEntity
  8
レイヤー_1
  6
DIVIDE
 62
       3
100
AcDbLine
 10
-64.44805908
 20
23.19985622
 30
0.0
 11
-67.64855279
 21
23.19985622
 31
0.0
  0
LINE
  5
5BD
100
AcDbEntity
  8
レイヤー_1
  6
DIVIDE
 62
       3
100
AcDbLine
 10
-64.44805908
 20
34.97949896
 30
0.0
 11
-67.64855279
 21
34.97949896
 31
0.0
  0
LINE
  5
5BE
100
AcDbEntity
  8
レイヤー_1
  6
DIVIDE
 62
       3
100
AcDbLine
 10
-64.44805908
 20
30.69982909
 30
0.0
 11
-67.64855279
 21
30.69982909
 31
0.0
  0
LINE
  5
5BF
100
AcDbEntity
  8
レイヤー_1
  6
DIVIDE
 62
       3
100
AcDbLine
 10
-64.44805908
 20
15.69988335
 30
0.0
 11
-67.64855279
 21
15.69988335
 31
0.0
  0
LINE
  5
5C0
100
AcDbEntity
  8
レイヤー_1
  6
DIVIDE
 62
       3
100
AcDbLine
 10
-64.44805908
 20
19.97912258
 30
0.0
 11
-67.64855279
 21
19.97912258
 31
0.0
  0
TEXT
  5
5C1
100
AcDbEntity
  8
0
 62
       7
100
AcDbText
 10
98.23846154
 20
-99.74434389
 30
0.0
 40
5.0
  1
000
 41
0.8
 72
       5
 11
110.23846154
 21
-99.74434389
 31
0.0
100
AcDbText
  0
ENDSEC
  0
SECTION
  2
OBJECTS
  0
DICTIONARY
  5
19
100
AcDbDictionary
  3
ACAD_GROUP
350
1A
  3
ACAD_MLINESTYLE
350
1B
  0
DICTIONARY
  5
1A
102
{ACAD_REACTORS
330
19
102
}
100
AcDbDictionary
  0
DICTIONARY
  5
1B
102
{ACAD_REACTORS
330
19
102
}
100
AcDbDictionary
  3
STANDARD
350
1C
  0
MLINESTYLE
  5
1C
102
{ACAD_REACTORS
330
1B
102
}
100
AcDbMlineStyle
  2
STANDARD
 70
       0
  3

 62
       0
 51
90.0
 52
90.0
 71
       2
 49
0.5
 62
     256
  6
BYLAYER
 49
-0.5
 62
     256
  6
BYLAYER
  0
ENDSEC
  0
EOF
