  0
SECTION
  2
HEADER
  9
$ACADVER
  1
AC1014
  9
$ACADMAINTVER
 70
       0
  9
$DWGCODEPAGE
  3
ANSI_932
  9
$INSBASE
 10
0.0
 20
0.0
 30
0.0
  9
$EXTMIN
 10
-372.45400048
 20
-288.74737355
 30
0.0
  9
$EXTMAX
 10
334.69231184
 20
288.74737355
 30
0.0
  9
$LIMMIN
 10
-394.55232274
 20
-306.79408439
  9
$LIMMAX
 10
356.7906341
 20
306.79408439
  9
$ORTHOMODE
 70
       0
  9
$REGENMODE
 70
       1
  9
$FILLMODE
 70
       1
  9
$QTEXTMODE
 70
       0
  9
$MIRRTEXT
 70
       1
  9
$DRAGMODE
 70
       2
  9
$LTSCALE
 40
1.0
  9
$OSMODE
 70
       0
  9
$ATTMODE
 70
       1
  9
$TEXTSIZE
 40
0.2
  9
$TRACEWID
 40
0.05
  9
$TEXTSTYLE
  7
STANDARD
  9
$CLAYER
  8
0
  9
$CELTYPE
  6
CONTINUOUS
  9
$CECOLOR
 62
     256
  9
$CELTSCALE
 40
1.0
  9
$DELOBJ
 70
       1
  9
$DISPSILH
 70
       0
  9
$DIMSCALE
 40
1.0
  9
$DIMASZ
 40
0.18
  9
$DIMEXO
 40
0.0625
  9
$DIMDLI
 40
0.38
  9
$DIMRND
 40
0.0
  9
$DIMDLE
 40
0.0
  9
$DIMEXE
 40
0.18
  9
$DIMTP
 40
0.0
  9
$DIMTM
 40
0.0
  9
$DIMTXT
 40
0.18
  9
$DIMCEN
 40
0.09
  9
$DIMTSZ
 40
0.0
  9
$DIMTOL
 70
       0
  9
$DIMLIM
 70
       0
  9
$DIMTIH
 70
       1
  9
$DIMTOH
 70
       1
  9
$DIMSE1
 70
       0
  9
$DIMSE2
 70
       0
  9
$DIMTAD
 70
       0
  9
$DIMZIN
 70
       0
  9
$DIMBLK
  1

  9
$DIMASO
 70
       1
  9
$DIMSHO
 70
       1
  9
$DIMPOST
  1

  9
$DIMAPOST
  1

  9
$DIMALT
 70
       0
  9
$DIMALTD
 70
       2
  9
$DIMALTF
 40
25.4
  9
$DIMLFAC
 40
1.0
  9
$DIMTOFL
 70
       0
  9
$DIMTVP
 40
0.0
  9
$DIMTIX
 70
       0
  9
$DIMSOXD
 70
       0
  9
$DIMSAH
 70
       0
  9
$DIMBLK1
  1

  9
$DIMBLK2
  1

  9
$DIMSTYLE
  2
STANDARD
  9
$DIMCLRD
 70
       0
  9
$DIMCLRE
 70
       0
  9
$DIMCLRT
 70
       0
  9
$DIMTFAC
 40
1.0
  9
$DIMGAP
 40
0.09
  9
$DIMJUST
 70
       0
  9
$DIMSD1
 70
       0
  9
$DIMSD2
 70
       0
  9
$DIMTOLJ
 70
       1
  9
$DIMTZIN
 70
       0
  9
$DIMALTZ
 70
       0
  9
$DIMALTTZ
 70
       0
  9
$DIMFIT
 70
       3
  9
$DIMUPT
 70
       0
  9
$DIMUNIT
 70
       2
  9
$DIMDEC
 70
       4
  9
$DIMTDEC
 70
       4
  9
$DIMALTU
 70
       2
  9
$DIMALTTD
 70
       2
  9
$DIMTXSTY
  7
STANDARD
  9
$DIMAUNIT
 70
       0
  9
$LUNITS
 70
       2
  9
$LUPREC
 70
       4
  9
$SKETCHINC
 40
0.1
  9
$FILLETRAD
 40
0.0
  9
$AUNITS
 70
       0
  9
$AUPREC
 70
       0
  9
$MENU
  1
acad
  9
$ELEVATION
 40
0.0
  9
$PELEVATION
 40
0.0
  9
$THICKNESS
 40
0.0
  9
$LIMCHECK
 70
       0
  9
$BLIPMODE
 70
       1
  9
$CHAMFERA
 40
0.0
  9
$CHAMFERB
 40
0.0
  9
$CHAMFERC
 40
0.0
  9
$CHAMFERD
 40
0.0
  9
$SKPOLY
 70
       0
  9
$TDCREATE
 40
0.000000000
  9
$TDUPDATE
 40
0.000000000
  9
$TDINDWG
 40
0.0000000000
  9
$TDUSRTIMER
 40
0.0000000000
  9
$USRTIMER
 70
       1
  9
$ANGBASE
 50
0.0
  9
$ANGDIR
 70
       0
  9
$PDMODE
 70
       0
  9
$PDSIZE
 40
1.0
  9
$PLINEWID
 40
0.0
  9
$COORDS
 70
       1
  9
$SPLFRAME
 70
       0
  9
$SPLINETYPE
 70
       6
  9
$SPLINESEGS
 70
       8
  9
$ATTDIA
 70
       0
  9
$ATTREQ
 70
       1
  9
$HANDLING
 70
       1
  9
$HANDSEED
  5
65B
  9
$SURFTAB1
 70
       6
  9
$SURFTAB2
 70
       6
  9
$SURFTYPE
 70
       6
  9
$SURFU
 70
       6
  9
$SURFV
 70
       6
  9
$UCSNAME
  2

  9
$UCSORG
 10
0.0
 20
0.0
 30
0.0
  9
$UCSXDIR
 10
1.0
 20
0.0
 30
0.0
  9
$UCSYDIR
 10
0.0
 20
1.0
 30
0.0
  9
$PUCSNAME
  2

  9
$PUCSORG
 10
0.0
 20
0.0
 30
0.0
  9
$PUCSXDIR
 10
1.0
 20
0.0
 30
0.0
  9
$PUCSYDIR
 10
0.0
 20
1.0
 30
0.0
  9
$USERI1
 70
       0
  9
$USERI2
 70
       0
  9
$USERI3
 70
       0
  9
$USERI4
 70
       0
  9
$USERI5
 70
       0
  9
$USERR1
 40
0.0
  9
$USERR2
 40
0.0
  9
$USERR3
 40
0.0
  9
$USERR4
 40
0.0
  9
$USERR5
 40
0.0
  9
$WORLDVIEW
 70
       1
  9
$SHADEDGE
 70
       3
  9
$SHADEDIF
 70
      70
  9
$TILEMODE
 70
       1
  9
$MAXACTVP
 70
      16
  9
$PINSBASE
 10
0.0
 20
0.0
 30
0.0
  9
$PLIMCHECK
 70
       0
  9
$PEXTMIN
 10
1.00000000E+20
 20
1.00000000E+20
 30
1.00000000E+20
  9
$PEXTMAX
 10
-1.00000000E+20
 20
-1.00000000E+20
 30
-1.00000000E+20
  9
$PLIMMIN
 10
0.0
 20
0.0
  9
$PLIMMAX
 10
12.0
 20
9.0
  9
$UNITMODE
 70
       0
  9
$VISRETAIN
 70
       0
  9
$PLINEGEN
 70
       1
  9
$PSLTSCALE
 70
       0
  9
$TREEDEPTH
 70
    3020
  9
$PICKSTYLE
 70
       1
  9
$CMLSTYLE
  2
STANDARD
  9
$CMLJUST
 70
       0
  9
$CMLSCALE
 40
1.0
  9
$PROXYGRAPHICS
 70
       0
  9
$MEASUREMENT
 70
       0
  0
ENDSEC
  0
SECTION
  2
CLASSES
  0
CLASS
  1
LWPOLYLINE
  2
AcDbPolyline
  3
"AutoCAD"
 90
        0
280
       0
281
       1
  0
CLASS
  1
IMAGE
  2
AcDbRasterImage
  3
ISM
 90
      127
280
       0
281
       1
  0
CLASS
  1
OLE2FRAME
  2
AcDbOle2Frame
  3
""
 90
        0
280
       0
281
       1
  0
CLASS
  1
HATCH
  2
AcDbHatch
  3
"ACAD_SEDONA"
 90
        0
280
       0
281
       1
  0
CLASS
  1
DICTIONARYVAR
  2
AcDbDictionaryVar
  3
"AutoCAD"
 90
        0
280
       0
281
       0
  0
CLASS
  1
RASTERVARIABLES
  2
AcDbRasterVariables
  3
ISM
 90
        0
280
       0
281
       0
  0
CLASS
  1
IMAGEDEF
  2
AcDbRasterImageDef
  3
ISM
 90
        0
280
       0
281
       0
  0
CLASS
  1
IMAGEDEF_REACTOR
  2
AcDbRasterImageDefReactor
  3
ISM
 90
        1
280
       0
281
       0
  0
CLASS
  1
IDBUFFER
  2
AcDbIdBuffer
  3
"Acad"
 90
        0
280
       0
281
       0
  0
CLASS
  1
SPATIAL_FILTER
  2
AcDbSpatialFilter
  3
"Acad"
 90
        0
280
       0
281
       0
  0
CLASS
  1
XRECORD
  2
AcDbXrecord
  3
"<Built In>"
 90
        0
280
       0
281
       0
  0
CLASS
  1
SORTENTSTABLE
  2
AcDbSortentsTable
  3
"AutoCAD"
 90
        0
280
       0
281
       0
  0
CLASS
  1
LAYER_INDEX
  2
AcDbLayerIndex
  3
"Acad"
 90
        0
280
       0
281
       0
  0
CLASS
  1
SPATIAL_INDEX
  2
AcDbSpatialIndex
  3
"Acad"
 90
        0
280
       0
281
       0
  0
CLASS
  1
OBJECT_PTR
  2
CAseDLPNTableRecord
  3
"ASE-LPNTableRecord"
 90
        1
280
       0
281
       0
  0
CLASS
  1
LAYOUT
  2
AcDbLayout
  3
"AutoCAD 2000"
 90
        1
280
       0
281
       0
  0
CLASS
  1
PLOTSETTINGS
  2
AcDbPlotSettings
  3
"AutoCAD 2000"
 90
        1
280
       0
281
       0
  0
CLASS
  1
ACDBDICTIONARYWDFLT
  2
AcDbDictionaryWithDefault
  3
"AutoCAD 2000"
 90
        1
280
       0
281
       0
  0
CLASS
  1
ACDBPLACEHOLDER
  2
AcDbPlaceHolder
  3
"AutoCAD 2000"
 90
        1
280
       0
281
       0
  0
CLASS
  1
VBA_PROJECT
  2
AcDbVbaProject
  3
"acadvba"
 90
        1
280
       0
281
       0
  0
CLASS
  1
WIPEOUT
  2
AcDbWipeout
  3
WipeOut|AutoCAD Express Tool|expresstools@autodesk.com
 90
      127
280
       0
281
       1
  0
CLASS
  1
WIPEOUTVARIABLES
  2
AcDbWipeoutVariables
  3
WipeOut|AutoCAD Express Tool|expresstools@autodesk.com
 90
        0
280
       0
281
       0
  0
CLASS
  1
RTEXT
  2
RText
  3
RText|AutoCAD Express Tool|expresstools@autodesk.com
 90
        0
280
       0
281
       1
  0
CLASS
  1
ARCALIGNEDTEXT
  2
AcDbArcAlignedText
  3
ATEXT|AutoCAD Express Tool|expresstools@autodesk.com
 90
        0
280
       0
281
       1
  0
ENDSEC
  0
SECTION
  2
TABLES
  0
TABLE
  2
VPORT
  5
7
100
AcDbSymbolTable
 70
       1
  0
VPORT
  5
15
100
AcDbSymbolTableRecord
100
AcDbViewportTableRecord
  2
*ACTIVE
 70
       0
 10
0.0
 20
0.0
 11
1.0
 21
1.0
 12
-18.88084432
 22
0.0
 13
0.0
 23
0.0
 14
1.0
 24
1.0
 15
0.0
 25
0.0
 16
0.0
 26
0.0
 36
1.0
 17
0.0
 27
0.0
 37
0.0
 40
613.58816879
 41
1.22450692
 42
50.0
 43
0.0
 44
0.0
 50
0.0
 51
0.0
 71
       0
 72
     100
 73
       1
 74
       1
 75
       0
 76
       0
 77
       0
 78
       0
  0
ENDTAB
  0
TABLE
  2
LTYPE
  5
4
100
AcDbSymbolTable
 70
      30
  0
LTYPE
  5
11
100
AcDbSymbolTableRecord
100
AcDbLinetypeTableRecord
  2
BYBLOCK
 70
      64
  3

 72
      65
 73
       0
 40
0.0
  0
LTYPE
  5
12
100
AcDbSymbolTableRecord
100
AcDbLinetypeTableRecord
  2
BYLAYER
 70
      64
  3

 72
      65
 73
       0
 40
0.0
  0
LTYPE
  5
13
100
AcDbSymbolTableRecord
100
AcDbLinetypeTableRecord
  2
CONTINUOUS
 70
      64
  3
Solid line
 72
      65
 73
       0
 40
0.0
  0
LTYPE
  5
1D
100
AcDbSymbolTableRecord
100
AcDbLinetypeTableRecord
  2
HIDDENX2
 70
      64
  3
CADPAC LINETYPE
 72
      65
 73
       2
 40
32.65832363
 49
24.49374272
 74
       0
 49
-8.16458091
 74
       0
  0
LTYPE
  5
1E
100
AcDbSymbolTableRecord
100
AcDbLinetypeTableRecord
  2
HIDDEN
 70
      64
  3
CADPAC LINETYPE
 72
      65
 73
       2
 40
24.49374272
 49
16.32916181
 74
       0
 49
-8.16458091
 74
       0
  0
LTYPE
  5
1F
100
AcDbSymbolTableRecord
100
AcDbLinetypeTableRecord
  2
HIDDEN2
 70
      64
  3
CADPAC LINETYPE
 72
      65
 73
       2
 40
20.41145227
 49
12.24687136
 74
       0
 49
-8.16458091
 74
       0
  0
LTYPE
  5
20
100
AcDbSymbolTableRecord
100
AcDbLinetypeTableRecord
  2
DASHED
 70
      64
  3
CADPAC LINETYPE
 72
      65
 73
       2
 40
24.49374272
 49
16.32916181
 74
       0
 49
-8.16458091
 74
       0
  0
LTYPE
  5
21
100
AcDbSymbolTableRecord
100
AcDbLinetypeTableRecord
  2
DASHED2
 70
      64
  3
CADPAC LINETYPE
 72
      65
 73
       2
 40
18.37030704
 49
12.24687136
 74
       0
 49
-6.12343568
 74
       0
  0
LTYPE
  5
22
100
AcDbSymbolTableRecord
100
AcDbLinetypeTableRecord
  2
DASHEDX2
 70
      64
  3
CADPAC LINETYPE
 72
      65
 73
       2
 40
36.74061408
 49
24.49374272
 74
       0
 49
-12.24687136
 74
       0
  0
LTYPE
  5
23
100
AcDbSymbolTableRecord
100
AcDbLinetypeTableRecord
  2
DOTX2
 70
      64
  3
CADPAC LINETYPE
 72
      65
 73
       2
 40
10.20572613
 49
0.0
 74
       0
 49
-10.20572613
 74
       0
  0
LTYPE
  5
24
100
AcDbSymbolTableRecord
100
AcDbLinetypeTableRecord
  2
DOT
 70
      64
  3
CADPAC LINETYPE
 72
      65
 73
       2
 40
8.16458091
 49
0.0
 74
       0
 49
-8.16458091
 74
       0
  0
LTYPE
  5
25
100
AcDbSymbolTableRecord
100
AcDbLinetypeTableRecord
  2
DOT2
 70
      64
  3
CADPAC LINETYPE
 72
      65
 73
       2
 40
6.12343568
 49
0.0
 74
       0
 49
-6.12343568
 74
       0
  0
LTYPE
  5
26
100
AcDbSymbolTableRecord
100
AcDbLinetypeTableRecord
  2
CENTERX2
 70
      64
  3
CADPAC LINETYPE
 72
      65
 73
       4
 40
48.98748544
 49
20.41145227
 74
       0
 49
-10.20572613
 74
       0
 49
8.16458091
 74
       0
 49
-10.20572613
 74
       0
  0
LTYPE
  5
27
100
AcDbSymbolTableRecord
100
AcDbLinetypeTableRecord
  2
CENTER
 70
      64
  3
CADPAC LINETYPE
 72
      65
 73
       4
 40
37.55707217
 49
16.32916181
 74
       0
 49
-8.16458091
 74
       0
 49
4.89874854
 74
       0
 49
-8.16458091
 74
       0
  0
LTYPE
  5
28
100
AcDbSymbolTableRecord
100
AcDbLinetypeTableRecord
  2
CENTER2
 70
      64
  3
CADPAC LINETYPE
 72
      65
 73
       4
 40
26.1266589
 49
12.24687136
 74
       0
 49
-6.12343568
 74
       0
 49
1.63291618
 74
       0
 49
-6.12343568
 74
       0
  0
LTYPE
  5
29
100
AcDbSymbolTableRecord
100
AcDbLinetypeTableRecord
  2
DASHDOTX2
 70
      64
  3
CADPAC LINETYPE
 72
      65
 73
       4
 40
40.82290454
 49
20.41145227
 74
       0
 49
-10.20572613
 74
       0
 49
0.0
 74
       0
 49
-10.20572613
 74
       0
  0
LTYPE
  5
2A
100
AcDbSymbolTableRecord
100
AcDbLinetypeTableRecord
  2
DASHDOT
 70
      64
  3
CADPAC LINETYPE
 72
      65
 73
       4
 40
32.65832363
 49
16.32916181
 74
       0
 49
-8.16458091
 74
       0
 49
0.0
 74
       0
 49
-8.16458091
 74
       0
  0
LTYPE
  5
2B
100
AcDbSymbolTableRecord
100
AcDbLinetypeTableRecord
  2
DASHDOT2
 70
      64
  3
CADPAC LINETYPE
 72
      65
 73
       4
 40
24.49374272
 49
12.24687136
 74
       0
 49
-6.12343568
 74
       0
 49
0.0
 74
       0
 49
-6.12343568
 74
       0
  0
LTYPE
  5
2C
100
AcDbSymbolTableRecord
100
AcDbLinetypeTableRecord
  2
DIVIDEX2
 70
      64
  3
CADPAC LINETYPE
 72
      65
 73
       6
 40
51.02863067
 49
20.41145227
 74
       0
 49
-10.20572613
 74
       0
 49
0.0
 74
       0
 49
-10.20572613
 74
       0
 49
0.0
 74
       0
 49
-10.20572613
 74
       0
  0
LTYPE
  5
2D
100
AcDbSymbolTableRecord
100
AcDbLinetypeTableRecord
  2
DIVIDE
 70
      64
  3
CADPAC LINETYPE
 72
      65
 73
       6
 40
40.82290454
 49
16.32916181
 74
       0
 49
-8.16458091
 74
       0
 49
0.0
 74
       0
 49
-8.16458091
 74
       0
 49
0.0
 74
       0
 49
-8.16458091
 74
       0
  0
LTYPE
  5
2E
100
AcDbSymbolTableRecord
100
AcDbLinetypeTableRecord
  2
DIVIDE2
 70
      64
  3
CADPAC LINETYPE
 72
      65
 73
       6
 40
30.6171784
 49
12.24687136
 74
       0
 49
-6.12343568
 74
       0
 49
0.0
 74
       0
 49
-6.12343568
 74
       0
 49
0.0
 74
       0
 49
-6.12343568
 74
       0
  0
LTYPE
  5
2F
100
AcDbSymbolTableRecord
100
AcDbLinetypeTableRecord
  2
BORDERX2
 70
      64
  3
CADPAC LINETYPE
 72
      65
 73
       6
 40
71.44008294
 49
20.41145227
 74
       0
 49
-10.20572613
 74
       0
 49
20.41145227
 74
       0
 49
-10.20572613
 74
       0
 49
0.0
 74
       0
 49
-10.20572613
 74
       0
  0
LTYPE
  5
30
100
AcDbSymbolTableRecord
100
AcDbLinetypeTableRecord
  2
BORDER
 70
      64
  3
CADPAC LINETYPE
 72
      65
 73
       6
 40
57.15206635
 49
16.32916181
 74
       0
 49
-8.16458091
 74
       0
 49
16.32916181
 74
       0
 49
-8.16458091
 74
       0
 49
0.0
 74
       0
 49
-8.16458091
 74
       0
  0
LTYPE
  5
31
100
AcDbSymbolTableRecord
100
AcDbLinetypeTableRecord
  2
BORDER2
 70
      64
  3
CADPAC LINETYPE
 72
      65
 73
       6
 40
42.86404976
 49
12.24687136
 74
       0
 49
-6.12343568
 74
       0
 49
12.24687136
 74
       0
 49
-6.12343568
 74
       0
 49
0.0
 74
       0
 49
-6.12343568
 74
       0
  0
LTYPE
  5
32
100
AcDbSymbolTableRecord
100
AcDbLinetypeTableRecord
  2
PHANTOMX2
 70
      64
  3
CADPAC LINETYPE
 72
      65
 73
       6
 40
61.2343568
 49
20.41145227
 74
       0
 49
-8.16458091
 74
       0
 49
8.16458091
 74
       0
 49
-8.16458091
 74
       0
 49
8.16458091
 74
       0
 49
-8.16458091
 74
       0
  0
LTYPE
  5
33
100
AcDbSymbolTableRecord
100
AcDbLinetypeTableRecord
  2
PHANTOM
 70
      64
  3
CADPAC LINETYPE
 72
      65
 73
       6
 40
50.62040162
 49
16.32916181
 74
       0
 49
-8.16458091
 74
       0
 49
4.89874854
 74
       0
 49
-8.16458091
 74
       0
 49
4.89874854
 74
       0
 49
-8.16458091
 74
       0
  0
LTYPE
  5
34
100
AcDbSymbolTableRecord
100
AcDbLinetypeTableRecord
  2
PHANTOM2
 70
      64
  3
CADPAC LINETYPE
 72
      65
 73
       6
 40
43.27227881
 49
12.24687136
 74
       0
 49
-8.16458091
 74
       0
 49
3.26583236
 74
       0
 49
-8.16458091
 74
       0
 49
3.26583236
 74
       0
 49
-8.16458091
 74
       0
  0
LTYPE
  5
35
100
AcDbSymbolTableRecord
100
AcDbLinetypeTableRecord
  2
ACAD_ISO06W100
 70
      64
  3
CADPAC LINETYPE
 72
      65
 73
       8
 40
55.11092112
 49
20.41145227
 74
       0
 49
-10.20572613
 74
       0
 49
0.0
 74
       0
 49
-8.16458091
 74
       0
 49
0.0
 74
       0
 49
-8.16458091
 74
       0
 49
0.0
 74
       0
 49
-8.16458091
 74
       0
  0
LTYPE
  5
36
100
AcDbSymbolTableRecord
100
AcDbLinetypeTableRecord
  2
ACAD_ISO13W100
 70
      64
  3
CADPAC LINETYPE
 72
      65
 73
       8
 40
65.31664726
 49
16.32916181
 74
       0
 49
-8.16458091
 74
       0
 49
16.32916181
 74
       0
 49
-8.16458091
 74
       0
 49
0.0
 74
       0
 49
-8.16458091
 74
       0
 49
0.0
 74
       0
 49
-8.16458091
 74
       0
  0
LTYPE
  5
37
100
AcDbSymbolTableRecord
100
AcDbLinetypeTableRecord
  2
ACAD_ISO14W100
 70
      64
  3
CADPAC LINETYPE
 72
      65
 73
       8
 40
48.98748544
 49
16.32916181
 74
       0
 49
-8.16458091
 74
       0
 49
0.0
 74
       0
 49
-8.16458091
 74
       0
 49
0.0
 74
       0
 49
-8.16458091
 74
       0
 49
0.0
 74
       0
 49
-8.16458091
 74
       0
  0
ENDTAB
  0
TABLE
  2
LAYER
  5
2
100
AcDbSymbolTable
 70
       2
  0
LAYER
  5
14
100
AcDbSymbolTableRecord
100
AcDbLayerTableRecord
  2
0
 70
       0
 62
       7
  6
CONTINUOUS
  0
LAYER
  5
38
100
AcDbSymbolTableRecord
100
AcDbLayerTableRecord
  2
LAYER0001
 70
       0
 62
       7
  6
CONTINUOUS
  0
ENDTAB
  0
TABLE
  2
STYLE
  5
3
100
AcDbSymbolTable
 70
       1
  0
STYLE
  5
17
100
AcDbSymbolTableRecord
100
AcDbTextStyleTableRecord
  2
STANDARD
 70
       0
 40
0.0
 41
1.0
 50
0.0
 71
       0
 42
9.525
  3
txt.shx
  4
bigfont.shx
  0
ENDTAB
  0
TABLE
  2
VIEW
  5
5
100
AcDbSymbolTable
 70
       1
  0
VIEW
  5
39
100
AcDbSymbolTableRecord
100
AcDbViewTableRecord
  2
QQQQ
 70
       0
 40
613.58816879
 10
-18.88084432
 20
0.0
 41
751.34295684
 11
0.0
 21
0.0
 31
1.0
 12
100.0
 22
100.0
 32
0.0
 42
50.0
 43
0.0
 44
0.0
 50
0.0
 71
       0
  0
ENDTAB
  0
TABLE
  2
UCS
  5
6
100
AcDbSymbolTable
 70
       0
  0
ENDTAB
  0
TABLE
  2
APPID
  5
8
100
AcDbSymbolTable
 70
       1
  0
APPID
  5
16
100
AcDbSymbolTableRecord
100
AcDbRegAppTableRecord
  2
ACAD
 70
       0
  0
ENDTAB
  0
TABLE
  2
DIMSTYLE
  5
9
100
AcDbSymbolTable
 70
       1
  0
DIMSTYLE
105
18
100
AcDbSymbolTableRecord
100
AcDbDimStyleTableRecord
  2
STANDARD
 70
       0
  3

  4

  5

  6

  7

 40
1.0
 41
0.18
 42
0.0625
 43
0.38
 44
0.18
 45
0.0
 46
0.0
 47
0.0
 48
0.0
 71
       0
 72
       0
 73
       1
 74
       1
 75
       0
 76
       0
 77
       0
 78
       0
140
0.18
141
0.09
142
0.0
143
25.4
144
1.0
145
0.0
146
1.0
147
0.09
170
       0
171
       2
172
       0
173
       0
174
       0
175
       0
176
       0
177
       0
178
       0
270
       2
271
       4
272
       4
273
       2
274
       2
275
       0
280
       0
281
       0
282
       0
283
       1
284
       0
285
       0
286
       0
287
       0
288
       0
340
17
  0
ENDTAB
  0
TABLE
  2
BLOCK_RECORD
  5
1
100
AcDbSymbolTable
 70
      36
  0
BLOCK_RECORD
  5
A
100
AcDbSymbolTableRecord
100
AcDbBlockTableRecord
  2
*MODEL_SPACE
  0
BLOCK_RECORD
  5
B
100
AcDbSymbolTableRecord
100
AcDbBlockTableRecord
  2
*PAPER_SPACE
  0
BLOCK_RECORD
  5
3A
100
AcDbSymbolTableRecord
100
AcDbBlockTableRecord
  2
GROUP_1
  0
BLOCK_RECORD
  5
3B
100
AcDbSymbolTableRecord
100
AcDbBlockTableRecord
  2
GROUP_2
  0
BLOCK_RECORD
  5
3C
100
AcDbSymbolTableRecord
100
AcDbBlockTableRecord
  2
GROUP_3
  0
BLOCK_RECORD
  5
3D
100
AcDbSymbolTableRecord
100
AcDbBlockTableRecord
  2
GROUP_4
  0
BLOCK_RECORD
  5
3E
100
AcDbSymbolTableRecord
100
AcDbBlockTableRecord
  2
GROUP_5
  0
BLOCK_RECORD
  5
3F
100
AcDbSymbolTableRecord
100
AcDbBlockTableRecord
  2
GROUP_6
  0
BLOCK_RECORD
  5
40
100
AcDbSymbolTableRecord
100
AcDbBlockTableRecord
  2
GROUP_7
  0
BLOCK_RECORD
  5
41
100
AcDbSymbolTableRecord
100
AcDbBlockTableRecord
  2
GROUP_8
  0
BLOCK_RECORD
  5
42
100
AcDbSymbolTableRecord
100
AcDbBlockTableRecord
  2
GROUP_9
  0
BLOCK_RECORD
  5
43
100
AcDbSymbolTableRecord
100
AcDbBlockTableRecord
  2
GROUP_10
  0
BLOCK_RECORD
  5
44
100
AcDbSymbolTableRecord
100
AcDbBlockTableRecord
  2
GROUP_11
  0
BLOCK_RECORD
  5
45
100
AcDbSymbolTableRecord
100
AcDbBlockTableRecord
  2
GROUP_12
  0
BLOCK_RECORD
  5
46
100
AcDbSymbolTableRecord
100
AcDbBlockTableRecord
  2
GROUP_13
  0
BLOCK_RECORD
  5
47
100
AcDbSymbolTableRecord
100
AcDbBlockTableRecord
  2
GROUP_14
  0
BLOCK_RECORD
  5
48
100
AcDbSymbolTableRecord
100
AcDbBlockTableRecord
  2
GROUP_15
  0
BLOCK_RECORD
  5
49
100
AcDbSymbolTableRecord
100
AcDbBlockTableRecord
  2
GROUP_16
  0
BLOCK_RECORD
  5
4A
100
AcDbSymbolTableRecord
100
AcDbBlockTableRecord
  2
GROUP_17
  0
BLOCK_RECORD
  5
4B
100
AcDbSymbolTableRecord
100
AcDbBlockTableRecord
  2
GROUP_18
  0
BLOCK_RECORD
  5
4C
100
AcDbSymbolTableRecord
100
AcDbBlockTableRecord
  2
GROUP_19
  0
BLOCK_RECORD
  5
4D
100
AcDbSymbolTableRecord
100
AcDbBlockTableRecord
  2
GROUP_20
  0
BLOCK_RECORD
  5
4E
100
AcDbSymbolTableRecord
100
AcDbBlockTableRecord
  2
GROUP_21
  0
BLOCK_RECORD
  5
4F
100
AcDbSymbolTableRecord
100
AcDbBlockTableRecord
  2
GROUP_22
  0
BLOCK_RECORD
  5
50
100
AcDbSymbolTableRecord
100
AcDbBlockTableRecord
  2
GROUP_23
  0
BLOCK_RECORD
  5
51
100
AcDbSymbolTableRecord
100
AcDbBlockTableRecord
  2
GROUP_24
  0
BLOCK_RECORD
  5
52
100
AcDbSymbolTableRecord
100
AcDbBlockTableRecord
  2
GROUP_25
  0
BLOCK_RECORD
  5
53
100
AcDbSymbolTableRecord
100
AcDbBlockTableRecord
  2
GROUP_26
  0
BLOCK_RECORD
  5
54
100
AcDbSymbolTableRecord
100
AcDbBlockTableRecord
  2
GROUP_27
  0
BLOCK_RECORD
  5
55
100
AcDbSymbolTableRecord
100
AcDbBlockTableRecord
  2
GROUP_28
  0
BLOCK_RECORD
  5
56
100
AcDbSymbolTableRecord
100
AcDbBlockTableRecord
  2
GROUP_29
  0
BLOCK_RECORD
  5
57
100
AcDbSymbolTableRecord
100
AcDbBlockTableRecord
  2
GROUP_30
  0
BLOCK_RECORD
  5
58
100
AcDbSymbolTableRecord
100
AcDbBlockTableRecord
  2
GROUP_31
  0
BLOCK_RECORD
  5
59
100
AcDbSymbolTableRecord
100
AcDbBlockTableRecord
  2
GROUP_32
  0
BLOCK_RECORD
  5
5A
100
AcDbSymbolTableRecord
100
AcDbBlockTableRecord
  2
GROUP_33
  0
BLOCK_RECORD
  5
5B
100
AcDbSymbolTableRecord
100
AcDbBlockTableRecord
  2
GROUP_34
  0
BLOCK_RECORD
  5
5C
100
AcDbSymbolTableRecord
100
AcDbBlockTableRecord
  2
GROUP_35
  0
BLOCK_RECORD
  5
5D
100
AcDbSymbolTableRecord
100
AcDbBlockTableRecord
  2
GROUP_36
  0
ENDTAB
  0
ENDSEC
  0
SECTION
  2
BLOCKS
  0
BLOCK
  5
D
100
AcDbEntity
  8
0
100
AcDbBlockBegin
  2
*MODEL_SPACE
 70
       0
 10
0.0
 20
0.0
 30
0.0
  3
*MODEL_SPACE
  1

  0
ENDBLK
  5
E
100
AcDbEntity
  8
0
100
AcDbBlockEnd
  0
BLOCK
  5
F
100
AcDbEntity
 67
       1
  8
0
100
AcDbBlockBegin
  2
*PAPER_SPACE
 70
       0
 10
0.0
 20
0.0
 30
0.0
  3
*PAPER_SPACE
  1

  0
ENDBLK
  5
10
100
AcDbEntity
 67
       1
  8
0
100
AcDbBlockEnd
  0
BLOCK
  5
5E
100
AcDbEntity
  8
0
100
AcDbBlockBegin
  2
GROUP_1
 70
       0
 10
0.0
 20
0.0
 30
0.0
  3
GROUP_1
  1

  0
LINE
  5
5F
100
AcDbEntity
  8
LAYER0001
  6
CONTINUOUS
 62
       7
100
AcDbLine
 10
256.85264183
 20
-232.74170524
 30
0.0
 11
257.04709832
 21
-232.73974532
 31
0.0
  0
LINE
  5
60
100
AcDbEntity
  8
LAYER0001
  6
CONTINUOUS
 62
       7
100
AcDbLine
 10
257.04709832
 20
-232.73974532
 30
0.0
 11
257.24156372
 21
-232.73655045
 31
0.0
  0
LINE
  5
61
100
AcDbEntity
  8
LAYER0001
  6
CONTINUOUS
 62
       7
100
AcDbLine
 10
257.24156372
 20
-232.73655045
 30
0.0
 11
257.43604179
 21
-232.73103555
 31
0.0
  0
LINE
  5
62
100
AcDbEntity
  8
LAYER0001
  6
CONTINUOUS
 62
       7
100
AcDbLine
 10
257.43604179
 20
-232.73103555
 30
0.0
 11
257.63050834
 21
-232.72293331
 31
0.0
  0
LINE
  5
63
100
AcDbEntity
  8
LAYER0001
  6
CONTINUOUS
 62
       7
100
AcDbLine
 10
257.63050834
 20
-232.72293331
 30
0.0
 11
257.82492969
 21
-232.71225403
 31
0.0
  0
LINE
  5
64
100
AcDbEntity
  8
LAYER0001
  6
CONTINUOUS
 62
       7
100
AcDbLine
 10
257.82492969
 20
-232.71225403
 30
0.0
 11
258.01927214
 21
-232.69900821
 31
0.0
  0
LINE
  5
65
100
AcDbEntity
  8
LAYER0001
  6
CONTINUOUS
 62
       7
100
AcDbLine
 10
258.01927214
 20
-232.69900821
 30
0.0
 11
258.213502
 21
-232.68320639
 31
0.0
  0
LINE
  5
66
100
AcDbEntity
  8
LAYER0001
  6
CONTINUOUS
 62
       7
100
AcDbLine
 10
258.213502
 20
-232.68320639
 30
0.0
 11
258.40758558
 21
-232.66485907
 31
0.0
  0
LINE
  5
67
100
AcDbEntity
  8
LAYER0001
  6
CONTINUOUS
 62
       7
100
AcDbLine
 10
258.40758558
 20
-232.66485907
 30
0.0
 11
258.60148918
 21
-232.64397677
 31
0.0
  0
LINE
  5
68
100
AcDbEntity
  8
LAYER0001
  6
CONTINUOUS
 62
       7
100
AcDbLine
 10
258.60148918
 20
-232.64397677
 30
0.0
 11
258.79517911
 21
-232.62057001
 31
0.0
  0
LINE
  5
69
100
AcDbEntity
  8
LAYER0001
  6
CONTINUOUS
 62
       7
100
AcDbLine
 10
258.79517911
 20
-232.62057001
 30
0.0
 11
258.98862167
 21
-232.59464931
 31
0.0
  0
LINE
  5
6A
100
AcDbEntity
  8
LAYER0001
  6
CONTINUOUS
 62
       7
100
AcDbLine
 10
258.98862167
 20
-232.59464931
 30
0.0
 11
259.18178318
 21
-232.56622518
 31
0.0
  0
LINE
  5
6B
100
AcDbEntity
  8
LAYER0001
  6
CONTINUOUS
 62
       7
100
AcDbLine
 10
259.18178318
 20
-232.56622518
 30
0.0
 11
259.37462994
 21
-232.53530814
 31
0.0
  0
LINE
  5
6C
100
AcDbEntity
  8
LAYER0001
  6
CONTINUOUS
 62
       7
100
AcDbLine
 10
259.37462994
 20
-232.53530814
 30
0.0
 11
259.56712825
 21
-232.50190871
 31
0.0
  0
LINE
  5
6D
100
AcDbEntity
  8
LAYER0001
  6
CONTINUOUS
 62
       7
100
AcDbLine
 10
259.56712825
 20
-232.50190871
 30
0.0
 11
259.75924443
 21
-232.4660374
 31
0.0
  0
LINE
  5
6E
100
AcDbEntity
  8
LAYER0001
  6
CONTINUOUS
 62
       7
100
AcDbLine
 10
259.75924443
 20
-232.4660374
 30
0.0
 11
259.95094478
 21
-232.42770474
 31
0.0
  0
LINE
  5
6F
100
AcDbEntity
  8
LAYER0001
  6
CONTINUOUS
 62
       7
100
AcDbLine
 10
259.95094478
 20
-232.42770474
 30
0.0
 11
260.1422092
 21
-232.38695523
 31
0.0
  0
LINE
  5
70
100
AcDbEntity
  8
LAYER0001
  6
CONTINUOUS
 62
       7
100
AcDbLine
 10
260.1422092
 20
-232.38695523
 30
0.0
 11
260.33306085
 21
-232.34394153
 31
0.0
  0
LINE
  5
71
100
AcDbEntity
  8
LAYER0001
  6
CONTINUOUS
 62
       7
100
AcDbLine
 10
260.33306085
 20
-232.34394153
 30
0.0
 11
260.52353147
 21
-232.29883783
 31
0.0
  0
LINE
  5
72
100
AcDbEntity
  8
LAYER0001
  6
CONTINUOUS
 62
       7
100
AcDbLine
 10
260.52353147
 20
-232.29883783
 30
0.0
 11
260.71365282
 21
-232.25181828
 31
0.0
  0
LINE
  5
73
100
AcDbEntity
  8
LAYER0001
  6
CONTINUOUS
 62
       7
100
AcDbLine
 10
260.71365282
 20
-232.25181828
 30
0.0
 11
260.90345665
 21
-232.20305705
 31
0.0
  0
LINE
  5
74
100
AcDbEntity
  8
LAYER0001
  6
CONTINUOUS
 62
       7
100
AcDbLine
 10
260.90345665
 20
-232.20305705
 30
0.0
 11
261.09297471
 21
-232.15272831
 31
0.0
  0
LINE
  5
75
100
AcDbEntity
  8
LAYER0001
  6
CONTINUOUS
 62
       7
100
AcDbLine
 10
261.09297471
 20
-232.15272831
 30
0.0
 11
261.28223876
 21
-232.10100623
 31
0.0
  0
LINE
  5
76
100
AcDbEntity
  8
LAYER0001
  6
CONTINUOUS
 62
       7
100
AcDbLine
 10
261.28223876
 20
-232.10100623
 30
0.0
 11
261.47128055
 21
-232.04806498
 31
0.0
  0
LINE
  5
77
100
AcDbEntity
  8
LAYER0001
  6
CONTINUOUS
 62
       7
100
AcDbLine
 10
261.47128055
 20
-232.04806498
 30
0.0
 11
261.66013182
 21
-231.99407872
 31
0.0
  0
LINE
  5
78
100
AcDbEntity
  8
LAYER0001
  6
CONTINUOUS
 62
       7
100
AcDbLine
 10
261.66013182
 20
-231.99407872
 30
0.0
 11
261.84882434
 21
-231.93922162
 31
0.0
  0
LINE
  5
79
100
AcDbEntity
  8
LAYER0001
  6
CONTINUOUS
 62
       7
100
AcDbLine
 10
261.84882434
 20
-231.93922162
 30
0.0
 11
262.03738984
 21
-231.88366785
 31
0.0
  0
LINE
  5
7A
100
AcDbEntity
  8
LAYER0001
  6
CONTINUOUS
 62
       7
100
AcDbLine
 10
262.03738984
 20
-231.88366785
 30
0.0
 11
262.2258601
 21
-231.82759158
 31
0.0
  0
LINE
  5
7B
100
AcDbEntity
  8
LAYER0001
  6
CONTINUOUS
 62
       7
100
AcDbLine
 10
262.2258601
 20
-231.82759158
 30
0.0
 11
262.41426684
 21
-231.77116697
 31
0.0
  0
LINE
  5
7C
100
AcDbEntity
  8
LAYER0001
  6
CONTINUOUS
 62
       7
100
AcDbLine
 10
262.41426684
 20
-231.77116697
 30
0.0
 11
262.60264184
 21
-231.7145682
 31
0.0
  0
ENDBLK
  5
7D
100
AcDbEntity
  8
0
100
AcDbBlockEnd
  0
BLOCK
  5
7E
100
AcDbEntity
  8
0
100
AcDbBlockBegin
  2
GROUP_2
 70
       0
 10
0.0
 20
0.0
 30
0.0
  3
GROUP_2
  1

  0
LINE
  5
7F
100
AcDbEntity
  8
LAYER0001
  6
CONTINUOUS
 62
       7
100
AcDbLine
 10
262.60264184
 20
-231.7145682
 30
0.0
 11
262.82882288
 21
-231.78403734
 31
0.0
  0
LINE
  5
80
100
AcDbEntity
  8
LAYER0001
  6
CONTINUOUS
 62
       7
100
AcDbLine
 10
262.82882288
 20
-231.78403734
 30
0.0
 11
263.05505321
 21
-231.85314016
 31
0.0
  0
LINE
  5
81
100
AcDbEntity
  8
LAYER0001
  6
CONTINUOUS
 62
       7
100
AcDbLine
 10
263.05505321
 20
-231.85314016
 30
0.0
 11
263.28138212
 21
-231.92151033
 31
0.0
  0
LINE
  5
82
100
AcDbEntity
  8
LAYER0001
  6
CONTINUOUS
 62
       7
100
AcDbLine
 10
263.28138212
 20
-231.92151033
 30
0.0
 11
263.50785889
 21
-231.98878154
 31
0.0
  0
LINE
  5
83
100
AcDbEntity
  8
LAYER0001
  6
CONTINUOUS
 62
       7
100
AcDbLine
 10
263.50785889
 20
-231.98878154
 30
0.0
 11
263.73453281
 21
-232.05458747
 31
0.0
  0
LINE
  5
84
100
AcDbEntity
  8
LAYER0001
  6
CONTINUOUS
 62
       7
100
AcDbLine
 10
263.73453281
 20
-232.05458747
 30
0.0
 11
263.96145316
 21
-232.1185618
 31
0.0
  0
LINE
  5
85
100
AcDbEntity
  8
LAYER0001
  6
CONTINUOUS
 62
       7
100
AcDbLine
 10
263.96145316
 20
-232.1185618
 30
0.0
 11
264.18866925
 21
-232.1803382
 31
0.0
  0
LINE
  5
86
100
AcDbEntity
  8
LAYER0001
  6
CONTINUOUS
 62
       7
100
AcDbLine
 10
264.18866925
 20
-232.1803382
 30
0.0
 11
264.41623035
 21
-232.23955035
 31
0.0
  0
LINE
  5
87
100
AcDbEntity
  8
LAYER0001
  6
CONTINUOUS
 62
       7
100
AcDbLine
 10
264.41623035
 20
-232.23955035
 30
0.0
 11
264.64418574
 21
-232.29583193
 31
0.0
  0
LINE
  5
88
100
AcDbEntity
  8
LAYER0001
  6
CONTINUOUS
 62
       7
100
AcDbLine
 10
264.64418574
 20
-232.29583193
 30
0.0
 11
264.87258473
 21
-232.34881663
 31
0.0
  0
LINE
  5
89
100
AcDbEntity
  8
LAYER0001
  6
CONTINUOUS
 62
       7
100
AcDbLine
 10
264.87258473
 20
-232.34881663
 30
0.0
 11
265.1014766
 21
-232.39813812
 31
0.0
  0
LINE
  5
8A
100
AcDbEntity
  8
LAYER0001
  6
CONTINUOUS
 62
       7
100
AcDbLine
 10
265.1014766
 20
-232.39813812
 30
0.0
 11
265.33091063
 21
-232.44343007
 31
0.0
  0
LINE
  5
8B
100
AcDbEntity
  8
LAYER0001
  6
CONTINUOUS
 62
       7
100
AcDbLine
 10
265.33091063
 20
-232.44343007
 30
0.0
 11
265.56093235
 21
-232.48435412
 31
0.0
  0
LINE
  5
8C
100
AcDbEntity
  8
LAYER0001
  6
CONTINUOUS
 62
       7
100
AcDbLine
 10
265.56093235
 20
-232.48435412
 30
0.0
 11
265.79153393
 21
-232.52096846
 31
0.0
  0
LINE
  5
8D
100
AcDbEntity
  8
LAYER0001
  6
CONTINUOUS
 62
       7
100
AcDbLine
 10
265.79153393
 20
-232.52096846
 30
0.0
 11
266.02266791
 21
-232.55362582
 31
0.0
  0
LINE
  5
8E
100
AcDbEntity
  8
LAYER0001
  6
CONTINUOUS
 62
       7
100
AcDbLine
 10
266.02266791
 20
-232.55362582
 30
0.0
 11
266.2542859
 21
-232.58268593
 31
0.0
  0
LINE
  5
8F
100
AcDbEntity
  8
LAYER0001
  6
CONTINUOUS
 62
       7
100
AcDbLine
 10
266.2542859
 20
-232.58268593
 30
0.0
 11
266.48633949
 21
-232.60850851
 31
0.0
  0
LINE
  5
90
100
AcDbEntity
  8
LAYER0001
  6
CONTINUOUS
 62
       7
100
AcDbLine
 10
266.48633949
 20
-232.60850851
 30
0.0
 11
266.71878028
 21
-232.63145329
 31
0.0
  0
LINE
  5
91
100
AcDbEntity
  8
LAYER0001
  6
CONTINUOUS
 62
       7
100
AcDbLine
 10
266.71878028
 20
-232.63145329
 30
0.0
 11
266.95155988
 21
-232.65188
 31
0.0
  0
LINE
  5
92
100
AcDbEntity
  8
LAYER0001
  6
CONTINUOUS
 62
       7
100
AcDbLine
 10
266.95155988
 20
-232.65188
 30
0.0
 11
267.18462987
 21
-232.67014835
 31
0.0
  0
LINE
  5
93
100
AcDbEntity
  8
LAYER0001
  6
CONTINUOUS
 62
       7
100
AcDbLine
 10
267.18462987
 20
-232.67014835
 30
0.0
 11
267.41794186
 21
-232.68661808
 31
0.0
  0
LINE
  5
94
100
AcDbEntity
  8
LAYER0001
  6
CONTINUOUS
 62
       7
100
AcDbLine
 10
267.41794186
 20
-232.68661808
 30
0.0
 11
267.65144746
 21
-232.70164891
 31
0.0
  0
LINE
  5
95
100
AcDbEntity
  8
LAYER0001
  6
CONTINUOUS
 62
       7
100
AcDbLine
 10
267.65144746
 20
-232.70164891
 30
0.0
 11
267.88509826
 21
-232.71560056
 31
0.0
  0
LINE
  5
96
100
AcDbEntity
  8
LAYER0001
  6
CONTINUOUS
 62
       7
100
AcDbLine
 10
267.88509826
 20
-232.71560056
 30
0.0
 11
268.11884585
 21
-232.72883276
 31
0.0
  0
LINE
  5
97
100
AcDbEntity
  8
LAYER0001
  6
CONTINUOUS
 62
       7
100
AcDbLine
 10
268.11884585
 20
-232.72883276
 30
0.0
 11
268.35264185
 21
-232.74170524
 31
0.0
  0
ENDBLK
  5
98
100
AcDbEntity
  8
0
100
AcDbBlockEnd
  0
BLOCK
  5
99
100
AcDbEntity
  8
0
100
AcDbBlockBegin
  2
GROUP_3
 70
       0
 10
0.0
 20
0.0
 30
0.0
  3
GROUP_3
  1

  0
LINE
  5
9A
100
AcDbEntity
  8
LAYER0001
  6
CONTINUOUS
 62
       7
100
AcDbLine
 10
268.35264185
 20
-225.24171239
 30
0.0
 11
268.15818502
 21
-225.24365736
 31
0.0
  0
LINE
  5
9B
100
AcDbEntity
  8
LAYER0001
  6
CONTINUOUS
 62
       7
100
AcDbLine
 10
268.15818502
 20
-225.24365736
 30
0.0
 11
267.9637193
 21
-225.24683865
 31
0.0
  0
LINE
  5
9C
100
AcDbEntity
  8
LAYER0001
  6
CONTINUOUS
 62
       7
100
AcDbLine
 10
267.9637193
 20
-225.24683865
 30
0.0
 11
267.76924091
 21
-225.25234254
 31
0.0
  0
LINE
  5
9D
100
AcDbEntity
  8
LAYER0001
  6
CONTINUOUS
 62
       7
100
AcDbLine
 10
267.76924091
 20
-225.25234254
 30
0.0
 11
267.57477405
 21
-225.26043644
 31
0.0
  0
LINE
  5
9E
100
AcDbEntity
  8
LAYER0001
  6
CONTINUOUS
 62
       7
100
AcDbLine
 10
267.57477405
 20
-225.26043644
 30
0.0
 11
267.38035241
 21
-225.27110981
 31
0.0
  0
LINE
  5
9F
100
AcDbEntity
  8
LAYER0001
  6
CONTINUOUS
 62
       7
100
AcDbLine
 10
267.38035241
 20
-225.27110981
 30
0.0
 11
267.18600968
 21
-225.28435189
 31
0.0
  0
LINE
  5
A0
100
AcDbEntity
  8
LAYER0001
  6
CONTINUOUS
 62
       7
100
AcDbLine
 10
267.18600968
 20
-225.28435189
 30
0.0
 11
266.99177956
 21
-225.30015192
 31
0.0
  0
LINE
  5
A1
100
AcDbEntity
  8
LAYER0001
  6
CONTINUOUS
 62
       7
100
AcDbLine
 10
266.99177956
 20
-225.30015192
 30
0.0
 11
266.79769575
 21
-225.31849914
 31
0.0
  0
LINE
  5
A2
100
AcDbEntity
  8
LAYER0001
  6
CONTINUOUS
 62
       7
100
AcDbLine
 10
266.79769575
 20
-225.31849914
 30
0.0
 11
266.60379194
 21
-225.33938277
 31
0.0
  0
LINE
  5
A3
100
AcDbEntity
  8
LAYER0001
  6
CONTINUOUS
 62
       7
100
AcDbLine
 10
266.60379194
 20
-225.33938277
 30
0.0
 11
266.41010182
 21
-225.36279208
 31
0.0
  0
LINE
  5
A4
100
AcDbEntity
  8
LAYER0001
  6
CONTINUOUS
 62
       7
100
AcDbLine
 10
266.41010182
 20
-225.36279208
 30
0.0
 11
266.2166591
 21
-225.38871628
 31
0.0
  0
LINE
  5
A5
100
AcDbEntity
  8
LAYER0001
  6
CONTINUOUS
 62
       7
100
AcDbLine
 10
266.2166591
 20
-225.38871628
 30
0.0
 11
266.02349746
 21
-225.41714461
 31
0.0
  0
LINE
  5
A6
100
AcDbEntity
  8
LAYER0001
  6
CONTINUOUS
 62
       7
100
AcDbLine
 10
266.02349746
 20
-225.41714461
 30
0.0
 11
265.83065061
 21
-225.44806633
 31
0.0
  0
LINE
  5
A7
100
AcDbEntity
  8
LAYER0001
  6
CONTINUOUS
 62
       7
100
AcDbLine
 10
265.83065061
 20
-225.44806633
 30
0.0
 11
265.63815224
 21
-225.48147065
 31
0.0
  0
LINE
  5
A8
100
AcDbEntity
  8
LAYER0001
  6
CONTINUOUS
 62
       7
100
AcDbLine
 10
265.63815224
 20
-225.48147065
 30
0.0
 11
265.44603604
 21
-225.51734683
 31
0.0
  0
LINE
  5
A9
100
AcDbEntity
  8
LAYER0001
  6
CONTINUOUS
 62
       7
100
AcDbLine
 10
265.44603604
 20
-225.51734683
 30
0.0
 11
265.2543357
 21
-225.55568408
 31
0.0
  0
LINE
  5
AA
100
AcDbEntity
  8
LAYER0001
  6
CONTINUOUS
 62
       7
100
AcDbLine
 10
265.2543357
 20
-225.55568408
 30
0.0
 11
265.06307134
 21
-225.59643773
 31
0.0
  0
LINE
  5
AB
100
AcDbEntity
  8
LAYER0001
  6
CONTINUOUS
 62
       7
100
AcDbLine
 10
265.06307134
 20
-225.59643773
 30
0.0
 11
264.87221979
 21
-225.6394551
 31
0.0
  0
LINE
  5
AC
100
AcDbEntity
  8
LAYER0001
  6
CONTINUOUS
 62
       7
100
AcDbLine
 10
264.87221979
 20
-225.6394551
 30
0.0
 11
264.6817493
 21
-225.68456205
 31
0.0
  0
LINE
  5
AD
100
AcDbEntity
  8
LAYER0001
  6
CONTINUOUS
 62
       7
100
AcDbLine
 10
264.6817493
 20
-225.68456205
 30
0.0
 11
264.49162811
 21
-225.73158446
 31
0.0
  0
LINE
  5
AE
100
AcDbEntity
  8
LAYER0001
  6
CONTINUOUS
 62
       7
100
AcDbLine
 10
264.49162811
 20
-225.73158446
 30
0.0
 11
264.30182447
 21
-225.78034819
 31
0.0
  0
LINE
  5
AF
100
AcDbEntity
  8
LAYER0001
  6
CONTINUOUS
 62
       7
100
AcDbLine
 10
264.30182447
 20
-225.78034819
 30
0.0
 11
264.11230663
 21
-225.83067911
 31
0.0
  0
LINE
  5
B0
100
AcDbEntity
  8
LAYER0001
  6
CONTINUOUS
 62
       7
100
AcDbLine
 10
264.11230663
 20
-225.83067911
 30
0.0
 11
263.92304282
 21
-225.88240309
 31
0.0
  0
LINE
  5
B1
100
AcDbEntity
  8
LAYER0001
  6
CONTINUOUS
 62
       7
100
AcDbLine
 10
263.92304282
 20
-225.88240309
 30
0.0
 11
263.73400129
 21
-225.93534599
 31
0.0
  0
LINE
  5
B2
100
AcDbEntity
  8
LAYER0001
  6
CONTINUOUS
 62
       7
100
AcDbLine
 10
263.73400129
 20
-225.93534599
 30
0.0
 11
263.5451503
 21
-225.98933369
 31
0.0
  0
LINE
  5
B3
100
AcDbEntity
  8
LAYER0001
  6
CONTINUOUS
 62
       7
100
AcDbLine
 10
263.5451503
 20
-225.98933369
 30
0.0
 11
263.35645808
 21
-226.04419204
 31
0.0
  0
LINE
  5
B4
100
AcDbEntity
  8
LAYER0001
  6
CONTINUOUS
 62
       7
100
AcDbLine
 10
263.35645808
 20
-226.04419204
 30
0.0
 11
263.16789288
 21
-226.09974693
 31
0.0
  0
LINE
  5
B5
100
AcDbEntity
  8
LAYER0001
  6
CONTINUOUS
 62
       7
100
AcDbLine
 10
263.16789288
 20
-226.09974693
 30
0.0
 11
262.97942294
 21
-226.15582421
 31
0.0
  0
LINE
  5
B6
100
AcDbEntity
  8
LAYER0001
  6
CONTINUOUS
 62
       7
100
AcDbLine
 10
262.97942294
 20
-226.15582421
 30
0.0
 11
262.79101651
 21
-226.21224975
 31
0.0
  0
LINE
  5
B7
100
AcDbEntity
  8
LAYER0001
  6
CONTINUOUS
 62
       7
100
AcDbLine
 10
262.79101651
 20
-226.21224975
 30
0.0
 11
262.60264184
 21
-226.26884943
 31
0.0
  0
ENDBLK
  5
B8
100
AcDbEntity
  8
0
100
AcDbBlockEnd
  0
BLOCK
  5
B9
100
AcDbEntity
  8
0
100
AcDbBlockBegin
  2
GROUP_4
 70
       0
 10
0.0
 20
0.0
 30
0.0
  3
GROUP_4
  1

  0
LINE
  5
BA
100
AcDbEntity
  8
LAYER0001
  6
CONTINUOUS
 62
       7
100
AcDbLine
 10
274.10264186
 20
-226.26884943
 30
0.0
 11
273.87646126
 21
-226.19937681
 31
0.0
  0
LINE
  5
BB
100
AcDbEntity
  8
LAYER0001
  6
CONTINUOUS
 62
       7
100
AcDbLine
 10
273.87646126
 20
-226.19937681
 30
0.0
 11
273.65023136
 21
-226.13027055
 31
0.0
  0
LINE
  5
BC
100
AcDbEntity
  8
LAYER0001
  6
CONTINUOUS
 62
       7
100
AcDbLine
 10
273.65023136
 20
-226.13027055
 30
0.0
 11
273.42390287
 21
-226.06189703
 31
0.0
  0
LINE
  5
BD
100
AcDbEntity
  8
LAYER0001
  6
CONTINUOUS
 62
       7
100
AcDbLine
 10
273.42390287
 20
-226.06189703
 30
0.0
 11
273.1974265
 21
-225.9946226
 31
0.0
  0
LINE
  5
BE
100
AcDbEntity
  8
LAYER0001
  6
CONTINUOUS
 62
       7
100
AcDbLine
 10
273.1974265
 20
-225.9946226
 30
0.0
 11
272.97075297
 21
-225.92881363
 31
0.0
  0
LINE
  5
BF
100
AcDbEntity
  8
LAYER0001
  6
CONTINUOUS
 62
       7
100
AcDbLine
 10
272.97075297
 20
-225.92881363
 30
0.0
 11
272.74383296
 21
-225.8648365
 31
0.0
  0
LINE
  5
C0
100
AcDbEntity
  8
LAYER0001
  6
CONTINUOUS
 62
       7
100
AcDbLine
 10
272.74383296
 20
-225.8648365
 30
0.0
 11
272.5166172
 21
-225.80305755
 31
0.0
  0
LINE
  5
C1
100
AcDbEntity
  8
LAYER0001
  6
CONTINUOUS
 62
       7
100
AcDbLine
 10
272.5166172
 20
-225.80305755
 30
0.0
 11
272.28905638
 21
-225.74384317
 31
0.0
  0
LINE
  5
C2
100
AcDbEntity
  8
LAYER0001
  6
CONTINUOUS
 62
       7
100
AcDbLine
 10
272.28905638
 20
-225.74384317
 30
0.0
 11
272.06110122
 21
-225.6875597
 31
0.0
  0
LINE
  5
C3
100
AcDbEntity
  8
LAYER0001
  6
CONTINUOUS
 62
       7
100
AcDbLine
 10
272.06110122
 20
-225.6875597
 30
0.0
 11
271.83270241
 21
-225.63457353
 31
0.0
  0
LINE
  5
C4
100
AcDbEntity
  8
LAYER0001
  6
CONTINUOUS
 62
       7
100
AcDbLine
 10
271.83270241
 20
-225.63457353
 30
0.0
 11
271.60381068
 21
-225.58525102
 31
0.0
  0
LINE
  5
C5
100
AcDbEntity
  8
LAYER0001
  6
CONTINUOUS
 62
       7
100
AcDbLine
 10
271.60381068
 20
-225.58525102
 30
0.0
 11
271.37437672
 21
-225.53995852
 31
0.0
  0
LINE
  5
C6
100
AcDbEntity
  8
LAYER0001
  6
CONTINUOUS
 62
       7
100
AcDbLine
 10
271.37437672
 20
-225.53995852
 30
0.0
 11
271.144355
 21
-225.49903447
 31
0.0
  0
LINE
  5
C7
100
AcDbEntity
  8
LAYER0001
  6
CONTINUOUS
 62
       7
100
AcDbLine
 10
271.144355
 20
-225.49903447
 30
0.0
 11
270.91375335
 21
-225.46242066
 31
0.0
  0
LINE
  5
C8
100
AcDbEntity
  8
LAYER0001
  6
CONTINUOUS
 62
       7
100
AcDbLine
 10
270.91375335
 20
-225.46242066
 30
0.0
 11
270.68261923
 21
-225.42976433
 31
0.0
  0
LINE
  5
C9
100
AcDbEntity
  8
LAYER0001
  6
CONTINUOUS
 62
       7
100
AcDbLine
 10
270.68261923
 20
-225.42976433
 30
0.0
 11
270.45100106
 21
-225.40070569
 31
0.0
  0
LINE
  5
CA
100
AcDbEntity
  8
LAYER0001
  6
CONTINUOUS
 62
       7
100
AcDbLine
 10
270.45100106
 20
-225.40070569
 30
0.0
 11
270.21894724
 21
-225.37488498
 31
0.0
  0
LINE
  5
CB
100
AcDbEntity
  8
LAYER0001
  6
CONTINUOUS
 62
       7
100
AcDbLine
 10
270.21894724
 20
-225.37488498
 30
0.0
 11
269.98650617
 21
-225.35194244
 31
0.0
  0
LINE
  5
CC
100
AcDbEntity
  8
LAYER0001
  6
CONTINUOUS
 62
       7
100
AcDbLine
 10
269.98650617
 20
-225.35194244
 30
0.0
 11
269.75372625
 21
-225.33151828
 31
0.0
  0
LINE
  5
CD
100
AcDbEntity
  8
LAYER0001
  6
CONTINUOUS
 62
       7
100
AcDbLine
 10
269.75372625
 20
-225.33151828
 30
0.0
 11
269.52065591
 21
-225.31325274
 31
0.0
  0
LINE
  5
CE
100
AcDbEntity
  8
LAYER0001
  6
CONTINUOUS
 62
       7
100
AcDbLine
 10
269.52065591
 20
-225.31325274
 30
0.0
 11
269.28734353
 21
-225.29678605
 31
0.0
  0
LINE
  5
CF
100
AcDbEntity
  8
LAYER0001
  6
CONTINUOUS
 62
       7
100
AcDbLine
 10
269.28734353
 20
-225.29678605
 30
0.0
 11
269.05383753
 21
-225.28175844
 31
0.0
  0
LINE
  5
D0
100
AcDbEntity
  8
LAYER0001
  6
CONTINUOUS
 62
       7
100
AcDbLine
 10
269.05383753
 20
-225.28175844
 30
0.0
 11
268.82018631
 21
-225.26781014
 31
0.0
  0
LINE
  5
D1
100
AcDbEntity
  8
LAYER0001
  6
CONTINUOUS
 62
       7
100
AcDbLine
 10
268.82018631
 20
-225.26781014
 30
0.0
 11
268.58643828
 21
-225.25458138
 31
0.0
  0
LINE
  5
D2
100
AcDbEntity
  8
LAYER0001
  6
CONTINUOUS
 62
       7
100
AcDbLine
 10
268.58643828
 20
-225.25458138
 30
0.0
 11
268.35264185
 21
-225.24171239
 31
0.0
  0
ENDBLK
  5
D3
100
AcDbEntity
  8
0
100
AcDbBlockEnd
  0
BLOCK
  5
D4
100
AcDbEntity
  8
0
100
AcDbBlockBegin
  2
GROUP_5
 70
       0
 10
0.0
 20
0.0
 30
0.0
  3
GROUP_5
  1

  0
LINE
  5
D5
100
AcDbEntity
  8
LAYER0001
  6
CONTINUOUS
 62
       7
100
AcDbLine
 10
268.35264185
 20
-232.74170524
 30
0.0
 11
268.54709816
 21
-232.73974532
 31
0.0
  0
LINE
  5
D6
100
AcDbEntity
  8
LAYER0001
  6
CONTINUOUS
 62
       7
100
AcDbLine
 10
268.54709816
 20
-232.73974532
 30
0.0
 11
268.74156338
 21
-232.73655046
 31
0.0
  0
LINE
  5
D7
100
AcDbEntity
  8
LAYER0001
  6
CONTINUOUS
 62
       7
100
AcDbLine
 10
268.74156338
 20
-232.73655046
 30
0.0
 11
268.93604132
 21
-232.73103556
 31
0.0
  0
LINE
  5
D8
100
AcDbEntity
  8
LAYER0001
  6
CONTINUOUS
 62
       7
100
AcDbLine
 10
268.93604132
 20
-232.73103556
 30
0.0
 11
269.13050778
 21
-232.72293333
 31
0.0
  0
LINE
  5
D9
100
AcDbEntity
  8
LAYER0001
  6
CONTINUOUS
 62
       7
100
AcDbLine
 10
269.13050778
 20
-232.72293333
 30
0.0
 11
269.32492907
 21
-232.71225405
 31
0.0
  0
LINE
  5
DA
100
AcDbEntity
  8
LAYER0001
  6
CONTINUOUS
 62
       7
100
AcDbLine
 10
269.32492907
 20
-232.71225405
 30
0.0
 11
269.51927149
 21
-232.69900824
 31
0.0
  0
LINE
  5
DB
100
AcDbEntity
  8
LAYER0001
  6
CONTINUOUS
 62
       7
100
AcDbLine
 10
269.51927149
 20
-232.69900824
 30
0.0
 11
269.71350135
 21
-232.68320643
 31
0.0
  0
LINE
  5
DC
100
AcDbEntity
  8
LAYER0001
  6
CONTINUOUS
 62
       7
100
AcDbLine
 10
269.71350135
 20
-232.68320643
 30
0.0
 11
269.90758495
 21
-232.66485911
 31
0.0
  0
LINE
  5
DD
100
AcDbEntity
  8
LAYER0001
  6
CONTINUOUS
 62
       7
100
AcDbLine
 10
269.90758495
 20
-232.66485911
 30
0.0
 11
270.10148858
 21
-232.64397682
 31
0.0
  0
LINE
  5
DE
100
AcDbEntity
  8
LAYER0001
  6
CONTINUOUS
 62
       7
100
AcDbLine
 10
270.10148858
 20
-232.64397682
 30
0.0
 11
270.29517857
 21
-232.62057007
 31
0.0
  0
LINE
  5
DF
100
AcDbEntity
  8
LAYER0001
  6
CONTINUOUS
 62
       7
100
AcDbLine
 10
270.29517857
 20
-232.62057007
 30
0.0
 11
270.4886212
 21
-232.59464937
 31
0.0
  0
LINE
  5
E0
100
AcDbEntity
  8
LAYER0001
  6
CONTINUOUS
 62
       7
100
AcDbLine
 10
270.4886212
 20
-232.59464937
 30
0.0
 11
270.68178279
 21
-232.56622524
 31
0.0
  0
LINE
  5
E1
100
AcDbEntity
  8
LAYER0001
  6
CONTINUOUS
 62
       7
100
AcDbLine
 10
270.68178279
 20
-232.56622524
 30
0.0
 11
270.87462962
 21
-232.53530821
 31
0.0
  0
LINE
  5
E2
100
AcDbEntity
  8
LAYER0001
  6
CONTINUOUS
 62
       7
100
AcDbLine
 10
270.87462962
 20
-232.53530821
 30
0.0
 11
271.06712801
 21
-232.50190878
 31
0.0
  0
LINE
  5
E3
100
AcDbEntity
  8
LAYER0001
  6
CONTINUOUS
 62
       7
100
AcDbLine
 10
271.06712801
 20
-232.50190878
 30
0.0
 11
271.25924427
 21
-232.46603747
 31
0.0
  0
LINE
  5
E4
100
AcDbEntity
  8
LAYER0001
  6
CONTINUOUS
 62
       7
100
AcDbLine
 10
271.25924427
 20
-232.46603747
 30
0.0
 11
271.45094469
 21
-232.42770481
 31
0.0
  0
LINE
  5
E5
100
AcDbEntity
  8
LAYER0001
  6
CONTINUOUS
 62
       7
100
AcDbLine
 10
271.45094469
 20
-232.42770481
 30
0.0
 11
271.64220916
 21
-232.3869553
 31
0.0
  0
LINE
  5
E6
100
AcDbEntity
  8
LAYER0001
  6
CONTINUOUS
 62
       7
100
AcDbLine
 10
271.64220916
 20
-232.3869553
 30
0.0
 11
271.83306085
 21
-232.34394161
 31
0.0
  0
LINE
  5
E7
100
AcDbEntity
  8
LAYER0001
  6
CONTINUOUS
 62
       7
100
AcDbLine
 10
271.83306085
 20
-232.34394161
 30
0.0
 11
272.02353151
 21
-232.2988379
 31
0.0
  0
LINE
  5
E8
100
AcDbEntity
  8
LAYER0001
  6
CONTINUOUS
 62
       7
100
AcDbLine
 10
272.02353151
 20
-232.2988379
 30
0.0
 11
272.21365289
 21
-232.25181834
 31
0.0
  0
LINE
  5
E9
100
AcDbEntity
  8
LAYER0001
  6
CONTINUOUS
 62
       7
100
AcDbLine
 10
272.21365289
 20
-232.25181834
 30
0.0
 11
272.40345674
 21
-232.20305711
 31
0.0
  0
LINE
  5
EA
100
AcDbEntity
  8
LAYER0001
  6
CONTINUOUS
 62
       7
100
AcDbLine
 10
272.40345674
 20
-232.20305711
 30
0.0
 11
272.59297481
 21
-232.15272837
 31
0.0
  0
LINE
  5
EB
100
AcDbEntity
  8
LAYER0001
  6
CONTINUOUS
 62
       7
100
AcDbLine
 10
272.59297481
 20
-232.15272837
 30
0.0
 11
272.78223887
 21
-232.10100628
 31
0.0
  0
LINE
  5
EC
100
AcDbEntity
  8
LAYER0001
  6
CONTINUOUS
 62
       7
100
AcDbLine
 10
272.78223887
 20
-232.10100628
 30
0.0
 11
272.97128065
 21
-232.04806503
 31
0.0
  0
LINE
  5
ED
100
AcDbEntity
  8
LAYER0001
  6
CONTINUOUS
 62
       7
100
AcDbLine
 10
272.97128065
 20
-232.04806503
 30
0.0
 11
273.16013192
 21
-231.99407876
 31
0.0
  0
LINE
  5
EE
100
AcDbEntity
  8
LAYER0001
  6
CONTINUOUS
 62
       7
100
AcDbLine
 10
273.16013192
 20
-231.99407876
 30
0.0
 11
273.34882442
 21
-231.93922165
 31
0.0
  0
LINE
  5
EF
100
AcDbEntity
  8
LAYER0001
  6
CONTINUOUS
 62
       7
100
AcDbLine
 10
273.34882442
 20
-231.93922165
 30
0.0
 11
273.53738992
 21
-231.88366788
 31
0.0
  0
LINE
  5
F0
100
AcDbEntity
  8
LAYER0001
  6
CONTINUOUS
 62
       7
100
AcDbLine
 10
273.53738992
 20
-231.88366788
 30
0.0
 11
273.72586015
 21
-231.8275916
 31
0.0
  0
LINE
  5
F1
100
AcDbEntity
  8
LAYER0001
  6
CONTINUOUS
 62
       7
100
AcDbLine
 10
273.72586015
 20
-231.8275916
 30
0.0
 11
273.91426688
 21
-231.77116698
 31
0.0
  0
LINE
  5
F2
100
AcDbEntity
  8
LAYER0001
  6
CONTINUOUS
 62
       7
100
AcDbLine
 10
273.91426688
 20
-231.77116698
 30
0.0
 11
274.10264186
 21
-231.7145682
 31
0.0
  0
ENDBLK
  5
F3
100
AcDbEntity
  8
0
100
AcDbBlockEnd
  0
BLOCK
  5
F4
100
AcDbEntity
  8
0
100
AcDbBlockBegin
  2
GROUP_6
 70
       0
 10
0.0
 20
0.0
 30
0.0
  3
GROUP_6
  1

  0
LINE
  5
F5
100
AcDbEntity
  8
LAYER0001
  6
CONTINUOUS
 62
       7
100
AcDbLine
 10
262.60264184
 20
-226.26884943
 30
0.0
 11
262.37646126
 21
-226.19937681
 31
0.0
  0
LINE
  5
F6
100
AcDbEntity
  8
LAYER0001
  6
CONTINUOUS
 62
       7
100
AcDbLine
 10
262.37646126
 20
-226.19937681
 30
0.0
 11
262.1502314
 21
-226.13027056
 31
0.0
  0
LINE
  5
F7
100
AcDbEntity
  8
LAYER0001
  6
CONTINUOUS
 62
       7
100
AcDbLine
 10
262.1502314
 20
-226.13027056
 30
0.0
 11
261.92390294
 21
-226.06189703
 31
0.0
  0
LINE
  5
F8
100
AcDbEntity
  8
LAYER0001
  6
CONTINUOUS
 62
       7
100
AcDbLine
 10
261.92390294
 20
-226.06189703
 30
0.0
 11
261.6974266
 21
-225.9946226
 31
0.0
  0
LINE
  5
F9
100
AcDbEntity
  8
LAYER0001
  6
CONTINUOUS
 62
       7
100
AcDbLine
 10
261.6974266
 20
-225.9946226
 30
0.0
 11
261.47075309
 21
-225.92881364
 31
0.0
  0
LINE
  5
FA
100
AcDbEntity
  8
LAYER0001
  6
CONTINUOUS
 62
       7
100
AcDbLine
 10
261.47075309
 20
-225.92881364
 30
0.0
 11
261.24383311
 21
-225.8648365
 31
0.0
  0
LINE
  5
FB
100
AcDbEntity
  8
LAYER0001
  6
CONTINUOUS
 62
       7
100
AcDbLine
 10
261.24383311
 20
-225.8648365
 30
0.0
 11
261.01661737
 21
-225.80305756
 31
0.0
  0
LINE
  5
FC
100
AcDbEntity
  8
LAYER0001
  6
CONTINUOUS
 62
       7
100
AcDbLine
 10
261.01661737
 20
-225.80305756
 30
0.0
 11
260.78905657
 21
-225.74384317
 31
0.0
  0
LINE
  5
FD
100
AcDbEntity
  8
LAYER0001
  6
CONTINUOUS
 62
       7
100
AcDbLine
 10
260.78905657
 20
-225.74384317
 30
0.0
 11
260.56110143
 21
-225.68755971
 31
0.0
  0
LINE
  5
FE
100
AcDbEntity
  8
LAYER0001
  6
CONTINUOUS
 62
       7
100
AcDbLine
 10
260.56110143
 20
-225.68755971
 30
0.0
 11
260.33270264
 21
-225.63457354
 31
0.0
  0
LINE
  5
FF
100
AcDbEntity
  8
LAYER0001
  6
CONTINUOUS
 62
       7
100
AcDbLine
 10
260.33270264
 20
-225.63457354
 30
0.0
 11
260.10381091
 21
-225.58525102
 31
0.0
  0
LINE
  5
100
100
AcDbEntity
  8
LAYER0001
  6
CONTINUOUS
 62
       7
100
AcDbLine
 10
260.10381091
 20
-225.58525102
 30
0.0
 11
259.87437695
 21
-225.53995853
 31
0.0
  0
LINE
  5
101
100
AcDbEntity
  8
LAYER0001
  6
CONTINUOUS
 62
       7
100
AcDbLine
 10
259.87437695
 20
-225.53995853
 30
0.0
 11
259.64435523
 21
-225.49903447
 31
0.0
  0
LINE
  5
102
100
AcDbEntity
  8
LAYER0001
  6
CONTINUOUS
 62
       7
100
AcDbLine
 10
259.64435523
 20
-225.49903447
 30
0.0
 11
259.41375358
 21
-225.46242067
 31
0.0
  0
LINE
  5
103
100
AcDbEntity
  8
LAYER0001
  6
CONTINUOUS
 62
       7
100
AcDbLine
 10
259.41375358
 20
-225.46242067
 30
0.0
 11
259.18261946
 21
-225.42976433
 31
0.0
  0
LINE
  5
104
100
AcDbEntity
  8
LAYER0001
  6
CONTINUOUS
 62
       7
100
AcDbLine
 10
259.18261946
 20
-225.42976433
 30
0.0
 11
258.95100127
 21
-225.4007057
 31
0.0
  0
LINE
  5
105
100
AcDbEntity
  8
LAYER0001
  6
CONTINUOUS
 62
       7
100
AcDbLine
 10
258.95100127
 20
-225.4007057
 30
0.0
 11
258.71894743
 21
-225.37488499
 31
0.0
  0
LINE
  5
106
100
AcDbEntity
  8
LAYER0001
  6
CONTINUOUS
 62
       7
100
AcDbLine
 10
258.71894743
 20
-225.37488499
 30
0.0
 11
258.48650634
 21
-225.35194244
 31
0.0
  0
LINE
  5
107
100
AcDbEntity
  8
LAYER0001
  6
CONTINUOUS
 62
       7
100
AcDbLine
 10
258.48650634
 20
-225.35194244
 30
0.0
 11
258.2537264
 21
-225.33151828
 31
0.0
  0
LINE
  5
108
100
AcDbEntity
  8
LAYER0001
  6
CONTINUOUS
 62
       7
100
AcDbLine
 10
258.2537264
 20
-225.33151828
 30
0.0
 11
258.02065603
 21
-225.31325274
 31
0.0
  0
LINE
  5
109
100
AcDbEntity
  8
LAYER0001
  6
CONTINUOUS
 62
       7
100
AcDbLine
 10
258.02065603
 20
-225.31325274
 30
0.0
 11
257.78734363
 21
-225.29678605
 31
0.0
  0
LINE
  5
10A
100
AcDbEntity
  8
LAYER0001
  6
CONTINUOUS
 62
       7
100
AcDbLine
 10
257.78734363
 20
-225.29678605
 30
0.0
 11
257.5538376
 21
-225.28175844
 31
0.0
  0
LINE
  5
10B
100
AcDbEntity
  8
LAYER0001
  6
CONTINUOUS
 62
       7
100
AcDbLine
 10
257.5538376
 20
-225.28175844
 30
0.0
 11
257.32018635
 21
-225.26781014
 31
0.0
  0
LINE
  5
10C
100
AcDbEntity
  8
LAYER0001
  6
CONTINUOUS
 62
       7
100
AcDbLine
 10
257.32018635
 20
-225.26781014
 30
0.0
 11
257.08643829
 21
-225.25458138
 31
0.0
  0
LINE
  5
10D
100
AcDbEntity
  8
LAYER0001
  6
CONTINUOUS
 62
       7
100
AcDbLine
 10
257.08643829
 20
-225.25458138
 30
0.0
 11
256.85264183
 21
-225.24171239
 31
0.0
  0
ENDBLK
  5
10E
100
AcDbEntity
  8
0
100
AcDbBlockEnd
  0
BLOCK
  5
10F
100
AcDbEntity
  8
0
100
AcDbBlockBegin
  2
GROUP_7
 70
       0
 10
0.0
 20
0.0
 30
0.0
  3
GROUP_7
  1

  0
LINE
  5
110
100
AcDbEntity
  8
LAYER0001
  6
CONTINUOUS
 62
       7
100
AcDbLine
 10
256.85264183
 20
-225.24171239
 30
0.0
 11
256.65818519
 21
-225.24365736
 31
0.0
  0
LINE
  5
111
100
AcDbEntity
  8
LAYER0001
  6
CONTINUOUS
 62
       7
100
AcDbLine
 10
256.65818519
 20
-225.24365736
 30
0.0
 11
256.46371963
 21
-225.24683865
 31
0.0
  0
LINE
  5
112
100
AcDbEntity
  8
LAYER0001
  6
CONTINUOUS
 62
       7
100
AcDbLine
 10
256.46371963
 20
-225.24683865
 30
0.0
 11
256.26924138
 21
-225.25234253
 31
0.0
  0
LINE
  5
113
100
AcDbEntity
  8
LAYER0001
  6
CONTINUOUS
 62
       7
100
AcDbLine
 10
256.26924138
 20
-225.25234253
 30
0.0
 11
256.07477461
 21
-225.26043642
 31
0.0
  0
LINE
  5
114
100
AcDbEntity
  8
LAYER0001
  6
CONTINUOUS
 62
       7
100
AcDbLine
 10
256.07477461
 20
-225.26043642
 30
0.0
 11
255.88035303
 21
-225.27110979
 31
0.0
  0
LINE
  5
115
100
AcDbEntity
  8
LAYER0001
  6
CONTINUOUS
 62
       7
100
AcDbLine
 10
255.88035303
 20
-225.27110979
 30
0.0
 11
255.68601033
 21
-225.28435186
 31
0.0
  0
LINE
  5
116
100
AcDbEntity
  8
LAYER0001
  6
CONTINUOUS
 62
       7
100
AcDbLine
 10
255.68601033
 20
-225.28435186
 30
0.0
 11
255.49178022
 21
-225.30015188
 31
0.0
  0
LINE
  5
117
100
AcDbEntity
  8
LAYER0001
  6
CONTINUOUS
 62
       7
100
AcDbLine
 10
255.49178022
 20
-225.30015188
 30
0.0
 11
255.29769638
 21
-225.31849909
 31
0.0
  0
LINE
  5
118
100
AcDbEntity
  8
LAYER0001
  6
CONTINUOUS
 62
       7
100
AcDbLine
 10
255.29769638
 20
-225.31849909
 30
0.0
 11
255.10379253
 21
-225.33938272
 31
0.0
  0
LINE
  5
119
100
AcDbEntity
  8
LAYER0001
  6
CONTINUOUS
 62
       7
100
AcDbLine
 10
255.10379253
 20
-225.33938272
 30
0.0
 11
254.91010236
 21
-225.36279202
 31
0.0
  0
LINE
  5
11A
100
AcDbEntity
  8
LAYER0001
  6
CONTINUOUS
 62
       7
100
AcDbLine
 10
254.91010236
 20
-225.36279202
 30
0.0
 11
254.71665957
 21
-225.38871622
 31
0.0
  0
LINE
  5
11B
100
AcDbEntity
  8
LAYER0001
  6
CONTINUOUS
 62
       7
100
AcDbLine
 10
254.71665957
 20
-225.38871622
 30
0.0
 11
254.52349786
 21
-225.41714455
 31
0.0
  0
LINE
  5
11C
100
AcDbEntity
  8
LAYER0001
  6
CONTINUOUS
 62
       7
100
AcDbLine
 10
254.52349786
 20
-225.41714455
 30
0.0
 11
254.33065093
 21
-225.44806626
 31
0.0
  0
LINE
  5
11D
100
AcDbEntity
  8
LAYER0001
  6
CONTINUOUS
 62
       7
100
AcDbLine
 10
254.33065093
 20
-225.44806626
 30
0.0
 11
254.13815247
 21
-225.48147058
 31
0.0
  0
LINE
  5
11E
100
AcDbEntity
  8
LAYER0001
  6
CONTINUOUS
 62
       7
100
AcDbLine
 10
254.13815247
 20
-225.48147058
 30
0.0
 11
253.9460362
 21
-225.51734676
 31
0.0
  0
LINE
  5
11F
100
AcDbEntity
  8
LAYER0001
  6
CONTINUOUS
 62
       7
100
AcDbLine
 10
253.9460362
 20
-225.51734676
 30
0.0
 11
253.7543358
 21
-225.55568401
 31
0.0
  0
LINE
  5
120
100
AcDbEntity
  8
LAYER0001
  6
CONTINUOUS
 62
       7
100
AcDbLine
 10
253.7543358
 20
-225.55568401
 30
0.0
 11
253.56307138
 21
-225.59643766
 31
0.0
  0
LINE
  5
121
100
AcDbEntity
  8
LAYER0001
  6
CONTINUOUS
 62
       7
100
AcDbLine
 10
253.56307138
 20
-225.59643766
 30
0.0
 11
253.37221979
 21
-225.63945503
 31
0.0
  0
LINE
  5
122
100
AcDbEntity
  8
LAYER0001
  6
CONTINUOUS
 62
       7
100
AcDbLine
 10
253.37221979
 20
-225.63945503
 30
0.0
 11
253.18174926
 21
-225.68456198
 31
0.0
  0
LINE
  5
123
100
AcDbEntity
  8
LAYER0001
  6
CONTINUOUS
 62
       7
100
AcDbLine
 10
253.18174926
 20
-225.68456198
 30
0.0
 11
252.99162804
 21
-225.73158439
 31
0.0
  0
LINE
  5
124
100
AcDbEntity
  8
LAYER0001
  6
CONTINUOUS
 62
       7
100
AcDbLine
 10
252.99162804
 20
-225.73158439
 30
0.0
 11
252.80182438
 21
-225.78034813
 31
0.0
  0
LINE
  5
125
100
AcDbEntity
  8
LAYER0001
  6
CONTINUOUS
 62
       7
100
AcDbLine
 10
252.80182438
 20
-225.78034813
 30
0.0
 11
252.61230653
 21
-225.83067905
 31
0.0
  0
LINE
  5
126
100
AcDbEntity
  8
LAYER0001
  6
CONTINUOUS
 62
       7
100
AcDbLine
 10
252.61230653
 20
-225.83067905
 30
0.0
 11
252.42304271
 21
-225.88240304
 31
0.0
  0
LINE
  5
127
100
AcDbEntity
  8
LAYER0001
  6
CONTINUOUS
 62
       7
100
AcDbLine
 10
252.42304271
 20
-225.88240304
 30
0.0
 11
252.23400119
 21
-225.93534594
 31
0.0
  0
LINE
  5
128
100
AcDbEntity
  8
LAYER0001
  6
CONTINUOUS
 62
       7
100
AcDbLine
 10
252.23400119
 20
-225.93534594
 30
0.0
 11
252.0451502
 21
-225.98933365
 31
0.0
  0
LINE
  5
129
100
AcDbEntity
  8
LAYER0001
  6
CONTINUOUS
 62
       7
100
AcDbLine
 10
252.0451502
 20
-225.98933365
 30
0.0
 11
251.85645799
 21
-226.04419201
 31
0.0
  0
LINE
  5
12A
100
AcDbEntity
  8
LAYER0001
  6
CONTINUOUS
 62
       7
100
AcDbLine
 10
251.85645799
 20
-226.04419201
 30
0.0
 11
251.6678928
 21
-226.0997469
 31
0.0
  0
LINE
  5
12B
100
AcDbEntity
  8
LAYER0001
  6
CONTINUOUS
 62
       7
100
AcDbLine
 10
251.6678928
 20
-226.0997469
 30
0.0
 11
251.47942288
 21
-226.15582419
 31
0.0
  0
LINE
  5
12C
100
AcDbEntity
  8
LAYER0001
  6
CONTINUOUS
 62
       7
100
AcDbLine
 10
251.47942288
 20
-226.15582419
 30
0.0
 11
251.29101647
 21
-226.21224975
 31
0.0
  0
LINE
  5
12D
100
AcDbEntity
  8
LAYER0001
  6
CONTINUOUS
 62
       7
100
AcDbLine
 10
251.29101647
 20
-226.21224975
 30
0.0
 11
251.10264182
 21
-226.26884943
 31
0.0
  0
ENDBLK
  5
12E
100
AcDbEntity
  8
0
100
AcDbBlockEnd
  0
BLOCK
  5
12F
100
AcDbEntity
  8
0
100
AcDbBlockBegin
  2
GROUP_8
 70
       0
 10
0.0
 20
0.0
 30
0.0
  3
GROUP_8
  1

  0
LINE
  5
130
100
AcDbEntity
  8
LAYER0001
  6
CONTINUOUS
 62
       7
100
AcDbLine
 10
251.10264182
 20
-231.7145682
 30
0.0
 11
251.32882289
 21
-231.78403734
 31
0.0
  0
LINE
  5
131
100
AcDbEntity
  8
LAYER0001
  6
CONTINUOUS
 62
       7
100
AcDbLine
 10
251.32882289
 20
-231.78403734
 30
0.0
 11
251.55505325
 21
-231.85314016
 31
0.0
  0
LINE
  5
132
100
AcDbEntity
  8
LAYER0001
  6
CONTINUOUS
 62
       7
100
AcDbLine
 10
251.55505325
 20
-231.85314016
 30
0.0
 11
251.78138219
 21
-231.92151033
 31
0.0
  0
LINE
  5
133
100
AcDbEntity
  8
LAYER0001
  6
CONTINUOUS
 62
       7
100
AcDbLine
 10
251.78138219
 20
-231.92151033
 30
0.0
 11
252.00785899
 21
-231.98878155
 31
0.0
  0
LINE
  5
134
100
AcDbEntity
  8
LAYER0001
  6
CONTINUOUS
 62
       7
100
AcDbLine
 10
252.00785899
 20
-231.98878155
 30
0.0
 11
252.23453293
 21
-232.05458748
 31
0.0
  0
LINE
  5
135
100
AcDbEntity
  8
LAYER0001
  6
CONTINUOUS
 62
       7
100
AcDbLine
 10
252.23453293
 20
-232.05458748
 30
0.0
 11
252.46145332
 21
-232.1185618
 31
0.0
  0
LINE
  5
136
100
AcDbEntity
  8
LAYER0001
  6
CONTINUOUS
 62
       7
100
AcDbLine
 10
252.46145332
 20
-232.1185618
 30
0.0
 11
252.68866942
 21
-232.1803382
 31
0.0
  0
LINE
  5
137
100
AcDbEntity
  8
LAYER0001
  6
CONTINUOUS
 62
       7
100
AcDbLine
 10
252.68866942
 20
-232.1803382
 30
0.0
 11
252.91623054
 21
-232.23955035
 31
0.0
  0
LINE
  5
138
100
AcDbEntity
  8
LAYER0001
  6
CONTINUOUS
 62
       7
100
AcDbLine
 10
252.91623054
 20
-232.23955035
 30
0.0
 11
253.14418595
 21
-232.29583194
 31
0.0
  0
LINE
  5
139
100
AcDbEntity
  8
LAYER0001
  6
CONTINUOUS
 62
       7
100
AcDbLine
 10
253.14418595
 20
-232.29583194
 30
0.0
 11
253.37258496
 21
-232.34881663
 31
0.0
  0
LINE
  5
13A
100
AcDbEntity
  8
LAYER0001
  6
CONTINUOUS
 62
       7
100
AcDbLine
 10
253.37258496
 20
-232.34881663
 30
0.0
 11
253.60147683
 21
-232.39813812
 31
0.0
  0
LINE
  5
13B
100
AcDbEntity
  8
LAYER0001
  6
CONTINUOUS
 62
       7
100
AcDbLine
 10
253.60147683
 20
-232.39813812
 30
0.0
 11
253.83091086
 21
-232.44343008
 31
0.0
  0
LINE
  5
13C
100
AcDbEntity
  8
LAYER0001
  6
CONTINUOUS
 62
       7
100
AcDbLine
 10
253.83091086
 20
-232.44343008
 30
0.0
 11
254.06093258
 21
-232.48435413
 31
0.0
  0
LINE
  5
13D
100
AcDbEntity
  8
LAYER0001
  6
CONTINUOUS
 62
       7
100
AcDbLine
 10
254.06093258
 20
-232.48435413
 30
0.0
 11
254.29153416
 21
-232.52096846
 31
0.0
  0
LINE
  5
13E
100
AcDbEntity
  8
LAYER0001
  6
CONTINUOUS
 62
       7
100
AcDbLine
 10
254.29153416
 20
-232.52096846
 30
0.0
 11
254.52266814
 21
-232.55362582
 31
0.0
  0
LINE
  5
13F
100
AcDbEntity
  8
LAYER0001
  6
CONTINUOUS
 62
       7
100
AcDbLine
 10
254.52266814
 20
-232.55362582
 30
0.0
 11
254.75428611
 21
-232.58268593
 31
0.0
  0
LINE
  5
140
100
AcDbEntity
  8
LAYER0001
  6
CONTINUOUS
 62
       7
100
AcDbLine
 10
254.75428611
 20
-232.58268593
 30
0.0
 11
254.98633968
 21
-232.60850851
 31
0.0
  0
LINE
  5
141
100
AcDbEntity
  8
LAYER0001
  6
CONTINUOUS
 62
       7
100
AcDbLine
 10
254.98633968
 20
-232.60850851
 30
0.0
 11
255.21878046
 21
-232.63145329
 31
0.0
  0
LINE
  5
142
100
AcDbEntity
  8
LAYER0001
  6
CONTINUOUS
 62
       7
100
AcDbLine
 10
255.21878046
 20
-232.63145329
 30
0.0
 11
255.45156003
 21
-232.65188
 31
0.0
  0
LINE
  5
143
100
AcDbEntity
  8
LAYER0001
  6
CONTINUOUS
 62
       7
100
AcDbLine
 10
255.45156003
 20
-232.65188
 30
0.0
 11
255.68462999
 21
-232.67014835
 31
0.0
  0
LINE
  5
144
100
AcDbEntity
  8
LAYER0001
  6
CONTINUOUS
 62
       7
100
AcDbLine
 10
255.68462999
 20
-232.67014835
 30
0.0
 11
255.91794196
 21
-232.68661808
 31
0.0
  0
LINE
  5
145
100
AcDbEntity
  8
LAYER0001
  6
CONTINUOUS
 62
       7
100
AcDbLine
 10
255.91794196
 20
-232.68661808
 30
0.0
 11
256.15144753
 21
-232.70164891
 31
0.0
  0
LINE
  5
146
100
AcDbEntity
  8
LAYER0001
  6
CONTINUOUS
 62
       7
100
AcDbLine
 10
256.15144753
 20
-232.70164891
 30
0.0
 11
256.3850983
 21
-232.71560056
 31
0.0
  0
LINE
  5
147
100
AcDbEntity
  8
LAYER0001
  6
CONTINUOUS
 62
       7
100
AcDbLine
 10
256.3850983
 20
-232.71560056
 30
0.0
 11
256.61884586
 21
-232.72883276
 31
0.0
  0
LINE
  5
148
100
AcDbEntity
  8
LAYER0001
  6
CONTINUOUS
 62
       7
100
AcDbLine
 10
256.61884586
 20
-232.72883276
 30
0.0
 11
256.85264183
 21
-232.74170524
 31
0.0
  0
ENDBLK
  5
149
100
AcDbEntity
  8
0
100
AcDbBlockEnd
  0
BLOCK
  5
14A
100
AcDbEntity
  8
0
100
AcDbBlockBegin
  2
GROUP_9
 70
       0
 10
0.0
 20
0.0
 30
0.0
  3
GROUP_9
  1

  0
LINE
  5
14B
100
AcDbEntity
  8
LAYER0001
  6
CONTINUOUS
 62
       7
100
AcDbLine
 10
274.10264186
 20
-231.7145682
 30
0.0
 11
274.10264186
 21
-231.78057989
 31
0.0
  0
LINE
  5
14C
100
AcDbEntity
  8
LAYER0001
  6
CONTINUOUS
 62
       7
100
AcDbLine
 10
274.10264186
 20
-231.78057989
 30
0.0
 11
274.10264186
 21
-231.84633459
 31
0.0
  0
LINE
  5
14D
100
AcDbEntity
  8
LAYER0001
  6
CONTINUOUS
 62
       7
100
AcDbLine
 10
274.10264186
 20
-231.84633459
 30
0.0
 11
274.10264186
 21
-231.91157531
 31
0.0
  0
LINE
  5
14E
100
AcDbEntity
  8
LAYER0001
  6
CONTINUOUS
 62
       7
100
AcDbLine
 10
274.10264186
 20
-231.91157531
 30
0.0
 11
274.10264186
 21
-231.97604506
 31
0.0
  0
LINE
  5
14F
100
AcDbEntity
  8
LAYER0001
  6
CONTINUOUS
 62
       7
100
AcDbLine
 10
274.10264186
 20
-231.97604506
 30
0.0
 11
274.10264186
 21
-232.03948686
 31
0.0
  0
LINE
  5
150
100
AcDbEntity
  8
LAYER0001
  6
CONTINUOUS
 62
       7
100
AcDbLine
 10
274.10264186
 20
-232.03948686
 30
0.0
 11
274.10264186
 21
-232.10164371
 31
0.0
  0
LINE
  5
151
100
AcDbEntity
  8
LAYER0001
  6
CONTINUOUS
 62
       7
100
AcDbLine
 10
274.10264186
 20
-232.10164371
 30
0.0
 11
274.10264186
 21
-232.16225863
 31
0.0
  0
LINE
  5
152
100
AcDbEntity
  8
LAYER0001
  6
CONTINUOUS
 62
       7
100
AcDbLine
 10
274.10264186
 20
-232.16225863
 30
0.0
 11
274.10264186
 21
-232.22107462
 31
0.0
  0
LINE
  5
153
100
AcDbEntity
  8
LAYER0001
  6
CONTINUOUS
 62
       7
100
AcDbLine
 10
274.10264186
 20
-232.22107462
 30
0.0
 11
274.10264186
 21
-232.2778347
 31
0.0
  0
LINE
  5
154
100
AcDbEntity
  8
LAYER0001
  6
CONTINUOUS
 62
       7
100
AcDbLine
 10
274.10264186
 20
-232.2778347
 30
0.0
 11
274.10264186
 21
-232.33228188
 31
0.0
  0
LINE
  5
155
100
AcDbEntity
  8
LAYER0001
  6
CONTINUOUS
 62
       7
100
AcDbLine
 10
274.10264186
 20
-232.33228188
 30
0.0
 11
274.10264186
 21
-232.38415917
 31
0.0
  0
LINE
  5
156
100
AcDbEntity
  8
LAYER0001
  6
CONTINUOUS
 62
       7
100
AcDbLine
 10
274.10264186
 20
-232.38415917
 30
0.0
 11
274.10264186
 21
-232.43320957
 31
0.0
  0
LINE
  5
157
100
AcDbEntity
  8
LAYER0001
  6
CONTINUOUS
 62
       7
100
AcDbLine
 10
274.10264186
 20
-232.43320957
 30
0.0
 11
274.10264186
 21
-232.47917611
 31
0.0
  0
LINE
  5
158
100
AcDbEntity
  8
LAYER0001
  6
CONTINUOUS
 62
       7
100
AcDbLine
 10
274.10264186
 20
-232.47917611
 30
0.0
 11
274.10264186
 21
-232.52180178
 31
0.0
  0
LINE
  5
159
100
AcDbEntity
  8
LAYER0001
  6
CONTINUOUS
 62
       7
100
AcDbLine
 10
274.10264186
 20
-232.52180178
 30
0.0
 11
274.10264186
 21
-232.56082961
 31
0.0
  0
LINE
  5
15A
100
AcDbEntity
  8
LAYER0001
  6
CONTINUOUS
 62
       7
100
AcDbLine
 10
274.10264186
 20
-232.56082961
 30
0.0
 11
274.10264186
 21
-232.59600261
 31
0.0
  0
LINE
  5
15B
100
AcDbEntity
  8
LAYER0001
  6
CONTINUOUS
 62
       7
100
AcDbLine
 10
274.10264186
 20
-232.59600261
 30
0.0
 11
274.10264186
 21
-232.62706377
 31
0.0
  0
LINE
  5
15C
100
AcDbEntity
  8
LAYER0001
  6
CONTINUOUS
 62
       7
100
AcDbLine
 10
274.10264186
 20
-232.62706377
 30
0.0
 11
274.10264186
 21
-232.65375612
 31
0.0
  0
LINE
  5
15D
100
AcDbEntity
  8
LAYER0001
  6
CONTINUOUS
 62
       7
100
AcDbLine
 10
274.10264186
 20
-232.65375612
 30
0.0
 11
274.10264186
 21
-232.67584138
 31
0.0
  0
LINE
  5
15E
100
AcDbEntity
  8
LAYER0001
  6
CONTINUOUS
 62
       7
100
AcDbLine
 10
274.10264186
 20
-232.67584138
 30
0.0
 11
274.10264186
 21
-232.69354601
 31
0.0
  0
LINE
  5
15F
100
AcDbEntity
  8
LAYER0001
  6
CONTINUOUS
 62
       7
100
AcDbLine
 10
274.10264186
 20
-232.69354601
 30
0.0
 11
274.10264186
 21
-232.70758119
 31
0.0
  0
LINE
  5
160
100
AcDbEntity
  8
LAYER0001
  6
CONTINUOUS
 62
       7
100
AcDbLine
 10
274.10264186
 20
-232.70758119
 30
0.0
 11
274.10264186
 21
-232.71868081
 31
0.0
  0
LINE
  5
161
100
AcDbEntity
  8
LAYER0001
  6
CONTINUOUS
 62
       7
100
AcDbLine
 10
274.10264186
 20
-232.71868081
 30
0.0
 11
274.10264186
 21
-232.72757877
 31
0.0
  0
LINE
  5
162
100
AcDbEntity
  8
LAYER0001
  6
CONTINUOUS
 62
       7
100
AcDbLine
 10
274.10264186
 20
-232.72757877
 30
0.0
 11
274.10264186
 21
-232.73500895
 31
0.0
  0
LINE
  5
163
100
AcDbEntity
  8
LAYER0001
  6
CONTINUOUS
 62
       7
100
AcDbLine
 10
274.10264186
 20
-232.73500895
 30
0.0
 11
274.10264186
 21
-232.74170524
 31
0.0
  0
ENDBLK
  5
164
100
AcDbEntity
  8
0
100
AcDbBlockEnd
  0
BLOCK
  5
165
100
AcDbEntity
  8
0
100
AcDbBlockBegin
  2
GROUP_10
 70
       0
 10
0.0
 20
0.0
 30
0.0
  3
GROUP_10
  1

  0
LINE
  5
166
100
AcDbEntity
  8
LAYER0001
  6
CONTINUOUS
 62
       7
100
AcDbLine
 10
274.10264186
 20
-225.24171239
 30
0.0
 11
274.10264186
 21
-225.24840333
 31
0.0
  0
LINE
  5
167
100
AcDbEntity
  8
LAYER0001
  6
CONTINUOUS
 62
       7
100
AcDbLine
 10
274.10264186
 20
-225.24840333
 30
0.0
 11
274.10264186
 21
-225.25582827
 31
0.0
  0
LINE
  5
168
100
AcDbEntity
  8
LAYER0001
  6
CONTINUOUS
 62
       7
100
AcDbLine
 10
274.10264186
 20
-225.25582827
 30
0.0
 11
274.10264186
 21
-225.26472122
 31
0.0
  0
LINE
  5
169
100
AcDbEntity
  8
LAYER0001
  6
CONTINUOUS
 62
       7
100
AcDbLine
 10
274.10264186
 20
-225.26472122
 30
0.0
 11
274.10264186
 21
-225.27581618
 31
0.0
  0
LINE
  5
16A
100
AcDbEntity
  8
LAYER0001
  6
CONTINUOUS
 62
       7
100
AcDbLine
 10
274.10264186
 20
-225.27581618
 30
0.0
 11
274.10264186
 21
-225.28984716
 31
0.0
  0
LINE
  5
16B
100
AcDbEntity
  8
LAYER0001
  6
CONTINUOUS
 62
       7
100
AcDbLine
 10
274.10264186
 20
-225.28984716
 30
0.0
 11
274.10264186
 21
-225.30754816
 31
0.0
  0
LINE
  5
16C
100
AcDbEntity
  8
LAYER0001
  6
CONTINUOUS
 62
       7
100
AcDbLine
 10
274.10264186
 20
-225.30754816
 30
0.0
 11
274.10264186
 21
-225.32963048
 31
0.0
  0
LINE
  5
16D
100
AcDbEntity
  8
LAYER0001
  6
CONTINUOUS
 62
       7
100
AcDbLine
 10
274.10264186
 20
-225.32963048
 30
0.0
 11
274.10264186
 21
-225.3563206
 31
0.0
  0
LINE
  5
16E
100
AcDbEntity
  8
LAYER0001
  6
CONTINUOUS
 62
       7
100
AcDbLine
 10
274.10264186
 20
-225.3563206
 30
0.0
 11
274.10264186
 21
-225.38738022
 31
0.0
  0
LINE
  5
16F
100
AcDbEntity
  8
LAYER0001
  6
CONTINUOUS
 62
       7
100
AcDbLine
 10
274.10264186
 20
-225.38738022
 30
0.0
 11
274.10264186
 21
-225.4225523
 31
0.0
  0
LINE
  5
170
100
AcDbEntity
  8
LAYER0001
  6
CONTINUOUS
 62
       7
100
AcDbLine
 10
274.10264186
 20
-225.4225523
 30
0.0
 11
274.10264186
 21
-225.46157982
 31
0.0
  0
LINE
  5
171
100
AcDbEntity
  8
LAYER0001
  6
CONTINUOUS
 62
       7
100
AcDbLine
 10
274.10264186
 20
-225.46157982
 30
0.0
 11
274.10264186
 21
-225.50420574
 31
0.0
  0
LINE
  5
172
100
AcDbEntity
  8
LAYER0001
  6
CONTINUOUS
 62
       7
100
AcDbLine
 10
274.10264186
 20
-225.50420574
 30
0.0
 11
274.10264186
 21
-225.55017304
 31
0.0
  0
LINE
  5
173
100
AcDbEntity
  8
LAYER0001
  6
CONTINUOUS
 62
       7
100
AcDbLine
 10
274.10264186
 20
-225.55017304
 30
0.0
 11
274.10264186
 21
-225.59922468
 31
0.0
  0
LINE
  5
174
100
AcDbEntity
  8
LAYER0001
  6
CONTINUOUS
 62
       7
100
AcDbLine
 10
274.10264186
 20
-225.59922468
 30
0.0
 11
274.10264186
 21
-225.65110364
 31
0.0
  0
LINE
  5
175
100
AcDbEntity
  8
LAYER0001
  6
CONTINUOUS
 62
       7
100
AcDbLine
 10
274.10264186
 20
-225.65110364
 30
0.0
 11
274.10264186
 21
-225.7055529
 31
0.0
  0
LINE
  5
176
100
AcDbEntity
  8
LAYER0001
  6
CONTINUOUS
 62
       7
100
AcDbLine
 10
274.10264186
 20
-225.7055529
 30
0.0
 11
274.10264186
 21
-225.76231541
 31
0.0
  0
LINE
  5
177
100
AcDbEntity
  8
LAYER0001
  6
CONTINUOUS
 62
       7
100
AcDbLine
 10
274.10264186
 20
-225.76231541
 30
0.0
 11
274.10264186
 21
-225.82113416
 31
0.0
  0
LINE
  5
178
100
AcDbEntity
  8
LAYER0001
  6
CONTINUOUS
 62
       7
100
AcDbLine
 10
274.10264186
 20
-225.82113416
 30
0.0
 11
274.10264186
 21
-225.88175211
 31
0.0
  0
LINE
  5
179
100
AcDbEntity
  8
LAYER0001
  6
CONTINUOUS
 62
       7
100
AcDbLine
 10
274.10264186
 20
-225.88175211
 30
0.0
 11
274.10264186
 21
-225.94391223
 31
0.0
  0
LINE
  5
17A
100
AcDbEntity
  8
LAYER0001
  6
CONTINUOUS
 62
       7
100
AcDbLine
 10
274.10264186
 20
-225.94391223
 30
0.0
 11
274.10264186
 21
-226.0073575
 31
0.0
  0
LINE
  5
17B
100
AcDbEntity
  8
LAYER0001
  6
CONTINUOUS
 62
       7
100
AcDbLine
 10
274.10264186
 20
-226.0073575
 30
0.0
 11
274.10264186
 21
-226.07183088
 31
0.0
  0
LINE
  5
17C
100
AcDbEntity
  8
LAYER0001
  6
CONTINUOUS
 62
       7
100
AcDbLine
 10
274.10264186
 20
-226.07183088
 30
0.0
 11
274.10264186
 21
-226.13707535
 31
0.0
  0
LINE
  5
17D
100
AcDbEntity
  8
LAYER0001
  6
CONTINUOUS
 62
       7
100
AcDbLine
 10
274.10264186
 20
-226.13707535
 30
0.0
 11
274.10264186
 21
-226.20283388
 31
0.0
  0
LINE
  5
17E
100
AcDbEntity
  8
LAYER0001
  6
CONTINUOUS
 62
       7
100
AcDbLine
 10
274.10264186
 20
-226.20283388
 30
0.0
 11
274.10264186
 21
-226.26884943
 31
0.0
  0
ENDBLK
  5
17F
100
AcDbEntity
  8
0
100
AcDbBlockEnd
  0
BLOCK
  5
180
100
AcDbEntity
  8
0
100
AcDbBlockBegin
  2
GROUP_11
 70
       0
 10
0.0
 20
0.0
 30
0.0
  3
GROUP_11
  1

  0
LINE
  5
181
100
AcDbEntity
  8
LAYER0001
  6
CONTINUOUS
 62
       7
100
AcDbLine
 10
251.10264182
 20
-226.26884943
 30
0.0
 11
251.10264182
 21
-226.20283388
 31
0.0
  0
LINE
  5
182
100
AcDbEntity
  8
LAYER0001
  6
CONTINUOUS
 62
       7
100
AcDbLine
 10
251.10264182
 20
-226.20283388
 30
0.0
 11
251.10264182
 21
-226.13707535
 31
0.0
  0
LINE
  5
183
100
AcDbEntity
  8
LAYER0001
  6
CONTINUOUS
 62
       7
100
AcDbLine
 10
251.10264182
 20
-226.13707535
 30
0.0
 11
251.10264182
 21
-226.07183088
 31
0.0
  0
LINE
  5
184
100
AcDbEntity
  8
LAYER0001
  6
CONTINUOUS
 62
       7
100
AcDbLine
 10
251.10264182
 20
-226.07183088
 30
0.0
 11
251.10264182
 21
-226.0073575
 31
0.0
  0
LINE
  5
185
100
AcDbEntity
  8
LAYER0001
  6
CONTINUOUS
 62
       7
100
AcDbLine
 10
251.10264182
 20
-226.0073575
 30
0.0
 11
251.10264182
 21
-225.94391223
 31
0.0
  0
LINE
  5
186
100
AcDbEntity
  8
LAYER0001
  6
CONTINUOUS
 62
       7
100
AcDbLine
 10
251.10264182
 20
-225.94391223
 30
0.0
 11
251.10264182
 21
-225.88175211
 31
0.0
  0
LINE
  5
187
100
AcDbEntity
  8
LAYER0001
  6
CONTINUOUS
 62
       7
100
AcDbLine
 10
251.10264182
 20
-225.88175211
 30
0.0
 11
251.10264182
 21
-225.82113416
 31
0.0
  0
LINE
  5
188
100
AcDbEntity
  8
LAYER0001
  6
CONTINUOUS
 62
       7
100
AcDbLine
 10
251.10264182
 20
-225.82113416
 30
0.0
 11
251.10264182
 21
-225.76231541
 31
0.0
  0
LINE
  5
189
100
AcDbEntity
  8
LAYER0001
  6
CONTINUOUS
 62
       7
100
AcDbLine
 10
251.10264182
 20
-225.76231541
 30
0.0
 11
251.10264182
 21
-225.7055529
 31
0.0
  0
LINE
  5
18A
100
AcDbEntity
  8
LAYER0001
  6
CONTINUOUS
 62
       7
100
AcDbLine
 10
251.10264182
 20
-225.7055529
 30
0.0
 11
251.10264182
 21
-225.65110364
 31
0.0
  0
LINE
  5
18B
100
AcDbEntity
  8
LAYER0001
  6
CONTINUOUS
 62
       7
100
AcDbLine
 10
251.10264182
 20
-225.65110364
 30
0.0
 11
251.10264182
 21
-225.59922468
 31
0.0
  0
LINE
  5
18C
100
AcDbEntity
  8
LAYER0001
  6
CONTINUOUS
 62
       7
100
AcDbLine
 10
251.10264182
 20
-225.59922468
 30
0.0
 11
251.10264182
 21
-225.55017304
 31
0.0
  0
LINE
  5
18D
100
AcDbEntity
  8
LAYER0001
  6
CONTINUOUS
 62
       7
100
AcDbLine
 10
251.10264182
 20
-225.55017304
 30
0.0
 11
251.10264182
 21
-225.50420574
 31
0.0
  0
LINE
  5
18E
100
AcDbEntity
  8
LAYER0001
  6
CONTINUOUS
 62
       7
100
AcDbLine
 10
251.10264182
 20
-225.50420574
 30
0.0
 11
251.10264182
 21
-225.46157982
 31
0.0
  0
LINE
  5
18F
100
AcDbEntity
  8
LAYER0001
  6
CONTINUOUS
 62
       7
100
AcDbLine
 10
251.10264182
 20
-225.46157982
 30
0.0
 11
251.10264182
 21
-225.4225523
 31
0.0
  0
LINE
  5
190
100
AcDbEntity
  8
LAYER0001
  6
CONTINUOUS
 62
       7
100
AcDbLine
 10
251.10264182
 20
-225.4225523
 30
0.0
 11
251.10264182
 21
-225.38738022
 31
0.0
  0
LINE
  5
191
100
AcDbEntity
  8
LAYER0001
  6
CONTINUOUS
 62
       7
100
AcDbLine
 10
251.10264182
 20
-225.38738022
 30
0.0
 11
251.10264182
 21
-225.3563206
 31
0.0
  0
LINE
  5
192
100
AcDbEntity
  8
LAYER0001
  6
CONTINUOUS
 62
       7
100
AcDbLine
 10
251.10264182
 20
-225.3563206
 30
0.0
 11
251.10264182
 21
-225.32963048
 31
0.0
  0
LINE
  5
193
100
AcDbEntity
  8
LAYER0001
  6
CONTINUOUS
 62
       7
100
AcDbLine
 10
251.10264182
 20
-225.32963048
 30
0.0
 11
251.10264182
 21
-225.30754816
 31
0.0
  0
LINE
  5
194
100
AcDbEntity
  8
LAYER0001
  6
CONTINUOUS
 62
       7
100
AcDbLine
 10
251.10264182
 20
-225.30754816
 30
0.0
 11
251.10264182
 21
-225.28984716
 31
0.0
  0
LINE
  5
195
100
AcDbEntity
  8
LAYER0001
  6
CONTINUOUS
 62
       7
100
AcDbLine
 10
251.10264182
 20
-225.28984716
 30
0.0
 11
251.10264182
 21
-225.27581618
 31
0.0
  0
LINE
  5
196
100
AcDbEntity
  8
LAYER0001
  6
CONTINUOUS
 62
       7
100
AcDbLine
 10
251.10264182
 20
-225.27581618
 30
0.0
 11
251.10264182
 21
-225.26472122
 31
0.0
  0
LINE
  5
197
100
AcDbEntity
  8
LAYER0001
  6
CONTINUOUS
 62
       7
100
AcDbLine
 10
251.10264182
 20
-225.26472122
 30
0.0
 11
251.10264182
 21
-225.25582827
 31
0.0
  0
LINE
  5
198
100
AcDbEntity
  8
LAYER0001
  6
CONTINUOUS
 62
       7
100
AcDbLine
 10
251.10264182
 20
-225.25582827
 30
0.0
 11
251.10264182
 21
-225.24840333
 31
0.0
  0
LINE
  5
199
100
AcDbEntity
  8
LAYER0001
  6
CONTINUOUS
 62
       7
100
AcDbLine
 10
251.10264182
 20
-225.24840333
 30
0.0
 11
251.10264182
 21
-225.24171239
 31
0.0
  0
ENDBLK
  5
19A
100
AcDbEntity
  8
0
100
AcDbBlockEnd
  0
BLOCK
  5
19B
100
AcDbEntity
  8
0
100
AcDbBlockBegin
  2
GROUP_12
 70
       0
 10
0.0
 20
0.0
 30
0.0
  3
GROUP_12
  1

  0
LINE
  5
19C
100
AcDbEntity
  8
LAYER0001
  6
CONTINUOUS
 62
       7
100
AcDbLine
 10
251.10264182
 20
-232.74170524
 30
0.0
 11
251.10264182
 21
-232.73500895
 31
0.0
  0
LINE
  5
19D
100
AcDbEntity
  8
LAYER0001
  6
CONTINUOUS
 62
       7
100
AcDbLine
 10
251.10264182
 20
-232.73500895
 30
0.0
 11
251.10264182
 21
-232.72757877
 31
0.0
  0
LINE
  5
19E
100
AcDbEntity
  8
LAYER0001
  6
CONTINUOUS
 62
       7
100
AcDbLine
 10
251.10264182
 20
-232.72757877
 30
0.0
 11
251.10264182
 21
-232.71868081
 31
0.0
  0
LINE
  5
19F
100
AcDbEntity
  8
LAYER0001
  6
CONTINUOUS
 62
       7
100
AcDbLine
 10
251.10264182
 20
-232.71868081
 30
0.0
 11
251.10264182
 21
-232.70758119
 31
0.0
  0
LINE
  5
1A0
100
AcDbEntity
  8
LAYER0001
  6
CONTINUOUS
 62
       7
100
AcDbLine
 10
251.10264182
 20
-232.70758119
 30
0.0
 11
251.10264182
 21
-232.69354601
 31
0.0
  0
LINE
  5
1A1
100
AcDbEntity
  8
LAYER0001
  6
CONTINUOUS
 62
       7
100
AcDbLine
 10
251.10264182
 20
-232.69354601
 30
0.0
 11
251.10264182
 21
-232.67584138
 31
0.0
  0
LINE
  5
1A2
100
AcDbEntity
  8
LAYER0001
  6
CONTINUOUS
 62
       7
100
AcDbLine
 10
251.10264182
 20
-232.67584138
 30
0.0
 11
251.10264182
 21
-232.65375612
 31
0.0
  0
LINE
  5
1A3
100
AcDbEntity
  8
LAYER0001
  6
CONTINUOUS
 62
       7
100
AcDbLine
 10
251.10264182
 20
-232.65375612
 30
0.0
 11
251.10264182
 21
-232.62706377
 31
0.0
  0
LINE
  5
1A4
100
AcDbEntity
  8
LAYER0001
  6
CONTINUOUS
 62
       7
100
AcDbLine
 10
251.10264182
 20
-232.62706377
 30
0.0
 11
251.10264182
 21
-232.59600261
 31
0.0
  0
LINE
  5
1A5
100
AcDbEntity
  8
LAYER0001
  6
CONTINUOUS
 62
       7
100
AcDbLine
 10
251.10264182
 20
-232.59600261
 30
0.0
 11
251.10264182
 21
-232.56082961
 31
0.0
  0
LINE
  5
1A6
100
AcDbEntity
  8
LAYER0001
  6
CONTINUOUS
 62
       7
100
AcDbLine
 10
251.10264182
 20
-232.56082961
 30
0.0
 11
251.10264182
 21
-232.52180178
 31
0.0
  0
LINE
  5
1A7
100
AcDbEntity
  8
LAYER0001
  6
CONTINUOUS
 62
       7
100
AcDbLine
 10
251.10264182
 20
-232.52180178
 30
0.0
 11
251.10264182
 21
-232.47917611
 31
0.0
  0
LINE
  5
1A8
100
AcDbEntity
  8
LAYER0001
  6
CONTINUOUS
 62
       7
100
AcDbLine
 10
251.10264182
 20
-232.47917611
 30
0.0
 11
251.10264182
 21
-232.43320957
 31
0.0
  0
LINE
  5
1A9
100
AcDbEntity
  8
LAYER0001
  6
CONTINUOUS
 62
       7
100
AcDbLine
 10
251.10264182
 20
-232.43320957
 30
0.0
 11
251.10264182
 21
-232.38415917
 31
0.0
  0
LINE
  5
1AA
100
AcDbEntity
  8
LAYER0001
  6
CONTINUOUS
 62
       7
100
AcDbLine
 10
251.10264182
 20
-232.38415917
 30
0.0
 11
251.10264182
 21
-232.33228188
 31
0.0
  0
LINE
  5
1AB
100
AcDbEntity
  8
LAYER0001
  6
CONTINUOUS
 62
       7
100
AcDbLine
 10
251.10264182
 20
-232.33228188
 30
0.0
 11
251.10264182
 21
-232.2778347
 31
0.0
  0
LINE
  5
1AC
100
AcDbEntity
  8
LAYER0001
  6
CONTINUOUS
 62
       7
100
AcDbLine
 10
251.10264182
 20
-232.2778347
 30
0.0
 11
251.10264182
 21
-232.22107462
 31
0.0
  0
LINE
  5
1AD
100
AcDbEntity
  8
LAYER0001
  6
CONTINUOUS
 62
       7
100
AcDbLine
 10
251.10264182
 20
-232.22107462
 30
0.0
 11
251.10264182
 21
-232.16225863
 31
0.0
  0
LINE
  5
1AE
100
AcDbEntity
  8
LAYER0001
  6
CONTINUOUS
 62
       7
100
AcDbLine
 10
251.10264182
 20
-232.16225863
 30
0.0
 11
251.10264182
 21
-232.10164371
 31
0.0
  0
LINE
  5
1AF
100
AcDbEntity
  8
LAYER0001
  6
CONTINUOUS
 62
       7
100
AcDbLine
 10
251.10264182
 20
-232.10164371
 30
0.0
 11
251.10264182
 21
-232.03948686
 31
0.0
  0
LINE
  5
1B0
100
AcDbEntity
  8
LAYER0001
  6
CONTINUOUS
 62
       7
100
AcDbLine
 10
251.10264182
 20
-232.03948686
 30
0.0
 11
251.10264182
 21
-231.97604506
 31
0.0
  0
LINE
  5
1B1
100
AcDbEntity
  8
LAYER0001
  6
CONTINUOUS
 62
       7
100
AcDbLine
 10
251.10264182
 20
-231.97604506
 30
0.0
 11
251.10264182
 21
-231.91157531
 31
0.0
  0
LINE
  5
1B2
100
AcDbEntity
  8
LAYER0001
  6
CONTINUOUS
 62
       7
100
AcDbLine
 10
251.10264182
 20
-231.91157531
 30
0.0
 11
251.10264182
 21
-231.84633459
 31
0.0
  0
LINE
  5
1B3
100
AcDbEntity
  8
LAYER0001
  6
CONTINUOUS
 62
       7
100
AcDbLine
 10
251.10264182
 20
-231.84633459
 30
0.0
 11
251.10264182
 21
-231.78057989
 31
0.0
  0
LINE
  5
1B4
100
AcDbEntity
  8
LAYER0001
  6
CONTINUOUS
 62
       7
100
AcDbLine
 10
251.10264182
 20
-231.78057989
 30
0.0
 11
251.10264182
 21
-231.7145682
 31
0.0
  0
ENDBLK
  5
1B5
100
AcDbEntity
  8
0
100
AcDbBlockEnd
  0
BLOCK
  5
1B6
100
AcDbEntity
  8
0
100
AcDbBlockBegin
  2
GROUP_13
 70
       0
 10
0.0
 20
0.0
 30
0.0
  3
GROUP_13
  1

  0
LINE
  5
1B7
100
AcDbEntity
  8
LAYER0001
  6
CONTINUOUS
 62
       7
100
AcDbLine
 10
268.35264185
 20
-211.541704
 30
0.0
 11
268.15818535
 21
-211.54366392
 31
0.0
  0
LINE
  5
1B8
100
AcDbEntity
  8
LAYER0001
  6
CONTINUOUS
 62
       7
100
AcDbLine
 10
268.15818535
 20
-211.54366392
 30
0.0
 11
267.96371996
 21
-211.54685878
 31
0.0
  0
LINE
  5
1B9
100
AcDbEntity
  8
LAYER0001
  6
CONTINUOUS
 62
       7
100
AcDbLine
 10
267.96371996
 20
-211.54685878
 30
0.0
 11
267.76924189
 21
-211.55237369
 31
0.0
  0
LINE
  5
1BA
100
AcDbEntity
  8
LAYER0001
  6
CONTINUOUS
 62
       7
100
AcDbLine
 10
267.76924189
 20
-211.55237369
 30
0.0
 11
267.57477534
 21
-211.56047593
 31
0.0
  0
LINE
  5
1BB
100
AcDbEntity
  8
LAYER0001
  6
CONTINUOUS
 62
       7
100
AcDbLine
 10
267.57477534
 20
-211.56047593
 30
0.0
 11
267.38035399
 21
-211.57115521
 31
0.0
  0
LINE
  5
1BC
100
AcDbEntity
  8
LAYER0001
  6
CONTINUOUS
 62
       7
100
AcDbLine
 10
267.38035399
 20
-211.57115521
 30
0.0
 11
267.18601154
 21
-211.58440103
 31
0.0
  0
LINE
  5
1BD
100
AcDbEntity
  8
LAYER0001
  6
CONTINUOUS
 62
       7
100
AcDbLine
 10
267.18601154
 20
-211.58440103
 30
0.0
 11
266.99178168
 21
-211.60020285
 31
0.0
  0
LINE
  5
1BE
100
AcDbEntity
  8
LAYER0001
  6
CONTINUOUS
 62
       7
100
AcDbLine
 10
266.99178168
 20
-211.60020285
 30
0.0
 11
266.7976981
 21
-211.61855017
 31
0.0
  0
LINE
  5
1BF
100
AcDbEntity
  8
LAYER0001
  6
CONTINUOUS
 62
       7
100
AcDbLine
 10
266.7976981
 20
-211.61855017
 30
0.0
 11
266.6037945
 21
-211.63943247
 31
0.0
  0
LINE
  5
1C0
100
AcDbEntity
  8
LAYER0001
  6
CONTINUOUS
 62
       7
100
AcDbLine
 10
266.6037945
 20
-211.63943247
 30
0.0
 11
266.41010457
 21
-211.66283923
 31
0.0
  0
LINE
  5
1C1
100
AcDbEntity
  8
LAYER0001
  6
CONTINUOUS
 62
       7
100
AcDbLine
 10
266.41010457
 20
-211.66283923
 30
0.0
 11
266.21666201
 21
-211.68875993
 31
0.0
  0
LINE
  5
1C2
100
AcDbEntity
  8
LAYER0001
  6
CONTINUOUS
 62
       7
100
AcDbLine
 10
266.21666201
 20
-211.68875993
 30
0.0
 11
266.0235005
 21
-211.71718406
 31
0.0
  0
LINE
  5
1C3
100
AcDbEntity
  8
LAYER0001
  6
CONTINUOUS
 62
       7
100
AcDbLine
 10
266.0235005
 20
-211.71718406
 30
0.0
 11
265.83065374
 21
-211.7481011
 31
0.0
  0
LINE
  5
1C4
100
AcDbEntity
  8
LAYER0001
  6
CONTINUOUS
 62
       7
100
AcDbLine
 10
265.83065374
 20
-211.7481011
 30
0.0
 11
265.63815543
 21
-211.78150053
 31
0.0
  0
LINE
  5
1C5
100
AcDbEntity
  8
LAYER0001
  6
CONTINUOUS
 62
       7
100
AcDbLine
 10
265.63815543
 20
-211.78150053
 30
0.0
 11
265.44603925
 21
-211.81737184
 31
0.0
  0
LINE
  5
1C6
100
AcDbEntity
  8
LAYER0001
  6
CONTINUOUS
 62
       7
100
AcDbLine
 10
265.44603925
 20
-211.81737184
 30
0.0
 11
265.2543389
 21
-211.8557045
 31
0.0
  0
LINE
  5
1C7
100
AcDbEntity
  8
LAYER0001
  6
CONTINUOUS
 62
       7
100
AcDbLine
 10
265.2543389
 20
-211.8557045
 30
0.0
 11
265.06307448
 21
-211.89645401
 31
0.0
  0
LINE
  5
1C8
100
AcDbEntity
  8
LAYER0001
  6
CONTINUOUS
 62
       7
100
AcDbLine
 10
265.06307448
 20
-211.89645401
 30
0.0
 11
264.87222283
 21
-211.9394677
 31
0.0
  0
LINE
  5
1C9
100
AcDbEntity
  8
LAYER0001
  6
CONTINUOUS
 62
       7
100
AcDbLine
 10
264.87222283
 20
-211.9394677
 30
0.0
 11
264.68175221
 21
-211.98457141
 31
0.0
  0
LINE
  5
1CA
100
AcDbEntity
  8
LAYER0001
  6
CONTINUOUS
 62
       7
100
AcDbLine
 10
264.68175221
 20
-211.98457141
 30
0.0
 11
264.49163086
 21
-212.03159096
 31
0.0
  0
LINE
  5
1CB
100
AcDbEntity
  8
LAYER0001
  6
CONTINUOUS
 62
       7
100
AcDbLine
 10
264.49163086
 20
-212.03159096
 30
0.0
 11
264.30182703
 21
-212.08035219
 31
0.0
  0
LINE
  5
1CC
100
AcDbEntity
  8
LAYER0001
  6
CONTINUOUS
 62
       7
100
AcDbLine
 10
264.30182703
 20
-212.08035219
 30
0.0
 11
264.11230896
 21
-212.13068093
 31
0.0
  0
LINE
  5
1CD
100
AcDbEntity
  8
LAYER0001
  6
CONTINUOUS
 62
       7
100
AcDbLine
 10
264.11230896
 20
-212.13068093
 30
0.0
 11
263.92304491
 21
-212.18240301
 31
0.0
  0
LINE
  5
1CE
100
AcDbEntity
  8
LAYER0001
  6
CONTINUOUS
 62
       7
100
AcDbLine
 10
263.92304491
 20
-212.18240301
 30
0.0
 11
263.73400313
 21
-212.23534426
 31
0.0
  0
LINE
  5
1CF
100
AcDbEntity
  8
LAYER0001
  6
CONTINUOUS
 62
       7
100
AcDbLine
 10
263.73400313
 20
-212.23534426
 30
0.0
 11
263.54515185
 21
-212.28933052
 31
0.0
  0
LINE
  5
1D0
100
AcDbEntity
  8
LAYER0001
  6
CONTINUOUS
 62
       7
100
AcDbLine
 10
263.54515185
 20
-212.28933052
 30
0.0
 11
263.35645934
 21
-212.34418762
 31
0.0
  0
LINE
  5
1D1
100
AcDbEntity
  8
LAYER0001
  6
CONTINUOUS
 62
       7
100
AcDbLine
 10
263.35645934
 20
-212.34418762
 30
0.0
 11
263.16789383
 21
-212.39974139
 31
0.0
  0
LINE
  5
1D2
100
AcDbEntity
  8
LAYER0001
  6
CONTINUOUS
 62
       7
100
AcDbLine
 10
263.16789383
 20
-212.39974139
 30
0.0
 11
262.97942358
 21
-212.45581766
 31
0.0
  0
LINE
  5
1D3
100
AcDbEntity
  8
LAYER0001
  6
CONTINUOUS
 62
       7
100
AcDbLine
 10
262.97942358
 20
-212.45581766
 30
0.0
 11
262.79101683
 21
-212.51224227
 31
0.0
  0
LINE
  5
1D4
100
AcDbEntity
  8
LAYER0001
  6
CONTINUOUS
 62
       7
100
AcDbLine
 10
262.79101683
 20
-212.51224227
 30
0.0
 11
262.60264184
 21
-212.56884104
 31
0.0
  0
ENDBLK
  5
1D5
100
AcDbEntity
  8
0
100
AcDbBlockEnd
  0
BLOCK
  5
1D6
100
AcDbEntity
  8
0
100
AcDbBlockBegin
  2
GROUP_14
 70
       0
 10
0.0
 20
0.0
 30
0.0
  3
GROUP_14
  1

  0
LINE
  5
1D7
100
AcDbEntity
  8
LAYER0001
  6
CONTINUOUS
 62
       7
100
AcDbLine
 10
274.10264186
 20
-212.56884104
 30
0.0
 11
273.87646079
 21
-212.4993719
 31
0.0
  0
LINE
  5
1D8
100
AcDbEntity
  8
LAYER0001
  6
CONTINUOUS
 62
       7
100
AcDbLine
 10
273.87646079
 20
-212.4993719
 30
0.0
 11
273.65023043
 21
-212.43026908
 31
0.0
  0
LINE
  5
1D9
100
AcDbEntity
  8
LAYER0001
  6
CONTINUOUS
 62
       7
100
AcDbLine
 10
273.65023043
 20
-212.43026908
 30
0.0
 11
273.42390149
 21
-212.36189891
 31
0.0
  0
LINE
  5
1DA
100
AcDbEntity
  8
LAYER0001
  6
CONTINUOUS
 62
       7
100
AcDbLine
 10
273.42390149
 20
-212.36189891
 30
0.0
 11
273.19742469
 21
-212.29462769
 31
0.0
  0
LINE
  5
1DB
100
AcDbEntity
  8
LAYER0001
  6
CONTINUOUS
 62
       7
100
AcDbLine
 10
273.19742469
 20
-212.29462769
 30
0.0
 11
272.97075075
 21
-212.22882176
 31
0.0
  0
LINE
  5
1DC
100
AcDbEntity
  8
LAYER0001
  6
CONTINUOUS
 62
       7
100
AcDbLine
 10
272.97075075
 20
-212.22882176
 30
0.0
 11
272.74383036
 21
-212.16484744
 31
0.0
  0
LINE
  5
1DD
100
AcDbEntity
  8
LAYER0001
  6
CONTINUOUS
 62
       7
100
AcDbLine
 10
272.74383036
 20
-212.16484744
 30
0.0
 11
272.51661426
 21
-212.10307104
 31
0.0
  0
LINE
  5
1DE
100
AcDbEntity
  8
LAYER0001
  6
CONTINUOUS
 62
       7
100
AcDbLine
 10
272.51661426
 20
-212.10307104
 30
0.0
 11
272.28905314
 21
-212.04385888
 31
0.0
  0
LINE
  5
1DF
100
AcDbEntity
  8
LAYER0001
  6
CONTINUOUS
 62
       7
100
AcDbLine
 10
272.28905314
 20
-212.04385888
 30
0.0
 11
272.06109772
 21
-211.9875773
 31
0.0
  0
LINE
  5
1E0
100
AcDbEntity
  8
LAYER0001
  6
CONTINUOUS
 62
       7
100
AcDbLine
 10
272.06109772
 20
-211.9875773
 30
0.0
 11
271.83269872
 21
-211.9345926
 31
0.0
  0
LINE
  5
1E1
100
AcDbEntity
  8
LAYER0001
  6
CONTINUOUS
 62
       7
100
AcDbLine
 10
271.83269872
 20
-211.9345926
 30
0.0
 11
271.60380685
 21
-211.88527112
 31
0.0
  0
LINE
  5
1E2
100
AcDbEntity
  8
LAYER0001
  6
CONTINUOUS
 62
       7
100
AcDbLine
 10
271.60380685
 20
-211.88527112
 30
0.0
 11
271.37437281
 21
-211.83997916
 31
0.0
  0
LINE
  5
1E3
100
AcDbEntity
  8
LAYER0001
  6
CONTINUOUS
 62
       7
100
AcDbLine
 10
271.37437281
 20
-211.83997916
 30
0.0
 11
271.14435109
 21
-211.79905511
 31
0.0
  0
LINE
  5
1E4
100
AcDbEntity
  8
LAYER0001
  6
CONTINUOUS
 62
       7
100
AcDbLine
 10
271.14435109
 20
-211.79905511
 30
0.0
 11
270.91374952
 21
-211.76244077
 31
0.0
  0
LINE
  5
1E5
100
AcDbEntity
  8
LAYER0001
  6
CONTINUOUS
 62
       7
100
AcDbLine
 10
270.91374952
 20
-211.76244077
 30
0.0
 11
270.68261554
 21
-211.72978341
 31
0.0
  0
LINE
  5
1E6
100
AcDbEntity
  8
LAYER0001
  6
CONTINUOUS
 62
       7
100
AcDbLine
 10
270.68261554
 20
-211.72978341
 30
0.0
 11
270.45099757
 21
-211.70072331
 31
0.0
  0
LINE
  5
1E7
100
AcDbEntity
  8
LAYER0001
  6
CONTINUOUS
 62
       7
100
AcDbLine
 10
270.45099757
 20
-211.70072331
 30
0.0
 11
270.21894399
 21
-211.67490073
 31
0.0
  0
LINE
  5
1E8
100
AcDbEntity
  8
LAYER0001
  6
CONTINUOUS
 62
       7
100
AcDbLine
 10
270.21894399
 20
-211.67490073
 30
0.0
 11
269.98650322
 21
-211.65195595
 31
0.0
  0
LINE
  5
1E9
100
AcDbEntity
  8
LAYER0001
  6
CONTINUOUS
 62
       7
100
AcDbLine
 10
269.98650322
 20
-211.65195595
 30
0.0
 11
269.75372365
 21
-211.63152924
 31
0.0
  0
LINE
  5
1EA
100
AcDbEntity
  8
LAYER0001
  6
CONTINUOUS
 62
       7
100
AcDbLine
 10
269.75372365
 20
-211.63152924
 30
0.0
 11
269.52065368
 21
-211.61326089
 31
0.0
  0
LINE
  5
1EB
100
AcDbEntity
  8
LAYER0001
  6
CONTINUOUS
 62
       7
100
AcDbLine
 10
269.52065368
 20
-211.61326089
 30
0.0
 11
269.28734172
 21
-211.59679116
 31
0.0
  0
LINE
  5
1EC
100
AcDbEntity
  8
LAYER0001
  6
CONTINUOUS
 62
       7
100
AcDbLine
 10
269.28734172
 20
-211.59679116
 30
0.0
 11
269.05383615
 21
-211.58176033
 31
0.0
  0
LINE
  5
1ED
100
AcDbEntity
  8
LAYER0001
  6
CONTINUOUS
 62
       7
100
AcDbLine
 10
269.05383615
 20
-211.58176033
 30
0.0
 11
268.82018538
 21
-211.56780868
 31
0.0
  0
LINE
  5
1EE
100
AcDbEntity
  8
LAYER0001
  6
CONTINUOUS
 62
       7
100
AcDbLine
 10
268.82018538
 20
-211.56780868
 30
0.0
 11
268.58643782
 21
-211.55457648
 31
0.0
  0
LINE
  5
1EF
100
AcDbEntity
  8
LAYER0001
  6
CONTINUOUS
 62
       7
100
AcDbLine
 10
268.58643782
 20
-211.55457648
 30
0.0
 11
268.35264185
 21
-211.541704
 31
0.0
  0
ENDBLK
  5
1F0
100
AcDbEntity
  8
0
100
AcDbBlockEnd
  0
BLOCK
  5
1F1
100
AcDbEntity
  8
0
100
AcDbBlockBegin
  2
GROUP_15
 70
       0
 10
0.0
 20
0.0
 30
0.0
  3
GROUP_15
  1

  0
LINE
  5
1F2
100
AcDbEntity
  8
LAYER0001
  6
CONTINUOUS
 62
       7
100
AcDbLine
 10
268.35264185
 20
-219.04169685
 30
0.0
 11
268.54709816
 21
-219.03973693
 31
0.0
  0
LINE
  5
1F3
100
AcDbEntity
  8
LAYER0001
  6
CONTINUOUS
 62
       7
100
AcDbLine
 10
268.54709816
 20
-219.03973693
 30
0.0
 11
268.74156338
 21
-219.03654207
 31
0.0
  0
LINE
  5
1F4
100
AcDbEntity
  8
LAYER0001
  6
CONTINUOUS
 62
       7
100
AcDbLine
 10
268.74156338
 20
-219.03654207
 30
0.0
 11
268.93604132
 21
-219.03102717
 31
0.0
  0
LINE
  5
1F5
100
AcDbEntity
  8
LAYER0001
  6
CONTINUOUS
 62
       7
100
AcDbLine
 10
268.93604132
 20
-219.03102717
 30
0.0
 11
269.13050778
 21
-219.02292494
 31
0.0
  0
LINE
  5
1F6
100
AcDbEntity
  8
LAYER0001
  6
CONTINUOUS
 62
       7
100
AcDbLine
 10
269.13050778
 20
-219.02292494
 30
0.0
 11
269.32492907
 21
-219.01224566
 31
0.0
  0
LINE
  5
1F7
100
AcDbEntity
  8
LAYER0001
  6
CONTINUOUS
 62
       7
100
AcDbLine
 10
269.32492907
 20
-219.01224566
 30
0.0
 11
269.51927149
 21
-218.99899985
 31
0.0
  0
LINE
  5
1F8
100
AcDbEntity
  8
LAYER0001
  6
CONTINUOUS
 62
       7
100
AcDbLine
 10
269.51927149
 20
-218.99899985
 30
0.0
 11
269.71350135
 21
-218.98319803
 31
0.0
  0
LINE
  5
1F9
100
AcDbEntity
  8
LAYER0001
  6
CONTINUOUS
 62
       7
100
AcDbLine
 10
269.71350135
 20
-218.98319803
 30
0.0
 11
269.90758495
 21
-218.96485072
 31
0.0
  0
LINE
  5
1FA
100
AcDbEntity
  8
LAYER0001
  6
CONTINUOUS
 62
       7
100
AcDbLine
 10
269.90758495
 20
-218.96485072
 30
0.0
 11
270.10148858
 21
-218.94396843
 31
0.0
  0
LINE
  5
1FB
100
AcDbEntity
  8
LAYER0001
  6
CONTINUOUS
 62
       7
100
AcDbLine
 10
270.10148858
 20
-218.94396843
 30
0.0
 11
270.29517857
 21
-218.92056168
 31
0.0
  0
LINE
  5
1FC
100
AcDbEntity
  8
LAYER0001
  6
CONTINUOUS
 62
       7
100
AcDbLine
 10
270.29517857
 20
-218.92056168
 30
0.0
 11
270.4886212
 21
-218.89464098
 31
0.0
  0
LINE
  5
1FD
100
AcDbEntity
  8
LAYER0001
  6
CONTINUOUS
 62
       7
100
AcDbLine
 10
270.4886212
 20
-218.89464098
 30
0.0
 11
270.68178279
 21
-218.86621685
 31
0.0
  0
LINE
  5
1FE
100
AcDbEntity
  8
LAYER0001
  6
CONTINUOUS
 62
       7
100
AcDbLine
 10
270.68178279
 20
-218.86621685
 30
0.0
 11
270.87462962
 21
-218.83529982
 31
0.0
  0
LINE
  5
1FF
100
AcDbEntity
  8
LAYER0001
  6
CONTINUOUS
 62
       7
100
AcDbLine
 10
270.87462962
 20
-218.83529982
 30
0.0
 11
271.06712801
 21
-218.80190039
 31
0.0
  0
LINE
  5
200
100
AcDbEntity
  8
LAYER0001
  6
CONTINUOUS
 62
       7
100
AcDbLine
 10
271.06712801
 20
-218.80190039
 30
0.0
 11
271.25924427
 21
-218.76602908
 31
0.0
  0
LINE
  5
201
100
AcDbEntity
  8
LAYER0001
  6
CONTINUOUS
 62
       7
100
AcDbLine
 10
271.25924427
 20
-218.76602908
 30
0.0
 11
271.45094469
 21
-218.72769642
 31
0.0
  0
LINE
  5
202
100
AcDbEntity
  8
LAYER0001
  6
CONTINUOUS
 62
       7
100
AcDbLine
 10
271.45094469
 20
-218.72769642
 30
0.0
 11
271.64220916
 21
-218.68694691
 31
0.0
  0
LINE
  5
203
100
AcDbEntity
  8
LAYER0001
  6
CONTINUOUS
 62
       7
100
AcDbLine
 10
271.64220916
 20
-218.68694691
 30
0.0
 11
271.83306085
 21
-218.64393321
 31
0.0
  0
LINE
  5
204
100
AcDbEntity
  8
LAYER0001
  6
CONTINUOUS
 62
       7
100
AcDbLine
 10
271.83306085
 20
-218.64393321
 30
0.0
 11
272.02353151
 21
-218.59882951
 31
0.0
  0
LINE
  5
205
100
AcDbEntity
  8
LAYER0001
  6
CONTINUOUS
 62
       7
100
AcDbLine
 10
272.02353151
 20
-218.59882951
 30
0.0
 11
272.21365289
 21
-218.55180995
 31
0.0
  0
LINE
  5
206
100
AcDbEntity
  8
LAYER0001
  6
CONTINUOUS
 62
       7
100
AcDbLine
 10
272.21365289
 20
-218.55180995
 30
0.0
 11
272.40345674
 21
-218.50304872
 31
0.0
  0
LINE
  5
207
100
AcDbEntity
  8
LAYER0001
  6
CONTINUOUS
 62
       7
100
AcDbLine
 10
272.40345674
 20
-218.50304872
 30
0.0
 11
272.59297481
 21
-218.45271998
 31
0.0
  0
LINE
  5
208
100
AcDbEntity
  8
LAYER0001
  6
CONTINUOUS
 62
       7
100
AcDbLine
 10
272.59297481
 20
-218.45271998
 30
0.0
 11
272.78223887
 21
-218.40099789
 31
0.0
  0
LINE
  5
209
100
AcDbEntity
  8
LAYER0001
  6
CONTINUOUS
 62
       7
100
AcDbLine
 10
272.78223887
 20
-218.40099789
 30
0.0
 11
272.97128065
 21
-218.34805663
 31
0.0
  0
LINE
  5
20A
100
AcDbEntity
  8
LAYER0001
  6
CONTINUOUS
 62
       7
100
AcDbLine
 10
272.97128065
 20
-218.34805663
 30
0.0
 11
273.16013192
 21
-218.29407037
 31
0.0
  0
LINE
  5
20B
100
AcDbEntity
  8
LAYER0001
  6
CONTINUOUS
 62
       7
100
AcDbLine
 10
273.16013192
 20
-218.29407037
 30
0.0
 11
273.34882442
 21
-218.23921326
 31
0.0
  0
LINE
  5
20C
100
AcDbEntity
  8
LAYER0001
  6
CONTINUOUS
 62
       7
100
AcDbLine
 10
273.34882442
 20
-218.23921326
 30
0.0
 11
273.53738992
 21
-218.18365948
 31
0.0
  0
LINE
  5
20D
100
AcDbEntity
  8
LAYER0001
  6
CONTINUOUS
 62
       7
100
AcDbLine
 10
273.53738992
 20
-218.18365948
 30
0.0
 11
273.72586015
 21
-218.1275832
 31
0.0
  0
LINE
  5
20E
100
AcDbEntity
  8
LAYER0001
  6
CONTINUOUS
 62
       7
100
AcDbLine
 10
273.72586015
 20
-218.1275832
 30
0.0
 11
273.91426688
 21
-218.07115859
 31
0.0
  0
LINE
  5
20F
100
AcDbEntity
  8
LAYER0001
  6
CONTINUOUS
 62
       7
100
AcDbLine
 10
273.91426688
 20
-218.07115859
 30
0.0
 11
274.10264186
 21
-218.01455981
 31
0.0
  0
ENDBLK
  5
210
100
AcDbEntity
  8
0
100
AcDbBlockEnd
  0
BLOCK
  5
211
100
AcDbEntity
  8
0
100
AcDbBlockBegin
  2
GROUP_16
 70
       0
 10
0.0
 20
0.0
 30
0.0
  3
GROUP_16
  1

  0
LINE
  5
212
100
AcDbEntity
  8
LAYER0001
  6
CONTINUOUS
 62
       7
100
AcDbLine
 10
262.60264184
 20
-218.01455981
 30
0.0
 11
262.82882241
 21
-218.08403243
 31
0.0
  0
LINE
  5
213
100
AcDbEntity
  8
LAYER0001
  6
CONTINUOUS
 62
       7
100
AcDbLine
 10
262.82882241
 20
-218.08403243
 30
0.0
 11
263.05505228
 21
-218.15313868
 31
0.0
  0
LINE
  5
214
100
AcDbEntity
  8
LAYER0001
  6
CONTINUOUS
 62
       7
100
AcDbLine
 10
263.05505228
 20
-218.15313868
 30
0.0
 11
263.28138074
 21
-218.22151221
 31
0.0
  0
LINE
  5
215
100
AcDbEntity
  8
LAYER0001
  6
CONTINUOUS
 62
       7
100
AcDbLine
 10
263.28138074
 20
-218.22151221
 30
0.0
 11
263.50785707
 21
-218.28878664
 31
0.0
  0
LINE
  5
216
100
AcDbEntity
  8
LAYER0001
  6
CONTINUOUS
 62
       7
100
AcDbLine
 10
263.50785707
 20
-218.28878664
 30
0.0
 11
263.73453059
 21
-218.3545956
 31
0.0
  0
LINE
  5
217
100
AcDbEntity
  8
LAYER0001
  6
CONTINUOUS
 62
       7
100
AcDbLine
 10
263.73453059
 20
-218.3545956
 30
0.0
 11
263.96145057
 21
-218.41857274
 31
0.0
  0
LINE
  5
218
100
AcDbEntity
  8
LAYER0001
  6
CONTINUOUS
 62
       7
100
AcDbLine
 10
263.96145057
 20
-218.41857274
 30
0.0
 11
264.18866631
 21
-218.48035168
 31
0.0
  0
LINE
  5
219
100
AcDbEntity
  8
LAYER0001
  6
CONTINUOUS
 62
       7
100
AcDbLine
 10
264.18866631
 20
-218.48035168
 30
0.0
 11
264.4162271
 21
-218.53956607
 31
0.0
  0
LINE
  5
21A
100
AcDbEntity
  8
LAYER0001
  6
CONTINUOUS
 62
       7
100
AcDbLine
 10
264.4162271
 20
-218.53956607
 30
0.0
 11
264.64418225
 21
-218.59584953
 31
0.0
  0
LINE
  5
21B
100
AcDbEntity
  8
LAYER0001
  6
CONTINUOUS
 62
       7
100
AcDbLine
 10
264.64418225
 20
-218.59584953
 30
0.0
 11
264.87258104
 21
-218.6488357
 31
0.0
  0
LINE
  5
21C
100
AcDbEntity
  8
LAYER0001
  6
CONTINUOUS
 62
       7
100
AcDbLine
 10
264.87258104
 20
-218.6488357
 30
0.0
 11
265.10147277
 21
-218.69815822
 31
0.0
  0
LINE
  5
21D
100
AcDbEntity
  8
LAYER0001
  6
CONTINUOUS
 62
       7
100
AcDbLine
 10
265.10147277
 20
-218.69815822
 30
0.0
 11
265.33090672
 21
-218.74345071
 31
0.0
  0
LINE
  5
21E
100
AcDbEntity
  8
LAYER0001
  6
CONTINUOUS
 62
       7
100
AcDbLine
 10
265.33090672
 20
-218.74345071
 30
0.0
 11
265.56092844
 21
-218.78437477
 31
0.0
  0
LINE
  5
21F
100
AcDbEntity
  8
LAYER0001
  6
CONTINUOUS
 62
       7
100
AcDbLine
 10
265.56092844
 20
-218.78437477
 30
0.0
 11
265.7915301
 21
-218.82098857
 31
0.0
  0
LINE
  5
220
100
AcDbEntity
  8
LAYER0001
  6
CONTINUOUS
 62
       7
100
AcDbLine
 10
265.7915301
 20
-218.82098857
 30
0.0
 11
266.02266422
 21
-218.85364491
 31
0.0
  0
LINE
  5
221
100
AcDbEntity
  8
LAYER0001
  6
CONTINUOUS
 62
       7
100
AcDbLine
 10
266.02266422
 20
-218.85364491
 30
0.0
 11
266.25428241
 21
-218.88270354
 31
0.0
  0
LINE
  5
222
100
AcDbEntity
  8
LAYER0001
  6
CONTINUOUS
 62
       7
100
AcDbLine
 10
266.25428241
 20
-218.88270354
 30
0.0
 11
266.48633625
 21
-218.90852425
 31
0.0
  0
LINE
  5
223
100
AcDbEntity
  8
LAYER0001
  6
CONTINUOUS
 62
       7
100
AcDbLine
 10
266.48633625
 20
-218.90852425
 30
0.0
 11
266.71877734
 21
-218.9314668
 31
0.0
  0
LINE
  5
224
100
AcDbEntity
  8
LAYER0001
  6
CONTINUOUS
 62
       7
100
AcDbLine
 10
266.71877734
 20
-218.9314668
 30
0.0
 11
266.95155727
 21
-218.95189096
 31
0.0
  0
LINE
  5
225
100
AcDbEntity
  8
LAYER0001
  6
CONTINUOUS
 62
       7
100
AcDbLine
 10
266.95155727
 20
-218.95189096
 30
0.0
 11
267.18462765
 21
-218.9701565
 31
0.0
  0
LINE
  5
226
100
AcDbEntity
  8
LAYER0001
  6
CONTINUOUS
 62
       7
100
AcDbLine
 10
267.18462765
 20
-218.9701565
 30
0.0
 11
267.41794005
 21
-218.98662319
 31
0.0
  0
LINE
  5
227
100
AcDbEntity
  8
LAYER0001
  6
CONTINUOUS
 62
       7
100
AcDbLine
 10
267.41794005
 20
-218.98662319
 30
0.0
 11
267.65144608
 21
-219.0016508
 31
0.0
  0
LINE
  5
228
100
AcDbEntity
  8
LAYER0001
  6
CONTINUOUS
 62
       7
100
AcDbLine
 10
267.65144608
 20
-219.0016508
 30
0.0
 11
267.88509732
 21
-219.0155991
 31
0.0
  0
LINE
  5
229
100
AcDbEntity
  8
LAYER0001
  6
CONTINUOUS
 62
       7
100
AcDbLine
 10
267.88509732
 20
-219.0155991
 30
0.0
 11
268.11884538
 21
-219.02882786
 31
0.0
  0
LINE
  5
22A
100
AcDbEntity
  8
LAYER0001
  6
CONTINUOUS
 62
       7
100
AcDbLine
 10
268.11884538
 20
-219.02882786
 30
0.0
 11
268.35264185
 21
-219.04169685
 31
0.0
  0
ENDBLK
  5
22B
100
AcDbEntity
  8
0
100
AcDbBlockEnd
  0
BLOCK
  5
22C
100
AcDbEntity
  8
0
100
AcDbBlockBegin
  2
GROUP_17
 70
       0
 10
0.0
 20
0.0
 30
0.0
  3
GROUP_17
  1

  0
LINE
  5
22D
100
AcDbEntity
  8
LAYER0001
  6
CONTINUOUS
 62
       7
100
AcDbLine
 10
256.85264183
 20
-211.541704
 30
0.0
 11
256.65818552
 21
-211.54366392
 31
0.0
  0
LINE
  5
22E
100
AcDbEntity
  8
LAYER0001
  6
CONTINUOUS
 62
       7
100
AcDbLine
 10
256.65818552
 20
-211.54366392
 30
0.0
 11
256.46372029
 21
-211.54685878
 31
0.0
  0
LINE
  5
22F
100
AcDbEntity
  8
LAYER0001
  6
CONTINUOUS
 62
       7
100
AcDbLine
 10
256.46372029
 20
-211.54685878
 30
0.0
 11
256.26924236
 21
-211.55237367
 31
0.0
  0
LINE
  5
230
100
AcDbEntity
  8
LAYER0001
  6
CONTINUOUS
 62
       7
100
AcDbLine
 10
256.26924236
 20
-211.55237367
 30
0.0
 11
256.0747759
 21
-211.56047591
 31
0.0
  0
LINE
  5
231
100
AcDbEntity
  8
LAYER0001
  6
CONTINUOUS
 62
       7
100
AcDbLine
 10
256.0747759
 20
-211.56047591
 30
0.0
 11
255.88035461
 21
-211.57115519
 31
0.0
  0
LINE
  5
232
100
AcDbEntity
  8
LAYER0001
  6
CONTINUOUS
 62
       7
100
AcDbLine
 10
255.88035461
 20
-211.57115519
 30
0.0
 11
255.68601219
 21
-211.58440099
 31
0.0
  0
LINE
  5
233
100
AcDbEntity
  8
LAYER0001
  6
CONTINUOUS
 62
       7
100
AcDbLine
 10
255.68601219
 20
-211.58440099
 30
0.0
 11
255.49178233
 21
-211.60020281
 31
0.0
  0
LINE
  5
234
100
AcDbEntity
  8
LAYER0001
  6
CONTINUOUS
 62
       7
100
AcDbLine
 10
255.49178233
 20
-211.60020281
 30
0.0
 11
255.29769873
 21
-211.61855013
 31
0.0
  0
LINE
  5
235
100
AcDbEntity
  8
LAYER0001
  6
CONTINUOUS
 62
       7
100
AcDbLine
 10
255.29769873
 20
-211.61855013
 30
0.0
 11
255.10379509
 21
-211.63943242
 31
0.0
  0
LINE
  5
236
100
AcDbEntity
  8
LAYER0001
  6
CONTINUOUS
 62
       7
100
AcDbLine
 10
255.10379509
 20
-211.63943242
 30
0.0
 11
254.91010511
 21
-211.66283917
 31
0.0
  0
LINE
  5
237
100
AcDbEntity
  8
LAYER0001
  6
CONTINUOUS
 62
       7
100
AcDbLine
 10
254.91010511
 20
-211.66283917
 30
0.0
 11
254.71666248
 21
-211.68875987
 31
0.0
  0
LINE
  5
238
100
AcDbEntity
  8
LAYER0001
  6
CONTINUOUS
 62
       7
100
AcDbLine
 10
254.71666248
 20
-211.68875987
 30
0.0
 11
254.52350089
 21
-211.71718399
 31
0.0
  0
LINE
  5
239
100
AcDbEntity
  8
LAYER0001
  6
CONTINUOUS
 62
       7
100
AcDbLine
 10
254.52350089
 20
-211.71718399
 30
0.0
 11
254.33065406
 21
-211.74810103
 31
0.0
  0
LINE
  5
23A
100
AcDbEntity
  8
LAYER0001
  6
CONTINUOUS
 62
       7
100
AcDbLine
 10
254.33065406
 20
-211.74810103
 30
0.0
 11
254.13815566
 21
-211.78150046
 31
0.0
  0
LINE
  5
23B
100
AcDbEntity
  8
LAYER0001
  6
CONTINUOUS
 62
       7
100
AcDbLine
 10
254.13815566
 20
-211.78150046
 30
0.0
 11
253.94603941
 21
-211.81737177
 31
0.0
  0
LINE
  5
23C
100
AcDbEntity
  8
LAYER0001
  6
CONTINUOUS
 62
       7
100
AcDbLine
 10
253.94603941
 20
-211.81737177
 30
0.0
 11
253.75433899
 21
-211.85570442
 31
0.0
  0
LINE
  5
23D
100
AcDbEntity
  8
LAYER0001
  6
CONTINUOUS
 62
       7
100
AcDbLine
 10
253.75433899
 20
-211.85570442
 30
0.0
 11
253.56307452
 21
-211.89645394
 31
0.0
  0
LINE
  5
23E
100
AcDbEntity
  8
LAYER0001
  6
CONTINUOUS
 62
       7
100
AcDbLine
 10
253.56307452
 20
-211.89645394
 30
0.0
 11
253.37222283
 21
-211.93946763
 31
0.0
  0
LINE
  5
23F
100
AcDbEntity
  8
LAYER0001
  6
CONTINUOUS
 62
       7
100
AcDbLine
 10
253.37222283
 20
-211.93946763
 30
0.0
 11
253.18175217
 21
-211.98457134
 31
0.0
  0
LINE
  5
240
100
AcDbEntity
  8
LAYER0001
  6
CONTINUOUS
 62
       7
100
AcDbLine
 10
253.18175217
 20
-211.98457134
 30
0.0
 11
252.99163079
 21
-212.03159089
 31
0.0
  0
LINE
  5
241
100
AcDbEntity
  8
LAYER0001
  6
CONTINUOUS
 62
       7
100
AcDbLine
 10
252.99163079
 20
-212.03159089
 30
0.0
 11
252.80182694
 21
-212.08035213
 31
0.0
  0
LINE
  5
242
100
AcDbEntity
  8
LAYER0001
  6
CONTINUOUS
 62
       7
100
AcDbLine
 10
252.80182694
 20
-212.08035213
 30
0.0
 11
252.61230886
 21
-212.13068087
 31
0.0
  0
LINE
  5
243
100
AcDbEntity
  8
LAYER0001
  6
CONTINUOUS
 62
       7
100
AcDbLine
 10
252.61230886
 20
-212.13068087
 30
0.0
 11
252.42304481
 21
-212.18240295
 31
0.0
  0
LINE
  5
244
100
AcDbEntity
  8
LAYER0001
  6
CONTINUOUS
 62
       7
100
AcDbLine
 10
252.42304481
 20
-212.18240295
 30
0.0
 11
252.23400303
 21
-212.23534421
 31
0.0
  0
LINE
  5
245
100
AcDbEntity
  8
LAYER0001
  6
CONTINUOUS
 62
       7
100
AcDbLine
 10
252.23400303
 20
-212.23534421
 30
0.0
 11
252.04515176
 21
-212.28933048
 31
0.0
  0
LINE
  5
246
100
AcDbEntity
  8
LAYER0001
  6
CONTINUOUS
 62
       7
100
AcDbLine
 10
252.04515176
 20
-212.28933048
 30
0.0
 11
251.85645925
 21
-212.34418758
 31
0.0
  0
LINE
  5
247
100
AcDbEntity
  8
LAYER0001
  6
CONTINUOUS
 62
       7
100
AcDbLine
 10
251.85645925
 20
-212.34418758
 30
0.0
 11
251.66789376
 21
-212.39974136
 31
0.0
  0
LINE
  5
248
100
AcDbEntity
  8
LAYER0001
  6
CONTINUOUS
 62
       7
100
AcDbLine
 10
251.66789376
 20
-212.39974136
 30
0.0
 11
251.47942352
 21
-212.45581764
 31
0.0
  0
LINE
  5
249
100
AcDbEntity
  8
LAYER0001
  6
CONTINUOUS
 62
       7
100
AcDbLine
 10
251.47942352
 20
-212.45581764
 30
0.0
 11
251.29101679
 21
-212.51224226
 31
0.0
  0
LINE
  5
24A
100
AcDbEntity
  8
LAYER0001
  6
CONTINUOUS
 62
       7
100
AcDbLine
 10
251.29101679
 20
-212.51224226
 30
0.0
 11
251.10264182
 21
-212.56884104
 31
0.0
  0
ENDBLK
  5
24B
100
AcDbEntity
  8
0
100
AcDbBlockEnd
  0
BLOCK
  5
24C
100
AcDbEntity
  8
0
100
AcDbBlockBegin
  2
GROUP_18
 70
       0
 10
0.0
 20
0.0
 30
0.0
  3
GROUP_18
  1

  0
LINE
  5
24D
100
AcDbEntity
  8
LAYER0001
  6
CONTINUOUS
 62
       7
100
AcDbLine
 10
262.60264184
 20
-212.56884104
 30
0.0
 11
262.3764608
 21
-212.4993719
 31
0.0
  0
LINE
  5
24E
100
AcDbEntity
  8
LAYER0001
  6
CONTINUOUS
 62
       7
100
AcDbLine
 10
262.3764608
 20
-212.4993719
 30
0.0
 11
262.15023047
 21
-212.43026908
 31
0.0
  0
LINE
  5
24F
100
AcDbEntity
  8
LAYER0001
  6
CONTINUOUS
 62
       7
100
AcDbLine
 10
262.15023047
 20
-212.43026908
 30
0.0
 11
261.92390156
 21
-212.36189891
 31
0.0
  0
LINE
  5
250
100
AcDbEntity
  8
LAYER0001
  6
CONTINUOUS
 62
       7
100
AcDbLine
 10
261.92390156
 20
-212.36189891
 30
0.0
 11
261.69742479
 21
-212.29462769
 31
0.0
  0
LINE
  5
251
100
AcDbEntity
  8
LAYER0001
  6
CONTINUOUS
 62
       7
100
AcDbLine
 10
261.69742479
 20
-212.29462769
 30
0.0
 11
261.47075087
 21
-212.22882176
 31
0.0
  0
LINE
  5
252
100
AcDbEntity
  8
LAYER0001
  6
CONTINUOUS
 62
       7
100
AcDbLine
 10
261.47075087
 20
-212.22882176
 30
0.0
 11
261.24383051
 21
-212.16484744
 31
0.0
  0
LINE
  5
253
100
AcDbEntity
  8
LAYER0001
  6
CONTINUOUS
 62
       7
100
AcDbLine
 10
261.24383051
 20
-212.16484744
 30
0.0
 11
261.01661443
 21
-212.10307104
 31
0.0
  0
LINE
  5
254
100
AcDbEntity
  8
LAYER0001
  6
CONTINUOUS
 62
       7
100
AcDbLine
 10
261.01661443
 20
-212.10307104
 30
0.0
 11
260.78905333
 21
-212.04385889
 31
0.0
  0
LINE
  5
255
100
AcDbEntity
  8
LAYER0001
  6
CONTINUOUS
 62
       7
100
AcDbLine
 10
260.78905333
 20
-212.04385889
 30
0.0
 11
260.56109793
 21
-211.9875773
 31
0.0
  0
LINE
  5
256
100
AcDbEntity
  8
LAYER0001
  6
CONTINUOUS
 62
       7
100
AcDbLine
 10
260.56109793
 20
-211.9875773
 30
0.0
 11
260.33269894
 21
-211.93459261
 31
0.0
  0
LINE
  5
257
100
AcDbEntity
  8
LAYER0001
  6
CONTINUOUS
 62
       7
100
AcDbLine
 10
260.33269894
 20
-211.93459261
 30
0.0
 11
260.10380708
 21
-211.88527112
 31
0.0
  0
LINE
  5
258
100
AcDbEntity
  8
LAYER0001
  6
CONTINUOUS
 62
       7
100
AcDbLine
 10
260.10380708
 20
-211.88527112
 30
0.0
 11
259.87437305
 21
-211.83997917
 31
0.0
  0
LINE
  5
259
100
AcDbEntity
  8
LAYER0001
  6
CONTINUOUS
 62
       7
100
AcDbLine
 10
259.87437305
 20
-211.83997917
 30
0.0
 11
259.64435133
 21
-211.79905511
 31
0.0
  0
LINE
  5
25A
100
AcDbEntity
  8
LAYER0001
  6
CONTINUOUS
 62
       7
100
AcDbLine
 10
259.64435133
 20
-211.79905511
 30
0.0
 11
259.41374975
 21
-211.76244078
 31
0.0
  0
LINE
  5
25B
100
AcDbEntity
  8
LAYER0001
  6
CONTINUOUS
 62
       7
100
AcDbLine
 10
259.41374975
 20
-211.76244078
 30
0.0
 11
259.18261576
 21
-211.72978342
 31
0.0
  0
LINE
  5
25C
100
AcDbEntity
  8
LAYER0001
  6
CONTINUOUS
 62
       7
100
AcDbLine
 10
259.18261576
 20
-211.72978342
 30
0.0
 11
258.95099778
 21
-211.70072331
 31
0.0
  0
LINE
  5
25D
100
AcDbEntity
  8
LAYER0001
  6
CONTINUOUS
 62
       7
100
AcDbLine
 10
258.95099778
 20
-211.70072331
 30
0.0
 11
258.71894419
 21
-211.67490073
 31
0.0
  0
LINE
  5
25E
100
AcDbEntity
  8
LAYER0001
  6
CONTINUOUS
 62
       7
100
AcDbLine
 10
258.71894419
 20
-211.67490073
 30
0.0
 11
258.48650339
 21
-211.65195595
 31
0.0
  0
LINE
  5
25F
100
AcDbEntity
  8
LAYER0001
  6
CONTINUOUS
 62
       7
100
AcDbLine
 10
258.48650339
 20
-211.65195595
 30
0.0
 11
258.2537238
 21
-211.63152924
 31
0.0
  0
LINE
  5
260
100
AcDbEntity
  8
LAYER0001
  6
CONTINUOUS
 62
       7
100
AcDbLine
 10
258.2537238
 20
-211.63152924
 30
0.0
 11
258.02065381
 21
-211.61326089
 31
0.0
  0
LINE
  5
261
100
AcDbEntity
  8
LAYER0001
  6
CONTINUOUS
 62
       7
100
AcDbLine
 10
258.02065381
 20
-211.61326089
 30
0.0
 11
257.78734181
 21
-211.59679116
 31
0.0
  0
LINE
  5
262
100
AcDbEntity
  8
LAYER0001
  6
CONTINUOUS
 62
       7
100
AcDbLine
 10
257.78734181
 20
-211.59679116
 30
0.0
 11
257.55383622
 21
-211.58176033
 31
0.0
  0
LINE
  5
263
100
AcDbEntity
  8
LAYER0001
  6
CONTINUOUS
 62
       7
100
AcDbLine
 10
257.55383622
 20
-211.58176033
 30
0.0
 11
257.32018542
 21
-211.56780868
 31
0.0
  0
LINE
  5
264
100
AcDbEntity
  8
LAYER0001
  6
CONTINUOUS
 62
       7
100
AcDbLine
 10
257.32018542
 20
-211.56780868
 30
0.0
 11
257.08643782
 21
-211.55457648
 31
0.0
  0
LINE
  5
265
100
AcDbEntity
  8
LAYER0001
  6
CONTINUOUS
 62
       7
100
AcDbLine
 10
257.08643782
 20
-211.55457648
 30
0.0
 11
256.85264183
 21
-211.541704
 31
0.0
  0
ENDBLK
  5
266
100
AcDbEntity
  8
0
100
AcDbBlockEnd
  0
BLOCK
  5
267
100
AcDbEntity
  8
0
100
AcDbBlockBegin
  2
GROUP_19
 70
       0
 10
0.0
 20
0.0
 30
0.0
  3
GROUP_19
  1

  0
LINE
  5
268
100
AcDbEntity
  8
LAYER0001
  6
CONTINUOUS
 62
       7
100
AcDbLine
 10
256.85264183
 20
-219.04169685
 30
0.0
 11
257.04709832
 21
-219.03973693
 31
0.0
  0
LINE
  5
269
100
AcDbEntity
  8
LAYER0001
  6
CONTINUOUS
 62
       7
100
AcDbLine
 10
257.04709832
 20
-219.03973693
 30
0.0
 11
257.24156372
 21
-219.03654206
 31
0.0
  0
LINE
  5
26A
100
AcDbEntity
  8
LAYER0001
  6
CONTINUOUS
 62
       7
100
AcDbLine
 10
257.24156372
 20
-219.03654206
 30
0.0
 11
257.43604179
 21
-219.03102716
 31
0.0
  0
LINE
  5
26B
100
AcDbEntity
  8
LAYER0001
  6
CONTINUOUS
 62
       7
100
AcDbLine
 10
257.43604179
 20
-219.03102716
 30
0.0
 11
257.63050834
 21
-219.02292492
 31
0.0
  0
LINE
  5
26C
100
AcDbEntity
  8
LAYER0001
  6
CONTINUOUS
 62
       7
100
AcDbLine
 10
257.63050834
 20
-219.02292492
 30
0.0
 11
257.82492969
 21
-219.01224563
 31
0.0
  0
LINE
  5
26D
100
AcDbEntity
  8
LAYER0001
  6
CONTINUOUS
 62
       7
100
AcDbLine
 10
257.82492969
 20
-219.01224563
 30
0.0
 11
258.01927214
 21
-218.99899982
 31
0.0
  0
LINE
  5
26E
100
AcDbEntity
  8
LAYER0001
  6
CONTINUOUS
 62
       7
100
AcDbLine
 10
258.01927214
 20
-218.99899982
 30
0.0
 11
258.213502
 21
-218.983198
 31
0.0
  0
LINE
  5
26F
100
AcDbEntity
  8
LAYER0001
  6
CONTINUOUS
 62
       7
100
AcDbLine
 10
258.213502
 20
-218.983198
 30
0.0
 11
258.40758558
 21
-218.96485068
 31
0.0
  0
LINE
  5
270
100
AcDbEntity
  8
LAYER0001
  6
CONTINUOUS
 62
       7
100
AcDbLine
 10
258.40758558
 20
-218.96485068
 30
0.0
 11
258.60148918
 21
-218.94396838
 31
0.0
  0
LINE
  5
271
100
AcDbEntity
  8
LAYER0001
  6
CONTINUOUS
 62
       7
100
AcDbLine
 10
258.60148918
 20
-218.94396838
 30
0.0
 11
258.79517911
 21
-218.92056162
 31
0.0
  0
LINE
  5
272
100
AcDbEntity
  8
LAYER0001
  6
CONTINUOUS
 62
       7
100
AcDbLine
 10
258.79517911
 20
-218.92056162
 30
0.0
 11
258.98862167
 21
-218.89464092
 31
0.0
  0
LINE
  5
273
100
AcDbEntity
  8
LAYER0001
  6
CONTINUOUS
 62
       7
100
AcDbLine
 10
258.98862167
 20
-218.89464092
 30
0.0
 11
259.18178318
 21
-218.86621679
 31
0.0
  0
LINE
  5
274
100
AcDbEntity
  8
LAYER0001
  6
CONTINUOUS
 62
       7
100
AcDbLine
 10
259.18178318
 20
-218.86621679
 30
0.0
 11
259.37462994
 21
-218.83529975
 31
0.0
  0
LINE
  5
275
100
AcDbEntity
  8
LAYER0001
  6
CONTINUOUS
 62
       7
100
AcDbLine
 10
259.37462994
 20
-218.83529975
 30
0.0
 11
259.56712825
 21
-218.80190032
 31
0.0
  0
LINE
  5
276
100
AcDbEntity
  8
LAYER0001
  6
CONTINUOUS
 62
       7
100
AcDbLine
 10
259.56712825
 20
-218.80190032
 30
0.0
 11
259.75924443
 21
-218.76602901
 31
0.0
  0
LINE
  5
277
100
AcDbEntity
  8
LAYER0001
  6
CONTINUOUS
 62
       7
100
AcDbLine
 10
259.75924443
 20
-218.76602901
 30
0.0
 11
259.95094478
 21
-218.72769635
 31
0.0
  0
LINE
  5
278
100
AcDbEntity
  8
LAYER0001
  6
CONTINUOUS
 62
       7
100
AcDbLine
 10
259.95094478
 20
-218.72769635
 30
0.0
 11
260.1422092
 21
-218.68694684
 31
0.0
  0
LINE
  5
279
100
AcDbEntity
  8
LAYER0001
  6
CONTINUOUS
 62
       7
100
AcDbLine
 10
260.1422092
 20
-218.68694684
 30
0.0
 11
260.33306085
 21
-218.64393314
 31
0.0
  0
LINE
  5
27A
100
AcDbEntity
  8
LAYER0001
  6
CONTINUOUS
 62
       7
100
AcDbLine
 10
260.33306085
 20
-218.64393314
 30
0.0
 11
260.52353147
 21
-218.59882944
 31
0.0
  0
LINE
  5
27B
100
AcDbEntity
  8
LAYER0001
  6
CONTINUOUS
 62
       7
100
AcDbLine
 10
260.52353147
 20
-218.59882944
 30
0.0
 11
260.71365282
 21
-218.55180989
 31
0.0
  0
LINE
  5
27C
100
AcDbEntity
  8
LAYER0001
  6
CONTINUOUS
 62
       7
100
AcDbLine
 10
260.71365282
 20
-218.55180989
 30
0.0
 11
260.90345665
 21
-218.50304866
 31
0.0
  0
LINE
  5
27D
100
AcDbEntity
  8
LAYER0001
  6
CONTINUOUS
 62
       7
100
AcDbLine
 10
260.90345665
 20
-218.50304866
 30
0.0
 11
261.09297471
 21
-218.45271992
 31
0.0
  0
LINE
  5
27E
100
AcDbEntity
  8
LAYER0001
  6
CONTINUOUS
 62
       7
100
AcDbLine
 10
261.09297471
 20
-218.45271992
 30
0.0
 11
261.28223876
 21
-218.40099784
 31
0.0
  0
LINE
  5
27F
100
AcDbEntity
  8
LAYER0001
  6
CONTINUOUS
 62
       7
100
AcDbLine
 10
261.28223876
 20
-218.40099784
 30
0.0
 11
261.47128055
 21
-218.34805659
 31
0.0
  0
LINE
  5
280
100
AcDbEntity
  8
LAYER0001
  6
CONTINUOUS
 62
       7
100
AcDbLine
 10
261.47128055
 20
-218.34805659
 30
0.0
 11
261.66013182
 21
-218.29407033
 31
0.0
  0
LINE
  5
281
100
AcDbEntity
  8
LAYER0001
  6
CONTINUOUS
 62
       7
100
AcDbLine
 10
261.66013182
 20
-218.29407033
 30
0.0
 11
261.84882434
 21
-218.23921323
 31
0.0
  0
LINE
  5
282
100
AcDbEntity
  8
LAYER0001
  6
CONTINUOUS
 62
       7
100
AcDbLine
 10
261.84882434
 20
-218.23921323
 30
0.0
 11
262.03738984
 21
-218.18365946
 31
0.0
  0
LINE
  5
283
100
AcDbEntity
  8
LAYER0001
  6
CONTINUOUS
 62
       7
100
AcDbLine
 10
262.03738984
 20
-218.18365946
 30
0.0
 11
262.2258601
 21
-218.12758319
 31
0.0
  0
LINE
  5
284
100
AcDbEntity
  8
LAYER0001
  6
CONTINUOUS
 62
       7
100
AcDbLine
 10
262.2258601
 20
-218.12758319
 30
0.0
 11
262.41426684
 21
-218.07115858
 31
0.0
  0
LINE
  5
285
100
AcDbEntity
  8
LAYER0001
  6
CONTINUOUS
 62
       7
100
AcDbLine
 10
262.41426684
 20
-218.07115858
 30
0.0
 11
262.60264184
 21
-218.01455981
 31
0.0
  0
ENDBLK
  5
286
100
AcDbEntity
  8
0
100
AcDbBlockEnd
  0
BLOCK
  5
287
100
AcDbEntity
  8
0
100
AcDbBlockBegin
  2
GROUP_20
 70
       0
 10
0.0
 20
0.0
 30
0.0
  3
GROUP_20
  1

  0
LINE
  5
288
100
AcDbEntity
  8
LAYER0001
  6
CONTINUOUS
 62
       7
100
AcDbLine
 10
251.10264182
 20
-218.01455981
 30
0.0
 11
251.32882242
 21
-218.08403243
 31
0.0
  0
LINE
  5
289
100
AcDbEntity
  8
LAYER0001
  6
CONTINUOUS
 62
       7
100
AcDbLine
 10
251.32882242
 20
-218.08403243
 30
0.0
 11
251.55505232
 21
-218.15313868
 31
0.0
  0
LINE
  5
28A
100
AcDbEntity
  8
LAYER0001
  6
CONTINUOUS
 62
       7
100
AcDbLine
 10
251.55505232
 20
-218.15313868
 30
0.0
 11
251.78138081
 21
-218.22151221
 31
0.0
  0
LINE
  5
28B
100
AcDbEntity
  8
LAYER0001
  6
CONTINUOUS
 62
       7
100
AcDbLine
 10
251.78138081
 20
-218.22151221
 30
0.0
 11
252.00785717
 21
-218.28878664
 31
0.0
  0
LINE
  5
28C
100
AcDbEntity
  8
LAYER0001
  6
CONTINUOUS
 62
       7
100
AcDbLine
 10
252.00785717
 20
-218.28878664
 30
0.0
 11
252.23453071
 21
-218.3545956
 31
0.0
  0
LINE
  5
28D
100
AcDbEntity
  8
LAYER0001
  6
CONTINUOUS
 62
       7
100
AcDbLine
 10
252.23453071
 20
-218.3545956
 30
0.0
 11
252.46145072
 21
-218.41857274
 31
0.0
  0
LINE
  5
28E
100
AcDbEntity
  8
LAYER0001
  6
CONTINUOUS
 62
       7
100
AcDbLine
 10
252.46145072
 20
-218.41857274
 30
0.0
 11
252.68866648
 21
-218.48035169
 31
0.0
  0
LINE
  5
28F
100
AcDbEntity
  8
LAYER0001
  6
CONTINUOUS
 62
       7
100
AcDbLine
 10
252.68866648
 20
-218.48035169
 30
0.0
 11
252.9162273
 21
-218.53956607
 31
0.0
  0
LINE
  5
290
100
AcDbEntity
  8
LAYER0001
  6
CONTINUOUS
 62
       7
100
AcDbLine
 10
252.9162273
 20
-218.53956607
 30
0.0
 11
253.14418246
 21
-218.59584953
 31
0.0
  0
LINE
  5
291
100
AcDbEntity
  8
LAYER0001
  6
CONTINUOUS
 62
       7
100
AcDbLine
 10
253.14418246
 20
-218.59584953
 30
0.0
 11
253.37258126
 21
-218.64883571
 31
0.0
  0
LINE
  5
292
100
AcDbEntity
  8
LAYER0001
  6
CONTINUOUS
 62
       7
100
AcDbLine
 10
253.37258126
 20
-218.64883571
 30
0.0
 11
253.601473
 21
-218.69815822
 31
0.0
  0
LINE
  5
293
100
AcDbEntity
  8
LAYER0001
  6
CONTINUOUS
 62
       7
100
AcDbLine
 10
253.601473
 20
-218.69815822
 30
0.0
 11
253.83090696
 21
-218.74345071
 31
0.0
  0
LINE
  5
294
100
AcDbEntity
  8
LAYER0001
  6
CONTINUOUS
 62
       7
100
AcDbLine
 10
253.83090696
 20
-218.74345071
 30
0.0
 11
254.06092868
 21
-218.78437477
 31
0.0
  0
LINE
  5
295
100
AcDbEntity
  8
LAYER0001
  6
CONTINUOUS
 62
       7
100
AcDbLine
 10
254.06092868
 20
-218.78437477
 30
0.0
 11
254.29153033
 21
-218.82098858
 31
0.0
  0
LINE
  5
296
100
AcDbEntity
  8
LAYER0001
  6
CONTINUOUS
 62
       7
100
AcDbLine
 10
254.29153033
 20
-218.82098858
 30
0.0
 11
254.52266444
 21
-218.85364491
 31
0.0
  0
LINE
  5
297
100
AcDbEntity
  8
LAYER0001
  6
CONTINUOUS
 62
       7
100
AcDbLine
 10
254.52266444
 20
-218.85364491
 30
0.0
 11
254.75428262
 21
-218.88270355
 31
0.0
  0
LINE
  5
298
100
AcDbEntity
  8
LAYER0001
  6
CONTINUOUS
 62
       7
100
AcDbLine
 10
254.75428262
 20
-218.88270355
 30
0.0
 11
254.98633644
 21
-218.90852425
 31
0.0
  0
LINE
  5
299
100
AcDbEntity
  8
LAYER0001
  6
CONTINUOUS
 62
       7
100
AcDbLine
 10
254.98633644
 20
-218.90852425
 30
0.0
 11
255.21877751
 21
-218.9314668
 31
0.0
  0
LINE
  5
29A
100
AcDbEntity
  8
LAYER0001
  6
CONTINUOUS
 62
       7
100
AcDbLine
 10
255.21877751
 20
-218.9314668
 30
0.0
 11
255.45155742
 21
-218.95189096
 31
0.0
  0
LINE
  5
29B
100
AcDbEntity
  8
LAYER0001
  6
CONTINUOUS
 62
       7
100
AcDbLine
 10
255.45155742
 20
-218.95189096
 30
0.0
 11
255.68462777
 21
-218.9701565
 31
0.0
  0
LINE
  5
29C
100
AcDbEntity
  8
LAYER0001
  6
CONTINUOUS
 62
       7
100
AcDbLine
 10
255.68462777
 20
-218.9701565
 30
0.0
 11
255.91794015
 21
-218.98662319
 31
0.0
  0
LINE
  5
29D
100
AcDbEntity
  8
LAYER0001
  6
CONTINUOUS
 62
       7
100
AcDbLine
 10
255.91794015
 20
-218.98662319
 30
0.0
 11
256.15144615
 21
-219.0016508
 31
0.0
  0
LINE
  5
29E
100
AcDbEntity
  8
LAYER0001
  6
CONTINUOUS
 62
       7
100
AcDbLine
 10
256.15144615
 20
-219.0016508
 30
0.0
 11
256.38509736
 21
-219.0155991
 31
0.0
  0
LINE
  5
29F
100
AcDbEntity
  8
LAYER0001
  6
CONTINUOUS
 62
       7
100
AcDbLine
 10
256.38509736
 20
-219.0155991
 30
0.0
 11
256.61884539
 21
-219.02882786
 31
0.0
  0
LINE
  5
2A0
100
AcDbEntity
  8
LAYER0001
  6
CONTINUOUS
 62
       7
100
AcDbLine
 10
256.61884539
 20
-219.02882786
 30
0.0
 11
256.85264183
 21
-219.04169685
 31
0.0
  0
ENDBLK
  5
2A1
100
AcDbEntity
  8
0
100
AcDbBlockEnd
  0
BLOCK
  5
2A2
100
AcDbEntity
  8
0
100
AcDbBlockBegin
  2
GROUP_21
 70
       0
 10
0.0
 20
0.0
 30
0.0
  3
GROUP_21
  1

  0
LINE
  5
2A3
100
AcDbEntity
  8
LAYER0001
  6
CONTINUOUS
 62
       7
100
AcDbLine
 10
251.10264182
 20
-212.56884104
 30
0.0
 11
251.10264182
 21
-212.50282935
 31
0.0
  0
LINE
  5
2A4
100
AcDbEntity
  8
LAYER0001
  6
CONTINUOUS
 62
       7
100
AcDbLine
 10
251.10264182
 20
-212.50282935
 30
0.0
 11
251.10264182
 21
-212.43707465
 31
0.0
  0
LINE
  5
2A5
100
AcDbEntity
  8
LAYER0001
  6
CONTINUOUS
 62
       7
100
AcDbLine
 10
251.10264182
 20
-212.43707465
 30
0.0
 11
251.10264182
 21
-212.37183393
 31
0.0
  0
LINE
  5
2A6
100
AcDbEntity
  8
LAYER0001
  6
CONTINUOUS
 62
       7
100
AcDbLine
 10
251.10264182
 20
-212.37183393
 30
0.0
 11
251.10264182
 21
-212.30736418
 31
0.0
  0
LINE
  5
2A7
100
AcDbEntity
  8
LAYER0001
  6
CONTINUOUS
 62
       7
100
AcDbLine
 10
251.10264182
 20
-212.30736418
 30
0.0
 11
251.10264182
 21
-212.24392238
 31
0.0
  0
LINE
  5
2A8
100
AcDbEntity
  8
LAYER0001
  6
CONTINUOUS
 62
       7
100
AcDbLine
 10
251.10264182
 20
-212.24392238
 30
0.0
 11
251.10264182
 21
-212.18176553
 31
0.0
  0
LINE
  5
2A9
100
AcDbEntity
  8
LAYER0001
  6
CONTINUOUS
 62
       7
100
AcDbLine
 10
251.10264182
 20
-212.18176553
 30
0.0
 11
251.10264182
 21
-212.12115061
 31
0.0
  0
LINE
  5
2AA
100
AcDbEntity
  8
LAYER0001
  6
CONTINUOUS
 62
       7
100
AcDbLine
 10
251.10264182
 20
-212.12115061
 30
0.0
 11
251.10264182
 21
-212.06233462
 31
0.0
  0
LINE
  5
2AB
100
AcDbEntity
  8
LAYER0001
  6
CONTINUOUS
 62
       7
100
AcDbLine
 10
251.10264182
 20
-212.06233462
 30
0.0
 11
251.10264182
 21
-212.00557454
 31
0.0
  0
LINE
  5
2AC
100
AcDbEntity
  8
LAYER0001
  6
CONTINUOUS
 62
       7
100
AcDbLine
 10
251.10264182
 20
-212.00557454
 30
0.0
 11
251.10264182
 21
-211.95112736
 31
0.0
  0
LINE
  5
2AD
100
AcDbEntity
  8
LAYER0001
  6
CONTINUOUS
 62
       7
100
AcDbLine
 10
251.10264182
 20
-211.95112736
 30
0.0
 11
251.10264182
 21
-211.89925007
 31
0.0
  0
LINE
  5
2AE
100
AcDbEntity
  8
LAYER0001
  6
CONTINUOUS
 62
       7
100
AcDbLine
 10
251.10264182
 20
-211.89925007
 30
0.0
 11
251.10264182
 21
-211.85019967
 31
0.0
  0
LINE
  5
2AF
100
AcDbEntity
  8
LAYER0001
  6
CONTINUOUS
 62
       7
100
AcDbLine
 10
251.10264182
 20
-211.85019967
 30
0.0
 11
251.10264182
 21
-211.80423313
 31
0.0
  0
LINE
  5
2B0
100
AcDbEntity
  8
LAYER0001
  6
CONTINUOUS
 62
       7
100
AcDbLine
 10
251.10264182
 20
-211.80423313
 30
0.0
 11
251.10264182
 21
-211.76160745
 31
0.0
  0
LINE
  5
2B1
100
AcDbEntity
  8
LAYER0001
  6
CONTINUOUS
 62
       7
100
AcDbLine
 10
251.10264182
 20
-211.76160745
 30
0.0
 11
251.10264182
 21
-211.72257962
 31
0.0
  0
LINE
  5
2B2
100
AcDbEntity
  8
LAYER0001
  6
CONTINUOUS
 62
       7
100
AcDbLine
 10
251.10264182
 20
-211.72257962
 30
0.0
 11
251.10264182
 21
-211.68740663
 31
0.0
  0
LINE
  5
2B3
100
AcDbEntity
  8
LAYER0001
  6
CONTINUOUS
 62
       7
100
AcDbLine
 10
251.10264182
 20
-211.68740663
 30
0.0
 11
251.10264182
 21
-211.65634547
 31
0.0
  0
LINE
  5
2B4
100
AcDbEntity
  8
LAYER0001
  6
CONTINUOUS
 62
       7
100
AcDbLine
 10
251.10264182
 20
-211.65634547
 30
0.0
 11
251.10264182
 21
-211.62965311
 31
0.0
  0
LINE
  5
2B5
100
AcDbEntity
  8
LAYER0001
  6
CONTINUOUS
 62
       7
100
AcDbLine
 10
251.10264182
 20
-211.62965311
 30
0.0
 11
251.10264182
 21
-211.60756786
 31
0.0
  0
LINE
  5
2B6
100
AcDbEntity
  8
LAYER0001
  6
CONTINUOUS
 62
       7
100
AcDbLine
 10
251.10264182
 20
-211.60756786
 30
0.0
 11
251.10264182
 21
-211.58986323
 31
0.0
  0
LINE
  5
2B7
100
AcDbEntity
  8
LAYER0001
  6
CONTINUOUS
 62
       7
100
AcDbLine
 10
251.10264182
 20
-211.58986323
 30
0.0
 11
251.10264182
 21
-211.57582805
 31
0.0
  0
LINE
  5
2B8
100
AcDbEntity
  8
LAYER0001
  6
CONTINUOUS
 62
       7
100
AcDbLine
 10
251.10264182
 20
-211.57582805
 30
0.0
 11
251.10264182
 21
-211.56472843
 31
0.0
  0
LINE
  5
2B9
100
AcDbEntity
  8
LAYER0001
  6
CONTINUOUS
 62
       7
100
AcDbLine
 10
251.10264182
 20
-211.56472843
 30
0.0
 11
251.10264182
 21
-211.55583047
 31
0.0
  0
LINE
  5
2BA
100
AcDbEntity
  8
LAYER0001
  6
CONTINUOUS
 62
       7
100
AcDbLine
 10
251.10264182
 20
-211.55583047
 30
0.0
 11
251.10264182
 21
-211.54840029
 31
0.0
  0
LINE
  5
2BB
100
AcDbEntity
  8
LAYER0001
  6
CONTINUOUS
 62
       7
100
AcDbLine
 10
251.10264182
 20
-211.54840029
 30
0.0
 11
251.10264182
 21
-211.541704
 31
0.0
  0
ENDBLK
  5
2BC
100
AcDbEntity
  8
0
100
AcDbBlockEnd
  0
BLOCK
  5
2BD
100
AcDbEntity
  8
0
100
AcDbBlockBegin
  2
GROUP_22
 70
       0
 10
0.0
 20
0.0
 30
0.0
  3
GROUP_22
  1

  0
LINE
  5
2BE
100
AcDbEntity
  8
LAYER0001
  6
CONTINUOUS
 62
       7
100
AcDbLine
 10
274.10264186
 20
-211.541704
 30
0.0
 11
274.10264186
 21
-211.54840029
 31
0.0
  0
LINE
  5
2BF
100
AcDbEntity
  8
LAYER0001
  6
CONTINUOUS
 62
       7
100
AcDbLine
 10
274.10264186
 20
-211.54840029
 30
0.0
 11
274.10264186
 21
-211.55583047
 31
0.0
  0
LINE
  5
2C0
100
AcDbEntity
  8
LAYER0001
  6
CONTINUOUS
 62
       7
100
AcDbLine
 10
274.10264186
 20
-211.55583047
 30
0.0
 11
274.10264186
 21
-211.56472843
 31
0.0
  0
LINE
  5
2C1
100
AcDbEntity
  8
LAYER0001
  6
CONTINUOUS
 62
       7
100
AcDbLine
 10
274.10264186
 20
-211.56472843
 30
0.0
 11
274.10264186
 21
-211.57582805
 31
0.0
  0
LINE
  5
2C2
100
AcDbEntity
  8
LAYER0001
  6
CONTINUOUS
 62
       7
100
AcDbLine
 10
274.10264186
 20
-211.57582805
 30
0.0
 11
274.10264186
 21
-211.58986323
 31
0.0
  0
LINE
  5
2C3
100
AcDbEntity
  8
LAYER0001
  6
CONTINUOUS
 62
       7
100
AcDbLine
 10
274.10264186
 20
-211.58986323
 30
0.0
 11
274.10264186
 21
-211.60756786
 31
0.0
  0
LINE
  5
2C4
100
AcDbEntity
  8
LAYER0001
  6
CONTINUOUS
 62
       7
100
AcDbLine
 10
274.10264186
 20
-211.60756786
 30
0.0
 11
274.10264186
 21
-211.62965311
 31
0.0
  0
LINE
  5
2C5
100
AcDbEntity
  8
LAYER0001
  6
CONTINUOUS
 62
       7
100
AcDbLine
 10
274.10264186
 20
-211.62965311
 30
0.0
 11
274.10264186
 21
-211.65634547
 31
0.0
  0
LINE
  5
2C6
100
AcDbEntity
  8
LAYER0001
  6
CONTINUOUS
 62
       7
100
AcDbLine
 10
274.10264186
 20
-211.65634547
 30
0.0
 11
274.10264186
 21
-211.68740663
 31
0.0
  0
LINE
  5
2C7
100
AcDbEntity
  8
LAYER0001
  6
CONTINUOUS
 62
       7
100
AcDbLine
 10
274.10264186
 20
-211.68740663
 30
0.0
 11
274.10264186
 21
-211.72257962
 31
0.0
  0
LINE
  5
2C8
100
AcDbEntity
  8
LAYER0001
  6
CONTINUOUS
 62
       7
100
AcDbLine
 10
274.10264186
 20
-211.72257962
 30
0.0
 11
274.10264186
 21
-211.76160745
 31
0.0
  0
LINE
  5
2C9
100
AcDbEntity
  8
LAYER0001
  6
CONTINUOUS
 62
       7
100
AcDbLine
 10
274.10264186
 20
-211.76160745
 30
0.0
 11
274.10264186
 21
-211.80423313
 31
0.0
  0
LINE
  5
2CA
100
AcDbEntity
  8
LAYER0001
  6
CONTINUOUS
 62
       7
100
AcDbLine
 10
274.10264186
 20
-211.80423313
 30
0.0
 11
274.10264186
 21
-211.85019967
 31
0.0
  0
LINE
  5
2CB
100
AcDbEntity
  8
LAYER0001
  6
CONTINUOUS
 62
       7
100
AcDbLine
 10
274.10264186
 20
-211.85019967
 30
0.0
 11
274.10264186
 21
-211.89925007
 31
0.0
  0
LINE
  5
2CC
100
AcDbEntity
  8
LAYER0001
  6
CONTINUOUS
 62
       7
100
AcDbLine
 10
274.10264186
 20
-211.89925007
 30
0.0
 11
274.10264186
 21
-211.95112736
 31
0.0
  0
LINE
  5
2CD
100
AcDbEntity
  8
LAYER0001
  6
CONTINUOUS
 62
       7
100
AcDbLine
 10
274.10264186
 20
-211.95112736
 30
0.0
 11
274.10264186
 21
-212.00557454
 31
0.0
  0
LINE
  5
2CE
100
AcDbEntity
  8
LAYER0001
  6
CONTINUOUS
 62
       7
100
AcDbLine
 10
274.10264186
 20
-212.00557454
 30
0.0
 11
274.10264186
 21
-212.06233462
 31
0.0
  0
LINE
  5
2CF
100
AcDbEntity
  8
LAYER0001
  6
CONTINUOUS
 62
       7
100
AcDbLine
 10
274.10264186
 20
-212.06233462
 30
0.0
 11
274.10264186
 21
-212.12115061
 31
0.0
  0
LINE
  5
2D0
100
AcDbEntity
  8
LAYER0001
  6
CONTINUOUS
 62
       7
100
AcDbLine
 10
274.10264186
 20
-212.12115061
 30
0.0
 11
274.10264186
 21
-212.18176553
 31
0.0
  0
LINE
  5
2D1
100
AcDbEntity
  8
LAYER0001
  6
CONTINUOUS
 62
       7
100
AcDbLine
 10
274.10264186
 20
-212.18176553
 30
0.0
 11
274.10264186
 21
-212.24392238
 31
0.0
  0
LINE
  5
2D2
100
AcDbEntity
  8
LAYER0001
  6
CONTINUOUS
 62
       7
100
AcDbLine
 10
274.10264186
 20
-212.24392238
 30
0.0
 11
274.10264186
 21
-212.30736418
 31
0.0
  0
LINE
  5
2D3
100
AcDbEntity
  8
LAYER0001
  6
CONTINUOUS
 62
       7
100
AcDbLine
 10
274.10264186
 20
-212.30736418
 30
0.0
 11
274.10264186
 21
-212.37183393
 31
0.0
  0
LINE
  5
2D4
100
AcDbEntity
  8
LAYER0001
  6
CONTINUOUS
 62
       7
100
AcDbLine
 10
274.10264186
 20
-212.37183393
 30
0.0
 11
274.10264186
 21
-212.43707465
 31
0.0
  0
LINE
  5
2D5
100
AcDbEntity
  8
LAYER0001
  6
CONTINUOUS
 62
       7
100
AcDbLine
 10
274.10264186
 20
-212.43707465
 30
0.0
 11
274.10264186
 21
-212.50282935
 31
0.0
  0
LINE
  5
2D6
100
AcDbEntity
  8
LAYER0001
  6
CONTINUOUS
 62
       7
100
AcDbLine
 10
274.10264186
 20
-212.50282935
 30
0.0
 11
274.10264186
 21
-212.56884104
 31
0.0
  0
ENDBLK
  5
2D7
100
AcDbEntity
  8
0
100
AcDbBlockEnd
  0
BLOCK
  5
2D8
100
AcDbEntity
  8
0
100
AcDbBlockBegin
  2
GROUP_23
 70
       0
 10
0.0
 20
0.0
 30
0.0
  3
GROUP_23
  1

  0
LINE
  5
2D9
100
AcDbEntity
  8
LAYER0001
  6
CONTINUOUS
 62
       7
100
AcDbLine
 10
274.10264186
 20
-218.01455981
 30
0.0
 11
274.10264186
 21
-218.08057149
 31
0.0
  0
LINE
  5
2DA
100
AcDbEntity
  8
LAYER0001
  6
CONTINUOUS
 62
       7
100
AcDbLine
 10
274.10264186
 20
-218.08057149
 30
0.0
 11
274.10264186
 21
-218.14632619
 31
0.0
  0
LINE
  5
2DB
100
AcDbEntity
  8
LAYER0001
  6
CONTINUOUS
 62
       7
100
AcDbLine
 10
274.10264186
 20
-218.14632619
 30
0.0
 11
274.10264186
 21
-218.21156692
 31
0.0
  0
LINE
  5
2DC
100
AcDbEntity
  8
LAYER0001
  6
CONTINUOUS
 62
       7
100
AcDbLine
 10
274.10264186
 20
-218.21156692
 30
0.0
 11
274.10264186
 21
-218.27603667
 31
0.0
  0
LINE
  5
2DD
100
AcDbEntity
  8
LAYER0001
  6
CONTINUOUS
 62
       7
100
AcDbLine
 10
274.10264186
 20
-218.27603667
 30
0.0
 11
274.10264186
 21
-218.33947847
 31
0.0
  0
LINE
  5
2DE
100
AcDbEntity
  8
LAYER0001
  6
CONTINUOUS
 62
       7
100
AcDbLine
 10
274.10264186
 20
-218.33947847
 30
0.0
 11
274.10264186
 21
-218.40163532
 31
0.0
  0
LINE
  5
2DF
100
AcDbEntity
  8
LAYER0001
  6
CONTINUOUS
 62
       7
100
AcDbLine
 10
274.10264186
 20
-218.40163532
 30
0.0
 11
274.10264186
 21
-218.46225024
 31
0.0
  0
LINE
  5
2E0
100
AcDbEntity
  8
LAYER0001
  6
CONTINUOUS
 62
       7
100
AcDbLine
 10
274.10264186
 20
-218.46225024
 30
0.0
 11
274.10264186
 21
-218.52106623
 31
0.0
  0
LINE
  5
2E1
100
AcDbEntity
  8
LAYER0001
  6
CONTINUOUS
 62
       7
100
AcDbLine
 10
274.10264186
 20
-218.52106623
 30
0.0
 11
274.10264186
 21
-218.57782631
 31
0.0
  0
LINE
  5
2E2
100
AcDbEntity
  8
LAYER0001
  6
CONTINUOUS
 62
       7
100
AcDbLine
 10
274.10264186
 20
-218.57782631
 30
0.0
 11
274.10264186
 21
-218.63227349
 31
0.0
  0
LINE
  5
2E3
100
AcDbEntity
  8
LAYER0001
  6
CONTINUOUS
 62
       7
100
AcDbLine
 10
274.10264186
 20
-218.63227349
 30
0.0
 11
274.10264186
 21
-218.68415077
 31
0.0
  0
LINE
  5
2E4
100
AcDbEntity
  8
LAYER0001
  6
CONTINUOUS
 62
       7
100
AcDbLine
 10
274.10264186
 20
-218.68415077
 30
0.0
 11
274.10264186
 21
-218.73320118
 31
0.0
  0
LINE
  5
2E5
100
AcDbEntity
  8
LAYER0001
  6
CONTINUOUS
 62
       7
100
AcDbLine
 10
274.10264186
 20
-218.73320118
 30
0.0
 11
274.10264186
 21
-218.77916772
 31
0.0
  0
LINE
  5
2E6
100
AcDbEntity
  8
LAYER0001
  6
CONTINUOUS
 62
       7
100
AcDbLine
 10
274.10264186
 20
-218.77916772
 30
0.0
 11
274.10264186
 21
-218.82179339
 31
0.0
  0
LINE
  5
2E7
100
AcDbEntity
  8
LAYER0001
  6
CONTINUOUS
 62
       7
100
AcDbLine
 10
274.10264186
 20
-218.82179339
 30
0.0
 11
274.10264186
 21
-218.86082122
 31
0.0
  0
LINE
  5
2E8
100
AcDbEntity
  8
LAYER0001
  6
CONTINUOUS
 62
       7
100
AcDbLine
 10
274.10264186
 20
-218.86082122
 30
0.0
 11
274.10264186
 21
-218.89599421
 31
0.0
  0
LINE
  5
2E9
100
AcDbEntity
  8
LAYER0001
  6
CONTINUOUS
 62
       7
100
AcDbLine
 10
274.10264186
 20
-218.89599421
 30
0.0
 11
274.10264186
 21
-218.92705538
 31
0.0
  0
LINE
  5
2EA
100
AcDbEntity
  8
LAYER0001
  6
CONTINUOUS
 62
       7
100
AcDbLine
 10
274.10264186
 20
-218.92705538
 30
0.0
 11
274.10264186
 21
-218.95374773
 31
0.0
  0
LINE
  5
2EB
100
AcDbEntity
  8
LAYER0001
  6
CONTINUOUS
 62
       7
100
AcDbLine
 10
274.10264186
 20
-218.95374773
 30
0.0
 11
274.10264186
 21
-218.97583299
 31
0.0
  0
LINE
  5
2EC
100
AcDbEntity
  8
LAYER0001
  6
CONTINUOUS
 62
       7
100
AcDbLine
 10
274.10264186
 20
-218.97583299
 30
0.0
 11
274.10264186
 21
-218.99353761
 31
0.0
  0
LINE
  5
2ED
100
AcDbEntity
  8
LAYER0001
  6
CONTINUOUS
 62
       7
100
AcDbLine
 10
274.10264186
 20
-218.99353761
 30
0.0
 11
274.10264186
 21
-219.0075728
 31
0.0
  0
LINE
  5
2EE
100
AcDbEntity
  8
LAYER0001
  6
CONTINUOUS
 62
       7
100
AcDbLine
 10
274.10264186
 20
-219.0075728
 30
0.0
 11
274.10264186
 21
-219.01867242
 31
0.0
  0
LINE
  5
2EF
100
AcDbEntity
  8
LAYER0001
  6
CONTINUOUS
 62
       7
100
AcDbLine
 10
274.10264186
 20
-219.01867242
 30
0.0
 11
274.10264186
 21
-219.02757038
 31
0.0
  0
LINE
  5
2F0
100
AcDbEntity
  8
LAYER0001
  6
CONTINUOUS
 62
       7
100
AcDbLine
 10
274.10264186
 20
-219.02757038
 30
0.0
 11
274.10264186
 21
-219.03500056
 31
0.0
  0
LINE
  5
2F1
100
AcDbEntity
  8
LAYER0001
  6
CONTINUOUS
 62
       7
100
AcDbLine
 10
274.10264186
 20
-219.03500056
 30
0.0
 11
274.10264186
 21
-219.04169685
 31
0.0
  0
ENDBLK
  5
2F2
100
AcDbEntity
  8
0
100
AcDbBlockEnd
  0
BLOCK
  5
2F3
100
AcDbEntity
  8
0
100
AcDbBlockBegin
  2
GROUP_24
 70
       0
 10
0.0
 20
0.0
 30
0.0
  3
GROUP_24
  1

  0
LINE
  5
2F4
100
AcDbEntity
  8
LAYER0001
  6
CONTINUOUS
 62
       7
100
AcDbLine
 10
251.10264182
 20
-219.04169685
 30
0.0
 11
251.10264182
 21
-219.03500056
 31
0.0
  0
LINE
  5
2F5
100
AcDbEntity
  8
LAYER0001
  6
CONTINUOUS
 62
       7
100
AcDbLine
 10
251.10264182
 20
-219.03500056
 30
0.0
 11
251.10264182
 21
-219.02757038
 31
0.0
  0
LINE
  5
2F6
100
AcDbEntity
  8
LAYER0001
  6
CONTINUOUS
 62
       7
100
AcDbLine
 10
251.10264182
 20
-219.02757038
 30
0.0
 11
251.10264182
 21
-219.01867242
 31
0.0
  0
LINE
  5
2F7
100
AcDbEntity
  8
LAYER0001
  6
CONTINUOUS
 62
       7
100
AcDbLine
 10
251.10264182
 20
-219.01867242
 30
0.0
 11
251.10264182
 21
-219.0075728
 31
0.0
  0
LINE
  5
2F8
100
AcDbEntity
  8
LAYER0001
  6
CONTINUOUS
 62
       7
100
AcDbLine
 10
251.10264182
 20
-219.0075728
 30
0.0
 11
251.10264182
 21
-218.99353761
 31
0.0
  0
LINE
  5
2F9
100
AcDbEntity
  8
LAYER0001
  6
CONTINUOUS
 62
       7
100
AcDbLine
 10
251.10264182
 20
-218.99353761
 30
0.0
 11
251.10264182
 21
-218.97583299
 31
0.0
  0
LINE
  5
2FA
100
AcDbEntity
  8
LAYER0001
  6
CONTINUOUS
 62
       7
100
AcDbLine
 10
251.10264182
 20
-218.97583299
 30
0.0
 11
251.10264182
 21
-218.95374773
 31
0.0
  0
LINE
  5
2FB
100
AcDbEntity
  8
LAYER0001
  6
CONTINUOUS
 62
       7
100
AcDbLine
 10
251.10264182
 20
-218.95374773
 30
0.0
 11
251.10264182
 21
-218.92705538
 31
0.0
  0
LINE
  5
2FC
100
AcDbEntity
  8
LAYER0001
  6
CONTINUOUS
 62
       7
100
AcDbLine
 10
251.10264182
 20
-218.92705538
 30
0.0
 11
251.10264182
 21
-218.89599421
 31
0.0
  0
LINE
  5
2FD
100
AcDbEntity
  8
LAYER0001
  6
CONTINUOUS
 62
       7
100
AcDbLine
 10
251.10264182
 20
-218.89599421
 30
0.0
 11
251.10264182
 21
-218.86082122
 31
0.0
  0
LINE
  5
2FE
100
AcDbEntity
  8
LAYER0001
  6
CONTINUOUS
 62
       7
100
AcDbLine
 10
251.10264182
 20
-218.86082122
 30
0.0
 11
251.10264182
 21
-218.82179339
 31
0.0
  0
LINE
  5
2FF
100
AcDbEntity
  8
LAYER0001
  6
CONTINUOUS
 62
       7
100
AcDbLine
 10
251.10264182
 20
-218.82179339
 30
0.0
 11
251.10264182
 21
-218.77916772
 31
0.0
  0
LINE
  5
300
100
AcDbEntity
  8
LAYER0001
  6
CONTINUOUS
 62
       7
100
AcDbLine
 10
251.10264182
 20
-218.77916772
 30
0.0
 11
251.10264182
 21
-218.73320118
 31
0.0
  0
LINE
  5
301
100
AcDbEntity
  8
LAYER0001
  6
CONTINUOUS
 62
       7
100
AcDbLine
 10
251.10264182
 20
-218.73320118
 30
0.0
 11
251.10264182
 21
-218.68415077
 31
0.0
  0
LINE
  5
302
100
AcDbEntity
  8
LAYER0001
  6
CONTINUOUS
 62
       7
100
AcDbLine
 10
251.10264182
 20
-218.68415077
 30
0.0
 11
251.10264182
 21
-218.63227349
 31
0.0
  0
LINE
  5
303
100
AcDbEntity
  8
LAYER0001
  6
CONTINUOUS
 62
       7
100
AcDbLine
 10
251.10264182
 20
-218.63227349
 30
0.0
 11
251.10264182
 21
-218.57782631
 31
0.0
  0
LINE
  5
304
100
AcDbEntity
  8
LAYER0001
  6
CONTINUOUS
 62
       7
100
AcDbLine
 10
251.10264182
 20
-218.57782631
 30
0.0
 11
251.10264182
 21
-218.52106623
 31
0.0
  0
LINE
  5
305
100
AcDbEntity
  8
LAYER0001
  6
CONTINUOUS
 62
       7
100
AcDbLine
 10
251.10264182
 20
-218.52106623
 30
0.0
 11
251.10264182
 21
-218.46225024
 31
0.0
  0
LINE
  5
306
100
AcDbEntity
  8
LAYER0001
  6
CONTINUOUS
 62
       7
100
AcDbLine
 10
251.10264182
 20
-218.46225024
 30
0.0
 11
251.10264182
 21
-218.40163532
 31
0.0
  0
LINE
  5
307
100
AcDbEntity
  8
LAYER0001
  6
CONTINUOUS
 62
       7
100
AcDbLine
 10
251.10264182
 20
-218.40163532
 30
0.0
 11
251.10264182
 21
-218.33947847
 31
0.0
  0
LINE
  5
308
100
AcDbEntity
  8
LAYER0001
  6
CONTINUOUS
 62
       7
100
AcDbLine
 10
251.10264182
 20
-218.33947847
 30
0.0
 11
251.10264182
 21
-218.27603667
 31
0.0
  0
LINE
  5
309
100
AcDbEntity
  8
LAYER0001
  6
CONTINUOUS
 62
       7
100
AcDbLine
 10
251.10264182
 20
-218.27603667
 30
0.0
 11
251.10264182
 21
-218.21156692
 31
0.0
  0
LINE
  5
30A
100
AcDbEntity
  8
LAYER0001
  6
CONTINUOUS
 62
       7
100
AcDbLine
 10
251.10264182
 20
-218.21156692
 30
0.0
 11
251.10264182
 21
-218.14632619
 31
0.0
  0
LINE
  5
30B
100
AcDbEntity
  8
LAYER0001
  6
CONTINUOUS
 62
       7
100
AcDbLine
 10
251.10264182
 20
-218.14632619
 30
0.0
 11
251.10264182
 21
-218.08057149
 31
0.0
  0
LINE
  5
30C
100
AcDbEntity
  8
LAYER0001
  6
CONTINUOUS
 62
       7
100
AcDbLine
 10
251.10264182
 20
-218.08057149
 30
0.0
 11
251.10264182
 21
-218.01455981
 31
0.0
  0
ENDBLK
  5
30D
100
AcDbEntity
  8
0
100
AcDbBlockEnd
  0
BLOCK
  5
30E
100
AcDbEntity
  8
0
100
AcDbBlockBegin
  2
GROUP_25
 70
       0
 10
0.0
 20
0.0
 30
0.0
  3
GROUP_25
  1

  0
LINE
  5
30F
100
AcDbEntity
  8
LAYER0001
  6
CONTINUOUS
 62
       7
100
AcDbLine
 10
91.74733369
 20
-211.541704
 30
0.0
 11
91.63506453
 21
-211.54366392
 31
0.0
  0
LINE
  5
310
100
AcDbEntity
  8
LAYER0001
  6
CONTINUOUS
 62
       7
100
AcDbLine
 10
91.63506453
 20
-211.54366392
 30
0.0
 11
91.5227902
 21
-211.54685878
 31
0.0
  0
LINE
  5
311
100
AcDbEntity
  8
LAYER0001
  6
CONTINUOUS
 62
       7
100
AcDbLine
 10
91.5227902
 20
-211.54685878
 30
0.0
 11
91.41050849
 21
-211.55237369
 31
0.0
  0
LINE
  5
312
100
AcDbEntity
  8
LAYER0001
  6
CONTINUOUS
 62
       7
100
AcDbLine
 10
91.41050849
 20
-211.55237369
 30
0.0
 11
91.29823338
 21
-211.56047593
 31
0.0
  0
LINE
  5
313
100
AcDbEntity
  8
LAYER0001
  6
CONTINUOUS
 62
       7
100
AcDbLine
 10
91.29823338
 20
-211.56047593
 30
0.0
 11
91.1859843
 21
-211.57115521
 31
0.0
  0
LINE
  5
314
100
AcDbEntity
  8
LAYER0001
  6
CONTINUOUS
 62
       7
100
AcDbLine
 10
91.1859843
 20
-211.57115521
 30
0.0
 11
91.07378073
 21
-211.58440103
 31
0.0
  0
LINE
  5
315
100
AcDbEntity
  8
LAYER0001
  6
CONTINUOUS
 62
       7
100
AcDbLine
 10
91.07378073
 20
-211.58440103
 30
0.0
 11
90.96164212
 21
-211.60020285
 31
0.0
  0
LINE
  5
316
100
AcDbEntity
  8
LAYER0001
  6
CONTINUOUS
 62
       7
100
AcDbLine
 10
90.96164212
 20
-211.60020285
 30
0.0
 11
90.84958793
 21
-211.61855017
 31
0.0
  0
LINE
  5
317
100
AcDbEntity
  8
LAYER0001
  6
CONTINUOUS
 62
       7
100
AcDbLine
 10
90.84958793
 20
-211.61855017
 30
0.0
 11
90.73763762
 21
-211.63943247
 31
0.0
  0
LINE
  5
318
100
AcDbEntity
  8
LAYER0001
  6
CONTINUOUS
 62
       7
100
AcDbLine
 10
90.73763762
 20
-211.63943247
 30
0.0
 11
90.62581064
 21
-211.66283923
 31
0.0
  0
LINE
  5
319
100
AcDbEntity
  8
LAYER0001
  6
CONTINUOUS
 62
       7
100
AcDbLine
 10
90.62581064
 20
-211.66283923
 30
0.0
 11
90.51412645
 21
-211.68875993
 31
0.0
  0
LINE
  5
31A
100
AcDbEntity
  8
LAYER0001
  6
CONTINUOUS
 62
       7
100
AcDbLine
 10
90.51412645
 20
-211.68875993
 30
0.0
 11
90.40260452
 21
-211.71718406
 31
0.0
  0
LINE
  5
31B
100
AcDbEntity
  8
LAYER0001
  6
CONTINUOUS
 62
       7
100
AcDbLine
 10
90.40260452
 20
-211.71718406
 30
0.0
 11
90.2912643
 21
-211.7481011
 31
0.0
  0
LINE
  5
31C
100
AcDbEntity
  8
LAYER0001
  6
CONTINUOUS
 62
       7
100
AcDbLine
 10
90.2912643
 20
-211.7481011
 30
0.0
 11
90.18012525
 21
-211.78150053
 31
0.0
  0
LINE
  5
31D
100
AcDbEntity
  8
LAYER0001
  6
CONTINUOUS
 62
       7
100
AcDbLine
 10
90.18012525
 20
-211.78150053
 30
0.0
 11
90.06920683
 21
-211.81737184
 31
0.0
  0
LINE
  5
31E
100
AcDbEntity
  8
LAYER0001
  6
CONTINUOUS
 62
       7
100
AcDbLine
 10
90.06920683
 20
-211.81737184
 30
0.0
 11
89.95852849
 21
-211.8557045
 31
0.0
  0
LINE
  5
31F
100
AcDbEntity
  8
LAYER0001
  6
CONTINUOUS
 62
       7
100
AcDbLine
 10
89.95852849
 20
-211.8557045
 30
0.0
 11
89.84810185
 21
-211.89645401
 31
0.0
  0
LINE
  5
320
100
AcDbEntity
  8
LAYER0001
  6
CONTINUOUS
 62
       7
100
AcDbLine
 10
89.84810185
 20
-211.89645401
 30
0.0
 11
89.73791354
 21
-211.9394677
 31
0.0
  0
LINE
  5
321
100
AcDbEntity
  8
LAYER0001
  6
CONTINUOUS
 62
       7
100
AcDbLine
 10
89.73791354
 20
-211.9394677
 30
0.0
 11
89.62794522
 21
-211.98457141
 31
0.0
  0
LINE
  5
322
100
AcDbEntity
  8
LAYER0001
  6
CONTINUOUS
 62
       7
100
AcDbLine
 10
89.62794522
 20
-211.98457141
 30
0.0
 11
89.51817856
 21
-212.03159096
 31
0.0
  0
LINE
  5
323
100
AcDbEntity
  8
LAYER0001
  6
CONTINUOUS
 62
       7
100
AcDbLine
 10
89.51817856
 20
-212.03159096
 30
0.0
 11
89.40859523
 21
-212.08035219
 31
0.0
  0
LINE
  5
324
100
AcDbEntity
  8
LAYER0001
  6
CONTINUOUS
 62
       7
100
AcDbLine
 10
89.40859523
 20
-212.08035219
 30
0.0
 11
89.29917689
 21
-212.13068093
 31
0.0
  0
LINE
  5
325
100
AcDbEntity
  8
LAYER0001
  6
CONTINUOUS
 62
       7
100
AcDbLine
 10
89.29917689
 20
-212.13068093
 30
0.0
 11
89.18990522
 21
-212.18240301
 31
0.0
  0
LINE
  5
326
100
AcDbEntity
  8
LAYER0001
  6
CONTINUOUS
 62
       7
100
AcDbLine
 10
89.18990522
 20
-212.18240301
 30
0.0
 11
89.08076188
 21
-212.23534426
 31
0.0
  0
LINE
  5
327
100
AcDbEntity
  8
LAYER0001
  6
CONTINUOUS
 62
       7
100
AcDbLine
 10
89.08076188
 20
-212.23534426
 30
0.0
 11
88.97172853
 21
-212.28933052
 31
0.0
  0
LINE
  5
328
100
AcDbEntity
  8
LAYER0001
  6
CONTINUOUS
 62
       7
100
AcDbLine
 10
88.97172853
 20
-212.28933052
 30
0.0
 11
88.86278685
 21
-212.34418762
 31
0.0
  0
LINE
  5
329
100
AcDbEntity
  8
LAYER0001
  6
CONTINUOUS
 62
       7
100
AcDbLine
 10
88.86278685
 20
-212.34418762
 30
0.0
 11
88.7539185
 21
-212.39974139
 31
0.0
  0
LINE
  5
32A
100
AcDbEntity
  8
LAYER0001
  6
CONTINUOUS
 62
       7
100
AcDbLine
 10
88.7539185
 20
-212.39974139
 30
0.0
 11
88.64510515
 21
-212.45581766
 31
0.0
  0
LINE
  5
32B
100
AcDbEntity
  8
LAYER0001
  6
CONTINUOUS
 62
       7
100
AcDbLine
 10
88.64510515
 20
-212.45581766
 30
0.0
 11
88.53632846
 21
-212.51224227
 31
0.0
  0
LINE
  5
32C
100
AcDbEntity
  8
LAYER0001
  6
CONTINUOUS
 62
       7
100
AcDbLine
 10
88.53632846
 20
-212.51224227
 30
0.0
 11
88.42757011
 21
-212.56884104
 31
0.0
  0
ENDBLK
  5
32D
100
AcDbEntity
  8
0
100
AcDbBlockEnd
  0
BLOCK
  5
32E
100
AcDbEntity
  8
0
100
AcDbBlockBegin
  2
GROUP_26
 70
       0
 10
0.0
 20
0.0
 30
0.0
  3
GROUP_26
  1

  0
LINE
  5
32F
100
AcDbEntity
  8
LAYER0001
  6
CONTINUOUS
 62
       7
100
AcDbLine
 10
95.0670982
 20
-212.56884104
 30
0.0
 11
94.93651256
 21
-212.4993719
 31
0.0
  0
LINE
  5
330
100
AcDbEntity
  8
LAYER0001
  6
CONTINUOUS
 62
       7
100
AcDbLine
 10
94.93651256
 20
-212.4993719
 30
0.0
 11
94.80589847
 21
-212.43026908
 31
0.0
  0
LINE
  5
331
100
AcDbEntity
  8
LAYER0001
  6
CONTINUOUS
 62
       7
100
AcDbLine
 10
94.80589847
 20
-212.43026908
 30
0.0
 11
94.67522746
 21
-212.36189891
 31
0.0
  0
LINE
  5
332
100
AcDbEntity
  8
LAYER0001
  6
CONTINUOUS
 62
       7
100
AcDbLine
 10
94.67522746
 20
-212.36189891
 30
0.0
 11
94.54447108
 21
-212.29462769
 31
0.0
  0
LINE
  5
333
100
AcDbEntity
  8
LAYER0001
  6
CONTINUOUS
 62
       7
100
AcDbLine
 10
94.54447108
 20
-212.29462769
 30
0.0
 11
94.41360087
 21
-212.22882176
 31
0.0
  0
LINE
  5
334
100
AcDbEntity
  8
LAYER0001
  6
CONTINUOUS
 62
       7
100
AcDbLine
 10
94.41360087
 20
-212.22882176
 30
0.0
 11
94.28258838
 21
-212.16484744
 31
0.0
  0
LINE
  5
335
100
AcDbEntity
  8
LAYER0001
  6
CONTINUOUS
 62
       7
100
AcDbLine
 10
94.28258838
 20
-212.16484744
 30
0.0
 11
94.15140515
 21
-212.10307104
 31
0.0
  0
LINE
  5
336
100
AcDbEntity
  8
LAYER0001
  6
CONTINUOUS
 62
       7
100
AcDbLine
 10
94.15140515
 20
-212.10307104
 30
0.0
 11
94.02002271
 21
-212.04385888
 31
0.0
  0
LINE
  5
337
100
AcDbEntity
  8
LAYER0001
  6
CONTINUOUS
 62
       7
100
AcDbLine
 10
94.02002271
 20
-212.04385888
 30
0.0
 11
93.88841262
 21
-211.9875773
 31
0.0
  0
LINE
  5
338
100
AcDbEntity
  8
LAYER0001
  6
CONTINUOUS
 62
       7
100
AcDbLine
 10
93.88841262
 20
-211.9875773
 30
0.0
 11
93.75654641
 21
-211.9345926
 31
0.0
  0
LINE
  5
339
100
AcDbEntity
  8
LAYER0001
  6
CONTINUOUS
 62
       7
100
AcDbLine
 10
93.75654641
 20
-211.9345926
 30
0.0
 11
93.62439563
 21
-211.88527112
 31
0.0
  0
LINE
  5
33A
100
AcDbEntity
  8
LAYER0001
  6
CONTINUOUS
 62
       7
100
AcDbLine
 10
93.62439563
 20
-211.88527112
 30
0.0
 11
93.49193183
 21
-211.83997916
 31
0.0
  0
LINE
  5
33B
100
AcDbEntity
  8
LAYER0001
  6
CONTINUOUS
 62
       7
100
AcDbLine
 10
93.49193183
 20
-211.83997916
 30
0.0
 11
93.3591287
 21
-211.79905511
 31
0.0
  0
LINE
  5
33C
100
AcDbEntity
  8
LAYER0001
  6
CONTINUOUS
 62
       7
100
AcDbLine
 10
93.3591287
 20
-211.79905511
 30
0.0
 11
93.22599079
 21
-211.76244077
 31
0.0
  0
LINE
  5
33D
100
AcDbEntity
  8
LAYER0001
  6
CONTINUOUS
 62
       7
100
AcDbLine
 10
93.22599079
 20
-211.76244077
 30
0.0
 11
93.09254548
 21
-211.72978342
 31
0.0
  0
LINE
  5
33E
100
AcDbEntity
  8
LAYER0001
  6
CONTINUOUS
 62
       7
100
AcDbLine
 10
93.09254548
 20
-211.72978342
 30
0.0
 11
92.95882073
 21
-211.70072331
 31
0.0
  0
LINE
  5
33F
100
AcDbEntity
  8
LAYER0001
  6
CONTINUOUS
 62
       7
100
AcDbLine
 10
92.95882073
 20
-211.70072331
 30
0.0
 11
92.82484447
 21
-211.67490073
 31
0.0
  0
LINE
  5
340
100
AcDbEntity
  8
LAYER0001
  6
CONTINUOUS
 62
       7
100
AcDbLine
 10
92.82484447
 20
-211.67490073
 30
0.0
 11
92.69064466
 21
-211.65195595
 31
0.0
  0
LINE
  5
341
100
AcDbEntity
  8
LAYER0001
  6
CONTINUOUS
 62
       7
100
AcDbLine
 10
92.69064466
 20
-211.65195595
 30
0.0
 11
92.55624923
 21
-211.63152924
 31
0.0
  0
LINE
  5
342
100
AcDbEntity
  8
LAYER0001
  6
CONTINUOUS
 62
       7
100
AcDbLine
 10
92.55624923
 20
-211.63152924
 30
0.0
 11
92.42168613
 21
-211.61326089
 31
0.0
  0
LINE
  5
343
100
AcDbEntity
  8
LAYER0001
  6
CONTINUOUS
 62
       7
100
AcDbLine
 10
92.42168613
 20
-211.61326089
 30
0.0
 11
92.28698331
 21
-211.59679116
 31
0.0
  0
LINE
  5
344
100
AcDbEntity
  8
LAYER0001
  6
CONTINUOUS
 62
       7
100
AcDbLine
 10
92.28698331
 20
-211.59679116
 30
0.0
 11
92.15216871
 21
-211.58176033
 31
0.0
  0
LINE
  5
345
100
AcDbEntity
  8
LAYER0001
  6
CONTINUOUS
 62
       7
100
AcDbLine
 10
92.15216871
 20
-211.58176033
 30
0.0
 11
92.01727028
 21
-211.56780868
 31
0.0
  0
LINE
  5
346
100
AcDbEntity
  8
LAYER0001
  6
CONTINUOUS
 62
       7
100
AcDbLine
 10
92.01727028
 20
-211.56780868
 30
0.0
 11
91.88231595
 21
-211.55457648
 31
0.0
  0
LINE
  5
347
100
AcDbEntity
  8
LAYER0001
  6
CONTINUOUS
 62
       7
100
AcDbLine
 10
91.88231595
 20
-211.55457648
 30
0.0
 11
91.74733369
 21
-211.541704
 31
0.0
  0
ENDBLK
  5
348
100
AcDbEntity
  8
0
100
AcDbBlockEnd
  0
BLOCK
  5
349
100
AcDbEntity
  8
0
100
AcDbBlockBegin
  2
GROUP_27
 70
       0
 10
0.0
 20
0.0
 30
0.0
  3
GROUP_27
  1

  0
LINE
  5
34A
100
AcDbEntity
  8
LAYER0001
  6
CONTINUOUS
 62
       7
100
AcDbLine
 10
91.74733369
 20
-219.04169685
 30
0.0
 11
91.85960321
 21
-219.03973693
 31
0.0
  0
LINE
  5
34B
100
AcDbEntity
  8
LAYER0001
  6
CONTINUOUS
 62
       7
100
AcDbLine
 10
91.85960321
 20
-219.03973693
 30
0.0
 11
91.97187786
 21
-219.03654207
 31
0.0
  0
LINE
  5
34C
100
AcDbEntity
  8
LAYER0001
  6
CONTINUOUS
 62
       7
100
AcDbLine
 10
91.97187786
 20
-219.03654207
 30
0.0
 11
92.08415983
 21
-219.03102717
 31
0.0
  0
LINE
  5
34D
100
AcDbEntity
  8
LAYER0001
  6
CONTINUOUS
 62
       7
100
AcDbLine
 10
92.08415983
 20
-219.03102717
 30
0.0
 11
92.19643514
 21
-219.02292494
 31
0.0
  0
LINE
  5
34E
100
AcDbEntity
  8
LAYER0001
  6
CONTINUOUS
 62
       7
100
AcDbLine
 10
92.19643514
 20
-219.02292494
 30
0.0
 11
92.30868435
 21
-219.01224566
 31
0.0
  0
LINE
  5
34F
100
AcDbEntity
  8
LAYER0001
  6
CONTINUOUS
 62
       7
100
AcDbLine
 10
92.30868435
 20
-219.01224566
 30
0.0
 11
92.420888
 21
-218.99899985
 31
0.0
  0
LINE
  5
350
100
AcDbEntity
  8
LAYER0001
  6
CONTINUOUS
 62
       7
100
AcDbLine
 10
92.420888
 20
-218.99899985
 30
0.0
 11
92.53302665
 21
-218.98319803
 31
0.0
  0
LINE
  5
351
100
AcDbEntity
  8
LAYER0001
  6
CONTINUOUS
 62
       7
100
AcDbLine
 10
92.53302665
 20
-218.98319803
 30
0.0
 11
92.64508083
 21
-218.96485072
 31
0.0
  0
LINE
  5
352
100
AcDbEntity
  8
LAYER0001
  6
CONTINUOUS
 62
       7
100
AcDbLine
 10
92.64508083
 20
-218.96485072
 30
0.0
 11
92.75703111
 21
-218.94396843
 31
0.0
  0
LINE
  5
353
100
AcDbEntity
  8
LAYER0001
  6
CONTINUOUS
 62
       7
100
AcDbLine
 10
92.75703111
 20
-218.94396843
 30
0.0
 11
92.86885802
 21
-218.92056168
 31
0.0
  0
LINE
  5
354
100
AcDbEntity
  8
LAYER0001
  6
CONTINUOUS
 62
       7
100
AcDbLine
 10
92.86885802
 20
-218.92056168
 30
0.0
 11
92.98054212
 21
-218.89464098
 31
0.0
  0
LINE
  5
355
100
AcDbEntity
  8
LAYER0001
  6
CONTINUOUS
 62
       7
100
AcDbLine
 10
92.98054212
 20
-218.89464098
 30
0.0
 11
93.09206396
 21
-218.86621685
 31
0.0
  0
LINE
  5
356
100
AcDbEntity
  8
LAYER0001
  6
CONTINUOUS
 62
       7
100
AcDbLine
 10
93.09206396
 20
-218.86621685
 30
0.0
 11
93.20340408
 21
-218.83529982
 31
0.0
  0
LINE
  5
357
100
AcDbEntity
  8
LAYER0001
  6
CONTINUOUS
 62
       7
100
AcDbLine
 10
93.20340408
 20
-218.83529982
 30
0.0
 11
93.31454302
 21
-218.80190039
 31
0.0
  0
LINE
  5
358
100
AcDbEntity
  8
LAYER0001
  6
CONTINUOUS
 62
       7
100
AcDbLine
 10
93.31454302
 20
-218.80190039
 30
0.0
 11
93.42546135
 21
-218.76602908
 31
0.0
  0
LINE
  5
359
100
AcDbEntity
  8
LAYER0001
  6
CONTINUOUS
 62
       7
100
AcDbLine
 10
93.42546135
 20
-218.76602908
 30
0.0
 11
93.5361396
 21
-218.72769642
 31
0.0
  0
LINE
  5
35A
100
AcDbEntity
  8
LAYER0001
  6
CONTINUOUS
 62
       7
100
AcDbLine
 10
93.5361396
 20
-218.72769642
 30
0.0
 11
93.64656618
 21
-218.68694691
 31
0.0
  0
LINE
  5
35B
100
AcDbEntity
  8
LAYER0001
  6
CONTINUOUS
 62
       7
100
AcDbLine
 10
93.64656618
 20
-218.68694691
 30
0.0
 11
93.75675444
 21
-218.64393321
 31
0.0
  0
LINE
  5
35C
100
AcDbEntity
  8
LAYER0001
  6
CONTINUOUS
 62
       7
100
AcDbLine
 10
93.75675444
 20
-218.64393321
 30
0.0
 11
93.86672273
 21
-218.59882951
 31
0.0
  0
LINE
  5
35D
100
AcDbEntity
  8
LAYER0001
  6
CONTINUOUS
 62
       7
100
AcDbLine
 10
93.86672273
 20
-218.59882951
 30
0.0
 11
93.97648938
 21
-218.55180995
 31
0.0
  0
LINE
  5
35E
100
AcDbEntity
  8
LAYER0001
  6
CONTINUOUS
 62
       7
100
AcDbLine
 10
93.97648938
 20
-218.55180995
 30
0.0
 11
94.08607271
 21
-218.50304872
 31
0.0
  0
LINE
  5
35F
100
AcDbEntity
  8
LAYER0001
  6
CONTINUOUS
 62
       7
100
AcDbLine
 10
94.08607271
 20
-218.50304872
 30
0.0
 11
94.19549105
 21
-218.45271998
 31
0.0
  0
LINE
  5
360
100
AcDbEntity
  8
LAYER0001
  6
CONTINUOUS
 62
       7
100
AcDbLine
 10
94.19549105
 20
-218.45271998
 30
0.0
 11
94.30476275
 21
-218.40099789
 31
0.0
  0
LINE
  5
361
100
AcDbEntity
  8
LAYER0001
  6
CONTINUOUS
 62
       7
100
AcDbLine
 10
94.30476275
 20
-218.40099789
 30
0.0
 11
94.41390612
 21
-218.34805663
 31
0.0
  0
LINE
  5
362
100
AcDbEntity
  8
LAYER0001
  6
CONTINUOUS
 62
       7
100
AcDbLine
 10
94.41390612
 20
-218.34805663
 30
0.0
 11
94.5229395
 21
-218.29407037
 31
0.0
  0
LINE
  5
363
100
AcDbEntity
  8
LAYER0001
  6
CONTINUOUS
 62
       7
100
AcDbLine
 10
94.5229395
 20
-218.29407037
 30
0.0
 11
94.63188123
 21
-218.23921326
 31
0.0
  0
LINE
  5
364
100
AcDbEntity
  8
LAYER0001
  6
CONTINUOUS
 62
       7
100
AcDbLine
 10
94.63188123
 20
-218.23921326
 30
0.0
 11
94.74074963
 21
-218.18365948
 31
0.0
  0
LINE
  5
365
100
AcDbEntity
  8
LAYER0001
  6
CONTINUOUS
 62
       7
100
AcDbLine
 10
94.74074963
 20
-218.18365948
 30
0.0
 11
94.84956304
 21
-218.1275832
 31
0.0
  0
LINE
  5
366
100
AcDbEntity
  8
LAYER0001
  6
CONTINUOUS
 62
       7
100
AcDbLine
 10
94.84956304
 20
-218.1275832
 30
0.0
 11
94.95833978
 21
-218.07115859
 31
0.0
  0
LINE
  5
367
100
AcDbEntity
  8
LAYER0001
  6
CONTINUOUS
 62
       7
100
AcDbLine
 10
94.95833978
 20
-218.07115859
 30
0.0
 11
95.0670982
 21
-218.01455981
 31
0.0
  0
ENDBLK
  5
368
100
AcDbEntity
  8
0
100
AcDbBlockEnd
  0
BLOCK
  5
369
100
AcDbEntity
  8
0
100
AcDbBlockBegin
  2
GROUP_28
 70
       0
 10
0.0
 20
0.0
 30
0.0
  3
GROUP_28
  1

  0
LINE
  5
36A
100
AcDbEntity
  8
LAYER0001
  6
CONTINUOUS
 62
       7
100
AcDbLine
 10
88.42757011
 20
-218.01455981
 30
0.0
 11
88.55815549
 21
-218.08403243
 31
0.0
  0
LINE
  5
36B
100
AcDbEntity
  8
LAYER0001
  6
CONTINUOUS
 62
       7
100
AcDbLine
 10
88.55815549
 20
-218.08403243
 30
0.0
 11
88.68876933
 21
-218.15313868
 31
0.0
  0
LINE
  5
36C
100
AcDbEntity
  8
LAYER0001
  6
CONTINUOUS
 62
       7
100
AcDbLine
 10
88.68876933
 20
-218.15313868
 30
0.0
 11
88.81944009
 21
-218.22151221
 31
0.0
  0
LINE
  5
36D
100
AcDbEntity
  8
LAYER0001
  6
CONTINUOUS
 62
       7
100
AcDbLine
 10
88.81944009
 20
-218.22151221
 30
0.0
 11
88.95019624
 21
-218.28878664
 31
0.0
  0
LINE
  5
36E
100
AcDbEntity
  8
LAYER0001
  6
CONTINUOUS
 62
       7
100
AcDbLine
 10
88.95019624
 20
-218.28878664
 30
0.0
 11
89.08106622
 21
-218.3545956
 31
0.0
  0
LINE
  5
36F
100
AcDbEntity
  8
LAYER0001
  6
CONTINUOUS
 62
       7
100
AcDbLine
 10
89.08106622
 20
-218.3545956
 30
0.0
 11
89.2120785
 21
-218.41857274
 31
0.0
  0
LINE
  5
370
100
AcDbEntity
  8
LAYER0001
  6
CONTINUOUS
 62
       7
100
AcDbLine
 10
89.2120785
 20
-218.41857274
 30
0.0
 11
89.34326154
 21
-218.48035168
 31
0.0
  0
LINE
  5
371
100
AcDbEntity
  8
LAYER0001
  6
CONTINUOUS
 62
       7
100
AcDbLine
 10
89.34326154
 20
-218.48035168
 30
0.0
 11
89.4746438
 21
-218.53956607
 31
0.0
  0
LINE
  5
372
100
AcDbEntity
  8
LAYER0001
  6
CONTINUOUS
 62
       7
100
AcDbLine
 10
89.4746438
 20
-218.53956607
 30
0.0
 11
89.60625373
 21
-218.59584953
 31
0.0
  0
LINE
  5
373
100
AcDbEntity
  8
LAYER0001
  6
CONTINUOUS
 62
       7
100
AcDbLine
 10
89.60625373
 20
-218.59584953
 30
0.0
 11
89.73811981
 21
-218.6488357
 31
0.0
  0
LINE
  5
374
100
AcDbEntity
  8
LAYER0001
  6
CONTINUOUS
 62
       7
100
AcDbLine
 10
89.73811981
 20
-218.6488357
 30
0.0
 11
89.87027049
 21
-218.69815822
 31
0.0
  0
LINE
  5
375
100
AcDbEntity
  8
LAYER0001
  6
CONTINUOUS
 62
       7
100
AcDbLine
 10
89.87027049
 20
-218.69815822
 30
0.0
 11
90.00273422
 21
-218.74345071
 31
0.0
  0
LINE
  5
376
100
AcDbEntity
  8
LAYER0001
  6
CONTINUOUS
 62
       7
100
AcDbLine
 10
90.00273422
 20
-218.74345071
 30
0.0
 11
90.13553731
 21
-218.78437477
 31
0.0
  0
LINE
  5
377
100
AcDbEntity
  8
LAYER0001
  6
CONTINUOUS
 62
       7
100
AcDbLine
 10
90.13553731
 20
-218.78437477
 30
0.0
 11
90.26867522
 21
-218.82098857
 31
0.0
  0
LINE
  5
378
100
AcDbEntity
  8
LAYER0001
  6
CONTINUOUS
 62
       7
100
AcDbLine
 10
90.26867522
 20
-218.82098857
 30
0.0
 11
90.40212055
 21
-218.85364491
 31
0.0
  0
LINE
  5
379
100
AcDbEntity
  8
LAYER0001
  6
CONTINUOUS
 62
       7
100
AcDbLine
 10
90.40212055
 20
-218.85364491
 30
0.0
 11
90.53584536
 21
-218.88270354
 31
0.0
  0
LINE
  5
37A
100
AcDbEntity
  8
LAYER0001
  6
CONTINUOUS
 62
       7
100
AcDbLine
 10
90.53584536
 20
-218.88270354
 30
0.0
 11
90.6698217
 21
-218.90852425
 31
0.0
  0
LINE
  5
37B
100
AcDbEntity
  8
LAYER0001
  6
CONTINUOUS
 62
       7
100
AcDbLine
 10
90.6698217
 20
-218.90852425
 30
0.0
 11
90.80402161
 21
-218.9314668
 31
0.0
  0
LINE
  5
37C
100
AcDbEntity
  8
LAYER0001
  6
CONTINUOUS
 62
       7
100
AcDbLine
 10
90.80402161
 20
-218.9314668
 30
0.0
 11
90.93841716
 21
-218.95189096
 31
0.0
  0
LINE
  5
37D
100
AcDbEntity
  8
LAYER0001
  6
CONTINUOUS
 62
       7
100
AcDbLine
 10
90.93841716
 20
-218.95189096
 30
0.0
 11
91.0729804
 21
-218.9701565
 31
0.0
  0
LINE
  5
37E
100
AcDbEntity
  8
LAYER0001
  6
CONTINUOUS
 62
       7
100
AcDbLine
 10
91.0729804
 20
-218.9701565
 30
0.0
 11
91.20768337
 21
-218.98662319
 31
0.0
  0
LINE
  5
37F
100
AcDbEntity
  8
LAYER0001
  6
CONTINUOUS
 62
       7
100
AcDbLine
 10
91.20768337
 20
-218.98662319
 30
0.0
 11
91.34249813
 21
-219.0016508
 31
0.0
  0
LINE
  5
380
100
AcDbEntity
  8
LAYER0001
  6
CONTINUOUS
 62
       7
100
AcDbLine
 10
91.34249813
 20
-219.0016508
 30
0.0
 11
91.47739674
 21
-219.0155991
 31
0.0
  0
LINE
  5
381
100
AcDbEntity
  8
LAYER0001
  6
CONTINUOUS
 62
       7
100
AcDbLine
 10
91.47739674
 20
-219.0155991
 30
0.0
 11
91.61235124
 21
-219.02882786
 31
0.0
  0
LINE
  5
382
100
AcDbEntity
  8
LAYER0001
  6
CONTINUOUS
 62
       7
100
AcDbLine
 10
91.61235124
 20
-219.02882786
 30
0.0
 11
91.74733369
 21
-219.04169685
 31
0.0
  0
ENDBLK
  5
383
100
AcDbEntity
  8
0
100
AcDbBlockEnd
  0
BLOCK
  5
384
100
AcDbEntity
  8
0
100
AcDbBlockBegin
  2
GROUP_29
 70
       0
 10
0.0
 20
0.0
 30
0.0
  3
GROUP_29
  1

  0
LINE
  5
385
100
AcDbEntity
  8
LAYER0001
  6
CONTINUOUS
 62
       7
100
AcDbLine
 10
101.70662628
 20
-211.541704
 30
0.0
 11
101.43683051
 21
-211.5606137
 31
0.0
  0
LINE
  5
386
100
AcDbEntity
  8
LAYER0001
  6
CONTINUOUS
 62
       7
100
AcDbLine
 10
101.43683051
 20
-211.5606137
 30
0.0
 11
101.16707788
 21
-211.57975036
 31
0.0
  0
LINE
  5
387
100
AcDbEntity
  8
LAYER0001
  6
CONTINUOUS
 62
       7
100
AcDbLine
 10
101.16707788
 20
-211.57975036
 30
0.0
 11
100.89741151
 21
-211.59934097
 31
0.0
  0
LINE
  5
388
100
AcDbEntity
  8
LAYER0001
  6
CONTINUOUS
 62
       7
100
AcDbLine
 10
100.89741151
 20
-211.59934097
 30
0.0
 11
100.62787456
 21
-211.61961249
 31
0.0
  0
LINE
  5
389
100
AcDbEntity
  8
LAYER0001
  6
CONTINUOUS
 62
       7
100
AcDbLine
 10
100.62787456
 20
-211.61961249
 30
0.0
 11
100.35851016
 21
-211.64079189
 31
0.0
  0
LINE
  5
38A
100
AcDbEntity
  8
LAYER0001
  6
CONTINUOUS
 62
       7
100
AcDbLine
 10
100.35851016
 20
-211.64079189
 30
0.0
 11
100.08936145
 21
-211.66310614
 31
0.0
  0
LINE
  5
38B
100
AcDbEntity
  8
LAYER0001
  6
CONTINUOUS
 62
       7
100
AcDbLine
 10
100.08936145
 20
-211.66310614
 30
0.0
 11
99.82047156
 21
-211.68678222
 31
0.0
  0
LINE
  5
38C
100
AcDbEntity
  8
LAYER0001
  6
CONTINUOUS
 62
       7
100
AcDbLine
 10
99.82047156
 20
-211.68678222
 30
0.0
 11
99.55188363
 21
-211.71204709
 31
0.0
  0
LINE
  5
38D
100
AcDbEntity
  8
LAYER0001
  6
CONTINUOUS
 62
       7
100
AcDbLine
 10
99.55188363
 20
-211.71204709
 30
0.0
 11
99.28364079
 21
-211.73912773
 31
0.0
  0
LINE
  5
38E
100
AcDbEntity
  8
LAYER0001
  6
CONTINUOUS
 62
       7
100
AcDbLine
 10
99.28364079
 20
-211.73912773
 30
0.0
 11
99.01578619
 21
-211.7682511
 31
0.0
  0
LINE
  5
38F
100
AcDbEntity
  8
LAYER0001
  6
CONTINUOUS
 62
       7
100
AcDbLine
 10
99.01578619
 20
-211.7682511
 30
0.0
 11
98.74836297
 21
-211.79964418
 31
0.0
  0
LINE
  5
390
100
AcDbEntity
  8
LAYER0001
  6
CONTINUOUS
 62
       7
100
AcDbLine
 10
98.74836297
 20
-211.79964418
 30
0.0
 11
98.48141425
 21
-211.83353393
 31
0.0
  0
LINE
  5
391
100
AcDbEntity
  8
LAYER0001
  6
CONTINUOUS
 62
       7
100
AcDbLine
 10
98.48141425
 20
-211.83353393
 30
0.0
 11
98.21498318
 21
-211.87014733
 31
0.0
  0
LINE
  5
392
100
AcDbEntity
  8
LAYER0001
  6
CONTINUOUS
 62
       7
100
AcDbLine
 10
98.21498318
 20
-211.87014733
 30
0.0
 11
97.94911289
 21
-211.90971134
 31
0.0
  0
LINE
  5
393
100
AcDbEntity
  8
LAYER0001
  6
CONTINUOUS
 62
       7
100
AcDbLine
 10
97.94911289
 20
-211.90971134
 30
0.0
 11
97.68384652
 21
-211.95245295
 31
0.0
  0
LINE
  5
394
100
AcDbEntity
  8
LAYER0001
  6
CONTINUOUS
 62
       7
100
AcDbLine
 10
97.68384652
 20
-211.95245295
 30
0.0
 11
97.41922721
 21
-211.99859911
 31
0.0
  0
LINE
  5
395
100
AcDbEntity
  8
LAYER0001
  6
CONTINUOUS
 62
       7
100
AcDbLine
 10
97.41922721
 20
-211.99859911
 30
0.0
 11
97.1552981
 21
-212.0483768
 31
0.0
  0
LINE
  5
396
100
AcDbEntity
  8
LAYER0001
  6
CONTINUOUS
 62
       7
100
AcDbLine
 10
97.1552981
 20
-212.0483768
 30
0.0
 11
96.89210232
 21
-212.10201299
 31
0.0
  0
LINE
  5
397
100
AcDbEntity
  8
LAYER0001
  6
CONTINUOUS
 62
       7
100
AcDbLine
 10
96.89210232
 20
-212.10201299
 30
0.0
 11
96.62968291
 21
-212.15973416
 31
0.0
  0
LINE
  5
398
100
AcDbEntity
  8
LAYER0001
  6
CONTINUOUS
 62
       7
100
AcDbLine
 10
96.62968291
 20
-212.15973416
 30
0.0
 11
96.36803923
 21
-212.22153686
 31
0.0
  0
LINE
  5
399
100
AcDbEntity
  8
LAYER0001
  6
CONTINUOUS
 62
       7
100
AcDbLine
 10
96.36803923
 20
-212.22153686
 30
0.0
 11
96.10705712
 21
-212.28682052
 31
0.0
  0
LINE
  5
39A
100
AcDbEntity
  8
LAYER0001
  6
CONTINUOUS
 62
       7
100
AcDbLine
 10
96.10705712
 20
-212.28682052
 30
0.0
 11
95.84660429
 21
-212.35488897
 31
0.0
  0
LINE
  5
39B
100
AcDbEntity
  8
LAYER0001
  6
CONTINUOUS
 62
       7
100
AcDbLine
 10
95.84660429
 20
-212.35488897
 30
0.0
 11
95.5865484
 21
-212.425046
 31
0.0
  0
LINE
  5
39C
100
AcDbEntity
  8
LAYER0001
  6
CONTINUOUS
 62
       7
100
AcDbLine
 10
95.5865484
 20
-212.425046
 30
0.0
 11
95.32675714
 21
-212.49659542
 31
0.0
  0
LINE
  5
39D
100
AcDbEntity
  8
LAYER0001
  6
CONTINUOUS
 62
       7
100
AcDbLine
 10
95.32675714
 20
-212.49659542
 30
0.0
 11
95.0670982
 21
-212.56884104
 31
0.0
  0
ENDBLK
  5
39E
100
AcDbEntity
  8
0
100
AcDbBlockEnd
  0
BLOCK
  5
39F
100
AcDbEntity
  8
0
100
AcDbBlockBegin
  2
GROUP_30
 70
       0
 10
0.0
 20
0.0
 30
0.0
  3
GROUP_30
  1

  0
LINE
  5
3A0
100
AcDbEntity
  8
LAYER0001
  6
CONTINUOUS
 62
       7
100
AcDbLine
 10
95.0670982
 20
-218.01455981
 30
0.0
 11
95.32675714
 21
-218.08680542
 31
0.0
  0
LINE
  5
3A1
100
AcDbEntity
  8
LAYER0001
  6
CONTINUOUS
 62
       7
100
AcDbLine
 10
95.32675714
 20
-218.08680542
 30
0.0
 11
95.5865484
 21
-218.15835484
 31
0.0
  0
LINE
  5
3A2
100
AcDbEntity
  8
LAYER0001
  6
CONTINUOUS
 62
       7
100
AcDbLine
 10
95.5865484
 20
-218.15835484
 30
0.0
 11
95.84660429
 21
-218.22851187
 31
0.0
  0
LINE
  5
3A3
100
AcDbEntity
  8
LAYER0001
  6
CONTINUOUS
 62
       7
100
AcDbLine
 10
95.84660429
 20
-218.22851187
 30
0.0
 11
96.10705712
 21
-218.29658032
 31
0.0
  0
LINE
  5
3A4
100
AcDbEntity
  8
LAYER0001
  6
CONTINUOUS
 62
       7
100
AcDbLine
 10
96.10705712
 20
-218.29658032
 30
0.0
 11
96.36803923
 21
-218.36186399
 31
0.0
  0
LINE
  5
3A5
100
AcDbEntity
  8
LAYER0001
  6
CONTINUOUS
 62
       7
100
AcDbLine
 10
96.36803923
 20
-218.36186399
 30
0.0
 11
96.62968291
 21
-218.42366668
 31
0.0
  0
LINE
  5
3A6
100
AcDbEntity
  8
LAYER0001
  6
CONTINUOUS
 62
       7
100
AcDbLine
 10
96.62968291
 20
-218.42366668
 30
0.0
 11
96.89210232
 21
-218.48138786
 31
0.0
  0
LINE
  5
3A7
100
AcDbEntity
  8
LAYER0001
  6
CONTINUOUS
 62
       7
100
AcDbLine
 10
96.89210232
 20
-218.48138786
 30
0.0
 11
97.1552981
 21
-218.53502405
 31
0.0
  0
LINE
  5
3A8
100
AcDbEntity
  8
LAYER0001
  6
CONTINUOUS
 62
       7
100
AcDbLine
 10
97.1552981
 20
-218.53502405
 30
0.0
 11
97.41922721
 21
-218.58480174
 31
0.0
  0
LINE
  5
3A9
100
AcDbEntity
  8
LAYER0001
  6
CONTINUOUS
 62
       7
100
AcDbLine
 10
97.41922721
 20
-218.58480174
 30
0.0
 11
97.68384652
 21
-218.6309479
 31
0.0
  0
LINE
  5
3AA
100
AcDbEntity
  8
LAYER0001
  6
CONTINUOUS
 62
       7
100
AcDbLine
 10
97.68384652
 20
-218.6309479
 30
0.0
 11
97.94911289
 21
-218.6736895
 31
0.0
  0
LINE
  5
3AB
100
AcDbEntity
  8
LAYER0001
  6
CONTINUOUS
 62
       7
100
AcDbLine
 10
97.94911289
 20
-218.6736895
 30
0.0
 11
98.21498318
 21
-218.71325352
 31
0.0
  0
LINE
  5
3AC
100
AcDbEntity
  8
LAYER0001
  6
CONTINUOUS
 62
       7
100
AcDbLine
 10
98.21498318
 20
-218.71325352
 30
0.0
 11
98.48141425
 21
-218.74986692
 31
0.0
  0
LINE
  5
3AD
100
AcDbEntity
  8
LAYER0001
  6
CONTINUOUS
 62
       7
100
AcDbLine
 10
98.48141425
 20
-218.74986692
 30
0.0
 11
98.74836297
 21
-218.78375667
 31
0.0
  0
LINE
  5
3AE
100
AcDbEntity
  8
LAYER0001
  6
CONTINUOUS
 62
       7
100
AcDbLine
 10
98.74836297
 20
-218.78375667
 30
0.0
 11
99.01578619
 21
-218.81514975
 31
0.0
  0
LINE
  5
3AF
100
AcDbEntity
  8
LAYER0001
  6
CONTINUOUS
 62
       7
100
AcDbLine
 10
99.01578619
 20
-218.81514975
 30
0.0
 11
99.28364079
 21
-218.84427312
 31
0.0
  0
LINE
  5
3B0
100
AcDbEntity
  8
LAYER0001
  6
CONTINUOUS
 62
       7
100
AcDbLine
 10
99.28364079
 20
-218.84427312
 30
0.0
 11
99.55188363
 21
-218.87135375
 31
0.0
  0
LINE
  5
3B1
100
AcDbEntity
  8
LAYER0001
  6
CONTINUOUS
 62
       7
100
AcDbLine
 10
99.55188363
 20
-218.87135375
 30
0.0
 11
99.82047156
 21
-218.89661862
 31
0.0
  0
LINE
  5
3B2
100
AcDbEntity
  8
LAYER0001
  6
CONTINUOUS
 62
       7
100
AcDbLine
 10
99.82047156
 20
-218.89661862
 30
0.0
 11
100.08936145
 21
-218.9202947
 31
0.0
  0
LINE
  5
3B3
100
AcDbEntity
  8
LAYER0001
  6
CONTINUOUS
 62
       7
100
AcDbLine
 10
100.08936145
 20
-218.9202947
 30
0.0
 11
100.35851016
 21
-218.94260896
 31
0.0
  0
LINE
  5
3B4
100
AcDbEntity
  8
LAYER0001
  6
CONTINUOUS
 62
       7
100
AcDbLine
 10
100.35851016
 20
-218.94260896
 30
0.0
 11
100.62787456
 21
-218.96378836
 31
0.0
  0
LINE
  5
3B5
100
AcDbEntity
  8
LAYER0001
  6
CONTINUOUS
 62
       7
100
AcDbLine
 10
100.62787456
 20
-218.96378836
 30
0.0
 11
100.89741151
 21
-218.98405988
 31
0.0
  0
LINE
  5
3B6
100
AcDbEntity
  8
LAYER0001
  6
CONTINUOUS
 62
       7
100
AcDbLine
 10
100.89741151
 20
-218.98405988
 30
0.0
 11
101.16707788
 21
-219.00365048
 31
0.0
  0
LINE
  5
3B7
100
AcDbEntity
  8
LAYER0001
  6
CONTINUOUS
 62
       7
100
AcDbLine
 10
101.16707788
 20
-219.00365048
 30
0.0
 11
101.43683051
 21
-219.02278715
 31
0.0
  0
LINE
  5
3B8
100
AcDbEntity
  8
LAYER0001
  6
CONTINUOUS
 62
       7
100
AcDbLine
 10
101.43683051
 20
-219.02278715
 30
0.0
 11
101.70662628
 21
-219.04169685
 31
0.0
  0
ENDBLK
  5
3B9
100
AcDbEntity
  8
0
100
AcDbBlockEnd
  0
BLOCK
  5
3BA
100
AcDbEntity
  8
0
100
AcDbBlockBegin
  2
GROUP_31
 70
       0
 10
0.0
 20
0.0
 30
0.0
  3
GROUP_31
  1

  0
LINE
  5
3BB
100
AcDbEntity
  8
LAYER0001
  6
CONTINUOUS
 62
       7
100
AcDbLine
 10
108.34615437
 20
-212.56884104
 30
0.0
 11
108.0835212
 21
-212.50282935
 31
0.0
  0
LINE
  5
3BC
100
AcDbEntity
  8
LAYER0001
  6
CONTINUOUS
 62
       7
100
AcDbLine
 10
108.0835212
 20
-212.50282935
 30
0.0
 11
107.82085764
 21
-212.43707465
 31
0.0
  0
LINE
  5
3BD
100
AcDbEntity
  8
LAYER0001
  6
CONTINUOUS
 62
       7
100
AcDbLine
 10
107.82085764
 20
-212.43707465
 30
0.0
 11
107.55813329
 21
-212.37183393
 31
0.0
  0
LINE
  5
3BE
100
AcDbEntity
  8
LAYER0001
  6
CONTINUOUS
 62
       7
100
AcDbLine
 10
107.55813329
 20
-212.37183393
 30
0.0
 11
107.29531776
 21
-212.30736418
 31
0.0
  0
LINE
  5
3BF
100
AcDbEntity
  8
LAYER0001
  6
CONTINUOUS
 62
       7
100
AcDbLine
 10
107.29531776
 20
-212.30736418
 30
0.0
 11
107.03238065
 21
-212.24392238
 31
0.0
  0
LINE
  5
3C0
100
AcDbEntity
  8
LAYER0001
  6
CONTINUOUS
 62
       7
100
AcDbLine
 10
107.03238065
 20
-212.24392238
 30
0.0
 11
106.76929158
 21
-212.18176553
 31
0.0
  0
LINE
  5
3C1
100
AcDbEntity
  8
LAYER0001
  6
CONTINUOUS
 62
       7
100
AcDbLine
 10
106.76929158
 20
-212.18176553
 30
0.0
 11
106.50602015
 21
-212.12115061
 31
0.0
  0
LINE
  5
3C2
100
AcDbEntity
  8
LAYER0001
  6
CONTINUOUS
 62
       7
100
AcDbLine
 10
106.50602015
 20
-212.12115061
 30
0.0
 11
106.24253597
 21
-212.06233462
 31
0.0
  0
LINE
  5
3C3
100
AcDbEntity
  8
LAYER0001
  6
CONTINUOUS
 62
       7
100
AcDbLine
 10
106.24253597
 20
-212.06233462
 30
0.0
 11
105.97880863
 21
-212.00557454
 31
0.0
  0
LINE
  5
3C4
100
AcDbEntity
  8
LAYER0001
  6
CONTINUOUS
 62
       7
100
AcDbLine
 10
105.97880863
 20
-212.00557454
 30
0.0
 11
105.71480776
 21
-211.95112736
 31
0.0
  0
LINE
  5
3C5
100
AcDbEntity
  8
LAYER0001
  6
CONTINUOUS
 62
       7
100
AcDbLine
 10
105.71480776
 20
-211.95112736
 30
0.0
 11
105.45050295
 21
-211.89925007
 31
0.0
  0
LINE
  5
3C6
100
AcDbEntity
  8
LAYER0001
  6
CONTINUOUS
 62
       7
100
AcDbLine
 10
105.45050295
 20
-211.89925007
 30
0.0
 11
105.18586382
 21
-211.85019967
 31
0.0
  0
LINE
  5
3C7
100
AcDbEntity
  8
LAYER0001
  6
CONTINUOUS
 62
       7
100
AcDbLine
 10
105.18586382
 20
-211.85019967
 30
0.0
 11
104.92085997
 21
-211.80423313
 31
0.0
  0
LINE
  5
3C8
100
AcDbEntity
  8
LAYER0001
  6
CONTINUOUS
 62
       7
100
AcDbLine
 10
104.92085997
 20
-211.80423313
 30
0.0
 11
104.655461
 21
-211.76160745
 31
0.0
  0
LINE
  5
3C9
100
AcDbEntity
  8
LAYER0001
  6
CONTINUOUS
 62
       7
100
AcDbLine
 10
104.655461
 20
-211.76160745
 30
0.0
 11
104.38963652
 21
-211.72257962
 31
0.0
  0
LINE
  5
3CA
100
AcDbEntity
  8
LAYER0001
  6
CONTINUOUS
 62
       7
100
AcDbLine
 10
104.38963652
 20
-211.72257962
 30
0.0
 11
104.12335614
 21
-211.68740663
 31
0.0
  0
LINE
  5
3CB
100
AcDbEntity
  8
LAYER0001
  6
CONTINUOUS
 62
       7
100
AcDbLine
 10
104.12335614
 20
-211.68740663
 30
0.0
 11
103.85658947
 21
-211.65634547
 31
0.0
  0
LINE
  5
3CC
100
AcDbEntity
  8
LAYER0001
  6
CONTINUOUS
 62
       7
100
AcDbLine
 10
103.85658947
 20
-211.65634547
 30
0.0
 11
103.58930611
 21
-211.62965311
 31
0.0
  0
LINE
  5
3CD
100
AcDbEntity
  8
LAYER0001
  6
CONTINUOUS
 62
       7
100
AcDbLine
 10
103.58930611
 20
-211.62965311
 30
0.0
 11
103.32147789
 21
-211.60756786
 31
0.0
  0
LINE
  5
3CE
100
AcDbEntity
  8
LAYER0001
  6
CONTINUOUS
 62
       7
100
AcDbLine
 10
103.32147789
 20
-211.60756786
 30
0.0
 11
103.05313157
 21
-211.58986323
 31
0.0
  0
LINE
  5
3CF
100
AcDbEntity
  8
LAYER0001
  6
CONTINUOUS
 62
       7
100
AcDbLine
 10
103.05313157
 20
-211.58986323
 30
0.0
 11
102.78435129
 21
-211.57582805
 31
0.0
  0
LINE
  5
3D0
100
AcDbEntity
  8
LAYER0001
  6
CONTINUOUS
 62
       7
100
AcDbLine
 10
102.78435129
 20
-211.57582805
 30
0.0
 11
102.51522382
 21
-211.56472843
 31
0.0
  0
LINE
  5
3D1
100
AcDbEntity
  8
LAYER0001
  6
CONTINUOUS
 62
       7
100
AcDbLine
 10
102.51522382
 20
-211.56472843
 30
0.0
 11
102.24583597
 21
-211.55583047
 31
0.0
  0
LINE
  5
3D2
100
AcDbEntity
  8
LAYER0001
  6
CONTINUOUS
 62
       7
100
AcDbLine
 10
102.24583597
 20
-211.55583047
 30
0.0
 11
101.97627452
 21
-211.54840029
 31
0.0
  0
LINE
  5
3D3
100
AcDbEntity
  8
LAYER0001
  6
CONTINUOUS
 62
       7
100
AcDbLine
 10
101.97627452
 20
-211.54840029
 30
0.0
 11
101.70662628
 21
-211.541704
 31
0.0
  0
ENDBLK
  5
3D4
100
AcDbEntity
  8
0
100
AcDbBlockEnd
  0
BLOCK
  5
3D5
100
AcDbEntity
  8
0
100
AcDbBlockBegin
  2
GROUP_32
 70
       0
 10
0.0
 20
0.0
 30
0.0
  3
GROUP_32
  1

  0
LINE
  5
3D6
100
AcDbEntity
  8
LAYER0001
  6
CONTINUOUS
 62
       7
100
AcDbLine
 10
101.70662628
 20
-219.04169685
 30
0.0
 11
101.97627452
 21
-219.03500056
 31
0.0
  0
LINE
  5
3D7
100
AcDbEntity
  8
LAYER0001
  6
CONTINUOUS
 62
       7
100
AcDbLine
 10
101.97627452
 20
-219.03500056
 30
0.0
 11
102.24583597
 21
-219.02757038
 31
0.0
  0
LINE
  5
3D8
100
AcDbEntity
  8
LAYER0001
  6
CONTINUOUS
 62
       7
100
AcDbLine
 10
102.24583597
 20
-219.02757038
 30
0.0
 11
102.51522382
 21
-219.01867242
 31
0.0
  0
LINE
  5
3D9
100
AcDbEntity
  8
LAYER0001
  6
CONTINUOUS
 62
       7
100
AcDbLine
 10
102.51522382
 20
-219.01867242
 30
0.0
 11
102.78435129
 21
-219.0075728
 31
0.0
  0
LINE
  5
3DA
100
AcDbEntity
  8
LAYER0001
  6
CONTINUOUS
 62
       7
100
AcDbLine
 10
102.78435129
 20
-219.0075728
 30
0.0
 11
103.05313157
 21
-218.99353761
 31
0.0
  0
LINE
  5
3DB
100
AcDbEntity
  8
LAYER0001
  6
CONTINUOUS
 62
       7
100
AcDbLine
 10
103.05313157
 20
-218.99353761
 30
0.0
 11
103.32147789
 21
-218.97583299
 31
0.0
  0
LINE
  5
3DC
100
AcDbEntity
  8
LAYER0001
  6
CONTINUOUS
 62
       7
100
AcDbLine
 10
103.32147789
 20
-218.97583299
 30
0.0
 11
103.58930611
 21
-218.95374773
 31
0.0
  0
LINE
  5
3DD
100
AcDbEntity
  8
LAYER0001
  6
CONTINUOUS
 62
       7
100
AcDbLine
 10
103.58930611
 20
-218.95374773
 30
0.0
 11
103.85658947
 21
-218.92705538
 31
0.0
  0
LINE
  5
3DE
100
AcDbEntity
  8
LAYER0001
  6
CONTINUOUS
 62
       7
100
AcDbLine
 10
103.85658947
 20
-218.92705538
 30
0.0
 11
104.12335614
 21
-218.89599421
 31
0.0
  0
LINE
  5
3DF
100
AcDbEntity
  8
LAYER0001
  6
CONTINUOUS
 62
       7
100
AcDbLine
 10
104.12335614
 20
-218.89599421
 30
0.0
 11
104.38963652
 21
-218.86082122
 31
0.0
  0
LINE
  5
3E0
100
AcDbEntity
  8
LAYER0001
  6
CONTINUOUS
 62
       7
100
AcDbLine
 10
104.38963652
 20
-218.86082122
 30
0.0
 11
104.655461
 21
-218.82179339
 31
0.0
  0
LINE
  5
3E1
100
AcDbEntity
  8
LAYER0001
  6
CONTINUOUS
 62
       7
100
AcDbLine
 10
104.655461
 20
-218.82179339
 30
0.0
 11
104.92085997
 21
-218.77916772
 31
0.0
  0
LINE
  5
3E2
100
AcDbEntity
  8
LAYER0001
  6
CONTINUOUS
 62
       7
100
AcDbLine
 10
104.92085997
 20
-218.77916772
 30
0.0
 11
105.18586382
 21
-218.73320118
 31
0.0
  0
LINE
  5
3E3
100
AcDbEntity
  8
LAYER0001
  6
CONTINUOUS
 62
       7
100
AcDbLine
 10
105.18586382
 20
-218.73320118
 30
0.0
 11
105.45050295
 21
-218.68415077
 31
0.0
  0
LINE
  5
3E4
100
AcDbEntity
  8
LAYER0001
  6
CONTINUOUS
 62
       7
100
AcDbLine
 10
105.45050295
 20
-218.68415077
 30
0.0
 11
105.71480776
 21
-218.63227349
 31
0.0
  0
LINE
  5
3E5
100
AcDbEntity
  8
LAYER0001
  6
CONTINUOUS
 62
       7
100
AcDbLine
 10
105.71480776
 20
-218.63227349
 30
0.0
 11
105.97880863
 21
-218.57782631
 31
0.0
  0
LINE
  5
3E6
100
AcDbEntity
  8
LAYER0001
  6
CONTINUOUS
 62
       7
100
AcDbLine
 10
105.97880863
 20
-218.57782631
 30
0.0
 11
106.24253597
 21
-218.52106623
 31
0.0
  0
LINE
  5
3E7
100
AcDbEntity
  8
LAYER0001
  6
CONTINUOUS
 62
       7
100
AcDbLine
 10
106.24253597
 20
-218.52106623
 30
0.0
 11
106.50602015
 21
-218.46225024
 31
0.0
  0
LINE
  5
3E8
100
AcDbEntity
  8
LAYER0001
  6
CONTINUOUS
 62
       7
100
AcDbLine
 10
106.50602015
 20
-218.46225024
 30
0.0
 11
106.76929158
 21
-218.40163532
 31
0.0
  0
LINE
  5
3E9
100
AcDbEntity
  8
LAYER0001
  6
CONTINUOUS
 62
       7
100
AcDbLine
 10
106.76929158
 20
-218.40163532
 30
0.0
 11
107.03238065
 21
-218.33947847
 31
0.0
  0
LINE
  5
3EA
100
AcDbEntity
  8
LAYER0001
  6
CONTINUOUS
 62
       7
100
AcDbLine
 10
107.03238065
 20
-218.33947847
 30
0.0
 11
107.29531776
 21
-218.27603667
 31
0.0
  0
LINE
  5
3EB
100
AcDbEntity
  8
LAYER0001
  6
CONTINUOUS
 62
       7
100
AcDbLine
 10
107.29531776
 20
-218.27603667
 30
0.0
 11
107.55813329
 21
-218.21156692
 31
0.0
  0
LINE
  5
3EC
100
AcDbEntity
  8
LAYER0001
  6
CONTINUOUS
 62
       7
100
AcDbLine
 10
107.55813329
 20
-218.21156692
 30
0.0
 11
107.82085764
 21
-218.14632619
 31
0.0
  0
LINE
  5
3ED
100
AcDbEntity
  8
LAYER0001
  6
CONTINUOUS
 62
       7
100
AcDbLine
 10
107.82085764
 20
-218.14632619
 30
0.0
 11
108.0835212
 21
-218.08057149
 31
0.0
  0
LINE
  5
3EE
100
AcDbEntity
  8
LAYER0001
  6
CONTINUOUS
 62
       7
100
AcDbLine
 10
108.0835212
 20
-218.08057149
 30
0.0
 11
108.34615437
 21
-218.01455981
 31
0.0
  0
ENDBLK
  5
3EF
100
AcDbEntity
  8
0
100
AcDbBlockEnd
  0
BLOCK
  5
3F0
100
AcDbEntity
  8
0
100
AcDbBlockBegin
  2
GROUP_33
 70
       0
 10
0.0
 20
0.0
 30
0.0
  3
GROUP_33
  1

  0
LINE
  5
3F1
100
AcDbEntity
  8
LAYER0001
  6
CONTINUOUS
 62
       7
100
AcDbLine
 10
111.66591888
 20
-211.541704
 30
0.0
 11
111.55364936
 21
-211.54366392
 31
0.0
  0
LINE
  5
3F2
100
AcDbEntity
  8
LAYER0001
  6
CONTINUOUS
 62
       7
100
AcDbLine
 10
111.55364936
 20
-211.54366392
 30
0.0
 11
111.44137471
 21
-211.54685878
 31
0.0
  0
LINE
  5
3F3
100
AcDbEntity
  8
LAYER0001
  6
CONTINUOUS
 62
       7
100
AcDbLine
 10
111.44137471
 20
-211.54685878
 30
0.0
 11
111.32909274
 21
-211.55237367
 31
0.0
  0
LINE
  5
3F4
100
AcDbEntity
  8
LAYER0001
  6
CONTINUOUS
 62
       7
100
AcDbLine
 10
111.32909274
 20
-211.55237367
 30
0.0
 11
111.21681743
 21
-211.56047591
 31
0.0
  0
LINE
  5
3F5
100
AcDbEntity
  8
LAYER0001
  6
CONTINUOUS
 62
       7
100
AcDbLine
 10
111.21681743
 20
-211.56047591
 30
0.0
 11
111.10456822
 21
-211.57115519
 31
0.0
  0
LINE
  5
3F6
100
AcDbEntity
  8
LAYER0001
  6
CONTINUOUS
 62
       7
100
AcDbLine
 10
111.10456822
 20
-211.57115519
 30
0.0
 11
110.99236457
 21
-211.58440099
 31
0.0
  0
LINE
  5
3F7
100
AcDbEntity
  8
LAYER0001
  6
CONTINUOUS
 62
       7
100
AcDbLine
 10
110.99236457
 20
-211.58440099
 30
0.0
 11
110.88022592
 21
-211.60020281
 31
0.0
  0
LINE
  5
3F8
100
AcDbEntity
  8
LAYER0001
  6
CONTINUOUS
 62
       7
100
AcDbLine
 10
110.88022592
 20
-211.60020281
 30
0.0
 11
110.76817174
 21
-211.61855013
 31
0.0
  0
LINE
  5
3F9
100
AcDbEntity
  8
LAYER0001
  6
CONTINUOUS
 62
       7
100
AcDbLine
 10
110.76817174
 20
-211.61855013
 30
0.0
 11
110.65622146
 21
-211.63943242
 31
0.0
  0
LINE
  5
3FA
100
AcDbEntity
  8
LAYER0001
  6
CONTINUOUS
 62
       7
100
AcDbLine
 10
110.65622146
 20
-211.63943242
 30
0.0
 11
110.54439455
 21
-211.66283917
 31
0.0
  0
LINE
  5
3FB
100
AcDbEntity
  8
LAYER0001
  6
CONTINUOUS
 62
       7
100
AcDbLine
 10
110.54439455
 20
-211.66283917
 30
0.0
 11
110.43271044
 21
-211.68875987
 31
0.0
  0
LINE
  5
3FC
100
AcDbEntity
  8
LAYER0001
  6
CONTINUOUS
 62
       7
100
AcDbLine
 10
110.43271044
 20
-211.68875987
 30
0.0
 11
110.32118861
 21
-211.71718399
 31
0.0
  0
LINE
  5
3FD
100
AcDbEntity
  8
LAYER0001
  6
CONTINUOUS
 62
       7
100
AcDbLine
 10
110.32118861
 20
-211.71718399
 30
0.0
 11
110.20984849
 21
-211.74810103
 31
0.0
  0
LINE
  5
3FE
100
AcDbEntity
  8
LAYER0001
  6
CONTINUOUS
 62
       7
100
AcDbLine
 10
110.20984849
 20
-211.74810103
 30
0.0
 11
110.09870955
 21
-211.78150046
 31
0.0
  0
LINE
  5
3FF
100
AcDbEntity
  8
LAYER0001
  6
CONTINUOUS
 62
       7
100
AcDbLine
 10
110.09870955
 20
-211.78150046
 30
0.0
 11
109.98779122
 21
-211.81737177
 31
0.0
  0
LINE
  5
400
100
AcDbEntity
  8
LAYER0001
  6
CONTINUOUS
 62
       7
100
AcDbLine
 10
109.98779122
 20
-211.81737177
 30
0.0
 11
109.87711297
 21
-211.85570442
 31
0.0
  0
LINE
  5
401
100
AcDbEntity
  8
LAYER0001
  6
CONTINUOUS
 62
       7
100
AcDbLine
 10
109.87711297
 20
-211.85570442
 30
0.0
 11
109.76668639
 21
-211.89645394
 31
0.0
  0
LINE
  5
402
100
AcDbEntity
  8
LAYER0001
  6
CONTINUOUS
 62
       7
100
AcDbLine
 10
109.76668639
 20
-211.89645394
 30
0.0
 11
109.65649812
 21
-211.93946763
 31
0.0
  0
LINE
  5
403
100
AcDbEntity
  8
LAYER0001
  6
CONTINUOUS
 62
       7
100
AcDbLine
 10
109.65649812
 20
-211.93946763
 30
0.0
 11
109.54652984
 21
-211.98457134
 31
0.0
  0
LINE
  5
404
100
AcDbEntity
  8
LAYER0001
  6
CONTINUOUS
 62
       7
100
AcDbLine
 10
109.54652984
 20
-211.98457134
 30
0.0
 11
109.43676319
 21
-212.03159089
 31
0.0
  0
LINE
  5
405
100
AcDbEntity
  8
LAYER0001
  6
CONTINUOUS
 62
       7
100
AcDbLine
 10
109.43676319
 20
-212.03159089
 30
0.0
 11
109.32717986
 21
-212.08035213
 31
0.0
  0
LINE
  5
406
100
AcDbEntity
  8
LAYER0001
  6
CONTINUOUS
 62
       7
100
AcDbLine
 10
109.32717986
 20
-212.08035213
 30
0.0
 11
109.21776152
 21
-212.13068087
 31
0.0
  0
LINE
  5
407
100
AcDbEntity
  8
LAYER0001
  6
CONTINUOUS
 62
       7
100
AcDbLine
 10
109.21776152
 20
-212.13068087
 30
0.0
 11
109.10848982
 21
-212.18240295
 31
0.0
  0
LINE
  5
408
100
AcDbEntity
  8
LAYER0001
  6
CONTINUOUS
 62
       7
100
AcDbLine
 10
109.10848982
 20
-212.18240295
 30
0.0
 11
108.99934645
 21
-212.23534421
 31
0.0
  0
LINE
  5
409
100
AcDbEntity
  8
LAYER0001
  6
CONTINUOUS
 62
       7
100
AcDbLine
 10
108.99934645
 20
-212.23534421
 30
0.0
 11
108.89031307
 21
-212.28933048
 31
0.0
  0
LINE
  5
40A
100
AcDbEntity
  8
LAYER0001
  6
CONTINUOUS
 62
       7
100
AcDbLine
 10
108.89031307
 20
-212.28933048
 30
0.0
 11
108.78137134
 21
-212.34418758
 31
0.0
  0
LINE
  5
40B
100
AcDbEntity
  8
LAYER0001
  6
CONTINUOUS
 62
       7
100
AcDbLine
 10
108.78137134
 20
-212.34418758
 30
0.0
 11
108.67250294
 21
-212.39974136
 31
0.0
  0
LINE
  5
40C
100
AcDbEntity
  8
LAYER0001
  6
CONTINUOUS
 62
       7
100
AcDbLine
 10
108.67250294
 20
-212.39974136
 30
0.0
 11
108.56368953
 21
-212.45581764
 31
0.0
  0
LINE
  5
40D
100
AcDbEntity
  8
LAYER0001
  6
CONTINUOUS
 62
       7
100
AcDbLine
 10
108.56368953
 20
-212.45581764
 30
0.0
 11
108.45491279
 21
-212.51224226
 31
0.0
  0
LINE
  5
40E
100
AcDbEntity
  8
LAYER0001
  6
CONTINUOUS
 62
       7
100
AcDbLine
 10
108.45491279
 20
-212.51224226
 30
0.0
 11
108.34615437
 21
-212.56884104
 31
0.0
  0
ENDBLK
  5
40F
100
AcDbEntity
  8
0
100
AcDbBlockEnd
  0
BLOCK
  5
410
100
AcDbEntity
  8
0
100
AcDbBlockBegin
  2
GROUP_34
 70
       0
 10
0.0
 20
0.0
 30
0.0
  3
GROUP_34
  1

  0
LINE
  5
411
100
AcDbEntity
  8
LAYER0001
  6
CONTINUOUS
 62
       7
100
AcDbLine
 10
108.34615437
 20
-218.01455981
 30
0.0
 11
108.47673974
 21
-218.08403243
 31
0.0
  0
LINE
  5
412
100
AcDbEntity
  8
LAYER0001
  6
CONTINUOUS
 62
       7
100
AcDbLine
 10
108.47673974
 20
-218.08403243
 30
0.0
 11
108.60735357
 21
-218.15313868
 31
0.0
  0
LINE
  5
413
100
AcDbEntity
  8
LAYER0001
  6
CONTINUOUS
 62
       7
100
AcDbLine
 10
108.60735357
 20
-218.15313868
 30
0.0
 11
108.73802431
 21
-218.22151221
 31
0.0
  0
LINE
  5
414
100
AcDbEntity
  8
LAYER0001
  6
CONTINUOUS
 62
       7
100
AcDbLine
 10
108.73802431
 20
-218.22151221
 30
0.0
 11
108.86878044
 21
-218.28878664
 31
0.0
  0
LINE
  5
415
100
AcDbEntity
  8
LAYER0001
  6
CONTINUOUS
 62
       7
100
AcDbLine
 10
108.86878044
 20
-218.28878664
 30
0.0
 11
108.99965041
 21
-218.3545956
 31
0.0
  0
LINE
  5
416
100
AcDbEntity
  8
LAYER0001
  6
CONTINUOUS
 62
       7
100
AcDbLine
 10
108.99965041
 20
-218.3545956
 30
0.0
 11
109.13066269
 21
-218.41857274
 31
0.0
  0
LINE
  5
417
100
AcDbEntity
  8
LAYER0001
  6
CONTINUOUS
 62
       7
100
AcDbLine
 10
109.13066269
 20
-218.41857274
 30
0.0
 11
109.26184573
 21
-218.48035169
 31
0.0
  0
LINE
  5
418
100
AcDbEntity
  8
LAYER0001
  6
CONTINUOUS
 62
       7
100
AcDbLine
 10
109.26184573
 20
-218.48035169
 30
0.0
 11
109.39322799
 21
-218.53956607
 31
0.0
  0
LINE
  5
419
100
AcDbEntity
  8
LAYER0001
  6
CONTINUOUS
 62
       7
100
AcDbLine
 10
109.39322799
 20
-218.53956607
 30
0.0
 11
109.52483794
 21
-218.59584953
 31
0.0
  0
LINE
  5
41A
100
AcDbEntity
  8
LAYER0001
  6
CONTINUOUS
 62
       7
100
AcDbLine
 10
109.52483794
 20
-218.59584953
 30
0.0
 11
109.65670403
 21
-218.64883571
 31
0.0
  0
LINE
  5
41B
100
AcDbEntity
  8
LAYER0001
  6
CONTINUOUS
 62
       7
100
AcDbLine
 10
109.65670403
 20
-218.64883571
 30
0.0
 11
109.78885473
 21
-218.69815822
 31
0.0
  0
LINE
  5
41C
100
AcDbEntity
  8
LAYER0001
  6
CONTINUOUS
 62
       7
100
AcDbLine
 10
109.78885473
 20
-218.69815822
 30
0.0
 11
109.92131849
 21
-218.74345071
 31
0.0
  0
LINE
  5
41D
100
AcDbEntity
  8
LAYER0001
  6
CONTINUOUS
 62
       7
100
AcDbLine
 10
109.92131849
 20
-218.74345071
 30
0.0
 11
110.05412161
 21
-218.78437477
 31
0.0
  0
LINE
  5
41E
100
AcDbEntity
  8
LAYER0001
  6
CONTINUOUS
 62
       7
100
AcDbLine
 10
110.05412161
 20
-218.78437477
 30
0.0
 11
110.18725957
 21
-218.82098858
 31
0.0
  0
LINE
  5
41F
100
AcDbEntity
  8
LAYER0001
  6
CONTINUOUS
 62
       7
100
AcDbLine
 10
110.18725957
 20
-218.82098858
 30
0.0
 11
110.32070495
 21
-218.85364491
 31
0.0
  0
LINE
  5
420
100
AcDbEntity
  8
LAYER0001
  6
CONTINUOUS
 62
       7
100
AcDbLine
 10
110.32070495
 20
-218.85364491
 30
0.0
 11
110.45442982
 21
-218.88270355
 31
0.0
  0
LINE
  5
421
100
AcDbEntity
  8
LAYER0001
  6
CONTINUOUS
 62
       7
100
AcDbLine
 10
110.45442982
 20
-218.88270355
 30
0.0
 11
110.58840623
 21
-218.90852425
 31
0.0
  0
LINE
  5
422
100
AcDbEntity
  8
LAYER0001
  6
CONTINUOUS
 62
       7
100
AcDbLine
 10
110.58840623
 20
-218.90852425
 30
0.0
 11
110.72260621
 21
-218.9314668
 31
0.0
  0
LINE
  5
423
100
AcDbEntity
  8
LAYER0001
  6
CONTINUOUS
 62
       7
100
AcDbLine
 10
110.72260621
 20
-218.9314668
 30
0.0
 11
110.85700184
 21
-218.95189096
 31
0.0
  0
LINE
  5
424
100
AcDbEntity
  8
LAYER0001
  6
CONTINUOUS
 62
       7
100
AcDbLine
 10
110.85700184
 20
-218.95189096
 30
0.0
 11
110.99156516
 21
-218.9701565
 31
0.0
  0
LINE
  5
425
100
AcDbEntity
  8
LAYER0001
  6
CONTINUOUS
 62
       7
100
AcDbLine
 10
110.99156516
 20
-218.9701565
 30
0.0
 11
111.12626821
 21
-218.98662319
 31
0.0
  0
LINE
  5
426
100
AcDbEntity
  8
LAYER0001
  6
CONTINUOUS
 62
       7
100
AcDbLine
 10
111.12626821
 20
-218.98662319
 30
0.0
 11
111.26108306
 21
-219.0016508
 31
0.0
  0
LINE
  5
427
100
AcDbEntity
  8
LAYER0001
  6
CONTINUOUS
 62
       7
100
AcDbLine
 10
111.26108306
 20
-219.0016508
 30
0.0
 11
111.39598175
 21
-219.0155991
 31
0.0
  0
LINE
  5
428
100
AcDbEntity
  8
LAYER0001
  6
CONTINUOUS
 62
       7
100
AcDbLine
 10
111.39598175
 20
-219.0155991
 30
0.0
 11
111.53093634
 21
-219.02882786
 31
0.0
  0
LINE
  5
429
100
AcDbEntity
  8
LAYER0001
  6
CONTINUOUS
 62
       7
100
AcDbLine
 10
111.53093634
 20
-219.02882786
 30
0.0
 11
111.66591888
 21
-219.04169685
 31
0.0
  0
ENDBLK
  5
42A
100
AcDbEntity
  8
0
100
AcDbBlockEnd
  0
BLOCK
  5
42B
100
AcDbEntity
  8
0
100
AcDbBlockBegin
  2
GROUP_35
 70
       0
 10
0.0
 20
0.0
 30
0.0
  3
GROUP_35
  1

  0
LINE
  5
42C
100
AcDbEntity
  8
LAYER0001
  6
CONTINUOUS
 62
       7
100
AcDbLine
 10
114.98568246
 20
-212.56884104
 30
0.0
 11
114.85509681
 21
-212.4993719
 31
0.0
  0
LINE
  5
42D
100
AcDbEntity
  8
LAYER0001
  6
CONTINUOUS
 62
       7
100
AcDbLine
 10
114.85509681
 20
-212.4993719
 30
0.0
 11
114.7244827
 21
-212.43026908
 31
0.0
  0
LINE
  5
42E
100
AcDbEntity
  8
LAYER0001
  6
CONTINUOUS
 62
       7
100
AcDbLine
 10
114.7244827
 20
-212.43026908
 30
0.0
 11
114.59381168
 21
-212.36189891
 31
0.0
  0
LINE
  5
42F
100
AcDbEntity
  8
LAYER0001
  6
CONTINUOUS
 62
       7
100
AcDbLine
 10
114.59381168
 20
-212.36189891
 30
0.0
 11
114.46305529
 21
-212.29462769
 31
0.0
  0
LINE
  5
430
100
AcDbEntity
  8
LAYER0001
  6
CONTINUOUS
 62
       7
100
AcDbLine
 10
114.46305529
 20
-212.29462769
 30
0.0
 11
114.33218507
 21
-212.22882176
 31
0.0
  0
LINE
  5
431
100
AcDbEntity
  8
LAYER0001
  6
CONTINUOUS
 62
       7
100
AcDbLine
 10
114.33218507
 20
-212.22882176
 30
0.0
 11
114.20117257
 21
-212.16484744
 31
0.0
  0
LINE
  5
432
100
AcDbEntity
  8
LAYER0001
  6
CONTINUOUS
 62
       7
100
AcDbLine
 10
114.20117257
 20
-212.16484744
 30
0.0
 11
114.06998933
 21
-212.10307104
 31
0.0
  0
LINE
  5
433
100
AcDbEntity
  8
LAYER0001
  6
CONTINUOUS
 62
       7
100
AcDbLine
 10
114.06998933
 20
-212.10307104
 30
0.0
 11
113.9386069
 21
-212.04385889
 31
0.0
  0
LINE
  5
434
100
AcDbEntity
  8
LAYER0001
  6
CONTINUOUS
 62
       7
100
AcDbLine
 10
113.9386069
 20
-212.04385889
 30
0.0
 11
113.80699682
 21
-211.9875773
 31
0.0
  0
LINE
  5
435
100
AcDbEntity
  8
LAYER0001
  6
CONTINUOUS
 62
       7
100
AcDbLine
 10
113.80699682
 20
-211.9875773
 30
0.0
 11
113.67513063
 21
-211.93459261
 31
0.0
  0
LINE
  5
436
100
AcDbEntity
  8
LAYER0001
  6
CONTINUOUS
 62
       7
100
AcDbLine
 10
113.67513063
 20
-211.93459261
 30
0.0
 11
113.54297987
 21
-211.88527112
 31
0.0
  0
LINE
  5
437
100
AcDbEntity
  8
LAYER0001
  6
CONTINUOUS
 62
       7
100
AcDbLine
 10
113.54297987
 20
-211.88527112
 30
0.0
 11
113.41051609
 21
-211.83997917
 31
0.0
  0
LINE
  5
438
100
AcDbEntity
  8
LAYER0001
  6
CONTINUOUS
 62
       7
100
AcDbLine
 10
113.41051609
 20
-211.83997917
 30
0.0
 11
113.27771301
 21
-211.79905511
 31
0.0
  0
LINE
  5
439
100
AcDbEntity
  8
LAYER0001
  6
CONTINUOUS
 62
       7
100
AcDbLine
 10
113.27771301
 20
-211.79905511
 30
0.0
 11
113.14457514
 21
-211.76244078
 31
0.0
  0
LINE
  5
43A
100
AcDbEntity
  8
LAYER0001
  6
CONTINUOUS
 62
       7
100
AcDbLine
 10
113.14457514
 20
-211.76244078
 30
0.0
 11
113.01112989
 21
-211.72978342
 31
0.0
  0
LINE
  5
43B
100
AcDbEntity
  8
LAYER0001
  6
CONTINUOUS
 62
       7
100
AcDbLine
 10
113.01112989
 20
-211.72978342
 30
0.0
 11
112.87740519
 21
-211.70072331
 31
0.0
  0
LINE
  5
43C
100
AcDbEntity
  8
LAYER0001
  6
CONTINUOUS
 62
       7
100
AcDbLine
 10
112.87740519
 20
-211.70072331
 30
0.0
 11
112.743429
 21
-211.67490073
 31
0.0
  0
LINE
  5
43D
100
AcDbEntity
  8
LAYER0001
  6
CONTINUOUS
 62
       7
100
AcDbLine
 10
112.743429
 20
-211.67490073
 30
0.0
 11
112.60922926
 21
-211.65195595
 31
0.0
  0
LINE
  5
43E
100
AcDbEntity
  8
LAYER0001
  6
CONTINUOUS
 62
       7
100
AcDbLine
 10
112.60922926
 20
-211.65195595
 30
0.0
 11
112.4748339
 21
-211.63152924
 31
0.0
  0
LINE
  5
43F
100
AcDbEntity
  8
LAYER0001
  6
CONTINUOUS
 62
       7
100
AcDbLine
 10
112.4748339
 20
-211.63152924
 30
0.0
 11
112.34027089
 21
-211.61326089
 31
0.0
  0
LINE
  5
440
100
AcDbEntity
  8
LAYER0001
  6
CONTINUOUS
 62
       7
100
AcDbLine
 10
112.34027089
 20
-211.61326089
 30
0.0
 11
112.20556815
 21
-211.59679116
 31
0.0
  0
LINE
  5
441
100
AcDbEntity
  8
LAYER0001
  6
CONTINUOUS
 62
       7
100
AcDbLine
 10
112.20556815
 20
-211.59679116
 30
0.0
 11
112.07075364
 21
-211.58176033
 31
0.0
  0
LINE
  5
442
100
AcDbEntity
  8
LAYER0001
  6
CONTINUOUS
 62
       7
100
AcDbLine
 10
112.07075364
 20
-211.58176033
 30
0.0
 11
111.93585529
 21
-211.56780868
 31
0.0
  0
LINE
  5
443
100
AcDbEntity
  8
LAYER0001
  6
CONTINUOUS
 62
       7
100
AcDbLine
 10
111.93585529
 20
-211.56780868
 30
0.0
 11
111.80090106
 21
-211.55457648
 31
0.0
  0
LINE
  5
444
100
AcDbEntity
  8
LAYER0001
  6
CONTINUOUS
 62
       7
100
AcDbLine
 10
111.80090106
 20
-211.55457648
 30
0.0
 11
111.66591888
 21
-211.541704
 31
0.0
  0
ENDBLK
  5
445
100
AcDbEntity
  8
0
100
AcDbBlockEnd
  0
BLOCK
  5
446
100
AcDbEntity
  8
0
100
AcDbBlockBegin
  2
GROUP_36
 70
       0
 10
0.0
 20
0.0
 30
0.0
  3
GROUP_36
  1

  0
LINE
  5
447
100
AcDbEntity
  8
LAYER0001
  6
CONTINUOUS
 62
       7
100
AcDbLine
 10
111.66591888
 20
-219.04169685
 30
0.0
 11
111.77818804
 21
-219.03973693
 31
0.0
  0
LINE
  5
448
100
AcDbEntity
  8
LAYER0001
  6
CONTINUOUS
 62
       7
100
AcDbLine
 10
111.77818804
 20
-219.03973693
 30
0.0
 11
111.89046237
 21
-219.03654206
 31
0.0
  0
LINE
  5
449
100
AcDbEntity
  8
LAYER0001
  6
CONTINUOUS
 62
       7
100
AcDbLine
 10
111.89046237
 20
-219.03654206
 30
0.0
 11
112.00274408
 21
-219.03102716
 31
0.0
  0
LINE
  5
44A
100
AcDbEntity
  8
LAYER0001
  6
CONTINUOUS
 62
       7
100
AcDbLine
 10
112.00274408
 20
-219.03102716
 30
0.0
 11
112.11501919
 21
-219.02292492
 31
0.0
  0
LINE
  5
44B
100
AcDbEntity
  8
LAYER0001
  6
CONTINUOUS
 62
       7
100
AcDbLine
 10
112.11501919
 20
-219.02292492
 30
0.0
 11
112.22726827
 21
-219.01224563
 31
0.0
  0
LINE
  5
44C
100
AcDbEntity
  8
LAYER0001
  6
CONTINUOUS
 62
       7
100
AcDbLine
 10
112.22726827
 20
-219.01224563
 30
0.0
 11
112.33947184
 21
-218.99899982
 31
0.0
  0
LINE
  5
44D
100
AcDbEntity
  8
LAYER0001
  6
CONTINUOUS
 62
       7
100
AcDbLine
 10
112.33947184
 20
-218.99899982
 30
0.0
 11
112.45161045
 21
-218.983198
 31
0.0
  0
LINE
  5
44E
100
AcDbEntity
  8
LAYER0001
  6
CONTINUOUS
 62
       7
100
AcDbLine
 10
112.45161045
 20
-218.983198
 30
0.0
 11
112.56366464
 21
-218.96485068
 31
0.0
  0
LINE
  5
44F
100
AcDbEntity
  8
LAYER0001
  6
CONTINUOUS
 62
       7
100
AcDbLine
 10
112.56366464
 20
-218.96485068
 30
0.0
 11
112.67561495
 21
-218.94396838
 31
0.0
  0
LINE
  5
450
100
AcDbEntity
  8
LAYER0001
  6
CONTINUOUS
 62
       7
100
AcDbLine
 10
112.67561495
 20
-218.94396838
 30
0.0
 11
112.78744193
 21
-218.92056162
 31
0.0
  0
LINE
  5
451
100
AcDbEntity
  8
LAYER0001
  6
CONTINUOUS
 62
       7
100
AcDbLine
 10
112.78744193
 20
-218.92056162
 30
0.0
 11
112.89912612
 21
-218.89464092
 31
0.0
  0
LINE
  5
452
100
AcDbEntity
  8
LAYER0001
  6
CONTINUOUS
 62
       7
100
AcDbLine
 10
112.89912612
 20
-218.89464092
 30
0.0
 11
113.01064805
 21
-218.86621679
 31
0.0
  0
LINE
  5
453
100
AcDbEntity
  8
LAYER0001
  6
CONTINUOUS
 62
       7
100
AcDbLine
 10
113.01064805
 20
-218.86621679
 30
0.0
 11
113.12198827
 21
-218.83529975
 31
0.0
  0
LINE
  5
454
100
AcDbEntity
  8
LAYER0001
  6
CONTINUOUS
 62
       7
100
AcDbLine
 10
113.12198827
 20
-218.83529975
 30
0.0
 11
113.23312732
 21
-218.80190032
 31
0.0
  0
LINE
  5
455
100
AcDbEntity
  8
LAYER0001
  6
CONTINUOUS
 62
       7
100
AcDbLine
 10
113.23312732
 20
-218.80190032
 30
0.0
 11
113.34404574
 21
-218.76602901
 31
0.0
  0
LINE
  5
456
100
AcDbEntity
  8
LAYER0001
  6
CONTINUOUS
 62
       7
100
AcDbLine
 10
113.34404574
 20
-218.76602901
 30
0.0
 11
113.45472408
 21
-218.72769635
 31
0.0
  0
LINE
  5
457
100
AcDbEntity
  8
LAYER0001
  6
CONTINUOUS
 62
       7
100
AcDbLine
 10
113.45472408
 20
-218.72769635
 30
0.0
 11
113.56515072
 21
-218.68694684
 31
0.0
  0
LINE
  5
458
100
AcDbEntity
  8
LAYER0001
  6
CONTINUOUS
 62
       7
100
AcDbLine
 10
113.56515072
 20
-218.68694684
 30
0.0
 11
113.67533903
 21
-218.64393314
 31
0.0
  0
LINE
  5
459
100
AcDbEntity
  8
LAYER0001
  6
CONTINUOUS
 62
       7
100
AcDbLine
 10
113.67533903
 20
-218.64393314
 30
0.0
 11
113.78530735
 21
-218.59882944
 31
0.0
  0
LINE
  5
45A
100
AcDbEntity
  8
LAYER0001
  6
CONTINUOUS
 62
       7
100
AcDbLine
 10
113.78530735
 20
-218.59882944
 30
0.0
 11
113.89507401
 21
-218.55180989
 31
0.0
  0
LINE
  5
45B
100
AcDbEntity
  8
LAYER0001
  6
CONTINUOUS
 62
       7
100
AcDbLine
 10
113.89507401
 20
-218.55180989
 30
0.0
 11
114.00465734
 21
-218.50304866
 31
0.0
  0
LINE
  5
45C
100
AcDbEntity
  8
LAYER0001
  6
CONTINUOUS
 62
       7
100
AcDbLine
 10
114.00465734
 20
-218.50304866
 30
0.0
 11
114.11407568
 21
-218.45271992
 31
0.0
  0
LINE
  5
45D
100
AcDbEntity
  8
LAYER0001
  6
CONTINUOUS
 62
       7
100
AcDbLine
 10
114.11407568
 20
-218.45271992
 30
0.0
 11
114.22334735
 21
-218.40099784
 31
0.0
  0
LINE
  5
45E
100
AcDbEntity
  8
LAYER0001
  6
CONTINUOUS
 62
       7
100
AcDbLine
 10
114.22334735
 20
-218.40099784
 30
0.0
 11
114.33249069
 21
-218.34805659
 31
0.0
  0
LINE
  5
45F
100
AcDbEntity
  8
LAYER0001
  6
CONTINUOUS
 62
       7
100
AcDbLine
 10
114.33249069
 20
-218.34805659
 30
0.0
 11
114.44152404
 21
-218.29407033
 31
0.0
  0
LINE
  5
460
100
AcDbEntity
  8
LAYER0001
  6
CONTINUOUS
 62
       7
100
AcDbLine
 10
114.44152404
 20
-218.29407033
 30
0.0
 11
114.55046572
 21
-218.23921323
 31
0.0
  0
LINE
  5
461
100
AcDbEntity
  8
LAYER0001
  6
CONTINUOUS
 62
       7
100
AcDbLine
 10
114.55046572
 20
-218.23921323
 30
0.0
 11
114.65933407
 21
-218.18365946
 31
0.0
  0
LINE
  5
462
100
AcDbEntity
  8
LAYER0001
  6
CONTINUOUS
 62
       7
100
AcDbLine
 10
114.65933407
 20
-218.18365946
 30
0.0
 11
114.76814742
 21
-218.12758319
 31
0.0
  0
LINE
  5
463
100
AcDbEntity
  8
LAYER0001
  6
CONTINUOUS
 62
       7
100
AcDbLine
 10
114.76814742
 20
-218.12758319
 30
0.0
 11
114.87692411
 21
-218.07115858
 31
0.0
  0
LINE
  5
464
100
AcDbEntity
  8
LAYER0001
  6
CONTINUOUS
 62
       7
100
AcDbLine
 10
114.87692411
 20
-218.07115858
 30
0.0
 11
114.98568246
 21
-218.01455981
 31
0.0
  0
ENDBLK
  5
465
100
AcDbEntity
  8
0
100
AcDbBlockEnd
  0
ENDSEC
  0
SECTION
  2
ENTITIES
  0
LINE
  5
466
100
AcDbEntity
  8
LAYER0001
  6
CENTER
 62
       7
100
AcDbLine
 10
-169.73725374
 20
270.39543349
 30
0.0
 11
-169.73725374
 21
-229.90727454
 31
0.0
  0
LINE
  5
467
100
AcDbEntity
  8
LAYER0001
  6
CENTER
 62
       7
100
AcDbLine
 10
101.70662628
 20
277.64170533
 30
0.0
 11
101.70662628
 21
-277.64170152
 31
0.0
  0
LINE
  5
468
100
AcDbEntity
  8
LAYER0001
  6
CENTER
 62
       7
100
AcDbLine
 10
-311.86026858
 20
270.39543349
 30
0.0
 11
-311.86026858
 21
-229.90727454
 31
0.0
  0
LINE
  5
469
100
AcDbEntity
  8
LAYER0001
  6
CENTER
 62
       7
100
AcDbLine
 10
262.60264184
 20
276.56258054
 30
0.0
 11
262.60264184
 21
-261.64351584
 31
0.0
  0
LINE
  5
46A
100
AcDbEntity
  8
LAYER0001
  6
CONTINUOUS
 62
       7
100
AcDbLine
 10
-303.21026837
 20
-171.8879717
 30
0.0
 11
-303.21026837
 21
47.6120261
 31
0.0
  0
LINE
  5
46B
100
AcDbEntity
  8
LAYER0001
  6
CONTINUOUS
 62
       7
100
AcDbLine
 10
-320.51026879
 20
47.6120261
 30
0.0
 11
-320.51026879
 21
-171.8879717
 31
0.0
  0
LINE
  5
46C
100
AcDbEntity
  8
LAYER0001
  6
CONTINUOUS
 62
       7
100
AcDbLine
 10
-264.86550422
 20
-224.58801442
 30
0.0
 11
-264.97720705
 21
-218.18850213
 31
0.0
  0
LINE
  5
46D
100
AcDbEntity
  8
LAYER0001
  6
CONTINUOUS
 62
       7
100
AcDbLine
 10
-358.74333011
 20
-218.18850213
 30
0.0
 11
-358.85503294
 21
-224.58801442
 31
0.0
  0
LINE
  5
46E
100
AcDbEntity
  8
LAYER0001
  6
CONTINUOUS
 62
       7
100
AcDbLine
 10
-358.85503294
 20
-224.58801442
 30
0.0
 11
-358.56536927
 21
-224.8879748
 31
0.0
  0
LINE
  5
46F
100
AcDbEntity
  8
LAYER0001
  6
CONTINUOUS
 62
       7
100
AcDbLine
 10
-265.1551679
 20
-224.8879748
 30
0.0
 11
-264.86550422
 21
-224.58801442
 31
0.0
  0
LINE
  5
470
100
AcDbEntity
  8
LAYER0001
  6
CONTINUOUS
 62
       7
100
AcDbLine
 10
-266.80259143
 20
-216.23102197
 30
0.0
 11
-287.51121545
 21
-214.41925278
 31
0.0
  0
LINE
  5
471
100
AcDbEntity
  8
LAYER0001
  6
CONTINUOUS
 62
       7
100
AcDbLine
 10
-336.20932171
 20
-214.41925278
 30
0.0
 11
-356.91794573
 21
-216.23102197
 31
0.0
  0
LINE
  5
472
100
AcDbEntity
  8
LAYER0001
  6
CONTINUOUS
 62
       7
100
AcDbLine
 10
-296.62595374
 20
-204.98067909
 30
0.0
 11
-298.27730881
 21
-173.47093695
 31
0.0
  0
LINE
  5
473
100
AcDbEntity
  8
LAYER0001
  6
CONTINUOUS
 62
       7
100
AcDbLine
 10
-325.44322835
 20
-173.47093695
 30
0.0
 11
-327.09458342
 21
-204.98067909
 31
0.0
  0
LINE
  5
474
100
AcDbEntity
  8
LAYER0001
  6
CONTINUOUS
 62
       7
100
AcDbLine
 10
-298.27730881
 20
-173.47093695
 30
0.0
 11
-299.86026848
 21
-171.8879717
 31
0.0
  0
LINE
  5
475
100
AcDbEntity
  8
LAYER0001
  6
CONTINUOUS
 62
       7
100
AcDbLine
 10
-323.86026869
 20
-171.8879717
 30
0.0
 11
-325.44322835
 21
-173.47093695
 31
0.0
  0
LINE
  5
476
100
AcDbEntity
  8
LAYER0001
  6
CONTINUOUS
 62
       7
100
AcDbLine
 10
-194.73725408
 20
262.46644169
 30
0.0
 11
-194.73725497
 21
254.9120258
 31
0.0
  0
LINE
  5
477
100
AcDbEntity
  8
LAYER0001
  6
CONTINUOUS
 62
       7
100
AcDbLine
 10
-151.34199729
 20
69.61202663
 30
0.0
 11
-188.1325102
 21
69.61202663
 31
0.0
  0
LINE
  5
478
100
AcDbEntity
  8
LAYER0001
  6
CONTINUOUS
 62
       7
100
AcDbLine
 10
-331.86026813
 20
71.21676989
 30
0.0
 11
-330.25552504
 21
69.61202663
 31
0.0
  0
LINE
  5
479
100
AcDbEntity
  8
LAYER0001
  6
CONTINUOUS
 62
       7
100
AcDbLine
 10
-293.46501213
 20
69.61202663
 30
0.0
 11
-291.86026903
 21
71.21676989
 31
0.0
  0
LINE
  5
47A
100
AcDbEntity
  8
LAYER0001
  6
CONTINUOUS
 62
       7
100
AcDbLine
 10
-324.52741935
 20
66.71672512
 30
0.0
 11
-323.87712004
 21
48.09457599
 31
0.0
  0
LINE
  5
47B
100
AcDbEntity
  8
LAYER0001
  6
CONTINUOUS
 62
       7
100
AcDbLine
 10
-299.84341759
 20
48.09457599
 30
0.0
 11
-299.19311827
 21
66.71672512
 31
0.0
  0
LINE
  5
47C
100
AcDbEntity
  8
LAYER0001
  6
CONTINUOUS
 62
       7
100
AcDbLine
 10
-336.86026901
 20
125.61202566
 30
0.0
 11
-286.86026889
 21
125.61202566
 31
0.0
  0
LINE
  5
47D
100
AcDbEntity
  8
LAYER0001
  6
CONTINUOUS
 62
       7
100
AcDbLine
 10
-336.86026901
 20
221.6120265
 30
0.0
 11
-286.86026889
 21
221.6120265
 31
0.0
  0
LINE
  5
47E
100
AcDbEntity
  8
LAYER0001
  6
CONTINUOUS
 62
       7
100
AcDbLine
 10
-336.86026933
 20
126.91203153
 30
0.0
 11
-286.86026858
 21
126.91203153
 31
0.0
  0
LINE
  5
47F
100
AcDbEntity
  8
LAYER0001
  6
CONTINUOUS
 62
       7
100
AcDbLine
 10
-336.86026933
 20
94.91202629
 30
0.0
 11
-286.86026858
 21
94.91202629
 31
0.0
  0
LINE
  5
480
100
AcDbEntity
  8
LAYER0001
  6
CONTINUOUS
 62
       7
100
AcDbLine
 10
-286.86026898
 20
254.91202272
 30
0.0
 11
-311.86026943
 21
254.91202426
 31
0.0
  0
LINE
  5
481
100
AcDbEntity
  8
LAYER0001
  6
CONTINUOUS
 62
       7
100
AcDbLine
 10
-336.86026901
 20
125.61202566
 30
0.0
 11
-336.86026933
 21
94.91202629
 31
0.0
  0
LINE
  5
482
100
AcDbEntity
  8
LAYER0001
  6
CONTINUOUS
 62
       7
100
AcDbLine
 10
-286.86026858
 20
94.91202629
 30
0.0
 11
-286.86026889
 21
125.61202566
 31
0.0
  0
LINE
  5
483
100
AcDbEntity
  8
LAYER0001
  6
CONTINUOUS
 62
       7
100
AcDbLine
 10
-336.86026996
 20
253.61201684
 30
0.0
 11
-286.86026907
 21
253.61200918
 31
0.0
  0
LINE
  5
484
100
AcDbEntity
  8
LAYER0001
  6
CONTINUOUS
 62
       7
100
AcDbLine
 10
-336.86026901
 20
157.61203091
 30
0.0
 11
-286.86026889
 21
157.61203091
 31
0.0
  0
LINE
  5
485
100
AcDbEntity
  8
LAYER0001
  6
CONTINUOUS
 62
       7
100
AcDbLine
 10
-286.86026939
 20
222.91203237
 30
0.0
 11
-286.86026907
 21
253.61200918
 31
0.0
  0
LINE
  5
486
100
AcDbEntity
  8
LAYER0001
  6
CONTINUOUS
 62
       7
100
AcDbLine
 10
-286.86026858
 20
126.91203153
 30
0.0
 11
-286.86026889
 21
157.61203091
 31
0.0
  0
LINE
  5
487
100
AcDbEntity
  8
LAYER0001
  6
CONTINUOUS
 62
       7
100
AcDbLine
 10
-336.86026996
 20
253.61201684
 30
0.0
 11
-336.86027354
 21
222.91203237
 31
0.0
  0
LINE
  5
488
100
AcDbEntity
  8
LAYER0001
  6
CONTINUOUS
 62
       7
100
AcDbLine
 10
-336.86026933
 20
190.91202712
 30
0.0
 11
-286.86026858
 21
190.91202712
 31
0.0
  0
LINE
  5
489
100
AcDbEntity
  8
LAYER0001
  6
CONTINUOUS
 62
       7
100
AcDbLine
 10
-336.86026933
 20
158.91203678
 30
0.0
 11
-286.86026858
 21
158.91203678
 31
0.0
  0
LINE
  5
48A
100
AcDbEntity
  8
LAYER0001
  6
CONTINUOUS
 62
       7
100
AcDbLine
 10
-336.86026892
 20
262.46644169
 30
0.0
 11
-336.86026981
 21
254.9120258
 31
0.0
  0
LINE
  5
48B
100
AcDbEntity
  8
LAYER0001
  6
CONTINUOUS
 62
       7
100
AcDbLine
 10
-311.86026895
 20
265.19707239
 30
0.0
 11
-319.88773795
 21
265.19707498
 31
0.0
  0
LINE
  5
48C
100
AcDbEntity
  8
LAYER0001
  6
CONTINUOUS
 62
       7
100
AcDbLine
 10
-286.86026898
 20
254.91202272
 30
0.0
 11
-286.86026898
 21
262.46644156
 31
0.0
  0
LINE
  5
48D
100
AcDbEntity
  8
LAYER0001
  6
CONTINUOUS
 62
       7
100
AcDbLine
 10
-286.86026858
 20
190.91202712
 30
0.0
 11
-286.86026889
 21
221.6120265
 31
0.0
  0
LINE
  5
48E
100
AcDbEntity
  8
LAYER0001
  6
CONTINUOUS
 62
       7
100
AcDbLine
 10
-286.86026858
 20
158.91203678
 30
0.0
 11
-286.86026889
 21
189.61203615
 31
0.0
  0
LINE
  5
48F
100
AcDbEntity
  8
LAYER0001
  6
CONTINUOUS
 62
       7
100
AcDbLine
 10
-336.86026901
 20
189.61203615
 30
0.0
 11
-286.86026889
 21
189.61203615
 31
0.0
  0
LINE
  5
490
100
AcDbEntity
  8
LAYER0001
  6
CONTINUOUS
 62
       7
100
AcDbLine
 10
-286.86026858
 20
93.61202663
 30
0.0
 11
-336.86026933
 21
93.61202663
 31
0.0
  0
LINE
  5
491
100
AcDbEntity
  8
LAYER0001
  6
CONTINUOUS
 62
       7
100
AcDbLine
 10
-303.83279996
 20
265.19707498
 30
0.0
 11
-311.86026895
 21
265.19707239
 31
0.0
  0
LINE
  5
492
100
AcDbEntity
  8
LAYER0001
  6
CONTINUOUS
 62
       7
100
AcDbLine
 10
-336.86027354
 20
222.91203237
 30
0.0
 11
-286.86026939
 21
222.91203237
 31
0.0
  0
LINE
  5
493
100
AcDbEntity
  8
LAYER0001
  6
CONTINUOUS
 62
       7
100
AcDbLine
 10
-336.86026901
 20
189.61203615
 30
0.0
 11
-336.86026933
 21
158.91203678
 31
0.0
  0
LINE
  5
494
100
AcDbEntity
  8
LAYER0001
  6
CONTINUOUS
 62
       7
100
AcDbLine
 10
-311.86026943
 20
254.91202426
 30
0.0
 11
-336.86026981
 21
254.9120258
 31
0.0
  0
LINE
  5
495
100
AcDbEntity
  8
LAYER0001
  6
CONTINUOUS
 62
       7
100
AcDbLine
 10
-336.86026901
 20
221.6120265
 30
0.0
 11
-336.86026933
 21
190.91202712
 31
0.0
  0
LINE
  5
496
100
AcDbEntity
  8
LAYER0001
  6
CONTINUOUS
 62
       7
100
AcDbLine
 10
-336.86026901
 20
157.61203091
 30
0.0
 11
-336.86026933
 21
126.91203153
 31
0.0
  0
LINE
  5
497
100
AcDbEntity
  8
LAYER0001
  6
CONTINUOUS
 62
       7
100
AcDbLine
 10
-189.73725329
 20
71.21676989
 30
0.0
 11
-188.1325102
 21
69.61202663
 31
0.0
  0
LINE
  5
498
100
AcDbEntity
  8
LAYER0001
  6
CONTINUOUS
 62
       7
100
AcDbLine
 10
-144.73725374
 20
94.91202629
 30
0.0
 11
-144.73725405
 21
125.61202566
 31
0.0
  0
LINE
  5
499
100
AcDbEntity
  8
LAYER0001
  6
CONTINUOUS
 62
       7
100
AcDbLine
 10
-194.73725417
 20
189.61203615
 30
0.0
 11
-144.73725405
 21
189.61203615
 31
0.0
  0
LINE
  5
49A
100
AcDbEntity
  8
LAYER0001
  6
CONTINUOUS
 62
       7
100
AcDbLine
 10
-194.73725512
 20
253.61201684
 30
0.0
 11
-194.7372587
 21
222.91203237
 31
0.0
  0
LINE
  5
49B
100
AcDbEntity
  8
LAYER0001
  6
CONTINUOUS
 62
       7
100
AcDbLine
 10
-144.73725374
 20
91.26384631
 30
0.0
 11
-144.73725374
 21
93.61202663
 31
0.0
  0
LINE
  5
49C
100
AcDbEntity
  8
LAYER0001
  6
CONTINUOUS
 62
       7
100
AcDbLine
 10
-194.73725449
 20
94.91202629
 30
0.0
 11
-144.73725374
 21
94.91202629
 31
0.0
  0
LINE
  5
49D
100
AcDbEntity
  8
LAYER0001
  6
CONTINUOUS
 62
       7
100
AcDbLine
 10
-169.73725459
 20
254.91202426
 30
0.0
 11
-194.73725497
 21
254.9120258
 31
0.0
  0
LINE
  5
49E
100
AcDbEntity
  8
LAYER0001
  6
CONTINUOUS
 62
       7
100
AcDbLine
 10
-144.73725414
 20
254.91202272
 30
0.0
 11
-144.73725414
 21
262.46644156
 31
0.0
  0
LINE
  5
49F
100
AcDbEntity
  8
LAYER0001
  6
CONTINUOUS
 62
       7
100
AcDbLine
 10
-158.22009836
 20
47.6120264
 30
0.0
 11
-169.73725397
 21
47.61202586
 31
0.0
  0
LINE
  5
4A0
100
AcDbEntity
  8
LAYER0001
  6
CONTINUOUS
 62
       7
100
AcDbLine
 10
-182.40440451
 20
66.71672512
 30
0.0
 11
-181.7541052
 21
48.09457599
 31
0.0
  0
LINE
  5
4A1
100
AcDbEntity
  8
LAYER0001
  6
CONTINUOUS
 62
       7
100
AcDbLine
 10
-194.73725417
 20
157.61203091
 30
0.0
 11
-144.73725405
 21
157.61203091
 31
0.0
  0
LINE
  5
4A2
100
AcDbEntity
  8
LAYER0001
  6
CONTINUOUS
 62
       7
100
AcDbLine
 10
-161.70978512
 20
265.19707498
 30
0.0
 11
-169.73725411
 21
265.19707239
 31
0.0
  0
LINE
  5
4A3
100
AcDbEntity
  8
LAYER0001
  6
CONTINUOUS
 62
       7
100
AcDbLine
 10
-194.73725417
 20
125.61202566
 30
0.0
 11
-144.73725405
 21
125.61202566
 31
0.0
  0
LINE
  5
4A4
100
AcDbEntity
  8
LAYER0001
  6
CONTINUOUS
 62
       7
100
AcDbLine
 10
-194.73725449
 20
158.91203678
 30
0.0
 11
-144.73725374
 21
158.91203678
 31
0.0
  0
LINE
  5
4A5
100
AcDbEntity
  8
LAYER0001
  6
CONTINUOUS
 62
       7
100
AcDbLine
 10
-189.73725374
 20
79.43168675
 30
0.0
 11
-189.73725329
 21
71.21676989
 31
0.0
  0
LINE
  5
4A6
100
AcDbEntity
  8
LAYER0001
  6
CONTINUOUS
 62
       7
100
AcDbLine
 10
-194.73725417
 20
125.61202566
 30
0.0
 11
-194.73725449
 21
94.91202629
 31
0.0
  0
LINE
  5
4A7
100
AcDbEntity
  8
LAYER0001
  6
CONTINUOUS
 62
       7
100
AcDbLine
 10
-194.73725417
 20
157.61203091
 30
0.0
 11
-194.73725449
 21
126.91203153
 31
0.0
  0
LINE
  5
4A8
100
AcDbEntity
  8
LAYER0001
  6
CONTINUOUS
 62
       7
100
AcDbLine
 10
-144.73725374
 20
158.91203678
 30
0.0
 11
-144.73725405
 21
189.61203615
 31
0.0
  0
LINE
  5
4A9
100
AcDbEntity
  8
LAYER0001
  6
CONTINUOUS
 62
       7
100
AcDbLine
 10
-149.73725419
 20
73.61202663
 30
0.0
 11
-169.73725374
 21
73.61202663
 31
0.0
  0
LINE
  5
4AA
100
AcDbEntity
  8
LAYER0001
  6
CONTINUOUS
 62
       7
100
AcDbLine
 10
-144.73725374
 20
126.91203153
 30
0.0
 11
-144.73725405
 21
157.61203091
 31
0.0
  0
LINE
  5
4AB
100
AcDbEntity
  8
LAYER0001
  6
CONTINUOUS
 62
       7
100
AcDbLine
 10
-194.73725417
 20
189.61203615
 30
0.0
 11
-194.73725449
 21
158.91203678
 31
0.0
  0
LINE
  5
4AC
100
AcDbEntity
  8
LAYER0001
  6
CONTINUOUS
 62
       7
100
AcDbLine
 10
-194.73725449
 20
126.91203153
 30
0.0
 11
-144.73725374
 21
126.91203153
 31
0.0
  0
LINE
  5
4AD
100
AcDbEntity
  8
LAYER0001
  6
CONTINUOUS
 62
       7
100
AcDbLine
 10
-169.73725411
 20
265.19707239
 30
0.0
 11
-177.76472311
 21
265.19707498
 31
0.0
  0
LINE
  5
4AE
100
AcDbEntity
  8
LAYER0001
  6
CONTINUOUS
 62
       7
100
AcDbLine
 10
-151.34199729
 20
69.61202663
 30
0.0
 11
-149.73725419
 21
71.21676989
 31
0.0
  0
LINE
  5
4AF
100
AcDbEntity
  8
LAYER0001
  6
CONTINUOUS
 62
       7
100
AcDbLine
 10
-194.73725512
 20
253.61201684
 30
0.0
 11
-144.73725423
 21
253.61200918
 31
0.0
  0
LINE
  5
4B0
100
AcDbEntity
  8
LAYER0001
  6
CONTINUOUS
 62
       7
100
AcDbLine
 10
-169.73725397
 20
47.61202586
 30
0.0
 11
-181.25440958
 21
47.6120264
 31
0.0
  0
LINE
  5
4B1
100
AcDbEntity
  8
LAYER0001
  6
CONTINUOUS
 62
       7
100
AcDbLine
 10
-157.72040275
 20
48.09457599
 30
0.0
 11
-157.07010343
 21
66.71672512
 31
0.0
  0
LINE
  5
4B2
100
AcDbEntity
  8
LAYER0001
  6
CONTINUOUS
 62
       7
100
AcDbLine
 10
-144.73725374
 20
93.61202663
 30
0.0
 11
-194.73725449
 21
93.61202663
 31
0.0
  0
LINE
  5
4B3
100
AcDbEntity
  8
LAYER0001
  6
CONTINUOUS
 62
       7
100
AcDbLine
 10
-194.73725449
 20
93.61202663
 30
0.0
 11
-194.73725374
 21
91.26384631
 31
0.0
  0
LINE
  5
4B4
100
AcDbEntity
  8
LAYER0001
  6
CONTINUOUS
 62
       7
100
AcDbLine
 10
-194.73725449
 20
190.91202712
 30
0.0
 11
-144.73725374
 21
190.91202712
 31
0.0
  0
LINE
  5
4B5
100
AcDbEntity
  8
LAYER0001
  6
CONTINUOUS
 62
       7
100
AcDbLine
 10
-194.73725417
 20
221.6120265
 30
0.0
 11
-194.73725449
 21
190.91202712
 31
0.0
  0
LINE
  5
4B6
100
AcDbEntity
  8
LAYER0001
  6
CONTINUOUS
 62
       7
100
AcDbLine
 10
-149.73725374
 20
79.43168675
 30
0.0
 11
-149.73725419
 21
71.21676989
 31
0.0
  0
LINE
  5
4B7
100
AcDbEntity
  8
LAYER0001
  6
CONTINUOUS
 62
       7
100
AcDbLine
 10
-144.73725414
 20
254.91202272
 30
0.0
 11
-169.73725459
 21
254.91202426
 31
0.0
  0
LINE
  5
4B8
100
AcDbEntity
  8
LAYER0001
  6
CONTINUOUS
 62
       7
100
AcDbLine
 10
-144.73725374
 20
190.91202712
 30
0.0
 11
-144.73725405
 21
221.6120265
 31
0.0
  0
LINE
  5
4B9
100
AcDbEntity
  8
LAYER0001
  6
CONTINUOUS
 62
       7
100
AcDbLine
 10
-144.73725455
 20
222.91203237
 30
0.0
 11
-144.73725423
 21
253.61200918
 31
0.0
  0
LINE
  5
4BA
100
AcDbEntity
  8
LAYER0001
  6
CONTINUOUS
 62
       7
100
AcDbLine
 10
-169.73725374
 20
73.61202663
 30
0.0
 11
-189.73725329
 21
73.61202663
 31
0.0
  0
LINE
  5
4BB
100
AcDbEntity
  8
LAYER0001
  6
CONTINUOUS
 62
       7
100
AcDbLine
 10
-194.73725417
 20
221.6120265
 30
0.0
 11
-144.73725405
 21
221.6120265
 31
0.0
  0
LINE
  5
4BC
100
AcDbEntity
  8
LAYER0001
  6
CONTINUOUS
 62
       7
100
AcDbLine
 10
-194.7372587
 20
222.91203237
 30
0.0
 11
-144.73725455
 21
222.91203237
 31
0.0
  0
LINE
  5
4BD
100
AcDbEntity
  8
LAYER0001
  6
CONTINUOUS
 62
       7
100
AcDbLine
 10
76.70662594
 20
269.71271353
 30
0.0
 11
76.70662506
 21
262.15829765
 31
0.0
  0
LINE
  5
4BE
100
AcDbEntity
  8
LAYER0001
  6
CONTINUOUS
 62
       7
100
AcDbLine
 10
120.10188274
 20
76.85829848
 30
0.0
 11
83.31136983
 21
76.85829848
 31
0.0
  0
LINE
  5
4BF
100
AcDbEntity
  8
LAYER0001
  6
CONTINUOUS
 62
       7
100
AcDbLine
 10
81.70662673
 20
78.46304174
 30
0.0
 11
83.31136983
 21
76.85829848
 31
0.0
  0
LINE
  5
4C0
100
AcDbEntity
  8
LAYER0001
  6
CONTINUOUS
 62
       7
100
AcDbLine
 10
126.70662628
 20
102.15829813
 30
0.0
 11
126.70662597
 21
132.85829751
 31
0.0
  0
LINE
  5
4C1
100
AcDbEntity
  8
LAYER0001
  6
CONTINUOUS
 62
       7
100
AcDbLine
 10
76.70662585
 20
196.858308
 30
0.0
 11
126.70662597
 21
196.858308
 31
0.0
  0
LINE
  5
4C2
100
AcDbEntity
  8
LAYER0001
  6
CONTINUOUS
 62
       7
100
AcDbLine
 10
76.70662491
 20
260.85828869
 30
0.0
 11
76.70662132
 21
230.15830421
 31
0.0
  0
LINE
  5
4C3
100
AcDbEntity
  8
LAYER0001
  6
CONTINUOUS
 62
       7
100
AcDbLine
 10
126.70662628
 20
98.51011816
 30
0.0
 11
126.70662628
 21
100.85829848
 31
0.0
  0
LINE
  5
4C4
100
AcDbEntity
  8
LAYER0001
  6
CONTINUOUS
 62
       7
100
AcDbLine
 10
76.70662554
 20
102.15829813
 30
0.0
 11
126.70662628
 21
102.15829813
 31
0.0
  0
LINE
  5
4C5
100
AcDbEntity
  8
LAYER0001
  6
CONTINUOUS
 62
       7
100
AcDbLine
 10
101.70662543
 20
262.15829611
 30
0.0
 11
76.70662506
 21
262.15829765
 31
0.0
  0
LINE
  5
4C6
100
AcDbEntity
  8
LAYER0001
  6
CONTINUOUS
 62
       7
100
AcDbLine
 10
126.70662588
 20
262.15829457
 30
0.0
 11
126.70662588
 21
269.7127134
 31
0.0
  0
LINE
  5
4C7
100
AcDbEntity
  8
LAYER0001
  6
CONTINUOUS
 62
       7
100
AcDbLine
 10
113.22378167
 20
54.85829824
 30
0.0
 11
101.70662606
 21
54.85829771
 31
0.0
  0
LINE
  5
4C8
100
AcDbEntity
  8
LAYER0001
  6
CONTINUOUS
 62
       7
100
AcDbLine
 10
89.03947551
 20
73.96299697
 30
0.0
 11
89.68977483
 21
55.34084783
 31
0.0
  0
LINE
  5
4C9
100
AcDbEntity
  8
LAYER0001
  6
CONTINUOUS
 62
       7
100
AcDbLine
 10
76.70662585
 20
164.85830275
 30
0.0
 11
126.70662597
 21
164.85830275
 31
0.0
  0
LINE
  5
4CA
100
AcDbEntity
  8
LAYER0001
  6
CONTINUOUS
 62
       7
100
AcDbLine
 10
109.73409491
 20
272.44334683
 30
0.0
 11
101.70662591
 21
272.44334424
 31
0.0
  0
LINE
  5
4CB
100
AcDbEntity
  8
LAYER0001
  6
CONTINUOUS
 62
       7
100
AcDbLine
 10
76.70662585
 20
132.85829751
 30
0.0
 11
126.70662597
 21
132.85829751
 31
0.0
  0
LINE
  5
4CC
100
AcDbEntity
  8
LAYER0001
  6
CONTINUOUS
 62
       7
100
AcDbLine
 10
76.70662554
 20
166.15830862
 30
0.0
 11
126.70662628
 21
166.15830862
 31
0.0
  0
LINE
  5
4CD
100
AcDbEntity
  8
LAYER0001
  6
CONTINUOUS
 62
       7
100
AcDbLine
 10
81.70662628
 20
86.67795859
 30
0.0
 11
81.70662673
 21
78.46304174
 31
0.0
  0
LINE
  5
4CE
100
AcDbEntity
  8
LAYER0001
  6
CONTINUOUS
 62
       7
100
AcDbLine
 10
76.70662585
 20
132.85829751
 30
0.0
 11
76.70662554
 21
102.15829813
 31
0.0
  0
LINE
  5
4CF
100
AcDbEntity
  8
LAYER0001
  6
CONTINUOUS
 62
       7
100
AcDbLine
 10
76.70662585
 20
164.85830275
 30
0.0
 11
76.70662554
 21
134.15830338
 31
0.0
  0
LINE
  5
4D0
100
AcDbEntity
  8
LAYER0001
  6
CONTINUOUS
 62
       7
100
AcDbLine
 10
126.70662628
 20
166.15830862
 30
0.0
 11
126.70662597
 21
196.858308
 31
0.0
  0
LINE
  5
4D1
100
AcDbEntity
  8
LAYER0001
  6
CONTINUOUS
 62
       7
100
AcDbLine
 10
121.70662584
 20
80.85829848
 30
0.0
 11
101.70662628
 21
80.85829848
 31
0.0
  0
LINE
  5
4D2
100
AcDbEntity
  8
LAYER0001
  6
CONTINUOUS
 62
       7
100
AcDbLine
 10
126.70662628
 20
134.15830338
 30
0.0
 11
126.70662597
 21
164.85830275
 31
0.0
  0
LINE
  5
4D3
100
AcDbEntity
  8
LAYER0001
  6
CONTINUOUS
 62
       7
100
AcDbLine
 10
76.70662585
 20
196.858308
 30
0.0
 11
76.70662554
 21
166.15830862
 31
0.0
  0
LINE
  5
4D4
100
AcDbEntity
  8
LAYER0001
  6
CONTINUOUS
 62
       7
100
AcDbLine
 10
76.70662554
 20
134.15830338
 30
0.0
 11
126.70662628
 21
134.15830338
 31
0.0
  0
LINE
  5
4D5
100
AcDbEntity
  8
LAYER0001
  6
CONTINUOUS
 62
       7
100
AcDbLine
 10
101.70662591
 20
272.44334424
 30
0.0
 11
93.67915692
 21
272.44334683
 31
0.0
  0
LINE
  5
4D6
100
AcDbEntity
  8
LAYER0001
  6
CONTINUOUS
 62
       7
100
AcDbLine
 10
120.10188274
 20
76.85829848
 30
0.0
 11
121.70662584
 21
78.46304174
 31
0.0
  0
LINE
  5
4D7
100
AcDbEntity
  8
LAYER0001
  6
CONTINUOUS
 62
       7
100
AcDbLine
 10
76.70662491
 20
260.85828869
 30
0.0
 11
126.70662579
 21
260.85828103
 31
0.0
  0
LINE
  5
4D8
100
AcDbEntity
  8
LAYER0001
  6
CONTINUOUS
 62
       7
100
AcDbLine
 10
101.70662606
 20
54.85829771
 30
0.0
 11
90.18947044
 21
54.85829824
 31
0.0
  0
LINE
  5
4D9
100
AcDbEntity
  8
LAYER0001
  6
CONTINUOUS
 62
       7
100
AcDbLine
 10
113.72347728
 20
55.34084783
 30
0.0
 11
114.3737766
 21
73.96299697
 31
0.0
  0
LINE
  5
4DA
100
AcDbEntity
  8
LAYER0001
  6
CONTINUOUS
 62
       7
100
AcDbLine
 10
126.70662628
 20
100.85829848
 30
0.0
 11
76.70662554
 21
100.85829848
 31
0.0
  0
LINE
  5
4DB
100
AcDbEntity
  8
LAYER0001
  6
CONTINUOUS
 62
       7
100
AcDbLine
 10
76.70662554
 20
100.85829848
 30
0.0
 11
76.70662628
 21
98.51011816
 31
0.0
  0
LINE
  5
4DC
100
AcDbEntity
  8
LAYER0001
  6
CONTINUOUS
 62
       7
100
AcDbLine
 10
76.70662554
 20
198.15829897
 30
0.0
 11
126.70662628
 21
198.15829897
 31
0.0
  0
LINE
  5
4DD
100
AcDbEntity
  8
LAYER0001
  6
CONTINUOUS
 62
       7
100
AcDbLine
 10
76.70662585
 20
228.85829834
 30
0.0
 11
76.70662554
 21
198.15829897
 31
0.0
  0
LINE
  5
4DE
100
AcDbEntity
  8
LAYER0001
  6
CONTINUOUS
 62
       7
100
AcDbLine
 10
121.70662628
 20
86.67795859
 30
0.0
 11
121.70662584
 21
78.46304174
 31
0.0
  0
LINE
  5
4DF
100
AcDbEntity
  8
LAYER0001
  6
CONTINUOUS
 62
       7
100
AcDbLine
 10
126.70662588
 20
262.15829457
 30
0.0
 11
101.70662543
 21
262.15829611
 31
0.0
  0
LINE
  5
4E0
100
AcDbEntity
  8
LAYER0001
  6
CONTINUOUS
 62
       7
100
AcDbLine
 10
126.70662628
 20
198.15829897
 30
0.0
 11
126.70662597
 21
228.85829834
 31
0.0
  0
LINE
  5
4E1
100
AcDbEntity
  8
LAYER0001
  6
CONTINUOUS
 62
       7
100
AcDbLine
 10
126.70662548
 20
230.15830421
 30
0.0
 11
126.70662579
 21
260.85828103
 31
0.0
  0
LINE
  5
4E2
100
AcDbEntity
  8
LAYER0001
  6
CONTINUOUS
 62
       7
100
AcDbLine
 10
101.70662628
 20
80.85829848
 30
0.0
 11
81.70662673
 21
80.85829848
 31
0.0
  0
LINE
  5
4E3
100
AcDbEntity
  8
LAYER0001
  6
CONTINUOUS
 62
       7
100
AcDbLine
 10
76.70662585
 20
228.85829834
 30
0.0
 11
126.70662597
 21
228.85829834
 31
0.0
  0
LINE
  5
4E4
100
AcDbEntity
  8
LAYER0001
  6
CONTINUOUS
 62
       7
100
AcDbLine
 10
76.70662132
 20
230.15830421
 30
0.0
 11
126.70662548
 21
230.15830421
 31
0.0
  0
LINE
  5
4E5
100
AcDbEntity
  8
LAYER0001
  6
CONTINUOUS
 62
       7
100
AcDbLine
 10
237.6026415
 20
269.71271353
 30
0.0
 11
237.60264061
 21
262.15829765
 31
0.0
  0
LINE
  5
4E6
100
AcDbEntity
  8
LAYER0001
  6
CONTINUOUS
 62
       7
100
AcDbLine
 10
280.99789829
 20
76.85829848
 30
0.0
 11
244.20738538
 21
76.85829848
 31
0.0
  0
LINE
  5
4E7
100
AcDbEntity
  8
LAYER0001
  6
CONTINUOUS
 62
       7
100
AcDbLine
 10
242.60264229
 20
78.46304174
 30
0.0
 11
244.20738538
 21
76.85829848
 31
0.0
  0
LINE
  5
4E8
100
AcDbEntity
  8
LAYER0001
  6
CONTINUOUS
 62
       7
100
AcDbLine
 10
287.60264184
 20
102.15829813
 30
0.0
 11
287.60264153
 21
132.85829751
 31
0.0
  0
LINE
  5
4E9
100
AcDbEntity
  8
LAYER0001
  6
CONTINUOUS
 62
       7
100
AcDbLine
 10
-311.86026858
 20
-224.58801442
 30
0.0
 11
-264.86550422
 21
-224.58801442
 31
0.0
  0
LINE
  5
4EA
100
AcDbEntity
  8
LAYER0001
  6
CONTINUOUS
 62
       7
100
AcDbLine
 10
-358.85503294
 20
-224.58801442
 30
0.0
 11
-311.86026858
 21
-224.58801442
 31
0.0
  0
LINE
  5
4EB
100
AcDbEntity
  8
LAYER0001
  6
CONTINUOUS
 62
       7
100
AcDbLine
 10
-265.1551679
 20
-224.8879748
 30
0.0
 11
-358.56536927
 21
-224.8879748
 31
0.0
  0
LINE
  5
4EC
100
AcDbEntity
  8
LAYER0001
  6
CONTINUOUS
 62
       7
100
AcDbLine
 10
237.60264141
 20
196.858308
 30
0.0
 11
287.60264153
 21
196.858308
 31
0.0
  0
LINE
  5
4ED
100
AcDbEntity
  8
LAYER0001
  6
CONTINUOUS
 62
       7
100
AcDbLine
 10
237.60264046
 20
260.85828869
 30
0.0
 11
237.60263688
 21
230.15830421
 31
0.0
  0
LINE
  5
4EE
100
AcDbEntity
  8
LAYER0001
  6
CONTINUOUS
 62
       7
100
AcDbLine
 10
287.60264184
 20
98.51011816
 30
0.0
 11
287.60264184
 21
100.85829848
 31
0.0
  0
LINE
  5
4EF
100
AcDbEntity
  8
LAYER0001
  6
CONTINUOUS
 62
       7
100
AcDbLine
 10
237.60264109
 20
102.15829813
 30
0.0
 11
287.60264184
 21
102.15829813
 31
0.0
  0
LINE
  5
4F0
100
AcDbEntity
  8
LAYER0001
  6
CONTINUOUS
 62
       7
100
AcDbLine
 10
262.60264099
 20
262.15829611
 30
0.0
 11
237.60264061
 21
262.15829765
 31
0.0
  0
LINE
  5
4F1
100
AcDbEntity
  8
LAYER0001
  6
CONTINUOUS
 62
       7
100
AcDbLine
 10
287.60264144
 20
262.15829457
 30
0.0
 11
287.60264144
 21
269.7127134
 31
0.0
  0
LINE
  5
4F2
100
AcDbEntity
  8
LAYER0001
  6
CONTINUOUS
 62
       7
100
AcDbLine
 10
274.11979722
 20
54.85829824
 30
0.0
 11
262.60264161
 21
54.85829771
 31
0.0
  0
LINE
  5
4F3
100
AcDbEntity
  8
LAYER0001
  6
CONTINUOUS
 62
       7
100
AcDbLine
 10
249.93549107
 20
73.96299697
 30
0.0
 11
250.58579038
 21
55.34084783
 31
0.0
  0
LINE
  5
4F4
100
AcDbEntity
  8
LAYER0001
  6
CONTINUOUS
 62
       7
100
AcDbLine
 10
237.60264141
 20
164.85830275
 30
0.0
 11
287.60264153
 21
164.85830275
 31
0.0
  0
LINE
  5
4F5
100
AcDbEntity
  8
LAYER0001
  6
CONTINUOUS
 62
       7
100
AcDbLine
 10
270.63011046
 20
272.44334683
 30
0.0
 11
262.60264147
 21
272.44334424
 31
0.0
  0
LINE
  5
4F6
100
AcDbEntity
  8
LAYER0001
  6
CONTINUOUS
 62
       7
100
AcDbLine
 10
237.60264141
 20
132.85829751
 30
0.0
 11
287.60264153
 21
132.85829751
 31
0.0
  0
LINE
  5
4F7
100
AcDbEntity
  8
LAYER0001
  6
CONTINUOUS
 62
       7
100
AcDbLine
 10
237.60264109
 20
166.15830862
 30
0.0
 11
287.60264184
 21
166.15830862
 31
0.0
  0
LINE
  5
4F8
100
AcDbEntity
  8
LAYER0001
  6
CONTINUOUS
 62
       7
100
AcDbLine
 10
242.60264184
 20
86.67795859
 30
0.0
 11
242.60264229
 21
78.46304174
 31
0.0
  0
LINE
  5
4F9
100
AcDbEntity
  8
LAYER0001
  6
CONTINUOUS
 62
       7
100
AcDbLine
 10
237.60264141
 20
132.85829751
 30
0.0
 11
237.60264109
 21
102.15829813
 31
0.0
  0
LINE
  5
4FA
100
AcDbEntity
  8
LAYER0001
  6
CONTINUOUS
 62
       7
100
AcDbLine
 10
237.60264141
 20
164.85830275
 30
0.0
 11
237.60264109
 21
134.15830338
 31
0.0
  0
LINE
  5
4FB
100
AcDbEntity
  8
LAYER0001
  6
CONTINUOUS
 62
       7
100
AcDbLine
 10
287.60264184
 20
166.15830862
 30
0.0
 11
287.60264153
 21
196.858308
 31
0.0
  0
LINE
  5
4FC
100
AcDbEntity
  8
LAYER0001
  6
CONTINUOUS
 62
       7
100
AcDbLine
 10
282.60264139
 20
80.85829848
 30
0.0
 11
262.60264184
 21
80.85829848
 31
0.0
  0
LINE
  5
4FD
100
AcDbEntity
  8
LAYER0001
  6
CONTINUOUS
 62
       7
100
AcDbLine
 10
287.60264184
 20
134.15830338
 30
0.0
 11
287.60264153
 21
164.85830275
 31
0.0
  0
LINE
  5
4FE
100
AcDbEntity
  8
LAYER0001
  6
CONTINUOUS
 62
       7
100
AcDbLine
 10
237.60264141
 20
196.858308
 30
0.0
 11
237.60264109
 21
166.15830862
 31
0.0
  0
LINE
  5
4FF
100
AcDbEntity
  8
LAYER0001
  6
CONTINUOUS
 62
       7
100
AcDbLine
 10
-311.86026858
 20
-171.8879717
 30
0.0
 11
-299.86026848
 21
-171.8879717
 31
0.0
  0
LINE
  5
500
100
AcDbEntity
  8
LAYER0001
  6
CONTINUOUS
 62
       7
100
AcDbLine
 10
-323.86026869
 20
-171.8879717
 30
0.0
 11
-311.86026858
 21
-171.8879717
 31
0.0
  0
LINE
  5
501
100
AcDbEntity
  8
LAYER0001
  6
CONTINUOUS
 62
       7
100
AcDbLine
 10
237.60264109
 20
134.15830338
 30
0.0
 11
287.60264184
 21
134.15830338
 31
0.0
  0
LINE
  5
502
100
AcDbEntity
  8
LAYER0001
  6
CONTINUOUS
 62
       7
100
AcDbLine
 10
262.60264147
 20
272.44334424
 30
0.0
 11
254.57517247
 21
272.44334683
 31
0.0
  0
LINE
  5
503
100
AcDbEntity
  8
LAYER0001
  6
CONTINUOUS
 62
       7
100
AcDbLine
 10
280.99789829
 20
76.85829848
 30
0.0
 11
282.60264139
 21
78.46304174
 31
0.0
  0
LINE
  5
504
100
AcDbEntity
  8
LAYER0001
  6
CONTINUOUS
 62
       7
100
AcDbLine
 10
237.60264046
 20
260.85828869
 30
0.0
 11
287.60264135
 21
260.85828103
 31
0.0
  0
LINE
  5
505
100
AcDbEntity
  8
LAYER0001
  6
CONTINUOUS
 62
       7
100
AcDbLine
 10
262.60264161
 20
54.85829771
 30
0.0
 11
251.085486
 21
54.85829824
 31
0.0
  0
LINE
  5
506
100
AcDbEntity
  8
LAYER0001
  6
CONTINUOUS
 62
       7
100
AcDbLine
 10
274.61949283
 20
55.34084783
 30
0.0
 11
275.26979215
 21
73.96299697
 31
0.0
  0
LINE
  5
507
100
AcDbEntity
  8
LAYER0001
  6
CONTINUOUS
 62
       7
100
AcDbLine
 10
287.60264184
 20
100.85829848
 30
0.0
 11
237.60264109
 21
100.85829848
 31
0.0
  0
LINE
  5
508
100
AcDbEntity
  8
LAYER0001
  6
CONTINUOUS
 62
       7
100
AcDbLine
 10
237.60264109
 20
100.85829848
 30
0.0
 11
237.60264184
 21
98.51011816
 31
0.0
  0
LINE
  5
509
100
AcDbEntity
  8
LAYER0001
  6
CONTINUOUS
 62
       7
100
AcDbLine
 10
237.60264109
 20
198.15829897
 30
0.0
 11
287.60264184
 21
198.15829897
 31
0.0
  0
LINE
  5
50A
100
AcDbEntity
  8
LAYER0001
  6
CONTINUOUS
 62
       7
100
AcDbLine
 10
237.60264141
 20
228.85829834
 30
0.0
 11
237.60264109
 21
198.15829897
 31
0.0
  0
LINE
  5
50B
100
AcDbEntity
  8
LAYER0001
  6
CONTINUOUS
 62
       7
100
AcDbLine
 10
282.60264184
 20
86.67795859
 30
0.0
 11
282.60264139
 21
78.46304174
 31
0.0
  0
LINE
  5
50C
100
AcDbEntity
  8
LAYER0001
  6
CONTINUOUS
 62
       7
100
AcDbLine
 10
287.60264144
 20
262.15829457
 30
0.0
 11
262.60264099
 21
262.15829611
 31
0.0
  0
LINE
  5
50D
100
AcDbEntity
  8
LAYER0001
  6
CONTINUOUS
 62
       7
100
AcDbLine
 10
287.60264184
 20
198.15829897
 30
0.0
 11
287.60264153
 21
228.85829834
 31
0.0
  0
LINE
  5
50E
100
AcDbEntity
  8
LAYER0001
  6
CONTINUOUS
 62
       7
100
AcDbLine
 10
287.60264103
 20
230.15830421
 30
0.0
 11
287.60264135
 21
260.85828103
 31
0.0
  0
LINE
  5
50F
100
AcDbEntity
  8
LAYER0001
  6
CONTINUOUS
 62
       7
100
AcDbLine
 10
262.60264184
 20
80.85829848
 30
0.0
 11
242.60264229
 21
80.85829848
 31
0.0
  0
LINE
  5
510
100
AcDbEntity
  8
LAYER0001
  6
CONTINUOUS
 62
       7
100
AcDbLine
 10
-293.46501213
 20
69.61202663
 30
0.0
 11
-330.25552504
 21
69.61202663
 31
0.0
  0
LINE
  5
511
100
AcDbEntity
  8
LAYER0001
  6
CONTINUOUS
 62
       7
100
AcDbLine
 10
-311.86026881
 20
47.61202586
 30
0.0
 11
-323.37742442
 21
47.6120264
 31
0.0
  0
LINE
  5
512
100
AcDbEntity
  8
LAYER0001
  6
CONTINUOUS
 62
       7
100
AcDbLine
 10
-300.3431132
 20
47.6120264
 30
0.0
 11
-311.86026881
 21
47.61202586
 31
0.0
  0
LINE
  5
513
100
AcDbEntity
  8
LAYER0001
  6
CONTINUOUS
 62
       7
100
AcDbLine
 10
-311.86026858
 20
73.61202663
 30
0.0
 11
-331.86026813
 21
73.61202663
 31
0.0
  0
LINE
  5
514
100
AcDbEntity
  8
LAYER0001
  6
CONTINUOUS
 62
       7
100
AcDbLine
 10
-291.86026903
 20
73.61202663
 30
0.0
 11
-311.86026858
 21
73.61202663
 31
0.0
  0
LINE
  5
515
100
AcDbEntity
  8
LAYER0001
  6
CONTINUOUS
 62
       7
100
AcDbLine
 10
276.60264227
 20
-220.64169413
 30
0.0
 11
276.60264227
 21
-219.04169685
 31
0.0
  0
LINE
  5
516
100
AcDbEntity
  8
LAYER0001
  6
CONTINUOUS
 62
       7
100
AcDbLine
 10
248.60264141
 20
-219.04169685
 30
0.0
 11
248.60264141
 21
-220.64169413
 31
0.0
  0
LINE
  5
517
100
AcDbEntity
  8
LAYER0001
  6
CONTINUOUS
 62
       7
100
AcDbLine
 10
276.60264227
 20
-225.24171239
 30
0.0
 11
276.60264227
 21
-223.64171511
 31
0.0
  0
LINE
  5
518
100
AcDbEntity
  8
LAYER0001
  6
CONTINUOUS
 62
       7
100
AcDbLine
 10
248.60264141
 20
-223.64171511
 30
0.0
 11
248.60264141
 21
-225.24171239
 31
0.0
  0
LINE
  5
519
100
AcDbEntity
  8
LAYER0001
  6
CONTINUOUS
 62
       7
100
AcDbLine
 10
271.25264205
 20
-206.141702
 30
0.0
 11
271.25264205
 21
54.85829794
 31
0.0
  0
LINE
  5
51A
100
AcDbEntity
  8
LAYER0001
  6
CONTINUOUS
 62
       7
100
AcDbLine
 10
253.95264163
 20
54.85829794
 30
0.0
 11
253.95264163
 21
-206.141702
 31
0.0
  0
LINE
  5
51B
100
AcDbEntity
  8
LAYER0001
  6
CONTINUOUS
 62
       7
100
AcDbLine
 10
253.95264163
 20
-206.141702
 30
0.0
 11
254.92844836
 21
-207.11751944
 31
0.0
  0
LINE
  5
51C
100
AcDbEntity
  8
LAYER0001
  6
CONTINUOUS
 62
       7
100
AcDbLine
 10
270.27683531
 20
-207.11751944
 30
0.0
 11
271.25264205
 21
-206.141702
 31
0.0
  0
LINE
  5
51D
100
AcDbEntity
  8
LAYER0001
  6
CONTINUOUS
 62
       7
100
AcDbLine
 10
271.1026423
 20
-210.89171535
 30
0.0
 11
270.3026418
 21
-210.1417101
 31
0.0
  0
LINE
  5
51E
100
AcDbEntity
  8
LAYER0001
  6
CONTINUOUS
 62
       7
100
AcDbLine
 10
254.90264188
 20
-210.1417101
 30
0.0
 11
254.10264138
 21
-210.89171535
 31
0.0
  0
LINE
  5
51F
100
AcDbEntity
  8
LAYER0001
  6
CONTINUOUS
 62
       7
100
AcDbLine
 10
271.10264234
 20
-233.39169389
 30
0.0
 11
270.40930854
 21
-232.74170524
 31
0.0
  0
LINE
  5
520
100
AcDbEntity
  8
LAYER0001
  6
CONTINUOUS
 62
       7
100
AcDbLine
 10
254.79597518
 20
-232.74170524
 30
0.0
 11
254.10264138
 21
-233.39169389
 31
0.0
  0
LINE
  5
521
100
AcDbEntity
  8
LAYER0001
  6
CONTINUOUS
 62
       7
100
AcDbLine
 10
254.10264138
 20
-239.39170605
 30
0.0
 11
254.90264188
 21
-240.1417113
 31
0.0
  0
LINE
  5
522
100
AcDbEntity
  8
LAYER0001
  6
CONTINUOUS
 62
       7
100
AcDbLine
 10
270.30264184
 20
-240.14171129
 30
0.0
 11
271.10264234
 21
-239.39170605
 31
0.0
  0
LINE
  5
523
100
AcDbEntity
  8
LAYER0001
  6
CONTINUOUS
 62
       7
100
AcDbLine
 10
254.10264138
 20
-234.89170438
 30
0.0
 11
254.90264188
 21
-235.64170963
 31
0.0
  0
LINE
  5
524
100
AcDbEntity
  8
LAYER0001
  6
CONTINUOUS
 62
       7
100
AcDbLine
 10
270.30264184
 20
-235.64170963
 30
0.0
 11
271.10264234
 21
-234.89170438
 31
0.0
  0
LINE
  5
525
100
AcDbEntity
  8
LAYER0001
  6
CONTINUOUS
 62
       7
100
AcDbLine
 10
271.10264234
 20
-236.39171487
 30
0.0
 11
270.30264184
 21
-235.64170963
 31
0.0
  0
LINE
  5
526
100
AcDbEntity
  8
LAYER0001
  6
CONTINUOUS
 62
       7
100
AcDbLine
 10
254.90264188
 20
-235.64170963
 30
0.0
 11
254.10264138
 21
-236.39171487
 31
0.0
  0
LINE
  5
527
100
AcDbEntity
  8
LAYER0001
  6
CONTINUOUS
 62
       7
100
AcDbLine
 10
254.10264138
 20
-236.39171487
 30
0.0
 11
254.90264188
 21
-237.14169031
 31
0.0
  0
LINE
  5
528
100
AcDbEntity
  8
LAYER0001
  6
CONTINUOUS
 62
       7
100
AcDbLine
 10
270.30264184
 20
-237.14169031
 30
0.0
 11
271.10264234
 21
-236.39171487
 31
0.0
  0
LINE
  5
529
100
AcDbEntity
  8
LAYER0001
  6
CONTINUOUS
 62
       7
100
AcDbLine
 10
254.10264138
 20
-243.89170772
 30
0.0
 11
254.90264188
 21
-244.64171296
 31
0.0
  0
LINE
  5
52A
100
AcDbEntity
  8
LAYER0001
  6
CONTINUOUS
 62
       7
100
AcDbLine
 10
270.30264184
 20
-244.64171296
 30
0.0
 11
271.10264234
 21
-243.89170772
 31
0.0
  0
LINE
  5
52B
100
AcDbEntity
  8
LAYER0001
  6
CONTINUOUS
 62
       7
100
AcDbLine
 10
254.10264138
 20
-233.39169389
 30
0.0
 11
254.90264188
 21
-234.14169914
 31
0.0
  0
LINE
  5
52C
100
AcDbEntity
  8
LAYER0001
  6
CONTINUOUS
 62
       7
100
AcDbLine
 10
270.30264184
 20
-234.14169914
 30
0.0
 11
271.10264234
 21
-233.39169389
 31
0.0
  0
LINE
  5
52D
100
AcDbEntity
  8
LAYER0001
  6
CONTINUOUS
 62
       7
100
AcDbLine
 10
271.10264234
 20
-234.89170438
 30
0.0
 11
270.30264184
 21
-234.14169914
 31
0.0
  0
LINE
  5
52E
100
AcDbEntity
  8
LAYER0001
  6
CONTINUOUS
 62
       7
100
AcDbLine
 10
254.90264188
 20
-234.14169914
 30
0.0
 11
254.10264138
 21
-234.89170438
 31
0.0
  0
LINE
  5
52F
100
AcDbEntity
  8
LAYER0001
  6
CONTINUOUS
 62
       7
100
AcDbLine
 10
271.10264234
 20
-237.89169556
 30
0.0
 11
270.30264184
 21
-237.14169031
 31
0.0
  0
LINE
  5
530
100
AcDbEntity
  8
LAYER0001
  6
CONTINUOUS
 62
       7
100
AcDbLine
 10
254.90264188
 20
-237.14169031
 30
0.0
 11
254.10264138
 21
-237.89169556
 31
0.0
  0
LINE
  5
531
100
AcDbEntity
  8
LAYER0001
  6
CONTINUOUS
 62
       7
100
AcDbLine
 10
271.10264234
 20
-239.39170605
 30
0.0
 11
270.30264184
 21
-238.6417008
 31
0.0
  0
LINE
  5
532
100
AcDbEntity
  8
LAYER0001
  6
CONTINUOUS
 62
       7
100
AcDbLine
 10
254.90264188
 20
-238.6417008
 30
0.0
 11
254.10264138
 21
-239.39170605
 31
0.0
  0
LINE
  5
533
100
AcDbEntity
  8
LAYER0001
  6
CONTINUOUS
 62
       7
100
AcDbLine
 10
271.1026423
 20
-207.89169437
 30
0.0
 11
270.27683531
 21
-207.11751944
 31
0.0
  0
LINE
  5
534
100
AcDbEntity
  8
LAYER0001
  6
CONTINUOUS
 62
       7
100
AcDbLine
 10
254.92844836
 20
-207.11751944
 30
0.0
 11
254.10264138
 21
-207.89169437
 31
0.0
  0
LINE
  5
535
100
AcDbEntity
  8
LAYER0001
  6
CONTINUOUS
 62
       7
100
AcDbLine
 10
271.10264234
 20
-240.89168674
 30
0.0
 11
270.30264184
 21
-240.14171129
 31
0.0
  0
LINE
  5
536
100
AcDbEntity
  8
LAYER0001
  6
CONTINUOUS
 62
       7
100
AcDbLine
 10
254.90264188
 20
-240.1417113
 30
0.0
 11
254.10264138
 21
-240.89168674
 31
0.0
  0
LINE
  5
537
100
AcDbEntity
  8
LAYER0001
  6
CONTINUOUS
 62
       7
100
AcDbLine
 10
271.10264234
 20
-243.89170772
 30
0.0
 11
270.30264184
 21
-243.14170247
 31
0.0
  0
LINE
  5
538
100
AcDbEntity
  8
LAYER0001
  6
CONTINUOUS
 62
       7
100
AcDbLine
 10
254.90264188
 20
-243.14170247
 30
0.0
 11
254.10264138
 21
-243.89170772
 31
0.0
  0
LINE
  5
539
100
AcDbEntity
  8
LAYER0001
  6
CONTINUOUS
 62
       7
100
AcDbLine
 10
254.10264138
 20
-240.89168674
 30
0.0
 11
254.90264188
 21
-241.64169198
 31
0.0
  0
LINE
  5
53A
100
AcDbEntity
  8
LAYER0001
  6
CONTINUOUS
 62
       7
100
AcDbLine
 10
270.30264184
 20
-241.64169198
 30
0.0
 11
271.10264234
 21
-240.89168674
 31
0.0
  0
LINE
  5
53B
100
AcDbEntity
  8
LAYER0001
  6
CONTINUOUS
 62
       7
100
AcDbLine
 10
254.10264138
 20
-210.89171535
 30
0.0
 11
254.79597518
 21
-211.541704
 31
0.0
  0
LINE
  5
53C
100
AcDbEntity
  8
LAYER0001
  6
CONTINUOUS
 62
       7
100
AcDbLine
 10
270.4093085
 20
-211.541704
 30
0.0
 11
271.1026423
 21
-210.89171535
 31
0.0
  0
LINE
  5
53D
100
AcDbEntity
  8
LAYER0001
  6
CONTINUOUS
 62
       7
100
AcDbLine
 10
271.10264234
 20
-242.39169723
 30
0.0
 11
270.30264184
 21
-241.64169198
 31
0.0
  0
LINE
  5
53E
100
AcDbEntity
  8
LAYER0001
  6
CONTINUOUS
 62
       7
100
AcDbLine
 10
254.90264188
 20
-241.64169198
 30
0.0
 11
254.10264138
 21
-242.39169723
 31
0.0
  0
LINE
  5
53F
100
AcDbEntity
  8
LAYER0001
  6
CONTINUOUS
 62
       7
100
AcDbLine
 10
271.10264234
 20
-246.8916989
 30
0.0
 11
270.30264184
 21
-246.14169365
 31
0.0
  0
LINE
  5
540
100
AcDbEntity
  8
LAYER0001
  6
CONTINUOUS
 62
       7
100
AcDbLine
 10
254.90264188
 20
-246.14169365
 30
0.0
 11
254.10264138
 21
-246.8916989
 31
0.0
  0
LINE
  5
541
100
AcDbEntity
  8
LAYER0001
  6
CONTINUOUS
 62
       7
100
AcDbLine
 10
254.10264138
 20
-209.39170486
 30
0.0
 11
254.90264188
 21
-210.1417101
 31
0.0
  0
LINE
  5
542
100
AcDbEntity
  8
LAYER0001
  6
CONTINUOUS
 62
       7
100
AcDbLine
 10
270.3026418
 20
-210.1417101
 30
0.0
 11
271.1026423
 21
-209.39170486
 31
0.0
  0
LINE
  5
543
100
AcDbEntity
  8
LAYER0001
  6
CONTINUOUS
 62
       7
100
AcDbLine
 10
254.10264138
 20
-237.89169556
 30
0.0
 11
254.90264188
 21
-238.6417008
 31
0.0
  0
LINE
  5
544
100
AcDbEntity
  8
LAYER0001
  6
CONTINUOUS
 62
       7
100
AcDbLine
 10
270.30264184
 20
-238.6417008
 30
0.0
 11
271.10264234
 21
-237.89169556
 31
0.0
  0
LINE
  5
545
100
AcDbEntity
  8
LAYER0001
  6
CONTINUOUS
 62
       7
100
AcDbLine
 10
271.1026423
 20
-209.39170486
 30
0.0
 11
270.3026418
 21
-208.64169961
 31
0.0
  0
LINE
  5
546
100
AcDbEntity
  8
LAYER0001
  6
CONTINUOUS
 62
       7
100
AcDbLine
 10
254.90264188
 20
-208.64169961
 30
0.0
 11
254.10264138
 21
-209.39170486
 31
0.0
  0
LINE
  5
547
100
AcDbEntity
  8
LAYER0001
  6
CONTINUOUS
 62
       7
100
AcDbLine
 10
254.10264138
 20
-207.89169437
 30
0.0
 11
254.90264188
 21
-208.64169961
 31
0.0
  0
LINE
  5
548
100
AcDbEntity
  8
LAYER0001
  6
CONTINUOUS
 62
       7
100
AcDbLine
 10
270.3026418
 20
-208.64169961
 30
0.0
 11
271.1026423
 21
-207.89169437
 31
0.0
  0
LINE
  5
549
100
AcDbEntity
  8
LAYER0001
  6
CONTINUOUS
 62
       7
100
AcDbLine
 10
254.10264138
 20
-248.39170939
 30
0.0
 11
254.90264188
 21
-249.14171463
 31
0.0
  0
LINE
  5
54A
100
AcDbEntity
  8
LAYER0001
  6
CONTINUOUS
 62
       7
100
AcDbLine
 10
270.30264184
 20
-249.14171463
 30
0.0
 11
271.10264234
 21
-248.39170939
 31
0.0
  0
LINE
  5
54B
100
AcDbEntity
  8
LAYER0001
  6
CONTINUOUS
 62
       7
100
AcDbLine
 10
254.10264138
 20
-246.8916989
 30
0.0
 11
254.90264188
 21
-247.64170414
 31
0.0
  0
LINE
  5
54C
100
AcDbEntity
  8
LAYER0001
  6
CONTINUOUS
 62
       7
100
AcDbLine
 10
270.30264184
 20
-247.64170414
 30
0.0
 11
271.10264234
 21
-246.8916989
 31
0.0
  0
LINE
  5
54D
100
AcDbEntity
  8
LAYER0001
  6
CONTINUOUS
 62
       7
100
AcDbLine
 10
271.10264234
 20
-245.39168841
 30
0.0
 11
270.30264184
 21
-244.64171296
 31
0.0
  0
LINE
  5
54E
100
AcDbEntity
  8
LAYER0001
  6
CONTINUOUS
 62
       7
100
AcDbLine
 10
254.90264188
 20
-244.64171296
 30
0.0
 11
254.10264138
 21
-245.39168841
 31
0.0
  0
LINE
  5
54F
100
AcDbEntity
  8
LAYER0001
  6
CONTINUOUS
 62
       7
100
AcDbLine
 10
271.10264234
 20
-248.39170939
 30
0.0
 11
270.30264184
 21
-247.64170414
 31
0.0
  0
LINE
  5
550
100
AcDbEntity
  8
LAYER0001
  6
CONTINUOUS
 62
       7
100
AcDbLine
 10
254.90264188
 20
-247.64170414
 30
0.0
 11
254.10264138
 21
-248.39170939
 31
0.0
  0
LINE
  5
551
100
AcDbEntity
  8
LAYER0001
  6
CONTINUOUS
 62
       7
100
AcDbLine
 10
254.10264138
 20
-242.39169723
 30
0.0
 11
254.90264188
 21
-243.14170247
 31
0.0
  0
LINE
  5
552
100
AcDbEntity
  8
LAYER0001
  6
CONTINUOUS
 62
       7
100
AcDbLine
 10
270.30264184
 20
-243.14170247
 30
0.0
 11
271.10264234
 21
-242.39169723
 31
0.0
  0
LINE
  5
553
100
AcDbEntity
  8
LAYER0001
  6
CONTINUOUS
 62
       7
100
AcDbLine
 10
254.10264138
 20
-245.39168841
 30
0.0
 11
254.90264188
 21
-246.14169365
 31
0.0
  0
LINE
  5
554
100
AcDbEntity
  8
LAYER0001
  6
CONTINUOUS
 62
       7
100
AcDbLine
 10
270.30264184
 20
-246.14169365
 30
0.0
 11
271.10264234
 21
-245.39168841
 31
0.0
  0
LINE
  5
555
100
AcDbEntity
  8
LAYER0001
  6
CONTINUOUS
 62
       7
100
AcDbLine
 10
270.30264184
 20
-250.14170176
 30
0.0
 11
270.30264184
 21
-249.14171463
 31
0.0
  0
LINE
  5
556
100
AcDbEntity
  8
LAYER0001
  6
CONTINUOUS
 62
       7
100
AcDbLine
 10
254.90264188
 20
-249.14171463
 30
0.0
 11
254.90264188
 21
-250.14170176
 31
0.0
  0
LINE
  5
557
100
AcDbEntity
  8
LAYER0001
  6
CONTINUOUS
 62
       7
100
AcDbLine
 10
255.652642
 20
-250.64169532
 30
0.0
 11
255.73788456
 21
-250.87591177
 31
0.0
  0
LINE
  5
558
100
AcDbEntity
  8
LAYER0001
  6
CONTINUOUS
 62
       7
100
AcDbLine
 10
269.46739912
 20
-250.87591177
 30
0.0
 11
269.55264167
 21
-250.64169532
 31
0.0
  0
LINE
  5
559
100
AcDbEntity
  8
LAYER0001
  6
CONTINUOUS
 62
       7
100
AcDbLine
 10
277.10264512
 20
-223.64171881
 30
0.0
 11
277.10264512
 21
-220.64169782
 31
0.0
  0
LINE
  5
55A
100
AcDbEntity
  8
LAYER0001
  6
CONTINUOUS
 62
       7
100
AcDbLine
 10
232.60264251
 20
-277.64170533
 30
0.0
 11
235.60264483
 21
-277.64170533
 31
0.0
  0
LINE
  5
55B
100
AcDbEntity
  8
LAYER0001
  6
CONTINUOUS
 62
       7
100
AcDbLine
 10
268.35264185
 20
-232.74170524
 30
0.0
 11
256.85264183
 21
-232.74170524
 31
0.0
  0
LINE
  5
55C
100
AcDbEntity
  8
LAYER0001
  6
CONTINUOUS
 62
       7
100
AcDbLine
 10
274.10264186
 20
-226.26884943
 30
0.0
 11
274.10264186
 21
-231.7145682
 31
0.0
  0
LINE
  5
55D
100
AcDbEntity
  8
LAYER0001
  6
CONTINUOUS
 62
       7
100
AcDbLine
 10
262.60264184
 20
-226.26884943
 30
0.0
 11
262.60264184
 21
-231.7145682
 31
0.0
  0
LINE
  5
55E
100
AcDbEntity
  8
LAYER0001
  6
CONTINUOUS
 62
       7
100
AcDbLine
 10
251.10264182
 20
-226.26884943
 30
0.0
 11
251.10264182
 21
-231.7145682
 31
0.0
  0
LINE
  5
55F
100
AcDbEntity
  8
LAYER0001
  6
CONTINUOUS
 62
       7
100
AcDbLine
 10
274.10264186
 20
-232.74170524
 30
0.0
 11
268.35264185
 21
-232.74170524
 31
0.0
  0
LINE
  5
560
100
AcDbEntity
  8
LAYER0001
  6
CONTINUOUS
 62
       7
100
AcDbLine
 10
256.85264183
 20
-232.74170524
 30
0.0
 11
251.10264182
 21
-232.74170524
 31
0.0
  0
LINE
  5
561
100
AcDbEntity
  8
LAYER0001
  6
CONTINUOUS
 62
       7
100
AcDbLine
 10
274.10264186
 20
-212.56884104
 30
0.0
 11
274.10264186
 21
-218.01455981
 31
0.0
  0
LINE
  5
562
100
AcDbEntity
  8
LAYER0001
  6
CONTINUOUS
 62
       7
100
AcDbLine
 10
262.60264184
 20
-212.56884104
 30
0.0
 11
262.60264184
 21
-218.01455981
 31
0.0
  0
LINE
  5
563
100
AcDbEntity
  8
LAYER0001
  6
CONTINUOUS
 62
       7
100
AcDbLine
 10
251.10264182
 20
-212.56884104
 30
0.0
 11
251.10264182
 21
-218.01455981
 31
0.0
  0
LINE
  5
564
100
AcDbEntity
  8
LAYER0001
  6
CONTINUOUS
 62
       7
100
AcDbLine
 10
268.35264185
 20
-211.541704
 30
0.0
 11
256.85264183
 21
-211.541704
 31
0.0
  0
LINE
  5
565
100
AcDbEntity
  8
LAYER0001
  6
CONTINUOUS
 62
       7
100
AcDbLine
 10
256.85264183
 20
-211.541704
 30
0.0
 11
251.10264182
 21
-211.541704
 31
0.0
  0
LINE
  5
566
100
AcDbEntity
  8
LAYER0001
  6
CONTINUOUS
 62
       7
100
AcDbLine
 10
274.10264186
 20
-211.541704
 30
0.0
 11
268.35264185
 21
-211.541704
 31
0.0
  0
LINE
  5
567
100
AcDbEntity
  8
LAYER0001
  6
CONTINUOUS
 62
       7
100
AcDbLine
 10
262.60264184
 20
-219.04169685
 30
0.0
 11
276.60264227
 21
-219.04169685
 31
0.0
  0
LINE
  5
568
100
AcDbEntity
  8
LAYER0001
  6
CONTINUOUS
 62
       7
100
AcDbLine
 10
248.60264141
 20
-219.04169685
 30
0.0
 11
262.60264184
 21
-219.04169685
 31
0.0
  0
LINE
  5
569
100
AcDbEntity
  8
LAYER0001
  6
CONTINUOUS
 62
       7
100
AcDbLine
 10
262.60264184
 20
-225.24171239
 30
0.0
 11
276.60264227
 21
-225.24171239
 31
0.0
  0
LINE
  5
56A
100
AcDbEntity
  8
LAYER0001
  6
CONTINUOUS
 62
       7
100
AcDbLine
 10
248.60264141
 20
-225.24171239
 30
0.0
 11
262.60264184
 21
-225.24171239
 31
0.0
  0
LINE
  5
56B
100
AcDbEntity
  8
LAYER0001
  6
CONTINUOUS
 62
       7
100
AcDbLine
 10
262.60264184
 20
-206.141702
 30
0.0
 11
271.25264205
 21
-206.141702
 31
0.0
  0
LINE
  5
56C
100
AcDbEntity
  8
LAYER0001
  6
CONTINUOUS
 62
       7
100
AcDbLine
 10
253.95264163
 20
-206.141702
 30
0.0
 11
262.60264184
 21
-206.141702
 31
0.0
  0
LINE
  5
56D
100
AcDbEntity
  8
LAYER0001
  6
CONTINUOUS
 62
       7
100
AcDbLine
 10
269.80264186
 20
-250.6417015
 30
0.0
 11
255.40264186
 21
-250.6417015
 31
0.0
  0
LINE
  5
56E
100
AcDbEntity
  8
LAYER0001
  6
CONTINUOUS
 62
       7
100
AcDbLine
 10
269.37343007
 20
-250.9417153
 30
0.0
 11
255.83185361
 21
-250.9417153
 31
0.0
  0
LINE
  5
56F
100
AcDbEntity
  8
LAYER0001
  6
CONTINUOUS
 62
       7
100
AcDbLine
 10
235.60264483
 20
-268.59616405
 30
0.0
 11
235.60264483
 21
-270.52929169
 31
0.0
  0
LINE
  5
570
100
AcDbEntity
  8
LAYER0001
  6
CONTINUOUS
 62
       7
100
AcDbLine
 10
232.60264251
 20
-270.52929169
 30
0.0
 11
232.60264251
 21
-268.59616405
 31
0.0
  0
LINE
  5
571
100
AcDbEntity
  8
LAYER0001
  6
CONTINUOUS
 62
       7
100
AcDbLine
 10
268.05709685
 20
-220.64169782
 30
0.0
 11
269.9902352
 21
-220.64169782
 31
0.0
  0
LINE
  5
572
100
AcDbEntity
  8
LAYER0001
  6
CONTINUOUS
 62
       7
100
AcDbLine
 10
269.9902352
 20
-223.64171881
 30
0.0
 11
268.05709685
 21
-223.64171881
 31
0.0
  0
LINE
  5
573
100
AcDbEntity
  8
LAYER0001
  6
CONTINUOUS
 62
       7
100
AcDbLine
 10
268.05709685
 20
-220.64169782
 30
0.0
 11
240.60264565
 21
-220.64169782
 31
0.0
  0
LINE
  5
574
100
AcDbEntity
  8
LAYER0001
  6
CONTINUOUS
 62
       7
100
AcDbLine
 10
268.05709685
 20
-223.64171881
 30
0.0
 11
240.60264565
 21
-223.64171881
 31
0.0
  0
LINE
  5
575
100
AcDbEntity
  8
LAYER0001
  6
CONTINUOUS
 62
       7
100
AcDbLine
 10
235.60264553
 20
-228.64170152
 30
0.0
 11
235.60264483
 21
-268.59616405
 31
0.0
  0
LINE
  5
576
100
AcDbEntity
  8
LAYER0001
  6
CONTINUOUS
 62
       7
100
AcDbLine
 10
232.60264184
 20
-228.64170152
 30
0.0
 11
232.60264251
 21
-268.59616405
 31
0.0
  0
LINE
  5
577
100
AcDbEntity
  8
LAYER0001
  6
CONTINUOUS
 62
       7
100
AcDbLine
 10
277.10264512
 20
-220.64169782
 30
0.0
 11
269.9902352
 21
-220.64169782
 31
0.0
  0
LINE
  5
578
100
AcDbEntity
  8
LAYER0001
  6
CONTINUOUS
 62
       7
100
AcDbLine
 10
269.9902352
 20
-223.64171881
 30
0.0
 11
277.10264512
 21
-223.64171881
 31
0.0
  0
LINE
  5
579
100
AcDbEntity
  8
LAYER0001
  6
CONTINUOUS
 62
       7
100
AcDbLine
 10
235.60264483
 20
-277.64170533
 30
0.0
 11
235.60264483
 21
-270.52929169
 31
0.0
  0
LINE
  5
57A
100
AcDbEntity
  8
LAYER0001
  6
CONTINUOUS
 62
       7
100
AcDbLine
 10
232.60264251
 20
-270.52929169
 30
0.0
 11
232.60264251
 21
-277.64170533
 31
0.0
  0
LINE
  5
57B
100
AcDbEntity
  8
LAYER0001
  6
CONTINUOUS
 62
       7
100
AcDbLine
 10
-161.08725353
 20
-171.8879717
 30
0.0
 11
-161.08725353
 21
47.6120261
 31
0.0
  0
LINE
  5
57C
100
AcDbEntity
  8
LAYER0001
  6
CONTINUOUS
 62
       7
100
AcDbLine
 10
-178.38725395
 20
47.6120261
 30
0.0
 11
-178.38725395
 21
-171.8879717
 31
0.0
  0
LINE
  5
57D
100
AcDbEntity
  8
LAYER0001
  6
CONTINUOUS
 62
       7
100
AcDbLine
 10
-122.74248938
 20
-224.58801442
 30
0.0
 11
-122.85419221
 21
-218.18850213
 31
0.0
  0
LINE
  5
57E
100
AcDbEntity
  8
LAYER0001
  6
CONTINUOUS
 62
       7
100
AcDbLine
 10
-216.62031527
 20
-218.18850213
 30
0.0
 11
-216.7320181
 21
-224.58801442
 31
0.0
  0
LINE
  5
57F
100
AcDbEntity
  8
LAYER0001
  6
CONTINUOUS
 62
       7
100
AcDbLine
 10
-216.7320181
 20
-224.58801442
 30
0.0
 11
-216.44235443
 21
-224.8879748
 31
0.0
  0
LINE
  5
580
100
AcDbEntity
  8
LAYER0001
  6
CONTINUOUS
 62
       7
100
AcDbLine
 10
-123.03215306
 20
-224.8879748
 30
0.0
 11
-122.74248938
 21
-224.58801442
 31
0.0
  0
LINE
  5
581
100
AcDbEntity
  8
LAYER0001
  6
CONTINUOUS
 62
       7
100
AcDbLine
 10
-124.67957659
 20
-216.23102197
 30
0.0
 11
-145.38820061
 21
-214.41925278
 31
0.0
  0
LINE
  5
582
100
AcDbEntity
  8
LAYER0001
  6
CONTINUOUS
 62
       7
100
AcDbLine
 10
-194.08630687
 20
-214.41925278
 30
0.0
 11
-214.79493089
 21
-216.23102197
 31
0.0
  0
LINE
  5
583
100
AcDbEntity
  8
LAYER0001
  6
CONTINUOUS
 62
       7
100
AcDbLine
 10
-154.50293923
 20
-204.9806788
 30
0.0
 11
-156.15429429
 21
-173.47093666
 31
0.0
  0
LINE
  5
584
100
AcDbEntity
  8
LAYER0001
  6
CONTINUOUS
 62
       7
100
AcDbLine
 10
-183.32021383
 20
-173.47093666
 30
0.0
 11
-184.97156856
 21
-204.98066505
 31
0.0
  0
LINE
  5
585
100
AcDbEntity
  8
LAYER0001
  6
CONTINUOUS
 62
       7
100
AcDbLine
 10
-156.15429429
 20
-173.47093666
 30
0.0
 11
-157.73725396
 21
-171.88797141
 31
0.0
  0
LINE
  5
586
100
AcDbEntity
  8
LAYER0001
  6
CONTINUOUS
 62
       7
100
AcDbLine
 10
-181.73725417
 20
-171.88797141
 30
0.0
 11
-183.32021383
 21
-173.47093666
 31
0.0
  0
LINE
  5
587
100
AcDbEntity
  8
LAYER0001
  6
CONTINUOUS
 62
       7
100
AcDbLine
 10
237.60264141
 20
228.85829834
 30
0.0
 11
287.60264153
 21
228.85829834
 31
0.0
  0
LINE
  5
588
100
AcDbEntity
  8
LAYER0001
  6
CONTINUOUS
 62
       7
100
AcDbLine
 10
237.60263688
 20
230.15830421
 30
0.0
 11
287.60264103
 21
230.15830421
 31
0.0
  0
LINE
  5
589
100
AcDbEntity
  8
LAYER0001
  6
CONTINUOUS
 62
       7
100
AcDbLine
 10
-286.86026858
 20
91.26384631
 30
0.0
 11
-286.86026858
 21
93.61202663
 31
0.0
  0
LINE
  5
58A
100
AcDbEntity
  8
LAYER0001
  6
CONTINUOUS
 62
       7
100
AcDbLine
 10
-336.86026933
 20
93.61202663
 30
0.0
 11
-336.86026858
 21
91.26384631
 31
0.0
  0
LINE
  5
58B
100
AcDbEntity
  8
LAYER0001
  6
CONTINUOUS
 62
       7
100
AcDbLine
 10
-216.7320181
 20
-224.58801442
 30
0.0
 11
-122.74248938
 21
-224.58801442
 31
0.0
  0
LINE
  5
58C
100
AcDbEntity
  8
LAYER0001
  6
CONTINUOUS
 62
       7
100
AcDbLine
 10
-123.03215306
 20
-224.8879748
 30
0.0
 11
-216.44235443
 21
-224.8879748
 31
0.0
  0
LINE
  5
58D
100
AcDbEntity
  8
LAYER0001
  6
CONTINUOUS
 62
       7
100
AcDbLine
 10
-181.73725417
 20
-171.88797141
 30
0.0
 11
-157.73725396
 21
-171.88797141
 31
0.0
  0
LINE
  5
58E
100
AcDbEntity
  8
LAYER0001
  6
CONTINUOUS
 62
       7
100
AcDbLine
 10
88.42757011
 20
-218.01455981
 30
0.0
 11
90.20662626
 21
-219.04169685
 31
0.0
  0
LINE
  5
58F
100
AcDbEntity
  8
LAYER0001
  6
CONTINUOUS
 62
       7
100
AcDbLine
 10
90.20662626
 20
-211.541704
 30
0.0
 11
88.42757011
 21
-212.56884104
 31
0.0
  0
LINE
  5
590
100
AcDbEntity
  8
LAYER0001
  6
CONTINUOUS
 62
       7
100
AcDbLine
 10
114.98568246
 20
-212.56884104
 30
0.0
 11
113.20662631
 21
-211.541704
 31
0.0
  0
LINE
  5
591
100
AcDbEntity
  8
LAYER0001
  6
CONTINUOUS
 62
       7
100
AcDbLine
 10
113.20662631
 20
-219.04169685
 30
0.0
 11
114.98568246
 21
-218.01455981
 31
0.0
  0
LINE
  5
592
100
AcDbEntity
  8
LAYER0001
  6
CONTINUOUS
 62
       7
100
AcDbLine
 10
115.70662672
 20
-220.64169413
 30
0.0
 11
115.70662672
 21
-219.04169685
 31
0.0
  0
LINE
  5
593
100
AcDbEntity
  8
LAYER0001
  6
CONTINUOUS
 62
       7
100
AcDbLine
 10
87.70662585
 20
-219.04169685
 30
0.0
 11
87.70662585
 21
-220.64169413
 31
0.0
  0
LINE
  5
594
100
AcDbEntity
  8
LAYER0001
  6
CONTINUOUS
 62
       7
100
AcDbLine
 10
93.05662608
 20
-206.141702
 30
0.0
 11
94.03243281
 21
-207.11751944
 31
0.0
  0
LINE
  5
595
100
AcDbEntity
  8
LAYER0001
  6
CONTINUOUS
 62
       7
100
AcDbLine
 10
109.38081976
 20
-207.11751944
 30
0.0
 11
110.35662649
 21
-206.141702
 31
0.0
  0
LINE
  5
596
100
AcDbEntity
  8
LAYER0001
  6
CONTINUOUS
 62
       7
100
AcDbLine
 10
110.35662649
 20
-206.141702
 30
0.0
 11
110.35662649
 21
54.85829794
 31
0.0
  0
LINE
  5
597
100
AcDbEntity
  8
LAYER0001
  6
CONTINUOUS
 62
       7
100
AcDbLine
 10
93.05662608
 20
54.85829794
 30
0.0
 11
93.05662608
 21
-206.141702
 31
0.0
  0
LINE
  5
598
100
AcDbEntity
  8
LAYER0001
  6
CONTINUOUS
 62
       7
100
AcDbLine
 10
110.20662675
 20
-207.89169437
 30
0.0
 11
109.38081976
 21
-207.11751944
 31
0.0
  0
LINE
  5
599
100
AcDbEntity
  8
LAYER0001
  6
CONTINUOUS
 62
       7
100
AcDbLine
 10
94.03243281
 20
-207.11751944
 30
0.0
 11
93.20662582
 21
-207.89169437
 31
0.0
  0
LINE
  5
59A
100
AcDbEntity
  8
LAYER0001
  6
CONTINUOUS
 62
       7
100
AcDbLine
 10
93.20662582
 20
-207.89169437
 30
0.0
 11
94.00662633
 21
-208.64169961
 31
0.0
  0
LINE
  5
59B
100
AcDbEntity
  8
LAYER0001
  6
CONTINUOUS
 62
       7
100
AcDbLine
 10
109.40662624
 20
-208.64169961
 30
0.0
 11
110.20662675
 21
-207.89169437
 31
0.0
  0
LINE
  5
59C
100
AcDbEntity
  8
LAYER0001
  6
CONTINUOUS
 62
       7
100
AcDbLine
 10
93.20662582
 20
-209.39170486
 30
0.0
 11
94.00662633
 21
-210.1417101
 31
0.0
  0
LINE
  5
59D
100
AcDbEntity
  8
LAYER0001
  6
CONTINUOUS
 62
       7
100
AcDbLine
 10
109.40662624
 20
-210.1417101
 30
0.0
 11
110.20662675
 21
-209.39170486
 31
0.0
  0
LINE
  5
59E
100
AcDbEntity
  8
LAYER0001
  6
CONTINUOUS
 62
       7
100
AcDbLine
 10
110.20662675
 20
-209.39170486
 30
0.0
 11
109.40662624
 21
-208.64169961
 31
0.0
  0
LINE
  5
59F
100
AcDbEntity
  8
LAYER0001
  6
CONTINUOUS
 62
       7
100
AcDbLine
 10
94.00662633
 20
-208.64169961
 30
0.0
 11
93.20662582
 21
-209.39170486
 31
0.0
  0
LINE
  5
5A0
100
AcDbEntity
  8
LAYER0001
  6
CONTINUOUS
 62
       7
100
AcDbLine
 10
110.20662675
 20
-210.89171535
 30
0.0
 11
109.40662624
 21
-210.1417101
 31
0.0
  0
LINE
  5
5A1
100
AcDbEntity
  8
LAYER0001
  6
CONTINUOUS
 62
       7
100
AcDbLine
 10
94.00662633
 20
-210.1417101
 30
0.0
 11
93.20662582
 21
-210.89171535
 31
0.0
  0
LINE
  5
5A2
100
AcDbEntity
  8
LAYER0001
  6
CONTINUOUS
 62
       7
100
AcDbLine
 10
93.20662582
 20
-210.89171535
 30
0.0
 11
93.89995962
 21
-211.541704
 31
0.0
  0
LINE
  5
5A3
100
AcDbEntity
  8
LAYER0001
  6
CONTINUOUS
 62
       7
100
AcDbLine
 10
109.51329295
 20
-211.541704
 30
0.0
 11
110.20662675
 21
-210.89171535
 31
0.0
  0
LINE
  5
5A4
100
AcDbEntity
  8
LAYER0001
  6
CONTINUOUS
 62
       7
100
AcDbLine
 10
95.0670982
 20
-212.56884104
 30
0.0
 11
95.0670982
 21
-218.01455981
 31
0.0
  0
LINE
  5
5A5
100
AcDbEntity
  8
LAYER0001
  6
CONTINUOUS
 62
       7
100
AcDbLine
 10
88.42757011
 20
-212.56884104
 30
0.0
 11
88.42757011
 21
-218.01455981
 31
0.0
  0
LINE
  5
5A6
100
AcDbEntity
  8
LAYER0001
  6
CONTINUOUS
 62
       7
100
AcDbLine
 10
101.70662628
 20
-211.541704
 30
0.0
 11
91.74733369
 21
-211.541704
 31
0.0
  0
LINE
  5
5A7
100
AcDbEntity
  8
LAYER0001
  6
CONTINUOUS
 62
       7
100
AcDbLine
 10
108.34615437
 20
-212.56884104
 30
0.0
 11
108.34615437
 21
-218.01455981
 31
0.0
  0
LINE
  5
5A8
100
AcDbEntity
  8
LAYER0001
  6
CONTINUOUS
 62
       7
100
AcDbLine
 10
111.66591888
 20
-211.541704
 30
0.0
 11
101.70662628
 21
-211.541704
 31
0.0
  0
LINE
  5
5A9
100
AcDbEntity
  8
LAYER0001
  6
CONTINUOUS
 62
       7
100
AcDbLine
 10
114.98568246
 20
-212.56884104
 30
0.0
 11
114.98568246
 21
-218.01455981
 31
0.0
  0
LINE
  5
5AA
100
AcDbEntity
  8
LAYER0001
  6
CONTINUOUS
 62
       7
100
AcDbLine
 10
91.74733369
 20
-211.541704
 30
0.0
 11
90.20662626
 21
-211.541704
 31
0.0
  0
LINE
  5
5AB
100
AcDbEntity
  8
LAYER0001
  6
CONTINUOUS
 62
       7
100
AcDbLine
 10
113.20662631
 20
-211.541704
 30
0.0
 11
111.66591888
 21
-211.541704
 31
0.0
  0
LINE
  5
5AC
100
AcDbEntity
  8
LAYER0001
  6
CONTINUOUS
 62
       7
100
AcDbLine
 10
87.70662585
 20
-219.04169685
 30
0.0
 11
115.70662672
 21
-219.04169685
 31
0.0
  0
LINE
  5
5AD
100
AcDbEntity
  8
LAYER0001
  6
CONTINUOUS
 62
       7
100
AcDbLine
 10
93.05662608
 20
-206.141702
 30
0.0
 11
110.35662649
 21
-206.141702
 31
0.0
  0
LINE
  5
5AE
100
AcDbEntity
  8
LAYER0001
  6
CONTINUOUS
 62
       7
100
AcDbLine
 10
117.70662704
 20
-228.64171034
 30
0.0
 11
117.70662704
 21
-268.59616405
 31
0.0
  0
LINE
  5
5AF
100
AcDbEntity
  8
LAYER0001
  6
CONTINUOUS
 62
       7
100
AcDbLine
 10
85.70662552
 20
-228.64171034
 30
0.0
 11
85.70662552
 21
-268.59616405
 31
0.0
  0
LINE
  5
5B0
100
AcDbEntity
  8
LAYER0001
  6
CONTINUOUS
 62
       7
100
AcDbLine
 10
85.70662552
 20
-220.64169413
 30
0.0
 11
117.70662704
 21
-220.64169413
 31
0.0
  0
LINE
  5
5B1
100
AcDbEntity
  8
LAYER0001
  6
CONTINUOUS
 62
       7
100
AcDbLine
 10
117.70662704
 20
-220.64169413
 30
0.0
 11
117.70662704
 21
-228.64171034
 31
0.0
  0
LINE
  5
5B2
100
AcDbEntity
  8
LAYER0001
  6
CONTINUOUS
 62
       7
100
AcDbLine
 10
85.70662552
 20
-220.64169413
 30
0.0
 11
85.70662552
 21
-228.64171034
 31
0.0
  0
ARC
  5
5B3
100
AcDbEntity
  8
LAYER0001
  6
CONTINUOUS
 62
       7
100
AcDbCircle
 10
-356.74363419
 20
-218.22341198
 30
0.0
 40
2.00000062
100
AcDbArc
 50
95.0
 51
178.99985587
  0
ARC
  5
5B4
100
AcDbEntity
  8
LAYER0001
  6
CONTINUOUS
 62
       7
100
AcDbCircle
 10
-266.97690297
 20
-218.22341198
 30
0.0
 40
2.00000062
100
AcDbArc
 50
1.00014413
 51
85.0
  0
ARC
  5
5B5
100
AcDbEntity
  8
LAYER0001
  6
CONTINUOUS
 62
       7
100
AcDbCircle
 10
-286.63965807
 20
-204.45730515
 30
0.0
 40
10.00000064
100
AcDbArc
 50
183.0
 51
265.00000057
  0
ARC
  5
5B6
100
AcDbEntity
  8
LAYER0001
  6
CONTINUOUS
 62
       7
100
AcDbCircle
 10
-337.0808791
 20
-204.45730515
 30
0.0
 40
10.00000064
100
AcDbArc
 50
274.99999943
 51
357.0
  0
ARC
  5
5B7
100
AcDbEntity
  8
LAYER0001
  6
CONTINUOUS
 62
       7
100
AcDbCircle
 10
-146.48725411
 20
126.26202987
 30
0.0
 40
0.75
100
AcDbArc
 50
299.92643487
 51
420.07356513
  0
ARC
  5
5B8
100
AcDbEntity
  8
LAYER0001
  6
CONTINUOUS
 62
       7
100
AcDbCircle
 10
-163.13725411
 20
264.96646811
 30
0.0
 40
0.3
100
AcDbArc
 50
50.2363587
 51
87.47311452
  0
ARC
  5
5B9
100
AcDbEntity
  8
LAYER0001
  6
CONTINUOUS
 62
       7
100
AcDbCircle
 10
-192.98725411
 20
94.26202987
 30
0.0
 40
0.75
100
AcDbArc
 50
119.92643487
 51
240.07356513
  0
ARC
  5
5BA
100
AcDbEntity
  8
LAYER0001
  6
CONTINUOUS
 62
       7
100
AcDbCircle
 10
-146.48725411
 20
222.2620307
 30
0.0
 40
0.75
100
AcDbArc
 50
299.92643487
 51
420.07356513
  0
ARC
  5
5BB
100
AcDbEntity
  8
LAYER0001
  6
CONTINUOUS
 62
       7
100
AcDbCircle
 10
-327.52559183
 20
66.61202663
 30
0.0
 40
3.0
100
AcDbArc
 50
2.0
 51
90.0
  0
ARC
  5
5BC
100
AcDbEntity
  8
LAYER0001
  6
CONTINUOUS
 62
       7
100
AcDbCircle
 10
-296.19494579
 20
66.61202663
 30
0.0
 40
3.0
100
AcDbArc
 50
90.0
 51
178.0
  0
ARC
  5
5BD
100
AcDbEntity
  8
LAYER0001
  6
CONTINUOUS
 62
       7
100
AcDbCircle
 10
-300.3431132
 20
48.11202663
 30
0.0
 40
0.50000023
100
AcDbArc
 50
270.0
 51
357.99989896
  0
ARC
  5
5BE
100
AcDbEntity
  8
LAYER0001
  6
CONTINUOUS
 62
       7
100
AcDbCircle
 10
-323.37742442
 20
48.11202663
 30
0.0
 40
0.50000023
100
AcDbArc
 50
182.00010104
 51
270.0
  0
ARC
  5
5BF
100
AcDbEntity
  8
LAYER0001
  6
CONTINUOUS
 62
       7
100
AcDbCircle
 10
-288.61026895
 20
254.26203594
 30
0.0
 40
0.75
100
AcDbArc
 50
299.92643487
 51
420.07356513
  0
ARC
  5
5C0
100
AcDbEntity
  8
LAYER0001
  6
CONTINUOUS
 62
       7
100
AcDbCircle
 10
-318.46026895
 20
264.96646811
 30
0.0
 40
0.3
100
AcDbArc
 50
92.52688548
 51
129.7636413
  0
ARC
  5
5C1
100
AcDbEntity
  8
LAYER0001
  6
CONTINUOUS
 62
       7
100
AcDbCircle
 10
-305.26026895
 20
264.96646811
 30
0.0
 40
0.3
100
AcDbArc
 50
50.2363587
 51
87.47311452
  0
ARC
  5
5C2
100
AcDbEntity
  8
LAYER0001
  6
CONTINUOUS
 62
       7
100
AcDbCircle
 10
-287.86026898
 20
262.46644157
 30
0.0
 40
1.0
100
AcDbArc
 50
359.99999942
 51
440.73076963
  0
ARC
  5
5C3
100
AcDbEntity
  8
LAYER0001
  6
CONTINUOUS
 62
       7
100
AcDbCircle
 10
-335.11026895
 20
158.26203511
 30
0.0
 40
0.75
100
AcDbArc
 50
119.92643487
 51
240.07356513
  0
ARC
  5
5C4
100
AcDbEntity
  8
LAYER0001
  6
CONTINUOUS
 62
       7
100
AcDbCircle
 10
-335.11026895
 20
190.26204036
 30
0.0
 40
0.75
100
AcDbArc
 50
119.92643487
 51
240.07356513
  0
ARC
  5
5C5
100
AcDbEntity
  8
LAYER0001
  6
CONTINUOUS
 62
       7
100
AcDbCircle
 10
-335.11026895
 20
126.26202987
 30
0.0
 40
0.75
100
AcDbArc
 50
119.92643487
 51
240.07356513
  0
ARC
  5
5C6
100
AcDbEntity
  8
LAYER0001
  6
CONTINUOUS
 62
       7
100
AcDbCircle
 10
-288.61026895
 20
222.2620307
 30
0.0
 40
0.75
100
AcDbArc
 50
299.92643487
 51
420.07356513
  0
ARC
  5
5C7
100
AcDbEntity
  8
LAYER0001
  6
CONTINUOUS
 62
       7
100
AcDbCircle
 10
-335.11026895
 20
222.2620307
 30
0.0
 40
0.75
100
AcDbArc
 50
119.92643487
 51
240.07356513
  0
ARC
  5
5C8
100
AcDbEntity
  8
LAYER0001
  6
CONTINUOUS
 62
       7
100
AcDbCircle
 10
-288.61026895
 20
190.26204036
 30
0.0
 40
0.75
100
AcDbArc
 50
299.92643487
 51
420.07356513
  0
ARC
  5
5C9
100
AcDbEntity
  8
LAYER0001
  6
CONTINUOUS
 62
       7
100
AcDbCircle
 10
-288.61026895
 20
126.26202987
 30
0.0
 40
0.75
100
AcDbArc
 50
299.92643487
 51
420.07356513
  0
ARC
  5
5CA
100
AcDbEntity
  8
LAYER0001
  6
CONTINUOUS
 62
       7
100
AcDbCircle
 10
-288.61026895
 20
158.26203511
 30
0.0
 40
0.75
100
AcDbArc
 50
299.92643487
 51
420.07356513
  0
ARC
  5
5CB
100
AcDbEntity
  8
LAYER0001
  6
CONTINUOUS
 62
       7
100
AcDbCircle
 10
-311.86026895
 20
115.41202987
 30
0.0
 40
150.0
100
AcDbArc
 50
87.4731145
 51
92.5268855
  0
ARC
  5
5CC
100
AcDbEntity
  8
LAYER0001
  6
CONTINUOUS
 62
       7
100
AcDbCircle
 10
-311.86026895
 20
115.41202987
 30
0.0
 40
150.0
100
AcDbArc
 50
93.06773282
 51
99.26923037
  0
ARC
  5
5CD
100
AcDbEntity
  8
LAYER0001
  6
CONTINUOUS
 62
       7
100
AcDbCircle
 10
-311.86026895
 20
115.41202987
 30
0.0
 40
150.0
100
AcDbArc
 50
80.73076963
 51
86.93226718
  0
ARC
  5
5CE
100
AcDbEntity
  8
LAYER0001
  6
CONTINUOUS
 62
       7
100
AcDbCircle
 10
-335.11026895
 20
94.26202987
 30
0.0
 40
0.75
100
AcDbArc
 50
119.92643487
 51
240.07356513
  0
ARC
  5
5CF
100
AcDbEntity
  8
LAYER0001
  6
CONTINUOUS
 62
       7
100
AcDbCircle
 10
-288.61026895
 20
94.26202987
 30
0.0
 40
0.75
100
AcDbArc
 50
299.92643487
 51
420.07356513
  0
ARC
  5
5D0
100
AcDbEntity
  8
LAYER0001
  6
CONTINUOUS
 62
       7
100
AcDbCircle
 10
-335.86026892
 20
262.46644157
 30
0.0
 40
1.0
100
AcDbArc
 50
99.26923036
 51
179.99999331
  0
ARC
  5
5D1
100
AcDbEntity
  8
LAYER0001
  6
CONTINUOUS
 62
       7
100
AcDbCircle
 10
-335.11026895
 20
254.26203594
 30
0.0
 40
0.75
100
AcDbArc
 50
119.92643487
 51
240.07356513
  0
ARC
  5
5D2
100
AcDbEntity
  8
LAYER0001
  6
CONTINUOUS
 62
       7
100
AcDbCircle
 10
-181.25440958
 20
48.11202663
 30
0.0
 40
0.50000023
100
AcDbArc
 50
182.00010104
 51
270.0
  0
ARC
  5
5D3
100
AcDbEntity
  8
LAYER0001
  6
CONTINUOUS
 62
       7
100
AcDbCircle
 10
-193.23725374
 20
91.26384631
 30
0.0
 40
1.5
100
AcDbArc
 50
180.0
 51
225.81561485
  0
ARC
  5
5D4
100
AcDbEntity
  8
LAYER0001
  6
CONTINUOUS
 62
       7
100
AcDbCircle
 10
-169.73725411
 20
115.41202987
 30
0.0
 40
150.0
100
AcDbArc
 50
87.4731145
 51
92.5268855
  0
ARC
  5
5D5
100
AcDbEntity
  8
LAYER0001
  6
CONTINUOUS
 62
       7
100
AcDbCircle
 10
-192.98725411
 20
158.26203511
 30
0.0
 40
0.75
100
AcDbArc
 50
119.92643487
 51
240.07356513
  0
ARC
  5
5D6
100
AcDbEntity
  8
LAYER0001
  6
CONTINUOUS
 62
       7
100
AcDbCircle
 10
-193.73725408
 20
262.46644157
 30
0.0
 40
1.0
100
AcDbArc
 50
99.26923036
 51
179.99999331
  0
ARC
  5
5D7
100
AcDbEntity
  8
LAYER0001
  6
CONTINUOUS
 62
       7
100
AcDbCircle
 10
-185.402577
 20
66.61202663
 30
0.0
 40
3.0
100
AcDbArc
 50
2.0
 51
90.0
  0
ARC
  5
5D8
100
AcDbEntity
  8
LAYER0001
  6
CONTINUOUS
 62
       7
100
AcDbCircle
 10
-146.48725411
 20
190.26204036
 30
0.0
 40
0.75
100
AcDbArc
 50
299.92643487
 51
420.07356513
  0
ARC
  5
5D9
100
AcDbEntity
  8
LAYER0001
  6
CONTINUOUS
 62
       7
100
AcDbCircle
 10
-176.33725411
 20
264.96646811
 30
0.0
 40
0.3
100
AcDbArc
 50
92.52688548
 51
129.7636413
  0
ARC
  5
5DA
100
AcDbEntity
  8
LAYER0001
  6
CONTINUOUS
 62
       7
100
AcDbCircle
 10
-146.23725374
 20
91.26384631
 30
0.0
 40
1.5
100
AcDbArc
 50
314.18438515
 51
360.0
  0
ARC
  5
5DB
100
AcDbEntity
  8
LAYER0001
  6
CONTINUOUS
 62
       7
100
AcDbCircle
 10
-169.73725411
 20
115.41202987
 30
0.0
 40
150.0
100
AcDbArc
 50
80.73076963
 51
86.93226718
  0
ARC
  5
5DC
100
AcDbEntity
  8
LAYER0001
  6
CONTINUOUS
 62
       7
100
AcDbCircle
 10
-192.98725411
 20
126.26202987
 30
0.0
 40
0.75
100
AcDbArc
 50
119.92643487
 51
240.07356513
  0
ARC
  5
5DD
100
AcDbEntity
  8
LAYER0001
  6
CONTINUOUS
 62
       7
100
AcDbCircle
 10
-204.73725374
 20
79.43168675
 30
0.0
 40
15.0
100
AcDbArc
 50
0.0
 51
45.81561485
  0
ARC
  5
5DE
100
AcDbEntity
  8
LAYER0001
  6
CONTINUOUS
 62
       7
100
AcDbCircle
 10
-158.22009836
 20
48.11202663
 30
0.0
 40
0.50000023
100
AcDbArc
 50
270.0
 51
357.99989896
  0
ARC
  5
5DF
100
AcDbEntity
  8
LAYER0001
  6
CONTINUOUS
 62
       7
100
AcDbCircle
 10
-146.48725411
 20
158.26203511
 30
0.0
 40
0.75
100
AcDbArc
 50
299.92643487
 51
420.07356513
  0
ARC
  5
5E0
100
AcDbEntity
  8
LAYER0001
  6
CONTINUOUS
 62
       7
100
AcDbCircle
 10
-145.73725414
 20
262.46644157
 30
0.0
 40
1.0
100
AcDbArc
 50
359.99999942
 51
440.73076963
  0
ARC
  5
5E1
100
AcDbEntity
  8
LAYER0001
  6
CONTINUOUS
 62
       7
100
AcDbCircle
 10
-146.48725411
 20
94.26202987
 30
0.0
 40
0.75
100
AcDbArc
 50
299.92643487
 51
420.07356513
  0
ARC
  5
5E2
100
AcDbEntity
  8
LAYER0001
  6
CONTINUOUS
 62
       7
100
AcDbCircle
 10
-192.98725411
 20
222.2620307
 30
0.0
 40
0.75
100
AcDbArc
 50
119.92643487
 51
240.07356513
  0
ARC
  5
5E3
100
AcDbEntity
  8
LAYER0001
  6
CONTINUOUS
 62
       7
100
AcDbCircle
 10
-134.73725374
 20
79.43168675
 30
0.0
 40
15.0
100
AcDbArc
 50
134.18438515
 51
180.0
  0
ARC
  5
5E4
100
AcDbEntity
  8
LAYER0001
  6
CONTINUOUS
 62
       7
100
AcDbCircle
 10
-146.48725411
 20
254.26203594
 30
0.0
 40
0.75
100
AcDbArc
 50
299.92643487
 51
420.07356513
  0
ARC
  5
5E5
100
AcDbEntity
  8
LAYER0001
  6
CONTINUOUS
 62
       7
100
AcDbCircle
 10
-169.73725411
 20
115.41202987
 30
0.0
 40
150.0
100
AcDbArc
 50
93.06773282
 51
99.26923037
  0
ARC
  5
5E6
100
AcDbEntity
  8
LAYER0001
  6
CONTINUOUS
 62
       7
100
AcDbCircle
 10
-192.98725411
 20
190.26204036
 30
0.0
 40
0.75
100
AcDbArc
 50
119.92643487
 51
240.07356513
  0
ARC
  5
5E7
100
AcDbEntity
  8
LAYER0001
  6
CONTINUOUS
 62
       7
100
AcDbCircle
 10
-154.07193095
 20
66.61202663
 30
0.0
 40
3.0
100
AcDbArc
 50
90.0
 51
178.0
  0
ARC
  5
5E8
100
AcDbEntity
  8
LAYER0001
  6
CONTINUOUS
 62
       7
100
AcDbCircle
 10
-192.98725411
 20
254.26203594
 30
0.0
 40
0.75
100
AcDbArc
 50
119.92643487
 51
240.07356513
  0
ARC
  5
5E9
100
AcDbEntity
  8
LAYER0001
  6
CONTINUOUS
 62
       7
100
AcDbCircle
 10
124.95662591
 20
133.50830171
 30
0.0
 40
0.75
100
AcDbArc
 50
299.92643487
 51
420.07356513
  0
ARC
  5
5EA
100
AcDbEntity
  8
LAYER0001
  6
CONTINUOUS
 62
       7
100
AcDbCircle
 10
108.30662591
 20
272.21273996
 30
0.0
 40
0.3
100
AcDbArc
 50
50.2363587
 51
87.47311452
  0
ARC
  5
5EB
100
AcDbEntity
  8
LAYER0001
  6
CONTINUOUS
 62
       7
100
AcDbCircle
 10
78.45662591
 20
101.50830171
 30
0.0
 40
0.75
100
AcDbArc
 50
119.92643487
 51
240.07356513
  0
ARC
  5
5EC
100
AcDbEntity
  8
LAYER0001
  6
CONTINUOUS
 62
       7
100
AcDbCircle
 10
124.95662591
 20
229.50830255
 30
0.0
 40
0.75
100
AcDbArc
 50
299.92643487
 51
420.07356513
  0
ARC
  5
5ED
100
AcDbEntity
  8
LAYER0001
  6
CONTINUOUS
 62
       7
100
AcDbCircle
 10
90.18947044
 20
55.35829847
 30
0.0
 40
0.50000023
100
AcDbArc
 50
182.00010104
 51
270.0
  0
ARC
  5
5EE
100
AcDbEntity
  8
LAYER0001
  6
CONTINUOUS
 62
       7
100
AcDbCircle
 10
78.20662628
 20
98.51011816
 30
0.0
 40
1.5
100
AcDbArc
 50
180.0
 51
225.81561485
  0
ARC
  5
5EF
100
AcDbEntity
  8
LAYER0001
  6
CONTINUOUS
 62
       7
100
AcDbCircle
 10
101.70662591
 20
122.65830171
 30
0.0
 40
150.0
100
AcDbArc
 50
87.4731145
 51
92.5268855
  0
ARC
  5
5F0
100
AcDbEntity
  8
LAYER0001
  6
CONTINUOUS
 62
       7
100
AcDbCircle
 10
78.45662591
 20
165.50830696
 30
0.0
 40
0.75
100
AcDbArc
 50
119.92643487
 51
240.07356513
  0
ARC
  5
5F1
100
AcDbEntity
  8
LAYER0001
  6
CONTINUOUS
 62
       7
100
AcDbCircle
 10
77.70662594
 20
269.71271341
 30
0.0
 40
1.0
100
AcDbArc
 50
99.26923036
 51
179.99999331
  0
ARC
  5
5F2
100
AcDbEntity
  8
LAYER0001
  6
CONTINUOUS
 62
       7
100
AcDbCircle
 10
86.04130303
 20
73.85829848
 30
0.0
 40
3.0
100
AcDbArc
 50
2.0
 51
90.0
  0
ARC
  5
5F3
100
AcDbEntity
  8
LAYER0001
  6
CONTINUOUS
 62
       7
100
AcDbCircle
 10
124.95662591
 20
197.5083122
 30
0.0
 40
0.75
100
AcDbArc
 50
299.92643487
 51
420.07356513
  0
ARC
  5
5F4
100
AcDbEntity
  8
LAYER0001
  6
CONTINUOUS
 62
       7
100
AcDbCircle
 10
95.10662591
 20
272.21273996
 30
0.0
 40
0.3
100
AcDbArc
 50
92.52688548
 51
129.7636413
  0
ARC
  5
5F5
100
AcDbEntity
  8
LAYER0001
  6
CONTINUOUS
 62
       7
100
AcDbCircle
 10
125.20662628
 20
98.51011816
 30
0.0
 40
1.5
100
AcDbArc
 50
314.18438515
 51
360.0
  0
ARC
  5
5F6
100
AcDbEntity
  8
LAYER0001
  6
CONTINUOUS
 62
       7
100
AcDbCircle
 10
101.70662591
 20
122.65830171
 30
0.0
 40
150.0
100
AcDbArc
 50
80.73076963
 51
86.93226718
  0
ARC
  5
5F7
100
AcDbEntity
  8
LAYER0001
  6
CONTINUOUS
 62
       7
100
AcDbCircle
 10
78.45662591
 20
133.50830171
 30
0.0
 40
0.75
100
AcDbArc
 50
119.92643487
 51
240.07356513
  0
ARC
  5
5F8
100
AcDbEntity
  8
LAYER0001
  6
CONTINUOUS
 62
       7
100
AcDbCircle
 10
66.70662628
 20
86.67795859
 30
0.0
 40
15.0
100
AcDbArc
 50
0.0
 51
45.81561485
  0
ARC
  5
5F9
100
AcDbEntity
  8
LAYER0001
  6
CONTINUOUS
 62
       7
100
AcDbCircle
 10
113.22378167
 20
55.35829847
 30
0.0
 40
0.50000023
100
AcDbArc
 50
270.0
 51
357.99989896
  0
ARC
  5
5FA
100
AcDbEntity
  8
LAYER0001
  6
CONTINUOUS
 62
       7
100
AcDbCircle
 10
124.95662591
 20
165.50830696
 30
0.0
 40
0.75
100
AcDbArc
 50
299.92643487
 51
420.07356513
  0
ARC
  5
5FB
100
AcDbEntity
  8
LAYER0001
  6
CONTINUOUS
 62
       7
100
AcDbCircle
 10
125.70662588
 20
269.71271341
 30
0.0
 40
1.0
100
AcDbArc
 50
359.99999942
 51
440.73076963
  0
ARC
  5
5FC
100
AcDbEntity
  8
LAYER0001
  6
CONTINUOUS
 62
       7
100
AcDbCircle
 10
124.95662591
 20
101.50830171
 30
0.0
 40
0.75
100
AcDbArc
 50
299.92643487
 51
420.07356513
  0
ARC
  5
5FD
100
AcDbEntity
  8
LAYER0001
  6
CONTINUOUS
 62
       7
100
AcDbCircle
 10
78.45662591
 20
229.50830255
 30
0.0
 40
0.75
100
AcDbArc
 50
119.92643487
 51
240.07356513
  0
ARC
  5
5FE
100
AcDbEntity
  8
LAYER0001
  6
CONTINUOUS
 62
       7
100
AcDbCircle
 10
136.70662628
 20
86.67795859
 30
0.0
 40
15.0
100
AcDbArc
 50
134.18438515
 51
180.0
  0
ARC
  5
5FF
100
AcDbEntity
  8
LAYER0001
  6
CONTINUOUS
 62
       7
100
AcDbCircle
 10
124.95662591
 20
261.50830779
 30
0.0
 40
0.75
100
AcDbArc
 50
299.92643487
 51
420.07356513
  0
ARC
  5
600
100
AcDbEntity
  8
LAYER0001
  6
CONTINUOUS
 62
       7
100
AcDbCircle
 10
101.70662591
 20
122.65830171
 30
0.0
 40
150.0
100
AcDbArc
 50
93.06773282
 51
99.26923037
  0
ARC
  5
601
100
AcDbEntity
  8
LAYER0001
  6
CONTINUOUS
 62
       7
100
AcDbCircle
 10
78.45662591
 20
197.5083122
 30
0.0
 40
0.75
100
AcDbArc
 50
119.92643487
 51
240.07356513
  0
ARC
  5
602
100
AcDbEntity
  8
LAYER0001
  6
CONTINUOUS
 62
       7
100
AcDbCircle
 10
117.37194908
 20
73.85829848
 30
0.0
 40
3.0
100
AcDbArc
 50
90.0
 51
178.0
  0
ARC
  5
603
100
AcDbEntity
  8
LAYER0001
  6
CONTINUOUS
 62
       7
100
AcDbCircle
 10
78.45662591
 20
261.50830779
 30
0.0
 40
0.75
100
AcDbArc
 50
119.92643487
 51
240.07356513
  0
ARC
  5
604
100
AcDbEntity
  8
LAYER0001
  6
CONTINUOUS
 62
       7
100
AcDbCircle
 10
285.85264147
 20
133.50830171
 30
0.0
 40
0.75
100
AcDbArc
 50
299.92643487
 51
420.07356513
  0
ARC
  5
605
100
AcDbEntity
  8
LAYER0001
  6
CONTINUOUS
 62
       7
100
AcDbCircle
 10
269.20264147
 20
272.21273996
 30
0.0
 40
0.3
100
AcDbArc
 50
50.2363587
 51
87.47311452
  0
ARC
  5
606
100
AcDbEntity
  8
LAYER0001
  6
CONTINUOUS
 62
       7
100
AcDbCircle
 10
239.35264147
 20
101.50830171
 30
0.0
 40
0.75
100
AcDbArc
 50
119.92643487
 51
240.07356513
  0
ARC
  5
607
100
AcDbEntity
  8
LAYER0001
  6
CONTINUOUS
 62
       7
100
AcDbCircle
 10
285.85264147
 20
229.50830255
 30
0.0
 40
0.75
100
AcDbArc
 50
299.92643487
 51
420.07356513
  0
ARC
  5
608
100
AcDbEntity
  8
LAYER0001
  6
CONTINUOUS
 62
       7
100
AcDbCircle
 10
251.085486
 20
55.35829847
 30
0.0
 40
0.50000023
100
AcDbArc
 50
182.00010104
 51
270.0
  0
ARC
  5
609
100
AcDbEntity
  8
LAYER0001
  6
CONTINUOUS
 62
       7
100
AcDbCircle
 10
239.10264184
 20
98.51011816
 30
0.0
 40
1.5
100
AcDbArc
 50
180.0
 51
225.81561485
  0
ARC
  5
60A
100
AcDbEntity
  8
LAYER0001
  6
CONTINUOUS
 62
       7
100
AcDbCircle
 10
262.60264147
 20
122.65830171
 30
0.0
 40
150.0
100
AcDbArc
 50
87.4731145
 51
92.5268855
  0
ARC
  5
60B
100
AcDbEntity
  8
LAYER0001
  6
CONTINUOUS
 62
       7
100
AcDbCircle
 10
239.35264147
 20
165.50830696
 30
0.0
 40
0.75
100
AcDbArc
 50
119.92643487
 51
240.07356513
  0
ARC
  5
60C
100
AcDbEntity
  8
LAYER0001
  6
CONTINUOUS
 62
       7
100
AcDbCircle
 10
238.6026415
 20
269.71271341
 30
0.0
 40
1.0
100
AcDbArc
 50
99.26923036
 51
179.99999331
  0
ARC
  5
60D
100
AcDbEntity
  8
LAYER0001
  6
CONTINUOUS
 62
       7
100
AcDbCircle
 10
246.93731859
 20
73.85829848
 30
0.0
 40
3.0
100
AcDbArc
 50
2.0
 51
90.0
  0
ARC
  5
60E
100
AcDbEntity
  8
LAYER0001
  6
CONTINUOUS
 62
       7
100
AcDbCircle
 10
285.85264147
 20
197.5083122
 30
0.0
 40
0.75
100
AcDbArc
 50
299.92643487
 51
420.07356513
  0
ARC
  5
60F
100
AcDbEntity
  8
LAYER0001
  6
CONTINUOUS
 62
       7
100
AcDbCircle
 10
256.00264147
 20
272.21273996
 30
0.0
 40
0.3
100
AcDbArc
 50
92.52688548
 51
129.7636413
  0
ARC
  5
610
100
AcDbEntity
  8
LAYER0001
  6
CONTINUOUS
 62
       7
100
AcDbCircle
 10
286.10264184
 20
98.51011816
 30
0.0
 40
1.5
100
AcDbArc
 50
314.18438515
 51
360.0
  0
ARC
  5
611
100
AcDbEntity
  8
LAYER0001
  6
CONTINUOUS
 62
       7
100
AcDbCircle
 10
269.80264186
 20
-250.14170152
 30
0.0
 40
0.49999998
100
AcDbArc
 50
270.0
 51
359.99997268
  0
ARC
  5
612
100
AcDbEntity
  8
LAYER0001
  6
CONTINUOUS
 62
       7
100
AcDbCircle
 10
255.40264186
 20
-250.14170152
 30
0.0
 40
0.49999998
100
AcDbArc
 50
180.00002732
 51
270.0
  0
ARC
  5
613
100
AcDbEntity
  8
LAYER0001
  6
CONTINUOUS
 62
       7
100
AcDbCircle
 10
269.37343001
 20
-250.84170152
 30
0.0
 40
0.10000267
100
AcDbArc
 50
270.0
 51
339.99553297
  0
ARC
  5
614
100
AcDbEntity
  8
LAYER0001
  6
CONTINUOUS
 62
       7
100
AcDbCircle
 10
255.83185366
 20
-250.84170152
 30
0.0
 40
0.10000267
100
AcDbArc
 50
200.00446705
 51
270.0
  0
ARC
  5
615
100
AcDbEntity
  8
LAYER0001
  6
CONTINUOUS
 62
       7
100
AcDbCircle
 10
-346.86026858
 20
79.43168675
 30
0.0
 40
15.0
100
AcDbArc
 50
0.0
 51
45.81561485
  0
ARC
  5
616
100
AcDbEntity
  8
LAYER0001
  6
CONTINUOUS
 62
       7
100
AcDbCircle
 10
-335.36026858
 20
91.26384631
 30
0.0
 40
1.5
100
AcDbArc
 50
180.0
 51
225.81561485
  0
ARC
  5
617
100
AcDbEntity
  8
LAYER0001
  6
CONTINUOUS
 62
       7
100
AcDbCircle
 10
-276.86026858
 20
79.43168675
 30
0.0
 40
15.0
100
AcDbArc
 50
134.18438515
 51
180.0
  0
ARC
  5
618
100
AcDbEntity
  8
LAYER0001
  6
CONTINUOUS
 62
       7
100
AcDbCircle
 10
-288.36026858
 20
91.26384631
 30
0.0
 40
1.5
100
AcDbArc
 50
314.18438515
 51
360.0
  0
ARC
  5
619
100
AcDbEntity
  8
LAYER0001
  6
CONTINUOUS
 62
       7
100
AcDbCircle
 10
262.60264147
 20
122.65830171
 30
0.0
 40
150.0
100
AcDbArc
 50
80.73076963
 51
86.93226718
  0
ARC
  5
61A
100
AcDbEntity
  8
LAYER0001
  6
CONTINUOUS
 62
       7
100
AcDbCircle
 10
239.35264147
 20
133.50830171
 30
0.0
 40
0.75
100
AcDbArc
 50
119.92643487
 51
240.07356513
  0
ARC
  5
61B
100
AcDbEntity
  8
LAYER0001
  6
CONTINUOUS
 62
       7
100
AcDbCircle
 10
227.60264184
 20
86.67795859
 30
0.0
 40
15.0
100
AcDbArc
 50
0.0
 51
45.81561485
  0
ARC
  5
61C
100
AcDbEntity
  8
LAYER0001
  6
CONTINUOUS
 62
       7
100
AcDbCircle
 10
274.11979722
 20
55.35829847
 30
0.0
 40
0.50000023
100
AcDbArc
 50
270.0
 51
357.99989896
  0
ARC
  5
61D
100
AcDbEntity
  8
LAYER0001
  6
CONTINUOUS
 62
       7
100
AcDbCircle
 10
285.85264147
 20
165.50830696
 30
0.0
 40
0.75
100
AcDbArc
 50
299.92643487
 51
420.07356513
  0
ARC
  5
61E
100
AcDbEntity
  8
LAYER0001
  6
CONTINUOUS
 62
       7
100
AcDbCircle
 10
286.60264144
 20
269.71271341
 30
0.0
 40
1.0
100
AcDbArc
 50
359.99999942
 51
440.73076963
  0
ARC
  5
61F
100
AcDbEntity
  8
LAYER0001
  6
CONTINUOUS
 62
       7
100
AcDbCircle
 10
285.85264147
 20
101.50830171
 30
0.0
 40
0.75
100
AcDbArc
 50
299.92643487
 51
420.07356513
  0
ARC
  5
620
100
AcDbEntity
  8
LAYER0001
  6
CONTINUOUS
 62
       7
100
AcDbCircle
 10
239.35264147
 20
229.50830255
 30
0.0
 40
0.75
100
AcDbArc
 50
119.92643487
 51
240.07356513
  0
ARC
  5
621
100
AcDbEntity
  8
LAYER0001
  6
CONTINUOUS
 62
       7
100
AcDbCircle
 10
297.60264184
 20
86.67795859
 30
0.0
 40
15.0
100
AcDbArc
 50
134.18438515
 51
180.0
  0
ARC
  5
622
100
AcDbEntity
  8
LAYER0001
  6
CONTINUOUS
 62
       7
100
AcDbCircle
 10
285.85264147
 20
261.50830779
 30
0.0
 40
0.75
100
AcDbArc
 50
299.92643487
 51
420.07356513
  0
ARC
  5
623
100
AcDbEntity
  8
LAYER0001
  6
CONTINUOUS
 62
       7
100
AcDbCircle
 10
262.60264147
 20
122.65830171
 30
0.0
 40
150.0
100
AcDbArc
 50
93.06773282
 51
99.26923037
  0
ARC
  5
624
100
AcDbEntity
  8
LAYER0001
  6
CONTINUOUS
 62
       7
100
AcDbCircle
 10
239.35264147
 20
197.5083122
 30
0.0
 40
0.75
100
AcDbArc
 50
119.92643487
 51
240.07356513
  0
ARC
  5
625
100
AcDbEntity
  8
LAYER0001
  6
CONTINUOUS
 62
       7
100
AcDbCircle
 10
278.26796463
 20
73.85829848
 30
0.0
 40
3.0
100
AcDbArc
 50
90.0
 51
178.0
  0
ARC
  5
626
100
AcDbEntity
  8
LAYER0001
  6
CONTINUOUS
 62
       7
100
AcDbCircle
 10
239.35264147
 20
261.50830779
 30
0.0
 40
0.75
100
AcDbArc
 50
119.92643487
 51
240.07356513
  0
ARC
  5
627
100
AcDbEntity
  8
LAYER0001
  6
CONTINUOUS
 62
       7
100
AcDbCircle
 10
240.60264553
 20
-228.64170152
 30
0.0
 40
5.0
100
AcDbArc
 50
90.0
 51
180.0
  0
ARC
  5
628
100
AcDbEntity
  8
LAYER0001
  6
CONTINUOUS
 62
       7
100
AcDbCircle
 10
240.60264553
 20
-228.64170152
 30
0.0
 40
8.0000037
100
AcDbArc
 50
89.99999915
 51
180.0
  0
ARC
  5
629
100
AcDbEntity
  8
LAYER0001
  6
CONTINUOUS
 62
       7
100
AcDbCircle
 10
-214.62061935
 20
-218.22341198
 30
0.0
 40
2.00000062
100
AcDbArc
 50
95.0
 51
178.99985587
  0
ARC
  5
62A
100
AcDbEntity
  8
LAYER0001
  6
CONTINUOUS
 62
       7
100
AcDbCircle
 10
-124.85388813
 20
-218.22341198
 30
0.0
 40
2.00000062
100
AcDbArc
 50
1.00014413
 51
85.0
  0
ARC
  5
62B
100
AcDbEntity
  8
LAYER0001
  6
CONTINUOUS
 62
       7
100
AcDbCircle
 10
-144.51664323
 20
-204.45730515
 30
0.0
 40
10.00000064
100
AcDbArc
 50
183.0
 51
265.00000057
  0
ARC
  5
62C
100
AcDbEntity
  8
LAYER0001
  6
CONTINUOUS
 62
       7
100
AcDbCircle
 10
-194.95786423
 20
-204.45730547
 30
0.0
 40
10.00000032
100
AcDbArc
 50
274.99999944
 51
357.0
  0
ARC
  5
62D
100
AcDbEntity
  8
LAYER0001
  6
CONTINUOUS
 62
       7
100
AcDbCircle
 10
114.70662628
 20
-268.59615267
 30
0.0
 40
3.0
100
AcDbArc
 50
319.8808331
 51
360.0
  0
ARC
  5
62E
100
AcDbEntity
  8
LAYER0001
  6
CONTINUOUS
 62
       7
100
AcDbCircle
 10
101.70662628
 20
-257.64170152
 30
0.0
 40
20.0
100
AcDbArc
 50
220.1191669
 51
319.8808331
  0
CIRCLE
  5
62F
100
AcDbEntity
  8
LAYER0001
  6
CONTINUOUS
 62
       7
100
AcDbCircle
 10
101.70662628
 20
-247.64170152
 30
0.0
 40
4.5
  0
CIRCLE
  5
630
100
AcDbEntity
  8
LAYER0001
  6
CONTINUOUS
 62
       7
100
AcDbCircle
 10
101.70662628
 20
-267.64170152
 30
0.0
 40
4.5
  0
ARC
  5
631
100
AcDbEntity
  8
LAYER0001
  6
CONTINUOUS
 62
       7
100
AcDbCircle
 10
88.70662628
 20
-268.59615267
 30
0.0
 40
3.0
100
AcDbArc
 50
180.0
 51
220.1191669
  0
LINE
  5
632
100
AcDbEntity
  8
LAYER0001
  6
CONTINUOUS
 62
       7
100
AcDbLine
 10
-331.86026858
 20
79.43168675
 30
0.0
 11
-331.86026813
 21
71.21676989
 31
0.0
  0
LINE
  5
633
100
AcDbEntity
  8
LAYER0001
  6
CONTINUOUS
 62
       7
100
AcDbLine
 10
-291.86026858
 20
79.43168675
 30
0.0
 11
-291.86026903
 21
71.21676989
 31
0.0
  0
INSERT
  5
634
100
AcDbEntity
  8
LAYER0001
  6
CONTINUOUS
100
AcDbBlockReference
  2
GROUP_1
 10
0.0
 20
0.0
 30
0.0
  0
INSERT
  5
635
100
AcDbEntity
  8
LAYER0001
  6
CONTINUOUS
100
AcDbBlockReference
  2
GROUP_2
 10
0.0
 20
0.0
 30
0.0
  0
INSERT
  5
636
100
AcDbEntity
  8
LAYER0001
  6
CONTINUOUS
100
AcDbBlockReference
  2
GROUP_3
 10
0.0
 20
0.0
 30
0.0
  0
INSERT
  5
637
100
AcDbEntity
  8
LAYER0001
  6
CONTINUOUS
100
AcDbBlockReference
  2
GROUP_4
 10
0.0
 20
0.0
 30
0.0
  0
INSERT
  5
638
100
AcDbEntity
  8
LAYER0001
  6
CONTINUOUS
100
AcDbBlockReference
  2
GROUP_5
 10
0.0
 20
0.0
 30
0.0
  0
INSERT
  5
639
100
AcDbEntity
  8
LAYER0001
  6
CONTINUOUS
100
AcDbBlockReference
  2
GROUP_6
 10
0.0
 20
0.0
 30
0.0
  0
INSERT
  5
63A
100
AcDbEntity
  8
LAYER0001
  6
CONTINUOUS
100
AcDbBlockReference
  2
GROUP_7
 10
0.0
 20
0.0
 30
0.0
  0
INSERT
  5
63B
100
AcDbEntity
  8
LAYER0001
  6
CONTINUOUS
100
AcDbBlockReference
  2
GROUP_8
 10
0.0
 20
0.0
 30
0.0
  0
INSERT
  5
63C
100
AcDbEntity
  8
LAYER0001
  6
CONTINUOUS
100
AcDbBlockReference
  2
GROUP_9
 10
0.0
 20
0.0
 30
0.0
  0
INSERT
  5
63D
100
AcDbEntity
  8
LAYER0001
  6
CONTINUOUS
100
AcDbBlockReference
  2
GROUP_10
 10
0.0
 20
0.0
 30
0.0
  0
INSERT
  5
63E
100
AcDbEntity
  8
LAYER0001
  6
CONTINUOUS
100
AcDbBlockReference
  2
GROUP_11
 10
0.0
 20
0.0
 30
0.0
  0
INSERT
  5
63F
100
AcDbEntity
  8
LAYER0001
  6
CONTINUOUS
100
AcDbBlockReference
  2
GROUP_12
 10
0.0
 20
0.0
 30
0.0
  0
INSERT
  5
640
100
AcDbEntity
  8
LAYER0001
  6
CONTINUOUS
100
AcDbBlockReference
  2
GROUP_13
 10
0.0
 20
0.0
 30
0.0
  0
INSERT
  5
641
100
AcDbEntity
  8
LAYER0001
  6
CONTINUOUS
100
AcDbBlockReference
  2
GROUP_14
 10
0.0
 20
0.0
 30
0.0
  0
INSERT
  5
642
100
AcDbEntity
  8
LAYER0001
  6
CONTINUOUS
100
AcDbBlockReference
  2
GROUP_15
 10
0.0
 20
0.0
 30
0.0
  0
INSERT
  5
643
100
AcDbEntity
  8
LAYER0001
  6
CONTINUOUS
100
AcDbBlockReference
  2
GROUP_16
 10
0.0
 20
0.0
 30
0.0
  0
INSERT
  5
644
100
AcDbEntity
  8
LAYER0001
  6
CONTINUOUS
100
AcDbBlockReference
  2
GROUP_17
 10
0.0
 20
0.0
 30
0.0
  0
INSERT
  5
645
100
AcDbEntity
  8
LAYER0001
  6
CONTINUOUS
100
AcDbBlockReference
  2
GROUP_18
 10
0.0
 20
0.0
 30
0.0
  0
INSERT
  5
646
100
AcDbEntity
  8
LAYER0001
  6
CONTINUOUS
100
AcDbBlockReference
  2
GROUP_19
 10
0.0
 20
0.0
 30
0.0
  0
INSERT
  5
647
100
AcDbEntity
  8
LAYER0001
  6
CONTINUOUS
100
AcDbBlockReference
  2
GROUP_20
 10
0.0
 20
0.0
 30
0.0
  0
INSERT
  5
648
100
AcDbEntity
  8
LAYER0001
  6
CONTINUOUS
100
AcDbBlockReference
  2
GROUP_21
 10
0.0
 20
0.0
 30
0.0
  0
INSERT
  5
649
100
AcDbEntity
  8
LAYER0001
  6
CONTINUOUS
100
AcDbBlockReference
  2
GROUP_22
 10
0.0
 20
0.0
 30
0.0
  0
INSERT
  5
64A
100
AcDbEntity
  8
LAYER0001
  6
CONTINUOUS
100
AcDbBlockReference
  2
GROUP_23
 10
0.0
 20
0.0
 30
0.0
  0
INSERT
  5
64B
100
AcDbEntity
  8
LAYER0001
  6
CONTINUOUS
100
AcDbBlockReference
  2
GROUP_24
 10
0.0
 20
0.0
 30
0.0
  0
INSERT
  5
64C
100
AcDbEntity
  8
LAYER0001
  6
CONTINUOUS
100
AcDbBlockReference
  2
GROUP_25
 10
0.0
 20
0.0
 30
0.0
  0
INSERT
  5
64D
100
AcDbEntity
  8
LAYER0001
  6
CONTINUOUS
100
AcDbBlockReference
  2
GROUP_26
 10
0.0
 20
0.0
 30
0.0
  0
INSERT
  5
64E
100
AcDbEntity
  8
LAYER0001
  6
CONTINUOUS
100
AcDbBlockReference
  2
GROUP_27
 10
0.0
 20
0.0
 30
0.0
  0
INSERT
  5
64F
100
AcDbEntity
  8
LAYER0001
  6
CONTINUOUS
100
AcDbBlockReference
  2
GROUP_28
 10
0.0
 20
0.0
 30
0.0
  0
INSERT
  5
650
100
AcDbEntity
  8
LAYER0001
  6
CONTINUOUS
100
AcDbBlockReference
  2
GROUP_29
 10
0.0
 20
0.0
 30
0.0
  0
INSERT
  5
651
100
AcDbEntity
  8
LAYER0001
  6
CONTINUOUS
100
AcDbBlockReference
  2
GROUP_30
 10
0.0
 20
0.0
 30
0.0
  0
INSERT
  5
652
100
AcDbEntity
  8
LAYER0001
  6
CONTINUOUS
100
AcDbBlockReference
  2
GROUP_31
 10
0.0
 20
0.0
 30
0.0
  0
INSERT
  5
653
100
AcDbEntity
  8
LAYER0001
  6
CONTINUOUS
100
AcDbBlockReference
  2
GROUP_32
 10
0.0
 20
0.0
 30
0.0
  0
INSERT
  5
654
100
AcDbEntity
  8
LAYER0001
  6
CONTINUOUS
100
AcDbBlockReference
  2
GROUP_33
 10
0.0
 20
0.0
 30
0.0
  0
INSERT
  5
655
100
AcDbEntity
  8
LAYER0001
  6
CONTINUOUS
100
AcDbBlockReference
  2
GROUP_34
 10
0.0
 20
0.0
 30
0.0
  0
INSERT
  5
656
100
AcDbEntity
  8
LAYER0001
  6
CONTINUOUS
100
AcDbBlockReference
  2
GROUP_35
 10
0.0
 20
0.0
 30
0.0
  0
INSERT
  5
657
100
AcDbEntity
  8
LAYER0001
  6
CONTINUOUS
100
AcDbBlockReference
  2
GROUP_36
 10
0.0
 20
0.0
 30
0.0
  0
TEXT
  5
658
100
AcDbEntity
  8
LAYER0001
 62
       7
100
AcDbText
 10
318.09334429
 20
-269.52175975
 30
0.0
 40
9.525
  1
000
 72
       5
 11
346.66834429
 21
-269.52175975
 31
0.0
100
AcDbText
  0
TEXT
  5
659
100
AcDbEntity
  8
LAYER0001
 62
       7
100
AcDbText
 10
-125.72278389
 20
-253.64078422
 30
0.0
 40
6.35
  1
Lamp 5 Layers shown
 72
       5
 11
-5.07278389
 21
-253.64078422
 31
0.0
100
AcDbText
  0
TEXT
  5
65A
100
AcDbEntity
  8
LAYER0001
 62
       7
100
AcDbText
 10
298.27603291
 20
-247.91107048
 30
0.0
 40
6.35
  1
Lamp 5 Layers shown
 72
       5
 11
418.92603291
 21
-247.91107048
 31
0.0
100
AcDbText
  0
ENDSEC
  0
SECTION
  2
OBJECTS
  0
DICTIONARY
  5
19
100
AcDbDictionary
  3
ACAD_GROUP
350
1A
  3
ACAD_MLINESTYLE
350
1B
  0
DICTIONARY
  5
1A
102
{ACAD_REACTORS
330
19
102
}
100
AcDbDictionary
  0
DICTIONARY
  5
1B
102
{ACAD_REACTORS
330
19
102
}
100
AcDbDictionary
  3
STANDARD
350
1C
  0
MLINESTYLE
  5
1C
102
{ACAD_REACTORS
330
1B
102
}
100
AcDbMlineStyle
  2
STANDARD
 70
       0
  3

 62
       0
 51
90.0
 52
90.0
 71
       2
 49
0.5
 62
     256
  6
BYLAYER
 49
-0.5
 62
     256
  6
BYLAYER
  0
ENDSEC
  0
EOF

