  0
SECTION
  2
HEADER
  9
$ACADVER
  1
AC1014
  9
$ACADMAINTVER
 70
     9
  9
$DWGCODEPAGE
  3
ANSI_932
  9
$INSBASE
 10
0.0
 20
0.0
 30
0.0
  9
$EXTMIN
 10
-454.4413088858668
 20
-404.5616580428784
 30
0.0
  9
$EXTMAX
 10
454.4413088858668
 20
397.6824913761784
 30
0.0
  9
$LIMMIN
 10
-198.1666666666667
 20
-140.1666666666667
  9
$LIMMAX
 10
198.1666666666667
 20
140.1666666666667
  9
$ORTHOMODE
 70
     0
  9
$REGENMODE
 70
     1
  9
$FILLMODE
 70
     1
  9
$QTEXTMODE
 70
     0
  9
$MIRRTEXT
 70
     1
  9
$DRAGMODE
 70
     2
  9
$LTSCALE
 40
0.0833333333333333
  9
$OSMODE
 70
    37
  9
$ATTMODE
 70
     1
  9
$TEXTSIZE
 40
0.2
  9
$TRACEWID
 40
0.05
  9
$TEXTSTYLE
  7
STANDARD
  9
$CLAYER
  8
0
  9
$CELTYPE
  6
BYLAYER
  9
$CECOLOR
 62
   256
  9
$CELTSCALE
 40
1.0
  9
$DELOBJ
 70
     1
  9
$DISPSILH
 70
     0
  9
$DIMSCALE
 40
1.0
  9
$DIMASZ
 40
1.000000635782878
  9
$DIMEXO
 40
1.0
  9
$DIMDLI
 40
10.0
  9
$DIMRND
 40
0.0
  9
$DIMDLE
 40
0.0
  9
$DIMEXE
 40
1.0
  9
$DIMTP
 40
0.0
  9
$DIMTM
 40
0.0
  9
$DIMTXT
 40
1.166666666666667
  9
$DIMCEN
 40
0.0
  9
$DIMTSZ
 40
0.0
  9
$DIMTOL
 70
     0
  9
$DIMLIM
 70
     0
  9
$DIMTIH
 70
     0
  9
$DIMTOH
 70
     0
  9
$DIMSE1
 70
     0
  9
$DIMSE2
 70
     0
  9
$DIMTAD
 70
     1
  9
$DIMZIN
 70
     8
  9
$DIMBLK
  1

  9
$DIMASO
 70
     1
  9
$DIMSHO
 70
     1
  9
$DIMPOST
  1

  9
$DIMAPOST
  1

  9
$DIMALT
 70
     0
  9
$DIMALTD
 70
     2
  9
$DIMALTF
 40
25.4
  9
$DIMLFAC
 40
1.0
  9
$DIMTOFL
 70
     0
  9
$DIMTVP
 40
0.0
  9
$DIMTIX
 70
     0
  9
$DIMSOXD
 70
     0
  9
$DIMSAH
 70
     0
  9
$DIMBLK1
  1

  9
$DIMBLK2
  1

  9
$DIMSTYLE
  2
STANDARD
  9
$DIMCLRD
 70
     0
  9
$DIMCLRE
 70
     0
  9
$DIMCLRT
 70
     0
  9
$DIMTFAC
 40
0.65
  9
$DIMGAP
 40
0.09
  9
$DIMJUST
 70
     0
  9
$DIMSD1
 70
     0
  9
$DIMSD2
 70
     0
  9
$DIMTOLJ
 70
     0
  9
$DIMTZIN
 70
     0
  9
$DIMALTZ
 70
     0
  9
$DIMALTTZ
 70
     0
  9
$DIMFIT
 70
     3
  9
$DIMUPT
 70
     0
  9
$DIMUNIT
 70
     2
  9
$DIMDEC
 70
     2
  9
$DIMTDEC
 70
     2
  9
$DIMALTU
 70
     2
  9
$DIMALTTD
 70
     2
  9
$DIMTXSTY
  7
STANDARD
  9
$DIMAUNIT
 70
     0
  9
$LUNITS
 70
     2
  9
$LUPREC
 70
     4
  9
$SKETCHINC
 40
0.1
  9
$FILLETRAD
 40
0.5
  9
$AUNITS
 70
     0
  9
$AUPREC
 70
     0
  9
$MENU
  1
.
  9
$ELEVATION
 40
0.0
  9
$PELEVATION
 40
0.0
  9
$THICKNESS
 40
0.0
  9
$LIMCHECK
 70
     0
  9
$CHAMFERA
 40
0.0
  9
$CHAMFERB
 40
0.0
  9
$CHAMFERC
 40
0.0
  9
$CHAMFERD
 40
0.0
  9
$SKPOLY
 70
     0
  9
$TDCREATE
 40
2457491.556916898
  9
$TDUPDATE
 40
2457491.556917083
  9
$TDINDWG
 40
0.0000000116
  9
$TDUSRTIMER
 40
0.0000000116
  9
$USRTIMER
 70
     1
  9
$ANGBASE
 50
0.0
  9
$ANGDIR
 70
     0
  9
$PDMODE
 70
     0
  9
$PDSIZE
 40
1.0
  9
$PLINEWID
 40
0.0
  9
$COORDS
 70
     1
  9
$SPLFRAME
 70
     0
  9
$SPLINETYPE
 70
     6
  9
$SPLINESEGS
 70
     8
  9
$ATTDIA
 70
     0
  9
$ATTREQ
 70
     1
  9
$HANDLING
 70
     1
  9
$HANDSEED
  5
42F
  9
$SURFTAB1
 70
     6
  9
$SURFTAB2
 70
     6
  9
$SURFTYPE
 70
     6
  9
$SURFU
 70
     6
  9
$SURFV
 70
     6
  9
$UCSNAME
  2

  9
$UCSORG
 10
0.0
 20
0.0
 30
0.0
  9
$UCSXDIR
 10
1.0
 20
0.0
 30
0.0
  9
$UCSYDIR
 10
0.0
 20
1.0
 30
0.0
  9
$PUCSNAME
  2

  9
$PUCSORG
 10
0.0
 20
0.0
 30
0.0
  9
$PUCSXDIR
 10
1.0
 20
0.0
 30
0.0
  9
$PUCSYDIR
 10
0.0
 20
1.0
 30
0.0
  9
$USERI1
 70
     0
  9
$USERI2
 70
     0
  9
$USERI3
 70
     0
  9
$USERI4
 70
     0
  9
$USERI5
 70
     0
  9
$USERR1
 40
0.0
  9
$USERR2
 40
0.0
  9
$USERR3
 40
0.0
  9
$USERR4
 40
0.0
  9
$USERR5
 40
0.0
  9
$WORLDVIEW
 70
     1
  9
$SHADEDGE
 70
     3
  9
$SHADEDIF
 70
    70
  9
$TILEMODE
 70
     1
  9
$MAXACTVP
 70
    64
  9
$PINSBASE
 10
0.0
 20
0.0
 30
0.0
  9
$PLIMCHECK
 70
     0
  9
$PEXTMIN
 10
1.000000000000000E+20
 20
1.000000000000000E+20
 30
1.000000000000000E+20
  9
$PEXTMAX
 10
-1.000000000000000E+20
 20
-1.000000000000000E+20
 30
-1.000000000000000E+20
  9
$PLIMMIN
 10
0.0
 20
0.0
  9
$PLIMMAX
 10
12.0
 20
9.0
  9
$UNITMODE
 70
     0
  9
$VISRETAIN
 70
     0
  9
$PLINEGEN
 70
     1
  9
$PSLTSCALE
 70
     0
  9
$TREEDEPTH
 70
  3020
  9
$PICKSTYLE
 70
     1
  9
$CMLSTYLE
  2
STANDARD
  9
$CMLJUST
 70
     0
  9
$CMLSCALE
 40
1.0
  9
$PROXYGRAPHICS
 70
     0
  9
$MEASUREMENT
 70
     1
  0
ENDSEC
  0
SECTION
  2
CLASSES
  0
CLASS
  1
ACDBDICTIONARYWDFLT
  2
AcDbDictionaryWithDefault
  3
ObjectDBX Classes
 90
        0
280
     0
281
     0
  0
CLASS
  1
VISUALSTYLE
  2
AcDbVisualStyle
  3
ObjectDBX Classes
 90
     4095
280
     0
281
     0
  0
CLASS
  1
MATERIAL
  2
AcDbMaterial
  3
ObjectDBX Classes
 90
     1153
280
     0
281
     0
  0
CLASS
  1
SCALE
  2
AcDbScale
  3
ObjectDBX Classes
 90
     1153
280
     0
281
     0
  0
CLASS
  1
SUN
  2
AcDbSun
  3
SCENEOE
 90
     1153
280
     0
281
     0
  0
CLASS
  1
DICTIONARYVAR
  2
AcDbDictionaryVar
  3
ObjectDBX Classes
 90
        0
280
     0
281
     0
  0
CLASS
  1
XRECORD
  2
AcDbXrecord
  3
ObjectDBX Classes
 90
        0
280
     0
281
     0
  0
CLASS
  1
LWPOLYLINE
  2
AcDbPolyline
  3
ObjectDBX Classes
 90
        0
280
     0
281
     1
  0
CLASS
  1
HATCH
  2
AcDbHatch
  3
ObjectDBX Classes
 90
        0
280
     0
281
     1
  0
CLASS
  1
ACDBPLACEHOLDER
  2
AcDbPlaceHolder
  3
ObjectDBX Classes
 90
        0
280
     0
281
     0
  0
CLASS
  1
LAYOUT
  2
AcDbLayout
  3
ObjectDBX Classes
 90
        0
280
     0
281
     0
  0
ENDSEC
  0
SECTION
  2
TABLES
  0
TABLE
  2
VPORT
  5
8
102
{ACAD_XDICTIONARY
360
425
102
}
330
0
100
AcDbSymbolTable
 70
     1
  0
VPORT
  5
29
330
8
100
AcDbSymbolTableRecord
100
AcDbViewportTableRecord
  2
*ACTIVE
 70
     0
 10
0.0
 20
0.0
 11
1.0
 21
1.0
 12
1.452358181532073
 22
-3.45074784210945
 13
0.0
 23
0.0
 14
0.5
 24
0.5
 15
0.5
 25
0.5
 16
0.0
 26
0.0
 36
1.0
 17
0.0
 27
0.0
 37
0.0
 40
272.74023520461
 41
1.14388293497901
 42
50.0
 43
0.0
 44
0.0
 50
0.0
 51
0.0
 71
     0
 72
  1000
 73
     1
 74
     1
 75
     0
 76
     0
 77
     0
 78
     0
  0
ENDTAB
  0
TABLE
  2
LTYPE
  5
5
330
0
100
AcDbSymbolTable
 70
    67
  0
LTYPE
  5
14
330
5
100
AcDbSymbolTableRecord
100
AcDbLinetypeTableRecord
  2
BYBLOCK
 70
     0
  3

 72
    65
 73
     0
 40
0.0
  0
LTYPE
  5
15
330
5
100
AcDbSymbolTableRecord
100
AcDbLinetypeTableRecord
  2
BYLAYER
 70
     0
  3

 72
    65
 73
     0
 40
0.0
  0
LTYPE
  5
16
330
5
100
AcDbSymbolTableRecord
100
AcDbLinetypeTableRecord
  2
CONTINUOUS
 70
     0
  3
Solid line
 72
    65
 73
     0
 40
0.0
  0
LTYPE
  5
6B
330
5
100
AcDbSymbolTableRecord
100
AcDbLinetypeTableRecord
  2
HIDDENX2
 70
     0
  3
Hidden (2x) ____ ____ ____ ____ ____ ____ ____ 
 72
    65
 73
     2
 40
19.05
 49
12.7
 74
     0
 49
-6.35
 74
     0
  0
LTYPE
  5
6C
330
5
100
AcDbSymbolTableRecord
100
AcDbLinetypeTableRecord
  2
HIDDEN
 70
     0
  3
Hidden __ __ __ __ __ __ __ __ __ __ __ __ __ __
 72
    65
 73
     2
 40
9.524999999999999
 49
6.35
 74
     0
 49
-3.175
 74
     0
  0
LTYPE
  5
6D
330
5
100
AcDbSymbolTableRecord
100
AcDbLinetypeTableRecord
  2
HIDDEN2
 70
     0
  3
Hidden (.5x) _ _ _ _ _ _ _ _ _ _ _ _ _ _ _ _ _ 
 72
    65
 73
     2
 40
4.762499999999999
 49
3.175
 74
     0
 49
-1.5875
 74
     0
  0
LTYPE
  5
6E
330
5
100
AcDbSymbolTableRecord
100
AcDbLinetypeTableRecord
  2
DASHED
 70
     0
  3
Dashed __ __ __ __ __ __ __ __ __ __ __ __ __ _
 72
    65
 73
     2
 40
19.05
 49
12.7
 74
     0
 49
-6.35
 74
     0
  0
LTYPE
  5
6F
330
5
100
AcDbSymbolTableRecord
100
AcDbLinetypeTableRecord
  2
DASHED2
 70
     0
  3
Dashed (.5x) _ _ _ _ _ _ _ _ _ _ _ _ _ _ _ _ _ 
 72
    65
 73
     2
 40
9.524999999999999
 49
6.35
 74
     0
 49
-3.175
 74
     0
  0
LTYPE
  5
70
330
5
100
AcDbSymbolTableRecord
100
AcDbLinetypeTableRecord
  2
DASHEDX2
 70
     0
  3
Dashed (2x) ____  ____  ____  ____  ____  ___
 72
    65
 73
     2
 40
38.09999999999999
 49
25.4
 74
     0
 49
-12.7
 74
     0
  0
LTYPE
  5
71
330
5
100
AcDbSymbolTableRecord
100
AcDbLinetypeTableRecord
  2
DOTX2
 70
     0
  3
Dot (2x) .  .  .  .  .  .  .  .  .  .  .  .  .  .
 72
    65
 73
     2
 40
12.7
 49
0.0
 74
     0
 49
-12.7
 74
     0
  0
LTYPE
  5
72
330
5
100
AcDbSymbolTableRecord
100
AcDbLinetypeTableRecord
  2
DOT
 70
     0
  3
Dot . . . . . . . . . . . . . . . . . . . . . . . .
 72
    65
 73
     2
 40
6.35
 49
0.0
 74
     0
 49
-6.35
 74
     0
  0
LTYPE
  5
73
330
5
100
AcDbSymbolTableRecord
100
AcDbLinetypeTableRecord
  2
DOT2
 70
     0
  3
Dot (.5x) ........................................
 72
    65
 73
     2
 40
3.175
 49
0.0
 74
     0
 49
-3.175
 74
     0
  0
LTYPE
  5
74
330
5
100
AcDbSymbolTableRecord
100
AcDbLinetypeTableRecord
  2
CENTERX2
 70
     0
  3
Center (2x) ________  __  ________  __  _____
 72
    65
 73
     4
 40
101.6
 49
63.5
 74
     0
 49
-12.7
 74
     0
 49
12.7
 74
     0
 49
-12.7
 74
     0
  0
LTYPE
  5
75
330
5
100
AcDbSymbolTableRecord
100
AcDbLinetypeTableRecord
  2
CENTER
 70
     0
  3
Center ____ _ ____ _ ____ _ ____ _ ____ _ ____
 72
    65
 73
     4
 40
50.8
 49
31.75
 74
     0
 49
-6.35
 74
     0
 49
6.35
 74
     0
 49
-6.35
 74
     0
  0
LTYPE
  5
76
330
5
100
AcDbSymbolTableRecord
100
AcDbLinetypeTableRecord
  2
CENTER2
 70
     0
  3
Center (.5x) ___ _ ___ _ ___ _ ___ _ ___ _ ___
 72
    65
 73
     4
 40
28.575
 49
19.05
 74
     0
 49
-3.175
 74
     0
 49
3.175
 74
     0
 49
-3.175
 74
     0
  0
LTYPE
  5
77
330
5
100
AcDbSymbolTableRecord
100
AcDbLinetypeTableRecord
  2
DASHDOTX2
 70
     0
  3
Dash dot (2x) ____  .  ____  .  ____  .  ___
 72
    65
 73
     4
 40
50.8
 49
25.4
 74
     0
 49
-12.7
 74
     0
 49
0.0
 74
     0
 49
-12.7
 74
     0
  0
LTYPE
  5
78
330
5
100
AcDbSymbolTableRecord
100
AcDbLinetypeTableRecord
  2
DASHDOT
 70
     0
  3
Dash dot __ . __ . __ . __ . __ . __ . __ . __
 72
    65
 73
     4
 40
25.4
 49
12.7
 74
     0
 49
-6.35
 74
     0
 49
0.0
 74
     0
 49
-6.35
 74
     0
  0
LTYPE
  5
79
330
5
100
AcDbSymbolTableRecord
100
AcDbLinetypeTableRecord
  2
DASHDOT2
 70
     0
  3
Dash dot (.5x) _._._._._._._._._._._._._._._.
 72
    65
 73
     4
 40
12.7
 49
6.35
 74
     0
 49
-3.175
 74
     0
 49
0.0
 74
     0
 49
-3.175
 74
     0
  0
LTYPE
  5
7A
330
5
100
AcDbSymbolTableRecord
100
AcDbLinetypeTableRecord
  2
DIVIDEX2
 70
     0
  3
Divide (2x) ________  .  .  ________  .  .  _
 72
    65
 73
     6
 40
63.5
 49
25.4
 74
     0
 49
-12.7
 74
     0
 49
0.0
 74
     0
 49
-12.7
 74
     0
 49
0.0
 74
     0
 49
-12.7
 74
     0
  0
LTYPE
  5
7B
330
5
100
AcDbSymbolTableRecord
100
AcDbLinetypeTableRecord
  2
DIVIDE
 70
     0
  3
Divide ____ . . ____ . . ____ . . ____ . . ____
 72
    65
 73
     6
 40
31.75
 49
12.7
 74
     0
 49
-6.35
 74
     0
 49
0.0
 74
     0
 49
-6.35
 74
     0
 49
0.0
 74
     0
 49
-6.35
 74
     0
  0
LTYPE
  5
7C
330
5
100
AcDbSymbolTableRecord
100
AcDbLinetypeTableRecord
  2
DIVIDE2
 70
     0
  3
Divide (.5x) __..__..__..__..__..__..__..__.._
 72
    65
 73
     6
 40
15.875
 49
6.35
 74
     0
 49
-3.175
 74
     0
 49
0.0
 74
     0
 49
-3.175
 74
     0
 49
0.0
 74
     0
 49
-3.175
 74
     0
  0
LTYPE
  5
7D
330
5
100
AcDbSymbolTableRecord
100
AcDbLinetypeTableRecord
  2
BORDERX2
 70
     0
  3
Border (2x) ____  ____  .  ____  ____  .  ___
 72
    65
 73
     6
 40
88.89999999999999
 49
25.4
 74
     0
 49
-12.7
 74
     0
 49
25.4
 74
     0
 49
-12.7
 74
     0
 49
0.0
 74
     0
 49
-12.7
 74
     0
  0
LTYPE
  5
7E
330
5
100
AcDbSymbolTableRecord
100
AcDbLinetypeTableRecord
  2
BORDER
 70
     0
  3
Border __ __ . __ __ . __ __ . __ __ . __ __ .
 72
    65
 73
     6
 40
44.45
 49
12.7
 74
     0
 49
-6.35
 74
     0
 49
12.7
 74
     0
 49
-6.35
 74
     0
 49
0.0
 74
     0
 49
-6.35
 74
     0
  0
LTYPE
  5
7F
330
5
100
AcDbSymbolTableRecord
100
AcDbLinetypeTableRecord
  2
BORDER2
 70
     0
  3
Border (.5x) __.__.__.__.__.__.__.__.__.__.__.
 72
    65
 73
     6
 40
22.225
 49
6.35
 74
     0
 49
-3.175
 74
     0
 49
6.35
 74
     0
 49
-3.175
 74
     0
 49
0.0
 74
     0
 49
-3.175
 74
     0
  0
LTYPE
  5
80
330
5
100
AcDbSymbolTableRecord
100
AcDbLinetypeTableRecord
  2
PHANTOMX2
 70
     0
  3
Phantom (2x) ____________    ____    ____   _
 72
    65
 73
     6
 40
127.0
 49
63.5
 74
     0
 49
-12.7
 74
     0
 49
12.7
 74
     0
 49
-12.7
 74
     0
 49
12.7
 74
     0
 49
-12.7
 74
     0
  0
LTYPE
  5
81
330
5
100
AcDbSymbolTableRecord
100
AcDbLinetypeTableRecord
  2
PHANTOM
 70
     0
  3
Phantom ______  __  __  ______  __  __  ______ 
 72
    65
 73
     6
 40
63.5
 49
31.75
 74
     0
 49
-6.35
 74
     0
 49
6.35
 74
     0
 49
-6.35
 74
     0
 49
6.35
 74
     0
 49
-6.35
 74
     0
  0
LTYPE
  5
82
330
5
100
AcDbSymbolTableRecord
100
AcDbLinetypeTableRecord
  2
PHANTOM2
 70
     0
  3
Phantom (.5x) ___ _ _ ___ _ _ ___ _ _ ___ _ _
 72
    65
 73
     6
 40
31.75
 49
15.875
 74
     0
 49
-3.175
 74
     0
 49
3.175
 74
     0
 49
-3.175
 74
     0
 49
3.175
 74
     0
 49
-3.175
 74
     0
  0
LTYPE
  5
83
330
5
100
AcDbSymbolTableRecord
100
AcDbLinetypeTableRecord
  2
ACAD_ISO06W100
 70
     0
  3
ISO long-dash triple-dot ____ ... ____ ... ____
 72
    65
 73
     8
 40
36.0
 49
24.0
 74
     0
 49
-3.0
 74
     0
 49
0.0
 74
     0
 49
-3.0
 74
     0
 49
0.0
 74
     0
 49
-3.0
 74
     0
 49
0.0
 74
     0
 49
-3.0
 74
     0
  0
LTYPE
  5
84
330
5
100
AcDbSymbolTableRecord
100
AcDbLinetypeTableRecord
  2
ACAD_ISO13W100
 70
     0
  3
ISO double-dash double-dot __ __ . . __ __ . . _
 72
    65
 73
     8
 40
36.0
 49
12.0
 74
     0
 49
-3.0
 74
     0
 49
12.0
 74
     0
 49
-3.0
 74
     0
 49
0.0
 74
     0
 49
-3.0
 74
     0
 49
0.0
 74
     0
 49
-3.0
 74
     0
  0
LTYPE
  5
85
330
5
100
AcDbSymbolTableRecord
100
AcDbLinetypeTableRecord
  2
ACAD_ISO14W100
 70
     0
  3
ISO dash triple-dot __ . . . __ . . . __ . . . _
 72
    65
 73
     8
 40
24.0
 49
12.0
 74
     0
 49
-3.0
 74
     0
 49
0.0
 74
     0
 49
-3.0
 74
     0
 49
0.0
 74
     0
 49
-3.0
 74
     0
 49
0.0
 74
     0
 49
-3.0
 74
     0
  0
LTYPE
  5
86
330
5
100
AcDbSymbolTableRecord
100
AcDbLinetypeTableRecord
  2
ACAD_ISO02W100
 70
     0
  3
ISO dash __ __ __ __ __ __ __ __ __ __ __ __ __
 72
    65
 73
     2
 40
15.0
 49
12.0
 74
     0
 49
-3.0
 74
     0
  0
LTYPE
  5
87
330
5
100
AcDbSymbolTableRecord
100
AcDbLinetypeTableRecord
  2
ACAD_ISO03W100
 70
     0
  3
ISO dash space __    __    __    __    __    __
 72
    65
 73
     2
 40
30.0
 49
12.0
 74
     0
 49
-18.0
 74
     0
  0
LTYPE
  5
88
330
5
100
AcDbSymbolTableRecord
100
AcDbLinetypeTableRecord
  2
ACAD_ISO04W100
 70
     0
  3
ISO long-dash dot ____ . ____ . ____ . ____ . _
 72
    65
 73
     4
 40
30.0
 49
24.0
 74
     0
 49
-3.0
 74
     0
 49
0.0
 74
     0
 49
-3.0
 74
     0
  0
LTYPE
  5
89
330
5
100
AcDbSymbolTableRecord
100
AcDbLinetypeTableRecord
  2
ACAD_ISO05W100
 70
     0
  3
ISO long-dash double-dot ____ .. ____ .. ____ . 
 72
    65
 73
     6
 40
33.0
 49
24.0
 74
     0
 49
-3.0
 74
     0
 49
0.0
 74
     0
 49
-3.0
 74
     0
 49
0.0
 74
     0
 49
-3.0
 74
     0
  0
LTYPE
  5
8A
330
5
100
AcDbSymbolTableRecord
100
AcDbLinetypeTableRecord
  2
ACAD_ISO07W100
 70
     0
  3
ISO dot . . . . . . . . . . . . . . . . . . . . 
 72
    65
 73
     2
 40
3.0
 49
0.0
 74
     0
 49
-3.0
 74
     0
  0
LTYPE
  5
8B
330
5
100
AcDbSymbolTableRecord
100
AcDbLinetypeTableRecord
  2
ACAD_ISO08W100
 70
     0
  3
ISO long-dash short-dash ____ __ ____ __ ____ _
 72
    65
 73
     4
 40
36.0
 49
24.0
 74
     0
 49
-3.0
 74
     0
 49
6.0
 74
     0
 49
-3.0
 74
     0
  0
LTYPE
  5
8C
330
5
100
AcDbSymbolTableRecord
100
AcDbLinetypeTableRecord
  2
ACAD_ISO09W100
 70
     0
  3
ISO long-dash double-short-dash ____ __ __ ____
 72
    65
 73
     6
 40
45.0
 49
24.0
 74
     0
 49
-3.0
 74
     0
 49
6.0
 74
     0
 49
-3.0
 74
     0
 49
6.0
 74
     0
 49
-3.0
 74
     0
  0
LTYPE
  5
8D
330
5
100
AcDbSymbolTableRecord
100
AcDbLinetypeTableRecord
  2
ACAD_ISO10W100
 70
     0
  3
ISO dash dot __ . __ . __ . __ . __ . __ . __ . 
 72
    65
 73
     4
 40
18.0
 49
12.0
 74
     0
 49
-3.0
 74
     0
 49
0.0
 74
     0
 49
-3.0
 74
     0
  0
LTYPE
  5
8E
330
5
100
AcDbSymbolTableRecord
100
AcDbLinetypeTableRecord
  2
ACAD_ISO11W100
 70
     0
  3
ISO double-dash dot __ __ . __ __ . __ __ . __ _
 72
    65
 73
     6
 40
33.0
 49
12.0
 74
     0
 49
-3.0
 74
     0
 49
12.0
 74
     0
 49
-3.0
 74
     0
 49
0.0
 74
     0
 49
-3.0
 74
     0
  0
LTYPE
  5
8F
330
5
100
AcDbSymbolTableRecord
100
AcDbLinetypeTableRecord
  2
ACAD_ISO12W100
 70
     0
  3
ISO dash double-dot __ . . __ . . __ . . __ . . 
 72
    65
 73
     6
 40
21.0
 49
12.0
 74
     0
 49
-3.0
 74
     0
 49
0.0
 74
     0
 49
-3.0
 74
     0
 49
0.0
 74
     0
 49
-3.0
 74
     0
  0
LTYPE
  5
90
330
5
100
AcDbSymbolTableRecord
100
AcDbLinetypeTableRecord
  2
ACAD_ISO15W100
 70
     0
  3
ISO double-dash triple-dot __ __ . . . __ __ . .
 72
    65
 73
    10
 40
39.0
 49
12.0
 74
     0
 49
-3.0
 74
     0
 49
12.0
 74
     0
 49
-3.0
 74
     0
 49
0.0
 74
     0
 49
-3.0
 74
     0
 49
0.0
 74
     0
 49
-3.0
 74
     0
 49
0.0
 74
     0
 49
-3.0
 74
     0
  0
LTYPE
  5
91
330
5
100
AcDbSymbolTableRecord
100
AcDbLinetypeTableRecord
  2
JIS_02_0_7
 70
     0
  3
HIDDEN0.75 _ _ _ _ _ _ _ _ _ _ _ _ _ _ _ _ _ 
 72
    65
 73
     2
 40
1.35
 49
0.75
 74
     0
 49
-0.6
 74
     0
  0
LTYPE
  5
92
330
5
100
AcDbSymbolTableRecord
100
AcDbLinetypeTableRecord
  2
JIS_02_1_0
 70
     0
  3
HIDDEN01 _ _ _ _ _ _ _ _ _ _ _ _ _ _ _ _ _ 
 72
    65
 73
     2
 40
2.0
 49
1.0
 74
     0
 49
-1.0
 74
     0
  0
LTYPE
  5
93
330
5
100
AcDbSymbolTableRecord
100
AcDbLinetypeTableRecord
  2
JIS_02_1_2
 70
     0
  3
HIDDEN01.25  _ _ _ _ _ _ _ _ _ _ _ _ _ _ _ _ _ 
 72
    65
 73
     2
 40
2.5
 49
1.25
 74
     0
 49
-1.25
 74
     0
  0
LTYPE
  5
94
330
5
100
AcDbSymbolTableRecord
100
AcDbLinetypeTableRecord
  2
JIS_02_2_0
 70
     0
  3
HIDDEN02 __ __ __ __ __ __ __ __ __ __ __ 
 72
    65
 73
     2
 40
3.0
 49
2.0
 74
     0
 49
-1.0
 74
     0
  0
LTYPE
  5
95
330
5
100
AcDbSymbolTableRecord
100
AcDbLinetypeTableRecord
  2
JIS_02_4_0
 70
     0
  3
HIDDEN04 ____ ____ ____ ____ ____ ____ ____ 
 72
    65
 73
     2
 40
5.5
 49
4.0
 74
     0
 49
-1.5
 74
     0
  0
LTYPE
  5
96
330
5
100
AcDbSymbolTableRecord
100
AcDbLinetypeTableRecord
  2
JIS_08_11
 70
     0
  3
1SASEN11 ___ _ ___ _ ___ _ ___ _ ___ _ ___
 72
    65
 73
     4
 40
12.8
 49
11.0
 74
     0
 49
-0.6
 74
     0
 49
0.6
 74
     0
 49
-0.6
 74
     0
  0
LTYPE
  5
97
330
5
100
AcDbSymbolTableRecord
100
AcDbLinetypeTableRecord
  2
JIS_08_15
 70
     0
  3
1SASEN15 ____ _ ____ _ ____ _ ____ _ ____ 
 72
    65
 73
     4
 40
17.25
 49
15.0
 74
     0
 49
-0.75
 74
     0
 49
0.75
 74
     0
 49
-0.75
 74
     0
  0
LTYPE
  5
98
330
5
100
AcDbSymbolTableRecord
100
AcDbLinetypeTableRecord
  2
JIS_08_25
 70
     0
  3
1SASEN25 ________  __  ________  __  _____
 72
    65
 73
     4
 40
28.0
 49
25.0
 74
     0
 49
-1.125
 74
     0
 49
0.75
 74
     0
 49
-1.125
 74
     0
  0
LTYPE
  5
99
330
5
100
AcDbSymbolTableRecord
100
AcDbLinetypeTableRecord
  2
JIS_08_37
 70
     0
  3
1SASEN37 ________  __  ________  __  _____
 72
    65
 73
     4
 40
40.5
 49
37.5
 74
     0
 49
-1.125
 74
     0
 49
0.75
 74
     0
 49
-1.125
 74
     0
  0
LTYPE
  5
9A
330
5
100
AcDbSymbolTableRecord
100
AcDbLinetypeTableRecord
  2
JIS_08_50
 70
     0
  3
1SASEN50 _______________  __  ____________
 72
    65
 73
     4
 40
53.0
 49
50.0
 74
     0
 49
-1.125
 74
     0
 49
0.75
 74
     0
 49
-1.125
 74
     0
  0
LTYPE
  5
9B
330
5
100
AcDbSymbolTableRecord
100
AcDbLinetypeTableRecord
  2
JIS_09_08
 70
     0
  3
2SASEN8 __ _ _ __ _ _ __ _ _ __ _ _ __ _ _ 
 72
    65
 73
     6
 40
10.75
 49
8.0
 74
     0
 49
-0.55
 74
     0
 49
0.55
 74
     0
 49
-0.55
 74
     0
 49
0.55
 74
     0
 49
-0.55
 74
     0
  0
LTYPE
  5
9C
330
5
100
AcDbSymbolTableRecord
100
AcDbLinetypeTableRecord
  2
JIS_09_15
 70
     0
  3
2SASEN15 ___ _ _ ___ _ _ ___ _ _ ___ _ _ ___ 
 72
    65
 73
     6
 40
18.9
 49
15.0
 74
     0
 49
-0.9
 74
     0
 49
0.6
 74
     0
 49
-0.9
 74
     0
 49
0.6
 74
     0
 49
-0.9
 74
     0
  0
LTYPE
  5
9D
330
5
100
AcDbSymbolTableRecord
100
AcDbLinetypeTableRecord
  2
JIS_09_29
 70
     0
  3
2SASEN29 ______　__  __  ______　__  __  ___
 72
    65
 73
     6
 40
34.0
 49
29.0
 74
     0
 49
-1.2
 74
     0
 49
0.7
 74
     0
 49
-1.2
 74
     0
 49
0.7
 74
     0
 49
-1.2
 74
     0
  0
LTYPE
  5
9E
330
5
100
AcDbSymbolTableRecord
100
AcDbLinetypeTableRecord
  2
JIS_09_50
 70
     0
  3
2SASEN50 ____________　__  __  _____________
 72
    65
 73
     6
 40
55.0
 49
50.0
 74
     0
 49
-1.2
 74
     0
 49
0.7
 74
     0
 49
-1.2
 74
     0
 49
0.7
 74
     0
 49
-1.2
 74
     0
  0
LTYPE
  5
9F
330
5
100
AcDbSymbolTableRecord
100
AcDbLinetypeTableRecord
  2
SXF_破線
 70
     0
  3
02 dashed -- -- -- -- -- --
 72
    65
 73
     2
 40
7.5
 49
6.0
 74
     0
 49
-1.5
 74
     0
  0
LTYPE
  5
A0
330
5
100
AcDbSymbolTableRecord
100
AcDbLinetypeTableRecord
  2
SXF_跳び破線
 70
     0
  3
03 dashed_spaced --  --  --  --
 72
    65
 73
     2
 40
12.0
 49
6.0
 74
     0
 49
-6.0
 74
     0
  0
LTYPE
  5
A1
330
5
100
AcDbSymbolTableRecord
100
AcDbLinetypeTableRecord
  2
SXF_一点長鎖線
 70
     0
  3
04 long_dashed_dotted ---- . ---- . ----
 72
    65
 73
     4
 40
15.25
 49
12.0
 74
     0
 49
-1.5
 74
     0
 49
0.25
 74
     0
 49
-1.5
 74
     0
  0
LTYPE
  5
A2
330
5
100
AcDbSymbolTableRecord
100
AcDbLinetypeTableRecord
  2
SXF_二点長鎖線
 70
     0
  3
05 long_dashed_double-dotted ---- . . ---- 
 72
    65
 73
     6
 40
17.0
 49
12.0
 74
     0
 49
-1.5
 74
     0
 49
0.25
 74
     0
 49
-1.5
 74
     0
 49
0.25
 74
     0
 49
-1.5
 74
     0
  0
LTYPE
  5
A3
330
5
100
AcDbSymbolTableRecord
100
AcDbLinetypeTableRecord
  2
SXF_三点長鎖線
 70
     0
  3
06 long_dashed_triplicate-dotted ---- ... ---- 
 72
    65
 73
     8
 40
18.75
 49
12.0
 74
     0
 49
-1.5
 74
     0
 49
0.25
 74
     0
 49
-1.5
 74
     0
 49
0.25
 74
     0
 49
-1.5
 74
     0
 49
0.25
 74
     0
 49
-1.5
 74
     0
  0
LTYPE
  5
A4
330
5
100
AcDbSymbolTableRecord
100
AcDbLinetypeTableRecord
  2
SXF_点線
 70
     0
  3
07 dotted . . . . . . . . . . . . 
 72
    65
 73
     2
 40
1.75
 49
0.25
 74
     0
 49
-1.5
 74
     0
  0
LTYPE
  5
A5
330
5
100
AcDbSymbolTableRecord
100
AcDbLinetypeTableRecord
  2
SXF_一点鎖線
 70
     0
  3
08 chain ---- - --- - --- - ---
 72
    65
 73
     4
 40
18.5
 49
12.0
 74
     0
 49
-1.5
 74
     0
 49
3.5
 74
     0
 49
-1.5
 74
     0
  0
LTYPE
  5
A6
330
5
100
AcDbSymbolTableRecord
100
AcDbLinetypeTableRecord
  2
SXF_二点鎖線
 70
     0
  3
09 chain_double_dash ---- - - ---- - - ----
 72
    65
 73
     6
 40
23.5
 49
12.0
 74
     0
 49
-1.5
 74
     0
 49
3.5
 74
     0
 49
-1.5
 74
     0
 49
3.5
 74
     0
 49
-1.5
 74
     0
  0
LTYPE
  5
A7
330
5
100
AcDbSymbolTableRecord
100
AcDbLinetypeTableRecord
  2
SXF_一点短鎖線
 70
     0
  3
10 dashed_dotted -- . -- . -- . --
 72
    65
 73
     4
 40
9.25
 49
6.0
 74
     0
 49
-1.5
 74
     0
 49
0.25
 74
     0
 49
-1.5
 74
     0
  0
LTYPE
  5
A8
330
5
100
AcDbSymbolTableRecord
100
AcDbLinetypeTableRecord
  2
SXF_一点二短鎖線
 70
     0
  3
11 double-dashed_dotted -- -- . -- --
 72
    65
 73
     6
 40
16.75
 49
6.0
 74
     0
 49
-1.5
 74
     0
 49
6.0
 74
     0
 49
-1.5
 74
     0
 49
0.25
 74
     0
 49
-1.5
 74
     0
  0
LTYPE
  5
A9
330
5
100
AcDbSymbolTableRecord
100
AcDbLinetypeTableRecord
  2
SXF_二点短鎖線
 70
     0
  3
12 dashed_double_dotted -- . . -- . . --
 72
    65
 73
     6
 40
11.0
 49
6.0
 74
     0
 49
-1.5
 74
     0
 49
0.25
 74
     0
 49
-1.5
 74
     0
 49
0.25
 74
     0
 49
-1.5
 74
     0
  0
LTYPE
  5
AA
330
5
100
AcDbSymbolTableRecord
100
AcDbLinetypeTableRecord
  2
SXF_二点二短鎖線
 70
     0
  3
13 double-dashed_double-dotted -- -- . . -- --
 72
    65
 73
     8
 40
18.5
 49
6.0
 74
     0
 49
-1.5
 74
     0
 49
6.0
 74
     0
 49
-1.5
 74
     0
 49
0.25
 74
     0
 49
-1.5
 74
     0
 49
0.25
 74
     0
 49
-1.5
 74
     0
  0
LTYPE
  5
AB
330
5
100
AcDbSymbolTableRecord
100
AcDbLinetypeTableRecord
  2
SXF_三点短鎖線
 70
     0
  3
14 dashed triplicate-dotted -- . . . -- . . . --
 72
    65
 73
     8
 40
12.75
 49
6.0
 74
     0
 49
-1.5
 74
     0
 49
0.25
 74
     0
 49
-1.5
 74
     0
 49
0.25
 74
     0
 49
-1.5
 74
     0
 49
0.25
 74
     0
 49
-1.5
 74
     0
  0
LTYPE
  5
AC
330
5
100
AcDbSymbolTableRecord
100
AcDbLinetypeTableRecord
  2
SXF_三点二短鎖線
 70
     0
  3
15 double-dashed triplicate-dotted -- -- . . . -- -- 
 72
    65
 73
    10
 40
20.25
 49
6.0
 74
     0
 49
-1.5
 74
     0
 49
6.0
 74
     0
 49
-1.5
 74
     0
 49
0.25
 74
     0
 49
-1.5
 74
     0
 49
0.25
 74
     0
 49
-1.5
 74
     0
 49
0.25
 74
     0
 49
-1.5
 74
     0
  0
ENDTAB
  0
TABLE
  2
LAYER
  5
2
330
0
100
AcDbSymbolTable
 70
     1
  0
LAYER
  5
10
330
2
100
AcDbSymbolTableRecord
100
AcDbLayerTableRecord
  2
0
 70
     0
 62
     7
  6
CONTINUOUS
  0
ENDTAB
  0
TABLE
  2
STYLE
  5
3
330
0
100
AcDbSymbolTable
 70
     2
  0
STYLE
  5
11
330
3
100
AcDbSymbolTableRecord
100
AcDbTextStyleTableRecord
  2
STANDARD
 70
     0
 40
0.0
 41
1.0
 50
0.0
 71
     0
 42
0.2
  3
txt.shx
  4
bigfont.shx
  0
STYLE
  5
3FB
330
3
100
AcDbSymbolTableRecord
100
AcDbTextStyleTableRecord
  2
DCSTYLE0
 70
     0
 40
0.0
 41
0.4199999999999996
 50
0.0
 71
     0
 42
0.2
  3
txt.shx
  4
bigfont
  0
ENDTAB
  0
TABLE
  2
VIEW
  5
6
330
0
100
AcDbSymbolTable
 70
     0
  0
ENDTAB
  0
TABLE
  2
UCS
  5
7
330
0
100
AcDbSymbolTable
 70
     0
  0
ENDTAB
  0
TABLE
  2
APPID
  5
9
330
0
100
AcDbSymbolTable
 70
     2
  0
APPID
  5
12
330
9
100
AcDbSymbolTableRecord
100
AcDbRegAppTableRecord
  2
ACAD
 70
     0
  0
APPID
  5
6A
330
9
100
AcDbSymbolTableRecord
100
AcDbRegAppTableRecord
  2
DAFUSIONOUT
 70
     0
  0
ENDTAB
  0
TABLE
  2
DIMSTYLE
  5
A
330
0
100
AcDbSymbolTable
 70
     1
  0
DIMSTYLE
105
27
330
A
100
AcDbSymbolTableRecord
100
AcDbDimStyleTableRecord
  2
STANDARD
 70
     0
  3

  4

  5

  6

  7

 40
1.0
 41
0.18
 42
0.0625
 43
0.38
 44
0.18
 45
0.0
 46
0.0
 47
0.0
 48
0.0
140
0.18
141
0.09
142
0.0
143
25.4
144
1.0
145
0.0
146
1.0
147
0.09
 71
     0
 72
     0
 73
     1
 74
     1
 75
     0
 76
     0
 77
     0
 78
     0
170
     0
171
     2
172
     0
173
     0
174
     0
175
     0
176
     0
177
     0
178
     0
270
     2
271
     4
272
     4
273
     2
274
     2
340
11
275
     0
280
     0
281
     0
282
     0
283
     1
284
     0
285
     0
286
     0
287
     3
288
     0
  0
ENDTAB
  0
TABLE
  2
BLOCK_RECORD
  5
1
330
0
100
AcDbSymbolTable
 70
     1
  0
BLOCK_RECORD
  5
1F
330
1
100
AcDbSymbolTableRecord
100
AcDbBlockTableRecord
  2
*MODEL_SPACE
  0
BLOCK_RECORD
  5
1B
330
1
100
AcDbSymbolTableRecord
100
AcDbBlockTableRecord
  2
*PAPER_SPACE
  0
ENDTAB
  0
ENDSEC
  0
SECTION
  2
BLOCKS
  0
BLOCK
  5
20
330
1F
100
AcDbEntity
  8
0
100
AcDbBlockBegin
  2
*MODEL_SPACE
 70
     0
 10
0.0
 20
0.0
 30
0.0
  3
*MODEL_SPACE
  1

  0
ENDBLK
  5
21
330
1F
100
AcDbEntity
  8
0
100
AcDbBlockEnd
  0
BLOCK
  5
1C
330
1B
100
AcDbEntity
 67
     1
  8
0
100
AcDbBlockBegin
  2
*PAPER_SPACE
 70
     0
 10
0.0
 20
0.0
 30
0.0
  3
*PAPER_SPACE
  1

  0
ENDBLK
  5
1D
330
1B
100
AcDbEntity
 67
     1
  8
0
100
AcDbBlockEnd
  0
ENDSEC
  0
SECTION
  2
ENTITIES
  0
LINE
  5
AE
330
1F
100
AcDbEntity
  8
0
  6
CONTINUOUS
 62
     7
100
AcDbLine
 10
-103.0270186886889
 20
-117.0578663633595
 30
0.0
 11
-102.5804364755889
 21
-116.2843657122594
 31
0.0
  0
LINE
  5
AF
330
1F
100
AcDbEntity
  8
0
  6
CONTINUOUS
 62
     7
100
AcDbLine
 10
-106.1804368793889
 20
-116.2843657122594
 30
0.0
 11
-105.7338546663889
 21
-117.0578663633595
 31
0.0
  0
LINE
  5
B0
330
1F
100
AcDbEntity
  8
0
  6
CONTINUOUS
 62
     7
100
AcDbLine
 10
-102.5804364755889
 20
-31.28436481815945
 30
0.0
 11
-103.0270186886889
 21
-30.51086416705945
 31
0.0
  0
LINE
  5
B1
330
1F
100
AcDbEntity
  8
0
  6
CONTINUOUS
 62
     7
100
AcDbLine
 10
-105.7338546663889
 20
-30.51086416705945
 30
0.0
 11
-106.1804368793889
 21
-31.28436481815945
 31
0.0
  0
LINE
  5
B2
330
1F
100
AcDbEntity
  8
0
  6
CONTINUOUS
 62
     7
100
AcDbLine
 10
-99.42701851768892
 20
-117.0578663633595
 30
0.0
 11
-98.98043653748893
 21
-116.2843657122594
 31
0.0
  0
LINE
  5
B3
330
1F
100
AcDbEntity
  8
0
  6
CONTINUOUS
 62
     7
100
AcDbLine
 10
-102.5804364755889
 20
-116.2843657122594
 30
0.0
 11
-102.1338547281889
 21
-117.0578663633595
 31
0.0
  0
LINE
  5
B4
330
1F
100
AcDbEntity
  8
0
  6
CONTINUOUS
 62
     7
100
AcDbLine
 10
-98.98043653748893
 20
-31.28436481815945
 30
0.0
 11
-99.42701851768892
 21
-30.51086416705945
 31
0.0
  0
LINE
  5
B5
330
1F
100
AcDbEntity
  8
0
  6
CONTINUOUS
 62
     7
100
AcDbLine
 10
-102.1338547281889
 20
-30.51086416705945
 30
0.0
 11
-102.5804364755889
 21
-31.28436481815945
 31
0.0
  0
LINE
  5
B6
330
1F
100
AcDbEntity
  8
0
  6
CONTINUOUS
 62
     7
100
AcDbLine
 10
-75.48043687648894
 20
-114.2843653843594
 30
0.0
 11
-75.13043653968893
 21
-113.9343669102595
 31
0.0
  0
LINE
  5
B7
330
1F
100
AcDbEntity
  8
0
  6
CONTINUOUS
 62
     7
100
AcDbLine
 10
-75.13043653968893
 20
-108.6343666003594
 30
0.0
 11
-75.48043687648894
 21
-108.2843644009594
 31
0.0
  0
LINE
  5
B8
330
1F
100
AcDbEntity
  8
0
  6
CONTINUOUS
 62
     7
100
AcDbLine
 10
-75.48043687648894
 20
-108.2843644009594
 30
0.0
 11
-75.83043721318893
 21
-108.6343666003594
 31
0.0
  0
LINE
  5
B9
330
1F
100
AcDbEntity
  8
0
  6
CONTINUOUS
 62
     7
100
AcDbLine
 10
-75.83043721318893
 20
-113.9343669102595
 30
0.0
 11
-75.48043687648894
 21
-114.2843653843594
 31
0.0
  0
LINE
  5
BA
330
1F
100
AcDbEntity
  8
0
  6
CONTINUOUS
 62
     7
100
AcDbLine
 10
-77.48043720428893
 20
-114.2843653843594
 30
0.0
 11
-77.13043686748892
 21
-113.9343669102595
 31
0.0
  0
LINE
  5
BB
330
1F
100
AcDbEntity
  8
0
  6
CONTINUOUS
 62
     7
100
AcDbLine
 10
-77.13043686748892
 20
-108.6343666003594
 30
0.0
 11
-77.48043720428893
 21
-108.2843644009594
 31
0.0
  0
LINE
  5
BC
330
1F
100
AcDbEntity
  8
0
  6
CONTINUOUS
 62
     7
100
AcDbLine
 10
-76.48043704038892
 20
-108.2843644009594
 30
0.0
 11
-76.83043737708891
 21
-108.6343666003594
 31
0.0
  0
LINE
  5
BD
330
1F
100
AcDbEntity
  8
0
  6
CONTINUOUS
 62
     7
100
AcDbLine
 10
-76.83043737708891
 20
-113.9343669102595
 30
0.0
 11
-76.48043704038892
 21
-114.2843653843594
 31
0.0
  0
LINE
  5
BE
330
1F
100
AcDbEntity
  8
0
  6
CONTINUOUS
 62
     7
100
AcDbLine
 10
-76.48043704038892
 20
-114.2843653843594
 30
0.0
 11
-76.13043670358891
 21
-113.9343669102595
 31
0.0
  0
LINE
  5
BF
330
1F
100
AcDbEntity
  8
0
  6
CONTINUOUS
 62
     7
100
AcDbLine
 10
-76.13043670358891
 20
-108.6343666003594
 30
0.0
 11
-76.48043704038892
 21
-108.2843644009594
 31
0.0
  0
LINE
  5
C0
330
1F
100
AcDbEntity
  8
0
  6
CONTINUOUS
 62
     7
100
AcDbLine
 10
-77.48043720428893
 20
-108.2843644009594
 30
0.0
 11
-77.83043567838894
 21
-108.6343666003594
 31
0.0
  0
LINE
  5
C1
330
1F
100
AcDbEntity
  8
0
  6
CONTINUOUS
 62
     7
100
AcDbLine
 10
-77.83043567838894
 20
-113.9343669102595
 30
0.0
 11
-77.48043720428893
 21
-114.2843653843594
 31
0.0
  0
LINE
  5
C2
330
1F
100
AcDbEntity
  8
0
  6
CONTINUOUS
 62
     7
100
AcDbLine
 10
-79.48043566948894
 20
-114.2843653843594
 30
0.0
 11
-79.13043719538894
 21
-113.9343669102595
 31
0.0
  0
LINE
  5
C3
330
1F
100
AcDbEntity
  8
0
  6
CONTINUOUS
 62
     7
100
AcDbLine
 10
-79.13043719538894
 20
-108.6343666003594
 30
0.0
 11
-79.48043566948894
 21
-108.2843644009594
 31
0.0
  0
LINE
  5
C4
330
1F
100
AcDbEntity
  8
0
  6
CONTINUOUS
 62
     7
100
AcDbLine
 10
-78.48043736818892
 20
-114.2843653843594
 30
0.0
 11
-78.13043703138894
 21
-113.9343669102595
 31
0.0
  0
LINE
  5
C5
330
1F
100
AcDbEntity
  8
0
  6
CONTINUOUS
 62
     7
100
AcDbLine
 10
-78.13043703138894
 20
-108.6343666003594
 30
0.0
 11
-78.48043736818892
 21
-108.2843644009594
 31
0.0
  0
LINE
  5
C6
330
1F
100
AcDbEntity
  8
0
  6
CONTINUOUS
 62
     7
100
AcDbLine
 10
-78.48043736818892
 20
-108.2843644009594
 30
0.0
 11
-78.83043584228892
 21
-108.6343666003594
 31
0.0
  0
LINE
  5
C7
330
1F
100
AcDbEntity
  8
0
  6
CONTINUOUS
 62
     7
100
AcDbLine
 10
-78.83043584228892
 20
-113.9343669102595
 30
0.0
 11
-78.48043736818892
 21
-114.2843653843594
 31
0.0
  0
LINE
  5
C8
330
1F
100
AcDbEntity
  8
0
  6
CONTINUOUS
 62
     7
100
AcDbLine
 10
-79.48043566948894
 20
-108.2843644009594
 30
0.0
 11
-79.83043600618893
 21
-108.6343666003594
 31
0.0
  0
LINE
  5
C9
330
1F
100
AcDbEntity
  8
0
  6
CONTINUOUS
 62
     7
100
AcDbLine
 10
-79.83043600618893
 20
-113.9343669102595
 30
0.0
 11
-79.48043566948894
 21
-114.2843653843594
 31
0.0
  0
LINE
  5
CA
330
1F
100
AcDbEntity
  8
0
  6
CONTINUOUS
 62
     7
100
AcDbLine
 10
-80.48043583338892
 20
-108.2843644009594
 30
0.0
 11
-80.83043617018893
 21
-108.6343666003594
 31
0.0
  0
LINE
  5
CB
330
1F
100
AcDbEntity
  8
0
  6
CONTINUOUS
 62
     7
100
AcDbLine
 10
-80.83043617018893
 20
-113.9343669102595
 30
0.0
 11
-80.48043583338892
 21
-114.2843653843594
 31
0.0
  0
LINE
  5
CC
330
1F
100
AcDbEntity
  8
0
  6
CONTINUOUS
 62
     7
100
AcDbLine
 10
-80.48043583338892
 20
-114.2843653843594
 30
0.0
 11
-80.13043735928892
 21
-113.9343669102595
 31
0.0
  0
LINE
  5
CD
330
1F
100
AcDbEntity
  8
0
  6
CONTINUOUS
 62
     7
100
AcDbLine
 10
-80.13043735928892
 20
-108.6343666003594
 30
0.0
 11
-80.48043583338892
 21
-108.2843644009594
 31
0.0
  0
LINE
  5
CE
330
1F
100
AcDbEntity
  8
0
  6
CONTINUOUS
 62
     7
100
AcDbLine
 10
-81.48043692858892
 20
-108.2843644009594
 30
0.0
 11
-81.83043633408892
 21
-108.6343666003594
 31
0.0
  0
LINE
  5
CF
330
1F
100
AcDbEntity
  8
0
  6
CONTINUOUS
 62
     7
100
AcDbLine
 10
-81.83043633408892
 20
-113.9343669102595
 30
0.0
 11
-81.48043692858892
 21
-114.2843653843594
 31
0.0
  0
LINE
  5
D0
330
1F
100
AcDbEntity
  8
0
  6
CONTINUOUS
 62
     7
100
AcDbLine
 10
-81.48043692858892
 20
-114.2843653843594
 30
0.0
 11
-81.13043659188892
 21
-113.9343669102595
 31
0.0
  0
LINE
  5
D1
330
1F
100
AcDbEntity
  8
0
  6
CONTINUOUS
 62
     7
100
AcDbLine
 10
-81.13043659188892
 20
-108.6343666003594
 30
0.0
 11
-81.48043692858892
 21
-108.2843644009594
 31
0.0
  0
LINE
  5
D2
330
1F
100
AcDbEntity
  8
0
  6
CONTINUOUS
 62
     7
100
AcDbLine
 10
-82.48043616118892
 20
-114.2843653843594
 30
0.0
 11
-82.13043675578893
 21
-113.9343669102595
 31
0.0
  0
LINE
  5
D3
330
1F
100
AcDbEntity
  8
0
  6
CONTINUOUS
 62
     7
100
AcDbLine
 10
-82.13043675578893
 20
-108.6343666003594
 30
0.0
 11
-82.48043616118892
 21
-108.2843644009594
 31
0.0
  0
LINE
  5
D4
330
1F
100
AcDbEntity
  8
0
  6
CONTINUOUS
 62
     7
100
AcDbLine
 10
-83.48043632508893
 20
-108.2843644009594
 30
0.0
 11
-83.83043666188894
 21
-108.6343666003594
 31
0.0
  0
LINE
  5
D5
330
1F
100
AcDbEntity
  8
0
  6
CONTINUOUS
 62
     7
100
AcDbLine
 10
-83.83043666188894
 20
-113.9343669102595
 30
0.0
 11
-83.48043632508893
 21
-114.2843653843594
 31
0.0
  0
LINE
  5
D6
330
1F
100
AcDbEntity
  8
0
  6
CONTINUOUS
 62
     7
100
AcDbLine
 10
-83.48043632508893
 20
-114.2843653843594
 30
0.0
 11
-83.13043691968892
 21
-113.9343669102595
 31
0.0
  0
LINE
  5
D7
330
1F
100
AcDbEntity
  8
0
  6
CONTINUOUS
 62
     7
100
AcDbLine
 10
-83.13043691968892
 20
-108.6343666003594
 30
0.0
 11
-83.48043632508893
 21
-108.2843644009594
 31
0.0
  0
LINE
  5
D8
330
1F
100
AcDbEntity
  8
0
  6
CONTINUOUS
 62
     7
100
AcDbLine
 10
-82.48043616118892
 20
-108.2843644009594
 30
0.0
 11
-82.83043649798893
 21
-108.6343666003594
 31
0.0
  0
LINE
  5
D9
330
1F
100
AcDbEntity
  8
0
  6
CONTINUOUS
 62
     7
100
AcDbLine
 10
-82.83043649798893
 20
-113.9343669102595
 30
0.0
 11
-82.48043616118892
 21
-114.2843653843594
 31
0.0
  0
LINE
  5
DA
330
1F
100
AcDbEntity
  8
0
  6
CONTINUOUS
 62
     7
100
AcDbLine
 10
-85.48043665288893
 20
-114.2843653843594
 30
0.0
 11
-85.13043631618893
 21
-113.9343669102595
 31
0.0
  0
LINE
  5
DB
330
1F
100
AcDbEntity
  8
0
  6
CONTINUOUS
 62
     7
100
AcDbLine
 10
-85.13043631618893
 20
-108.6343666003594
 30
0.0
 11
-85.48043665288893
 21
-108.2843644009594
 31
0.0
  0
LINE
  5
DC
330
1F
100
AcDbEntity
  8
0
  6
CONTINUOUS
 62
     7
100
AcDbLine
 10
-84.48043648898891
 20
-108.2843644009594
 30
0.0
 11
-84.83043682578892
 21
-108.6343666003594
 31
0.0
  0
LINE
  5
DD
330
1F
100
AcDbEntity
  8
0
  6
CONTINUOUS
 62
     7
100
AcDbLine
 10
-84.83043682578892
 20
-113.9343669102595
 30
0.0
 11
-84.48043648898891
 21
-114.2843653843594
 31
0.0
  0
LINE
  5
DE
330
1F
100
AcDbEntity
  8
0
  6
CONTINUOUS
 62
     7
100
AcDbLine
 10
-84.48043648898891
 20
-114.2843653843594
 30
0.0
 11
-84.13043615228892
 21
-113.9343669102595
 31
0.0
  0
LINE
  5
DF
330
1F
100
AcDbEntity
  8
0
  6
CONTINUOUS
 62
     7
100
AcDbLine
 10
-84.13043615228892
 20
-108.6343666003594
 30
0.0
 11
-84.48043648898891
 21
-108.2843644009594
 31
0.0
  0
LINE
  5
E0
330
1F
100
AcDbEntity
  8
0
  6
CONTINUOUS
 62
     7
100
AcDbLine
 10
-85.48043665288893
 20
-108.2843644009594
 30
0.0
 11
-85.83043698968893
 21
-108.6343666003594
 31
0.0
  0
LINE
  5
E1
330
1F
100
AcDbEntity
  8
0
  6
CONTINUOUS
 62
     7
100
AcDbLine
 10
-85.83043698968893
 20
-113.9343669102595
 30
0.0
 11
-85.48043665288893
 21
-114.2843653843594
 31
0.0
  0
LINE
  5
E2
330
1F
100
AcDbEntity
  8
0
  6
CONTINUOUS
 62
     7
100
AcDbLine
 10
-86.48043681688893
 20
-114.2843653843594
 30
0.0
 11
-86.13043648008892
 21
-113.9343669102595
 31
0.0
  0
LINE
  5
E3
330
1F
100
AcDbEntity
  8
0
  6
CONTINUOUS
 62
     7
100
AcDbLine
 10
-86.13043648008892
 20
-108.6343666003594
 30
0.0
 11
-86.48043681688893
 21
-108.2843644009594
 31
0.0
  0
LINE
  5
E4
330
1F
100
AcDbEntity
  8
0
  6
CONTINUOUS
 62
     7
100
AcDbLine
 10
-86.48043681688893
 20
-108.2843644009594
 30
0.0
 11
-86.83043622228894
 21
-108.6343666003594
 31
0.0
  0
LINE
  5
E5
330
1F
100
AcDbEntity
  8
0
  6
CONTINUOUS
 62
     7
100
AcDbLine
 10
-86.83043622228894
 20
-113.9343669102595
 30
0.0
 11
-86.48043681688893
 21
-114.2843653843594
 31
0.0
  0
LINE
  5
E6
330
1F
100
AcDbEntity
  8
0
  6
CONTINUOUS
 62
     7
100
AcDbLine
 10
-87.48043698078894
 20
-114.2843653843594
 30
0.0
 11
-87.13043664398893
 21
-113.9343669102595
 31
0.0
  0
LINE
  5
E7
330
1F
100
AcDbEntity
  8
0
  6
CONTINUOUS
 62
     7
100
AcDbLine
 10
-87.13043664398893
 20
-108.6343666003594
 30
0.0
 11
-87.48043698078894
 21
-108.2843644009594
 31
0.0
  0
LINE
  5
E8
330
1F
100
AcDbEntity
  8
0
  6
CONTINUOUS
 62
     7
100
AcDbLine
 10
-87.48043698078894
 20
-108.2843644009594
 30
0.0
 11
-87.83043638618892
 21
-108.6343666003594
 31
0.0
  0
LINE
  5
E9
330
1F
100
AcDbEntity
  8
0
  6
CONTINUOUS
 62
     7
100
AcDbLine
 10
-87.83043638618892
 20
-113.9343669102595
 30
0.0
 11
-87.48043698078894
 21
-114.2843653843594
 31
0.0
  0
LINE
  5
EA
330
1F
100
AcDbEntity
  8
0
  6
CONTINUOUS
 62
     7
100
AcDbLine
 10
-89.48043637728892
 20
-108.2843644009594
 30
0.0
 11
-89.83043671398892
 21
-108.6343666003594
 31
0.0
  0
LINE
  5
EB
330
1F
100
AcDbEntity
  8
0
  6
CONTINUOUS
 62
     7
100
AcDbLine
 10
-89.83043671398892
 20
-113.9343669102595
 30
0.0
 11
-89.48043637728892
 21
-114.2843653843594
 31
0.0
  0
LINE
  5
EC
330
1F
100
AcDbEntity
  8
0
  6
CONTINUOUS
 62
     7
100
AcDbLine
 10
-88.48043621338891
 20
-114.2843653843594
 30
0.0
 11
-88.13043680788894
 21
-113.9343669102595
 31
0.0
  0
LINE
  5
ED
330
1F
100
AcDbEntity
  8
0
  6
CONTINUOUS
 62
     7
100
AcDbLine
 10
-88.13043680788894
 20
-108.6343666003594
 30
0.0
 11
-88.48043621338891
 21
-108.2843644009594
 31
0.0
  0
LINE
  5
EE
330
1F
100
AcDbEntity
  8
0
  6
CONTINUOUS
 62
     7
100
AcDbLine
 10
-89.48043637728892
 20
-114.2843653843594
 30
0.0
 11
-89.13043650618891
 21
-113.9343669102595
 31
0.0
  0
LINE
  5
EF
330
1F
100
AcDbEntity
  8
0
  6
CONTINUOUS
 62
     7
100
AcDbLine
 10
-89.13043650618891
 20
-108.6343666003594
 30
0.0
 11
-89.48043637728892
 21
-108.2843644009594
 31
0.0
  0
LINE
  5
F0
330
1F
100
AcDbEntity
  8
0
  6
CONTINUOUS
 62
     7
100
AcDbLine
 10
-88.48043621338891
 20
-108.2843644009594
 30
0.0
 11
-88.83043655008893
 21
-108.6343666003594
 31
0.0
  0
LINE
  5
F1
330
1F
100
AcDbEntity
  8
0
  6
CONTINUOUS
 62
     7
100
AcDbLine
 10
-88.83043655008893
 20
-113.9343669102595
 30
0.0
 11
-88.48043621338891
 21
-114.2843653843594
 31
0.0
  0
LINE
  5
F2
330
1F
100
AcDbEntity
  8
0
  6
CONTINUOUS
 62
     7
100
AcDbLine
 10
-93.48043656728893
 20
-108.2843644009594
 30
0.0
 11
-93.83043667118892
 21
-108.6343666003594
 31
0.0
  0
LINE
  5
F3
330
1F
100
AcDbEntity
  8
0
  6
CONTINUOUS
 62
     7
100
AcDbLine
 10
-93.83043667118892
 20
-113.9343669102595
 30
0.0
 11
-93.48043656728893
 21
-114.2843653843594
 31
0.0
  0
LINE
  5
F4
330
1F
100
AcDbEntity
  8
0
  6
CONTINUOUS
 62
     7
100
AcDbLine
 10
-90.48043654118894
 20
-108.2843644009594
 30
0.0
 11
-90.83043641228892
 21
-108.6343666003594
 31
0.0
  0
LINE
  5
F5
330
1F
100
AcDbEntity
  8
0
  6
CONTINUOUS
 62
     7
100
AcDbLine
 10
-90.83043641228892
 20
-113.9343669102595
 30
0.0
 11
-90.48043654118894
 21
-114.2843653843594
 31
0.0
  0
LINE
  5
F6
330
1F
100
AcDbEntity
  8
0
  6
CONTINUOUS
 62
     7
100
AcDbLine
 10
-91.48043670508892
 20
-108.2843644009594
 30
0.0
 11
-91.83043657618893
 21
-108.6343666003594
 31
0.0
  0
LINE
  5
F7
330
1F
100
AcDbEntity
  8
0
  6
CONTINUOUS
 62
     7
100
AcDbLine
 10
-91.83043657618893
 20
-113.9343669102595
 30
0.0
 11
-91.48043670508892
 21
-114.2843653843594
 31
0.0
  0
LINE
  5
F8
330
1F
100
AcDbEntity
  8
0
  6
CONTINUOUS
 62
     7
100
AcDbLine
 10
-90.48043654118894
 20
-114.2843653843594
 30
0.0
 11
-90.13043667008893
 21
-113.9343669102595
 31
0.0
  0
LINE
  5
F9
330
1F
100
AcDbEntity
  8
0
  6
CONTINUOUS
 62
     7
100
AcDbLine
 10
-90.13043667008893
 20
-108.6343666003594
 30
0.0
 11
-90.48043654118894
 21
-108.2843644009594
 31
0.0
  0
LINE
  5
FA
330
1F
100
AcDbEntity
  8
0
  6
CONTINUOUS
 62
     7
100
AcDbLine
 10
-91.48043670508892
 20
-114.2843653843594
 30
0.0
 11
-91.13043636828894
 21
-113.9343669102595
 31
0.0
  0
LINE
  5
FB
330
1F
100
AcDbEntity
  8
0
  6
CONTINUOUS
 62
     7
100
AcDbLine
 10
-91.13043636828894
 20
-108.6343666003594
 30
0.0
 11
-91.48043670508892
 21
-108.2843644009594
 31
0.0
  0
LINE
  5
FC
330
1F
100
AcDbEntity
  8
0
  6
CONTINUOUS
 62
     7
100
AcDbLine
 10
-93.48043656728893
 20
-114.2843653843594
 30
0.0
 11
-93.13043669618892
 21
-113.9343669102595
 31
0.0
  0
LINE
  5
FD
330
1F
100
AcDbEntity
  8
0
  6
CONTINUOUS
 62
     7
100
AcDbLine
 10
-93.13043669618892
 20
-108.6343666003594
 30
0.0
 11
-93.48043656728893
 21
-108.2843644009594
 31
0.0
  0
LINE
  5
FE
330
1F
100
AcDbEntity
  8
0
  6
CONTINUOUS
 62
     7
100
AcDbLine
 10
-94.48043649828892
 20
-114.2843653843594
 30
0.0
 11
-94.13043662718891
 21
-113.9343669102595
 31
0.0
  0
LINE
  5
FF
330
1F
100
AcDbEntity
  8
0
  6
CONTINUOUS
 62
     7
100
AcDbLine
 10
-94.13043662718891
 20
-108.6343666003594
 30
0.0
 11
-94.48043649828892
 21
-108.2843644009594
 31
0.0
  0
LINE
  5
100
330
1F
100
AcDbEntity
  8
0
  6
CONTINUOUS
 62
     7
100
AcDbLine
 10
-92.48043640338892
 20
-114.2843653843594
 30
0.0
 11
-92.13043653218892
 21
-113.9343669102595
 31
0.0
  0
LINE
  5
101
330
1F
100
AcDbEntity
  8
0
  6
CONTINUOUS
 62
     7
100
AcDbLine
 10
-92.13043653218892
 20
-108.6343666003594
 30
0.0
 11
-92.48043640338892
 21
-108.2843644009594
 31
0.0
  0
LINE
  5
102
330
1F
100
AcDbEntity
  8
0
  6
CONTINUOUS
 62
     7
100
AcDbLine
 10
-92.48043640338892
 20
-108.2843644009594
 30
0.0
 11
-92.83043650728894
 21
-108.6343666003594
 31
0.0
  0
LINE
  5
103
330
1F
100
AcDbEntity
  8
0
  6
CONTINUOUS
 62
     7
100
AcDbLine
 10
-92.83043650728894
 20
-113.9343669102595
 30
0.0
 11
-92.48043640338892
 21
-114.2843653843594
 31
0.0
  0
LINE
  5
104
330
1F
100
AcDbEntity
  8
0
  6
CONTINUOUS
 62
     7
100
AcDbLine
 10
-22.83043659328894
 20
-108.6343652651594
 30
0.0
 11
-57.83043798808893
 21
-108.6343666003594
 31
0.0
  0
LINE
  5
105
330
1F
100
AcDbEntity
  8
0
  6
CONTINUOUS
 62
     7
100
AcDbLine
 10
-57.83043798808893
 20
-113.9343669102595
 30
0.0
 11
-22.83043659328894
 21
-113.9343652651594
 31
0.0
  0
LINE
  5
106
330
1F
100
AcDbEntity
  8
0
  6
CONTINUOUS
 62
     7
100
AcDbLine
 10
-75.13043653968893
 20
-113.9343669102595
 30
0.0
 11
-57.83043798808893
 21
-113.9343669102595
 31
0.0
  0
LINE
  5
107
330
1F
100
AcDbEntity
  8
0
  6
CONTINUOUS
 62
     7
100
AcDbLine
 10
-57.83043798808893
 20
-108.6343666003594
 30
0.0
 11
-75.13043653968893
 21
-108.6343666003594
 31
0.0
  0
LINE
  5
108
330
1F
100
AcDbEntity
  8
0
  6
CONTINUOUS
 62
     7
100
AcDbLine
 10
-76.13043670358891
 20
-113.9343669102595
 30
0.0
 11
-75.83043721318893
 21
-113.9343669102595
 31
0.0
  0
LINE
  5
109
330
1F
100
AcDbEntity
  8
0
  6
CONTINUOUS
 62
     7
100
AcDbLine
 10
-75.83043721318893
 20
-108.6343666003594
 30
0.0
 11
-76.13043670358891
 21
-108.6343666003594
 31
0.0
  0
LINE
  5
10A
330
1F
100
AcDbEntity
  8
0
  6
CONTINUOUS
 62
     7
100
AcDbLine
 10
-77.13043686748892
 20
-113.9343669102595
 30
0.0
 11
-76.83043737708891
 21
-113.9343669102595
 31
0.0
  0
LINE
  5
10B
330
1F
100
AcDbEntity
  8
0
  6
CONTINUOUS
 62
     7
100
AcDbLine
 10
-76.83043737708891
 20
-108.6343666003594
 30
0.0
 11
-77.13043686748892
 21
-108.6343666003594
 31
0.0
  0
LINE
  5
10C
330
1F
100
AcDbEntity
  8
0
  6
CONTINUOUS
 62
     7
100
AcDbLine
 10
-79.13043719538894
 20
-113.9343669102595
 30
0.0
 11
-78.83043584228892
 21
-113.9343669102595
 31
0.0
  0
LINE
  5
10D
330
1F
100
AcDbEntity
  8
0
  6
CONTINUOUS
 62
     7
100
AcDbLine
 10
-78.83043584228892
 20
-108.6343666003594
 30
0.0
 11
-79.13043719538894
 21
-108.6343666003594
 31
0.0
  0
LINE
  5
10E
330
1F
100
AcDbEntity
  8
0
  6
CONTINUOUS
 62
     7
100
AcDbLine
 10
-78.13043703138894
 20
-113.9343669102595
 30
0.0
 11
-77.83043567838894
 21
-113.9343669102595
 31
0.0
  0
LINE
  5
10F
330
1F
100
AcDbEntity
  8
0
  6
CONTINUOUS
 62
     7
100
AcDbLine
 10
-77.83043567838894
 20
-108.6343666003594
 30
0.0
 11
-78.13043703138894
 21
-108.6343666003594
 31
0.0
  0
LINE
  5
110
330
1F
100
AcDbEntity
  8
0
  6
CONTINUOUS
 62
     7
100
AcDbLine
 10
-80.13043735928892
 20
-113.9343669102595
 30
0.0
 11
-79.83043600618893
 21
-113.9343669102595
 31
0.0
  0
LINE
  5
111
330
1F
100
AcDbEntity
  8
0
  6
CONTINUOUS
 62
     7
100
AcDbLine
 10
-79.83043600618893
 20
-108.6343666003594
 30
0.0
 11
-80.13043735928892
 21
-108.6343666003594
 31
0.0
  0
LINE
  5
112
330
1F
100
AcDbEntity
  8
0
  6
CONTINUOUS
 62
     7
100
AcDbLine
 10
-81.13043659188892
 20
-113.9343669102595
 30
0.0
 11
-80.83043617018893
 21
-113.9343669102595
 31
0.0
  0
LINE
  5
113
330
1F
100
AcDbEntity
  8
0
  6
CONTINUOUS
 62
     7
100
AcDbLine
 10
-80.83043617018893
 20
-108.6343666003594
 30
0.0
 11
-81.13043659188892
 21
-108.6343666003594
 31
0.0
  0
LINE
  5
114
330
1F
100
AcDbEntity
  8
0
  6
CONTINUOUS
 62
     7
100
AcDbLine
 10
-82.13043675578893
 20
-113.9343669102595
 30
0.0
 11
-81.83043633408892
 21
-113.9343669102595
 31
0.0
  0
LINE
  5
115
330
1F
100
AcDbEntity
  8
0
  6
CONTINUOUS
 62
     7
100
AcDbLine
 10
-81.83043633408892
 20
-108.6343666003594
 30
0.0
 11
-82.13043675578893
 21
-108.6343666003594
 31
0.0
  0
LINE
  5
116
330
1F
100
AcDbEntity
  8
0
  6
CONTINUOUS
 62
     7
100
AcDbLine
 10
-83.13043691968892
 20
-113.9343669102595
 30
0.0
 11
-82.83043649798893
 21
-113.9343669102595
 31
0.0
  0
LINE
  5
117
330
1F
100
AcDbEntity
  8
0
  6
CONTINUOUS
 62
     7
100
AcDbLine
 10
-82.83043649798893
 20
-108.6343666003594
 30
0.0
 11
-83.13043691968892
 21
-108.6343666003594
 31
0.0
  0
LINE
  5
118
330
1F
100
AcDbEntity
  8
0
  6
CONTINUOUS
 62
     7
100
AcDbLine
 10
-84.13043615228892
 20
-113.9343669102595
 30
0.0
 11
-83.83043666188894
 21
-113.9343669102595
 31
0.0
  0
LINE
  5
119
330
1F
100
AcDbEntity
  8
0
  6
CONTINUOUS
 62
     7
100
AcDbLine
 10
-83.83043666188894
 20
-108.6343666003594
 30
0.0
 11
-84.13043615228892
 21
-108.6343666003594
 31
0.0
  0
LINE
  5
11A
330
1F
100
AcDbEntity
  8
0
  6
CONTINUOUS
 62
     7
100
AcDbLine
 10
-85.13043631618893
 20
-113.9343669102595
 30
0.0
 11
-84.83043682578892
 21
-113.9343669102595
 31
0.0
  0
LINE
  5
11B
330
1F
100
AcDbEntity
  8
0
  6
CONTINUOUS
 62
     7
100
AcDbLine
 10
-84.83043682578892
 20
-108.6343666003594
 30
0.0
 11
-85.13043631618893
 21
-108.6343666003594
 31
0.0
  0
LINE
  5
11C
330
1F
100
AcDbEntity
  8
0
  6
CONTINUOUS
 62
     7
100
AcDbLine
 10
-87.13043664398893
 20
-113.9343669102595
 30
0.0
 11
-86.83043622228894
 21
-113.9343669102595
 31
0.0
  0
LINE
  5
11D
330
1F
100
AcDbEntity
  8
0
  6
CONTINUOUS
 62
     7
100
AcDbLine
 10
-86.83043622228894
 20
-108.6343666003594
 30
0.0
 11
-87.13043664398893
 21
-108.6343666003594
 31
0.0
  0
LINE
  5
11E
330
1F
100
AcDbEntity
  8
0
  6
CONTINUOUS
 62
     7
100
AcDbLine
 10
-86.13043648008892
 20
-113.9343669102595
 30
0.0
 11
-85.83043698968893
 21
-113.9343669102595
 31
0.0
  0
LINE
  5
11F
330
1F
100
AcDbEntity
  8
0
  6
CONTINUOUS
 62
     7
100
AcDbLine
 10
-85.83043698968893
 20
-108.6343666003594
 30
0.0
 11
-86.13043648008892
 21
-108.6343666003594
 31
0.0
  0
LINE
  5
120
330
1F
100
AcDbEntity
  8
0
  6
CONTINUOUS
 62
     7
100
AcDbLine
 10
-89.13043650618891
 20
-113.9343669102595
 30
0.0
 11
-88.83043655008893
 21
-113.9343669102595
 31
0.0
  0
LINE
  5
121
330
1F
100
AcDbEntity
  8
0
  6
CONTINUOUS
 62
     7
100
AcDbLine
 10
-88.83043655008893
 20
-108.6343666003594
 30
0.0
 11
-89.13043650618891
 21
-108.6343666003594
 31
0.0
  0
LINE
  5
122
330
1F
100
AcDbEntity
  8
0
  6
CONTINUOUS
 62
     7
100
AcDbLine
 10
-88.13043680788894
 20
-113.9343669102595
 30
0.0
 11
-87.83043638618892
 21
-113.9343669102595
 31
0.0
  0
LINE
  5
123
330
1F
100
AcDbEntity
  8
0
  6
CONTINUOUS
 62
     7
100
AcDbLine
 10
-87.83043638618892
 20
-108.6343666003594
 30
0.0
 11
-88.13043680788894
 21
-108.6343666003594
 31
0.0
  0
LINE
  5
124
330
1F
100
AcDbEntity
  8
0
  6
CONTINUOUS
 62
     7
100
AcDbLine
 10
-91.13043636828894
 20
-113.9343669102595
 30
0.0
 11
-90.83043641228892
 21
-113.9343669102595
 31
0.0
  0
LINE
  5
125
330
1F
100
AcDbEntity
  8
0
  6
CONTINUOUS
 62
     7
100
AcDbLine
 10
-90.83043641228892
 20
-108.6343666003594
 30
0.0
 11
-91.13043636828894
 21
-108.6343666003594
 31
0.0
  0
LINE
  5
126
330
1F
100
AcDbEntity
  8
0
  6
CONTINUOUS
 62
     7
100
AcDbLine
 10
-90.13043667008893
 20
-113.9343669102595
 30
0.0
 11
-89.83043671398892
 21
-113.9343669102595
 31
0.0
  0
LINE
  5
127
330
1F
100
AcDbEntity
  8
0
  6
CONTINUOUS
 62
     7
100
AcDbLine
 10
-89.83043671398892
 20
-108.6343666003594
 30
0.0
 11
-90.13043667008893
 21
-108.6343666003594
 31
0.0
  0
LINE
  5
128
330
1F
100
AcDbEntity
  8
0
  6
CONTINUOUS
 62
     7
100
AcDbLine
 10
-93.13043669618892
 20
-113.9343669102595
 30
0.0
 11
-92.83043650728894
 21
-113.9343669102595
 31
0.0
  0
LINE
  5
129
330
1F
100
AcDbEntity
  8
0
  6
CONTINUOUS
 62
     7
100
AcDbLine
 10
-92.83043650728894
 20
-108.6343666003594
 30
0.0
 11
-93.13043669618892
 21
-108.6343666003594
 31
0.0
  0
LINE
  5
12A
330
1F
100
AcDbEntity
  8
0
  6
CONTINUOUS
 62
     7
100
AcDbLine
 10
-92.13043653218892
 20
-113.9343669102595
 30
0.0
 11
-91.83043657618893
 21
-113.9343669102595
 31
0.0
  0
LINE
  5
12B
330
1F
100
AcDbEntity
  8
0
  6
CONTINUOUS
 62
     7
100
AcDbLine
 10
-91.83043657618893
 20
-108.6343666003594
 30
0.0
 11
-92.13043653218892
 21
-108.6343666003594
 31
0.0
  0
LINE
  5
12C
330
1F
100
AcDbEntity
  8
0
  6
CONTINUOUS
 62
     7
100
AcDbLine
 10
-94.13043662718891
 20
-113.9343669102595
 30
0.0
 11
-93.83043667118892
 21
-113.9343669102595
 31
0.0
  0
LINE
  5
12D
330
1F
100
AcDbEntity
  8
0
  6
CONTINUOUS
 62
     7
100
AcDbLine
 10
-93.83043667118892
 20
-108.6343666003594
 30
0.0
 11
-94.13043662718891
 21
-108.6343666003594
 31
0.0
  0
LINE
  5
12E
330
1F
100
AcDbEntity
  8
0
  6
CONTINUOUS
 62
     7
100
AcDbLine
 10
-75.48043687648894
 20
-39.28436612945944
 30
0.0
 11
-75.13043653968893
 21
-38.93436393005945
 31
0.0
  0
LINE
  5
12F
330
1F
100
AcDbEntity
  8
0
  6
CONTINUOUS
 62
     7
100
AcDbLine
 10
-75.13043653968893
 20
-33.63436362015945
 30
0.0
 11
-75.48043687648894
 21
-33.28436514595944
 31
0.0
  0
LINE
  5
130
330
1F
100
AcDbEntity
  8
0
  6
CONTINUOUS
 62
     7
100
AcDbLine
 10
-75.48043687648894
 20
-33.28436514595944
 30
0.0
 11
-75.83043721318893
 21
-33.63436362015945
 31
0.0
  0
LINE
  5
131
330
1F
100
AcDbEntity
  8
0
  6
CONTINUOUS
 62
     7
100
AcDbLine
 10
-75.83043721318893
 20
-38.93436393005945
 30
0.0
 11
-75.48043687648894
 21
-39.28436612945944
 31
0.0
  0
LINE
  5
132
330
1F
100
AcDbEntity
  8
0
  6
CONTINUOUS
 62
     7
100
AcDbLine
 10
-77.48043720428893
 20
-33.28436514595944
 30
0.0
 11
-77.83043567848893
 21
-33.63436362005945
 31
0.0
  0
LINE
  5
133
330
1F
100
AcDbEntity
  8
0
  6
CONTINUOUS
 62
     7
100
AcDbLine
 10
-77.83043567838894
 20
-38.93436393005945
 30
0.0
 11
-77.48043720428893
 21
-39.28436612945944
 31
0.0
  0
LINE
  5
134
330
1F
100
AcDbEntity
  8
0
  6
CONTINUOUS
 62
     7
100
AcDbLine
 10
-77.48043720428893
 20
-39.28436612945944
 30
0.0
 11
-77.13043686748892
 21
-38.93436393005945
 31
0.0
  0
LINE
  5
135
330
1F
100
AcDbEntity
  8
0
  6
CONTINUOUS
 62
     7
100
AcDbLine
 10
-77.13043686748892
 20
-33.63436362015945
 30
0.0
 11
-77.48043720428893
 21
-33.28436514595944
 31
0.0
  0
LINE
  5
136
330
1F
100
AcDbEntity
  8
0
  6
CONTINUOUS
 62
     7
100
AcDbLine
 10
-76.48043704038892
 20
-39.28436612945944
 30
0.0
 11
-76.13043670358891
 21
-38.93436393005945
 31
0.0
  0
LINE
  5
137
330
1F
100
AcDbEntity
  8
0
  6
CONTINUOUS
 62
     7
100
AcDbLine
 10
-76.13043670358891
 20
-33.63436362015945
 30
0.0
 11
-76.48043704038892
 21
-33.28436514595944
 31
0.0
  0
LINE
  5
138
330
1F
100
AcDbEntity
  8
0
  6
CONTINUOUS
 62
     7
100
AcDbLine
 10
-76.48043704038892
 20
-33.28436514595944
 30
0.0
 11
-76.83043737708891
 21
-33.63436362015945
 31
0.0
  0
LINE
  5
139
330
1F
100
AcDbEntity
  8
0
  6
CONTINUOUS
 62
     7
100
AcDbLine
 10
-76.83043737708891
 20
-38.93436393005945
 30
0.0
 11
-76.48043704038892
 21
-39.28436612945944
 31
0.0
  0
LINE
  5
13A
330
1F
100
AcDbEntity
  8
0
  6
CONTINUOUS
 62
     7
100
AcDbLine
 10
-79.48043566948894
 20
-39.28436612945944
 30
0.0
 11
-79.13043719538894
 21
-38.93436393005945
 31
0.0
  0
LINE
  5
13B
330
1F
100
AcDbEntity
  8
0
  6
CONTINUOUS
 62
     7
100
AcDbLine
 10
-79.13043719548892
 20
-33.63436362005945
 30
0.0
 11
-79.48043566968892
 21
-33.28436514585945
 31
0.0
  0
LINE
  5
13C
330
1F
100
AcDbEntity
  8
0
  6
CONTINUOUS
 62
     7
100
AcDbLine
 10
-79.48043566968892
 20
-33.28436514585945
 30
0.0
 11
-79.83043600638894
 21
-33.63436362005945
 31
0.0
  0
LINE
  5
13D
330
1F
100
AcDbEntity
  8
0
  6
CONTINUOUS
 62
     7
100
AcDbLine
 10
-79.83043600618893
 20
-38.93436393005945
 30
0.0
 11
-79.48043566948894
 21
-39.28436612945944
 31
0.0
  0
LINE
  5
13E
330
1F
100
AcDbEntity
  8
0
  6
CONTINUOUS
 62
     7
100
AcDbLine
 10
-78.48043736818892
 20
-33.28436514585945
 30
0.0
 11
-78.83043584238894
 21
-33.63436362005945
 31
0.0
  0
LINE
  5
13F
330
1F
100
AcDbEntity
  8
0
  6
CONTINUOUS
 62
     7
100
AcDbLine
 10
-78.83043584228892
 20
-38.93436393005945
 30
0.0
 11
-78.48043736818892
 21
-39.28436612945944
 31
0.0
  0
LINE
  5
140
330
1F
100
AcDbEntity
  8
0
  6
CONTINUOUS
 62
     7
100
AcDbLine
 10
-78.48043736818892
 20
-39.28436612945944
 30
0.0
 11
-78.13043703138894
 21
-38.93436393005945
 31
0.0
  0
LINE
  5
141
330
1F
100
AcDbEntity
  8
0
  6
CONTINUOUS
 62
     7
100
AcDbLine
 10
-78.13043703148892
 20
-33.63436362005945
 30
0.0
 11
-78.48043736818892
 21
-33.28436514585945
 31
0.0
  0
LINE
  5
142
330
1F
100
AcDbEntity
  8
0
  6
CONTINUOUS
 62
     7
100
AcDbLine
 10
-81.48043692878892
 20
-33.28436514595944
 30
0.0
 11
-81.83043633428892
 21
-33.63436362015945
 31
0.0
  0
LINE
  5
143
330
1F
100
AcDbEntity
  8
0
  6
CONTINUOUS
 62
     7
100
AcDbLine
 10
-81.83043633408892
 20
-38.93436393005945
 30
0.0
 11
-81.48043692858892
 21
-39.28436612945944
 31
0.0
  0
LINE
  5
144
330
1F
100
AcDbEntity
  8
0
  6
CONTINUOUS
 62
     7
100
AcDbLine
 10
-80.48043583358893
 20
-33.28436514595944
 30
0.0
 11
-80.83043617038894
 21
-33.63436362015945
 31
0.0
  0
LINE
  5
145
330
1F
100
AcDbEntity
  8
0
  6
CONTINUOUS
 62
     7
100
AcDbLine
 10
-80.83043617018893
 20
-38.93436393005945
 30
0.0
 11
-80.48043583338892
 21
-39.28436612945944
 31
0.0
  0
LINE
  5
146
330
1F
100
AcDbEntity
  8
0
  6
CONTINUOUS
 62
     7
100
AcDbLine
 10
-80.48043583338892
 20
-39.28436612945944
 30
0.0
 11
-80.13043735928892
 21
-38.93436393005945
 31
0.0
  0
LINE
  5
147
330
1F
100
AcDbEntity
  8
0
  6
CONTINUOUS
 62
     7
100
AcDbLine
 10
-80.13043735948892
 20
-33.63436362005945
 30
0.0
 11
-80.48043583358893
 21
-33.28436514595944
 31
0.0
  0
LINE
  5
148
330
1F
100
AcDbEntity
  8
0
  6
CONTINUOUS
 62
     7
100
AcDbLine
 10
-81.48043692858892
 20
-39.28436612945944
 30
0.0
 11
-81.13043659188892
 21
-38.93436393005945
 31
0.0
  0
LINE
  5
149
330
1F
100
AcDbEntity
  8
0
  6
CONTINUOUS
 62
     7
100
AcDbLine
 10
-81.13043659208893
 20
-33.63436362015945
 30
0.0
 11
-81.48043692878892
 21
-33.28436514595944
 31
0.0
  0
LINE
  5
14A
330
1F
100
AcDbEntity
  8
0
  6
CONTINUOUS
 62
     7
100
AcDbLine
 10
-82.48043616138892
 20
-33.28436514595944
 30
0.0
 11
-82.83043649818893
 21
-33.63436362015945
 31
0.0
  0
LINE
  5
14B
330
1F
100
AcDbEntity
  8
0
  6
CONTINUOUS
 62
     7
100
AcDbLine
 10
-82.83043649798893
 20
-38.93436393005945
 30
0.0
 11
-82.48043616118892
 21
-39.28436612945944
 31
0.0
  0
LINE
  5
14C
330
1F
100
AcDbEntity
  8
0
  6
CONTINUOUS
 62
     7
100
AcDbLine
 10
-82.48043616118892
 20
-39.28436612945944
 30
0.0
 11
-82.13043675578893
 21
-38.93436393005945
 31
0.0
  0
LINE
  5
14D
330
1F
100
AcDbEntity
  8
0
  6
CONTINUOUS
 62
     7
100
AcDbLine
 10
-82.13043675598894
 20
-33.63436362015945
 30
0.0
 11
-82.48043616138892
 21
-33.28436514595944
 31
0.0
  0
LINE
  5
14E
330
1F
100
AcDbEntity
  8
0
  6
CONTINUOUS
 62
     7
100
AcDbLine
 10
-83.48043632508893
 20
-39.28436612945944
 30
0.0
 11
-83.13043691968892
 21
-38.93436393005945
 31
0.0
  0
LINE
  5
14F
330
1F
100
AcDbEntity
  8
0
  6
CONTINUOUS
 62
     7
100
AcDbLine
 10
-83.13043691988892
 20
-33.63436362015945
 30
0.0
 11
-83.48043632528893
 21
-33.28436514595944
 31
0.0
  0
LINE
  5
150
330
1F
100
AcDbEntity
  8
0
  6
CONTINUOUS
 62
     7
100
AcDbLine
 10
-83.48043632528893
 20
-33.28436514595944
 30
0.0
 11
-83.83043666208891
 21
-33.63436362015945
 31
0.0
  0
LINE
  5
151
330
1F
100
AcDbEntity
  8
0
  6
CONTINUOUS
 62
     7
100
AcDbLine
 10
-83.83043666188894
 20
-38.93436393005945
 30
0.0
 11
-83.48043632508893
 21
-39.28436612945944
 31
0.0
  0
LINE
  5
152
330
1F
100
AcDbEntity
  8
0
  6
CONTINUOUS
 62
     7
100
AcDbLine
 10
-85.48043665288893
 20
-39.28436612945944
 30
0.0
 11
-85.13043631618893
 21
-38.93436393005945
 31
0.0
  0
LINE
  5
153
330
1F
100
AcDbEntity
  8
0
  6
CONTINUOUS
 62
     7
100
AcDbLine
 10
-85.13043631638894
 20
-33.63436362015945
 30
0.0
 11
-85.48043665308893
 21
-33.28436514595944
 31
0.0
  0
LINE
  5
154
330
1F
100
AcDbEntity
  8
0
  6
CONTINUOUS
 62
     7
100
AcDbLine
 10
-85.48043665308893
 20
-33.28436514595944
 30
0.0
 11
-85.83043698988894
 21
-33.63436362015945
 31
0.0
  0
LINE
  5
155
330
1F
100
AcDbEntity
  8
0
  6
CONTINUOUS
 62
     7
100
AcDbLine
 10
-85.83043698968893
 20
-38.93436393005945
 30
0.0
 11
-85.48043665288893
 21
-39.28436612945944
 31
0.0
  0
LINE
  5
156
330
1F
100
AcDbEntity
  8
0
  6
CONTINUOUS
 62
     7
100
AcDbLine
 10
-84.48043648918892
 20
-33.28436514595944
 30
0.0
 11
-84.83043682598893
 21
-33.63436362015945
 31
0.0
  0
LINE
  5
157
330
1F
100
AcDbEntity
  8
0
  6
CONTINUOUS
 62
     7
100
AcDbLine
 10
-84.83043682578892
 20
-38.93436393005945
 30
0.0
 11
-84.48043648898891
 21
-39.28436612945944
 31
0.0
  0
LINE
  5
158
330
1F
100
AcDbEntity
  8
0
  6
CONTINUOUS
 62
     7
100
AcDbLine
 10
-84.48043648898891
 20
-39.28436612945944
 30
0.0
 11
-84.13043615228892
 21
-38.93436393005945
 31
0.0
  0
LINE
  5
159
330
1F
100
AcDbEntity
  8
0
  6
CONTINUOUS
 62
     7
100
AcDbLine
 10
-84.13043615248893
 20
-33.63436362015945
 30
0.0
 11
-84.48043648918892
 21
-33.28436514595944
 31
0.0
  0
LINE
  5
15A
330
1F
100
AcDbEntity
  8
0
  6
CONTINUOUS
 62
     7
100
AcDbLine
 10
-86.48043681688893
 20
-39.28436612945944
 30
0.0
 11
-86.13043648008892
 21
-38.93436393005945
 31
0.0
  0
LINE
  5
15B
330
1F
100
AcDbEntity
  8
0
  6
CONTINUOUS
 62
     7
100
AcDbLine
 10
-86.13043648028892
 20
-33.63436362015945
 30
0.0
 11
-86.48043681708893
 21
-33.28436514595944
 31
0.0
  0
LINE
  5
15C
330
1F
100
AcDbEntity
  8
0
  6
CONTINUOUS
 62
     7
100
AcDbLine
 10
-87.48043698098894
 20
-33.28436514595944
 30
0.0
 11
-87.83043638638893
 21
-33.63436362015945
 31
0.0
  0
LINE
  5
15D
330
1F
100
AcDbEntity
  8
0
  6
CONTINUOUS
 62
     7
100
AcDbLine
 10
-87.83043638618892
 20
-38.93436393005945
 30
0.0
 11
-87.48043698078894
 21
-39.28436612945944
 31
0.0
  0
LINE
  5
15E
330
1F
100
AcDbEntity
  8
0
  6
CONTINUOUS
 62
     7
100
AcDbLine
 10
-87.48043698078894
 20
-39.28436612945944
 30
0.0
 11
-87.13043664398893
 21
-38.93436393005945
 31
0.0
  0
LINE
  5
15F
330
1F
100
AcDbEntity
  8
0
  6
CONTINUOUS
 62
     7
100
AcDbLine
 10
-87.13043664418893
 20
-33.63436362015945
 30
0.0
 11
-87.48043698098894
 21
-33.28436514595944
 31
0.0
  0
LINE
  5
160
330
1F
100
AcDbEntity
  8
0
  6
CONTINUOUS
 62
     7
100
AcDbLine
 10
-86.48043681708893
 20
-33.28436514595944
 30
0.0
 11
-86.83043622248891
 21
-33.63436362015945
 31
0.0
  0
LINE
  5
161
330
1F
100
AcDbEntity
  8
0
  6
CONTINUOUS
 62
     7
100
AcDbLine
 10
-86.83043622228894
 20
-38.93436393005945
 30
0.0
 11
-86.48043681688893
 21
-39.28436612945944
 31
0.0
  0
LINE
  5
162
330
1F
100
AcDbEntity
  8
0
  6
CONTINUOUS
 62
     7
100
AcDbLine
 10
-89.48043637728892
 20
-39.28436612945944
 30
0.0
 11
-89.13043650618891
 21
-38.93436393005945
 31
0.0
  0
LINE
  5
163
330
1F
100
AcDbEntity
  8
0
  6
CONTINUOUS
 62
     7
100
AcDbLine
 10
-89.13043650638892
 20
-33.63436362015945
 30
0.0
 11
-89.48043637748893
 21
-33.28436514595944
 31
0.0
  0
LINE
  5
164
330
1F
100
AcDbEntity
  8
0
  6
CONTINUOUS
 62
     7
100
AcDbLine
 10
-89.48043637748893
 20
-33.28436514595944
 30
0.0
 11
-89.83043671418892
 21
-33.63436362015945
 31
0.0
  0
LINE
  5
165
330
1F
100
AcDbEntity
  8
0
  6
CONTINUOUS
 62
     7
100
AcDbLine
 10
-89.83043671398892
 20
-38.93436393005945
 30
0.0
 11
-89.48043637728892
 21
-39.28436612945944
 31
0.0
  0
LINE
  5
166
330
1F
100
AcDbEntity
  8
0
  6
CONTINUOUS
 62
     7
100
AcDbLine
 10
-88.48043621358892
 20
-33.28436514595944
 30
0.0
 11
-88.83043655028894
 21
-33.63436362015945
 31
0.0
  0
LINE
  5
167
330
1F
100
AcDbEntity
  8
0
  6
CONTINUOUS
 62
     7
100
AcDbLine
 10
-88.83043655008893
 20
-38.93436393005945
 30
0.0
 11
-88.48043621338891
 21
-39.28436612945944
 31
0.0
  0
LINE
  5
168
330
1F
100
AcDbEntity
  8
0
  6
CONTINUOUS
 62
     7
100
AcDbLine
 10
-88.48043621338891
 20
-39.28436612945944
 30
0.0
 11
-88.13043680788894
 21
-38.93436393005945
 31
0.0
  0
LINE
  5
169
330
1F
100
AcDbEntity
  8
0
  6
CONTINUOUS
 62
     7
100
AcDbLine
 10
-88.13043680808892
 20
-33.63436362015945
 30
0.0
 11
-88.48043621358892
 21
-33.28436514595944
 31
0.0
  0
LINE
  5
16A
330
1F
100
AcDbEntity
  8
0
  6
CONTINUOUS
 62
     7
100
AcDbLine
 10
-91.48043670508892
 20
-39.28436612945944
 30
0.0
 11
-91.13043636828894
 21
-38.93436393005945
 31
0.0
  0
LINE
  5
16B
330
1F
100
AcDbEntity
  8
0
  6
CONTINUOUS
 62
     7
100
AcDbLine
 10
-91.13043636848892
 20
-33.63436362015945
 30
0.0
 11
-91.48043670528892
 21
-33.28436514595944
 31
0.0
  0
LINE
  5
16C
330
1F
100
AcDbEntity
  8
0
  6
CONTINUOUS
 62
     7
100
AcDbLine
 10
-90.48043654118894
 20
-39.28436612945944
 30
0.0
 11
-90.13043667008893
 21
-38.93436393005945
 31
0.0
  0
LINE
  5
16D
330
1F
100
AcDbEntity
  8
0
  6
CONTINUOUS
 62
     7
100
AcDbLine
 10
-90.13043667028893
 20
-33.63436362015945
 30
0.0
 11
-90.48043654138894
 21
-33.28436514595944
 31
0.0
  0
LINE
  5
16E
330
1F
100
AcDbEntity
  8
0
  6
CONTINUOUS
 62
     7
100
AcDbLine
 10
-90.48043654138894
 20
-33.28436514595944
 30
0.0
 11
-90.83043641248892
 21
-33.63436362015945
 31
0.0
  0
LINE
  5
16F
330
1F
100
AcDbEntity
  8
0
  6
CONTINUOUS
 62
     7
100
AcDbLine
 10
-90.83043641228892
 20
-38.93436393005945
 30
0.0
 11
-90.48043654118894
 21
-39.28436612945944
 31
0.0
  0
LINE
  5
170
330
1F
100
AcDbEntity
  8
0
  6
CONTINUOUS
 62
     7
100
AcDbLine
 10
-93.48043656728893
 20
-39.28436612945944
 30
0.0
 11
-93.13043669618892
 21
-38.93436393005945
 31
0.0
  0
LINE
  5
171
330
1F
100
AcDbEntity
  8
0
  6
CONTINUOUS
 62
     7
100
AcDbLine
 10
-93.13043669638893
 20
-33.63436362015945
 30
0.0
 11
-93.48043656748894
 21
-33.28436514595944
 31
0.0
  0
LINE
  5
172
330
1F
100
AcDbEntity
  8
0
  6
CONTINUOUS
 62
     7
100
AcDbLine
 10
-93.48043656748894
 20
-33.28436514595944
 30
0.0
 11
-93.83043667138892
 21
-33.63436362015945
 31
0.0
  0
LINE
  5
173
330
1F
100
AcDbEntity
  8
0
  6
CONTINUOUS
 62
     7
100
AcDbLine
 10
-93.83043667118892
 20
-38.93436393005945
 30
0.0
 11
-93.48043656728893
 21
-39.28436612945944
 31
0.0
  0
LINE
  5
174
330
1F
100
AcDbEntity
  8
0
  6
CONTINUOUS
 62
     7
100
AcDbLine
 10
-91.48043670528892
 20
-33.28436514595944
 30
0.0
 11
-91.83043657638893
 21
-33.63436362015945
 31
0.0
  0
LINE
  5
175
330
1F
100
AcDbEntity
  8
0
  6
CONTINUOUS
 62
     7
100
AcDbLine
 10
-91.83043657618893
 20
-38.93436393005945
 30
0.0
 11
-91.48043670508892
 21
-39.28436612945944
 31
0.0
  0
LINE
  5
176
330
1F
100
AcDbEntity
  8
0
  6
CONTINUOUS
 62
     7
100
AcDbLine
 10
-92.48043640358893
 20
-33.28436514595944
 30
0.0
 11
-92.83043650748894
 21
-33.63436362015945
 31
0.0
  0
LINE
  5
177
330
1F
100
AcDbEntity
  8
0
  6
CONTINUOUS
 62
     7
100
AcDbLine
 10
-92.83043650728894
 20
-38.93436393005945
 30
0.0
 11
-92.48043640338892
 21
-39.28436612945944
 31
0.0
  0
LINE
  5
178
330
1F
100
AcDbEntity
  8
0
  6
CONTINUOUS
 62
     7
100
AcDbLine
 10
-94.48043649828892
 20
-39.28436612945944
 30
0.0
 11
-94.13043662718891
 21
-38.93436393005945
 31
0.0
  0
LINE
  5
179
330
1F
100
AcDbEntity
  8
0
  6
CONTINUOUS
 62
     7
100
AcDbLine
 10
-94.13043662738892
 20
-33.63436362015945
 30
0.0
 11
-94.48043649848893
 21
-33.28436514595944
 31
0.0
  0
LINE
  5
17A
330
1F
100
AcDbEntity
  8
0
  6
CONTINUOUS
 62
     7
100
AcDbLine
 10
-92.48043640338892
 20
-39.28436612945944
 30
0.0
 11
-92.13043653218892
 21
-38.93436393005945
 31
0.0
  0
LINE
  5
17B
330
1F
100
AcDbEntity
  8
0
  6
CONTINUOUS
 62
     7
100
AcDbLine
 10
-92.13043653238893
 20
-33.63436362015945
 30
0.0
 11
-92.48043640358893
 21
-33.28436514595944
 31
0.0
  0
LINE
  5
17C
330
1F
100
AcDbEntity
  8
0
  6
CONTINUOUS
 62
     7
100
AcDbLine
 10
-22.83043659328894
 20
-33.63436526515945
 30
0.0
 11
-57.83043798808893
 21
-33.63436362015945
 31
0.0
  0
LINE
  5
17D
330
1F
100
AcDbEntity
  8
0
  6
CONTINUOUS
 62
     7
100
AcDbLine
 10
-57.83043798808893
 20
-38.93436393005945
 30
0.0
 11
-22.83043659328894
 21
-38.93436526515944
 31
0.0
  0
LINE
  5
17E
330
1F
100
AcDbEntity
  8
0
  6
CONTINUOUS
 62
     7
100
AcDbLine
 10
-75.13043653968893
 20
-38.93436393005945
 30
0.0
 11
-57.83043798808893
 21
-38.93436393005945
 31
0.0
  0
LINE
  5
17F
330
1F
100
AcDbEntity
  8
0
  6
CONTINUOUS
 62
     7
100
AcDbLine
 10
-57.83043798808893
 20
-33.63436362015945
 30
0.0
 11
-75.13043653968893
 21
-33.63436362015945
 31
0.0
  0
LINE
  5
180
330
1F
100
AcDbEntity
  8
0
  6
CONTINUOUS
 62
     7
100
AcDbLine
 10
-76.13043670358891
 20
-38.93436393005945
 30
0.0
 11
-75.83043721318893
 21
-38.93436393005945
 31
0.0
  0
LINE
  5
181
330
1F
100
AcDbEntity
  8
0
  6
CONTINUOUS
 62
     7
100
AcDbLine
 10
-75.83043721318893
 20
-33.63436362015945
 30
0.0
 11
-76.13043670358891
 21
-33.63436362015945
 31
0.0
  0
LINE
  5
182
330
1F
100
AcDbEntity
  8
0
  6
CONTINUOUS
 62
     7
100
AcDbLine
 10
-77.13043686748892
 20
-38.93436393005945
 30
0.0
 11
-76.83043737708891
 21
-38.93436393005945
 31
0.0
  0
LINE
  5
183
330
1F
100
AcDbEntity
  8
0
  6
CONTINUOUS
 62
     7
100
AcDbLine
 10
-76.83043737708891
 20
-33.63436362015945
 30
0.0
 11
-77.13043686748892
 21
-33.63436362015945
 31
0.0
  0
LINE
  5
184
330
1F
100
AcDbEntity
  8
0
  6
CONTINUOUS
 62
     7
100
AcDbLine
 10
-78.13043703138894
 20
-38.93436393005945
 30
0.0
 11
-77.83043567838894
 21
-38.93436393005945
 31
0.0
  0
LINE
  5
185
330
1F
100
AcDbEntity
  8
0
  6
CONTINUOUS
 62
     7
100
AcDbLine
 10
-77.83043567848893
 20
-33.63436362005945
 30
0.0
 11
-78.13043703148892
 21
-33.63436362005945
 31
0.0
  0
LINE
  5
186
330
1F
100
AcDbEntity
  8
0
  6
CONTINUOUS
 62
     7
100
AcDbLine
 10
-79.13043719538894
 20
-38.93436393005945
 30
0.0
 11
-78.83043584228892
 21
-38.93436393005945
 31
0.0
  0
LINE
  5
187
330
1F
100
AcDbEntity
  8
0
  6
CONTINUOUS
 62
     7
100
AcDbLine
 10
-78.83043584238894
 20
-33.63436362005945
 30
0.0
 11
-79.13043719548892
 21
-33.63436362005945
 31
0.0
  0
LINE
  5
188
330
1F
100
AcDbEntity
  8
0
  6
CONTINUOUS
 62
     7
100
AcDbLine
 10
-80.13043735928892
 20
-38.93436393005945
 30
0.0
 11
-79.83043600618893
 21
-38.93436393005945
 31
0.0
  0
LINE
  5
189
330
1F
100
AcDbEntity
  8
0
  6
CONTINUOUS
 62
     7
100
AcDbLine
 10
-79.83043600638894
 20
-33.63436362005945
 30
0.0
 11
-80.13043735948892
 21
-33.63436362005945
 31
0.0
  0
LINE
  5
18A
330
1F
100
AcDbEntity
  8
0
  6
CONTINUOUS
 62
     7
100
AcDbLine
 10
-81.13043659188892
 20
-38.93436393005945
 30
0.0
 11
-80.83043617018893
 21
-38.93436393005945
 31
0.0
  0
LINE
  5
18B
330
1F
100
AcDbEntity
  8
0
  6
CONTINUOUS
 62
     7
100
AcDbLine
 10
-80.83043617038894
 20
-33.63436362015945
 30
0.0
 11
-81.13043659208893
 21
-33.63436362015945
 31
0.0
  0
LINE
  5
18C
330
1F
100
AcDbEntity
  8
0
  6
CONTINUOUS
 62
     7
100
AcDbLine
 10
-82.13043675578893
 20
-38.93436393005945
 30
0.0
 11
-81.83043633408892
 21
-38.93436393005945
 31
0.0
  0
LINE
  5
18D
330
1F
100
AcDbEntity
  8
0
  6
CONTINUOUS
 62
     7
100
AcDbLine
 10
-81.83043633428892
 20
-33.63436362015945
 30
0.0
 11
-82.13043675598894
 21
-33.63436362015945
 31
0.0
  0
LINE
  5
18E
330
1F
100
AcDbEntity
  8
0
  6
CONTINUOUS
 62
     7
100
AcDbLine
 10
-83.13043691968892
 20
-38.93436393005945
 30
0.0
 11
-82.83043649798893
 21
-38.93436393005945
 31
0.0
  0
LINE
  5
18F
330
1F
100
AcDbEntity
  8
0
  6
CONTINUOUS
 62
     7
100
AcDbLine
 10
-82.83043649818893
 20
-33.63436362015945
 30
0.0
 11
-83.13043691988892
 21
-33.63436362015945
 31
0.0
  0
LINE
  5
190
330
1F
100
AcDbEntity
  8
0
  6
CONTINUOUS
 62
     7
100
AcDbLine
 10
-85.13043631618893
 20
-38.93436393005945
 30
0.0
 11
-84.83043682578892
 21
-38.93436393005945
 31
0.0
  0
LINE
  5
191
330
1F
100
AcDbEntity
  8
0
  6
CONTINUOUS
 62
     7
100
AcDbLine
 10
-84.83043682598893
 20
-33.63436362015945
 30
0.0
 11
-85.13043631638894
 21
-33.63436362015945
 31
0.0
  0
LINE
  5
192
330
1F
100
AcDbEntity
  8
0
  6
CONTINUOUS
 62
     7
100
AcDbLine
 10
-84.13043615228892
 20
-38.93436393005945
 30
0.0
 11
-83.83043666188894
 21
-38.93436393005945
 31
0.0
  0
LINE
  5
193
330
1F
100
AcDbEntity
  8
0
  6
CONTINUOUS
 62
     7
100
AcDbLine
 10
-83.83043666208891
 20
-33.63436362015945
 30
0.0
 11
-84.13043615248893
 21
-33.63436362015945
 31
0.0
  0
LINE
  5
194
330
1F
100
AcDbEntity
  8
0
  6
CONTINUOUS
 62
     7
100
AcDbLine
 10
-87.13043664398893
 20
-38.93436393005945
 30
0.0
 11
-86.83043622228894
 21
-38.93436393005945
 31
0.0
  0
LINE
  5
195
330
1F
100
AcDbEntity
  8
0
  6
CONTINUOUS
 62
     7
100
AcDbLine
 10
-86.83043622248891
 20
-33.63436362015945
 30
0.0
 11
-87.13043664418893
 21
-33.63436362015945
 31
0.0
  0
LINE
  5
196
330
1F
100
AcDbEntity
  8
0
  6
CONTINUOUS
 62
     7
100
AcDbLine
 10
-86.13043648008892
 20
-38.93436393005945
 30
0.0
 11
-85.83043698968893
 21
-38.93436393005945
 31
0.0
  0
LINE
  5
197
330
1F
100
AcDbEntity
  8
0
  6
CONTINUOUS
 62
     7
100
AcDbLine
 10
-85.83043698988894
 20
-33.63436362015945
 30
0.0
 11
-86.13043648028892
 21
-33.63436362015945
 31
0.0
  0
LINE
  5
198
330
1F
100
AcDbEntity
  8
0
  6
CONTINUOUS
 62
     7
100
AcDbLine
 10
-89.13043650618891
 20
-38.93436393005945
 30
0.0
 11
-88.83043655008893
 21
-38.93436393005945
 31
0.0
  0
LINE
  5
199
330
1F
100
AcDbEntity
  8
0
  6
CONTINUOUS
 62
     7
100
AcDbLine
 10
-88.83043655028894
 20
-33.63436362015945
 30
0.0
 11
-89.13043650638892
 21
-33.63436362015945
 31
0.0
  0
LINE
  5
19A
330
1F
100
AcDbEntity
  8
0
  6
CONTINUOUS
 62
     7
100
AcDbLine
 10
-88.13043680788894
 20
-38.93436393005945
 30
0.0
 11
-87.83043638618892
 21
-38.93436393005945
 31
0.0
  0
LINE
  5
19B
330
1F
100
AcDbEntity
  8
0
  6
CONTINUOUS
 62
     7
100
AcDbLine
 10
-87.83043638638893
 20
-33.63436362015945
 30
0.0
 11
-88.13043680808892
 21
-33.63436362015945
 31
0.0
  0
LINE
  5
19C
330
1F
100
AcDbEntity
  8
0
  6
CONTINUOUS
 62
     7
100
AcDbLine
 10
-90.13043667008893
 20
-38.93436393005945
 30
0.0
 11
-89.83043671398892
 21
-38.93436393005945
 31
0.0
  0
LINE
  5
19D
330
1F
100
AcDbEntity
  8
0
  6
CONTINUOUS
 62
     7
100
AcDbLine
 10
-89.83043671418892
 20
-33.63436362015945
 30
0.0
 11
-90.13043667028893
 21
-33.63436362015945
 31
0.0
  0
LINE
  5
19E
330
1F
100
AcDbEntity
  8
0
  6
CONTINUOUS
 62
     7
100
AcDbLine
 10
-93.13043669618892
 20
-38.93436393005945
 30
0.0
 11
-92.83043650728894
 21
-38.93436393005945
 31
0.0
  0
LINE
  5
19F
330
1F
100
AcDbEntity
  8
0
  6
CONTINUOUS
 62
     7
100
AcDbLine
 10
-92.83043650748894
 20
-33.63436362015945
 30
0.0
 11
-93.13043669638893
 21
-33.63436362015945
 31
0.0
  0
LINE
  5
1A0
330
1F
100
AcDbEntity
  8
0
  6
CONTINUOUS
 62
     7
100
AcDbLine
 10
-91.13043636828894
 20
-38.93436393005945
 30
0.0
 11
-90.83043641228892
 21
-38.93436393005945
 31
0.0
  0
LINE
  5
1A1
330
1F
100
AcDbEntity
  8
0
  6
CONTINUOUS
 62
     7
100
AcDbLine
 10
-90.83043641248892
 20
-33.63436362015945
 30
0.0
 11
-91.13043636848892
 21
-33.63436362015945
 31
0.0
  0
LINE
  5
1A2
330
1F
100
AcDbEntity
  8
0
  6
CONTINUOUS
 62
     7
100
AcDbLine
 10
-94.13043662718891
 20
-38.93436393005945
 30
0.0
 11
-93.83043667118892
 21
-38.93436393005945
 31
0.0
  0
LINE
  5
1A3
330
1F
100
AcDbEntity
  8
0
  6
CONTINUOUS
 62
     7
100
AcDbLine
 10
-93.83043667138892
 20
-33.63436362015945
 30
0.0
 11
-94.13043662738892
 21
-33.63436362015945
 31
0.0
  0
LINE
  5
1A4
330
1F
100
AcDbEntity
  8
0
  6
CONTINUOUS
 62
     7
100
AcDbLine
 10
-92.13043653218892
 20
-38.93436393005945
 30
0.0
 11
-91.83043657618893
 21
-38.93436393005945
 31
0.0
  0
LINE
  5
1A5
330
1F
100
AcDbEntity
  8
0
  6
CONTINUOUS
 62
     7
100
AcDbLine
 10
-91.83043657638893
 20
-33.63436362015945
 30
0.0
 11
-92.13043653238893
 21
-33.63436362015945
 31
0.0
  0
LINE
  5
1A6
330
1F
100
AcDbEntity
  8
0
  6
CONTINUOUS
 62
     7
100
AcDbLine
 10
-97.48043664078892
 20
-30.18436482415945
 30
0.0
 11
-98.98043653748893
 21
-30.18436482415945
 31
0.0
  0
LINE
  5
1A7
330
1F
100
AcDbEntity
  8
0
  6
CONTINUOUS
 62
     7
100
AcDbLine
 10
-98.98043653748893
 20
-117.3843657062594
 30
0.0
 11
-97.48043664078892
 21
-117.3843657062594
 31
0.0
  0
LINE
  5
1A8
330
1F
100
AcDbEntity
  8
0
  6
CONTINUOUS
 62
     7
100
AcDbLine
 10
-96.48043654578893
 20
-29.78436550365944
 30
0.0
 11
-97.48043659328893
 21
-29.78436550365944
 31
0.0
  0
LINE
  5
1A9
330
1F
100
AcDbEntity
  8
0
  6
CONTINUOUS
 62
     7
100
AcDbLine
 10
-97.48043660228893
 20
-117.7843650602594
 30
0.0
 11
-96.48043655478892
 21
-117.7843650602594
 31
0.0
  0
LINE
  5
1AA
330
1F
100
AcDbEntity
  8
0
  6
CONTINUOUS
 62
     7
100
AcDbLine
 10
-105.7338546663889
 20
-114.1711165593594
 30
0.0
 11
-103.0270186886889
 21
-114.1711165593594
 31
0.0
  0
LINE
  5
1AB
330
1F
100
AcDbEntity
  8
0
  6
CONTINUOUS
 62
     7
100
AcDbLine
 10
-106.1804368793889
 20
-111.2843667553595
 30
0.0
 11
-106.0540694445889
 21
-110.2245775447595
 31
0.0
  0
LINE
  5
1AC
330
1F
100
AcDbEntity
  8
0
  6
CONTINUOUS
 62
     7
100
AcDbLine
 10
-102.5963294953889
 20
-111.1510758684595
 30
0.0
 11
-102.5804364755889
 21
-111.2843667553595
 31
0.0
  0
LINE
  5
1AD
330
1F
100
AcDbEntity
  8
0
  6
CONTINUOUS
 62
     7
100
AcDbLine
 10
-105.7338546663889
 20
-117.0578663633595
 30
0.0
 11
-103.0270186886889
 21
-117.0578663633595
 31
0.0
  0
LINE
  5
1AE
330
1F
100
AcDbEntity
  8
0
  6
CONTINUOUS
 62
     7
100
AcDbLine
 10
-102.5804364755889
 20
-111.2843667553595
 30
0.0
 11
-102.5804364755889
 21
-111.1553338752595
 31
0.0
  0
LINE
  5
1AF
330
1F
100
AcDbEntity
  8
0
  6
CONTINUOUS
 62
     7
100
AcDbLine
 10
-102.5804364755889
 20
-115.6144914613594
 30
0.0
 11
-102.5804364755889
 21
-111.2843667553595
 31
0.0
  0
LINE
  5
1B0
330
1F
100
AcDbEntity
  8
0
  6
CONTINUOUS
 62
     7
100
AcDbLine
 10
-106.1804368793889
 20
-115.6144914613594
 30
0.0
 11
-106.1804368793889
 21
-111.2843667553595
 31
0.0
  0
LINE
  5
1B1
330
1F
100
AcDbEntity
  8
0
  6
CONTINUOUS
 62
     7
100
AcDbLine
 10
-106.1804368793889
 20
-111.2843667553595
 30
0.0
 11
-106.1804368793889
 21
-110.1907183812594
 31
0.0
  0
LINE
  5
1B2
330
1F
100
AcDbEntity
  8
0
  6
CONTINUOUS
 62
     7
100
AcDbLine
 10
-106.1804368793889
 20
-116.2843657122594
 30
0.0
 11
-106.1804368793889
 21
-115.6144914613594
 31
0.0
  0
LINE
  5
1B3
330
1F
100
AcDbEntity
  8
0
  6
CONTINUOUS
 62
     7
100
AcDbLine
 10
-102.5804364755889
 20
-36.28436377505945
 30
0.0
 11
-102.5804364755889
 21
-31.95423906905945
 31
0.0
  0
LINE
  5
1B4
330
1F
100
AcDbEntity
  8
0
  6
CONTINUOUS
 62
     7
100
AcDbLine
 10
-102.5804364755889
 20
-36.28436377505945
 30
0.0
 11
-102.5863242968889
 21
-36.41497245295945
 31
0.0
  0
LINE
  5
1B5
330
1F
100
AcDbEntity
  8
0
  6
CONTINUOUS
 62
     7
100
AcDbLine
 10
-105.7338546663889
 20
-33.39761397105944
 30
0.0
 11
-103.0270186886889
 21
-33.39761397105944
 31
0.0
  0
LINE
  5
1B6
330
1F
100
AcDbEntity
  8
0
  6
CONTINUOUS
 62
     7
100
AcDbLine
 10
-105.7338546663889
 20
-30.51086416705945
 30
0.0
 11
-103.0270186886889
 21
-30.51086416705945
 31
0.0
  0
LINE
  5
1B7
330
1F
100
AcDbEntity
  8
0
  6
CONTINUOUS
 62
     7
100
AcDbLine
 10
-102.5804364755889
 20
-36.41339665515945
 30
0.0
 11
-102.5804364755889
 21
-36.28436377505945
 31
0.0
  0
LINE
  5
1B8
330
1F
100
AcDbEntity
  8
0
  6
CONTINUOUS
 62
     7
100
AcDbLine
 10
-106.1804368793889
 20
-37.37801214915945
 30
0.0
 11
-106.1804368793889
 21
-36.28436377505945
 31
0.0
  0
LINE
  5
1B9
330
1F
100
AcDbEntity
  8
0
  6
CONTINUOUS
 62
     7
100
AcDbLine
 10
-106.1804368793889
 20
-36.28436377505945
 30
0.0
 11
-106.1804368793889
 21
-31.95423906905945
 31
0.0
  0
LINE
  5
1BA
330
1F
100
AcDbEntity
  8
0
  6
CONTINUOUS
 62
     7
100
AcDbLine
 10
-106.1804368793889
 20
-31.95423906905945
 30
0.0
 11
-106.1804368793889
 21
-31.28436481815945
 31
0.0
  0
LINE
  5
1BB
330
1F
100
AcDbEntity
  8
0
  6
CONTINUOUS
 62
     7
100
AcDbLine
 10
-99.02338145118892
 20
-112.1084456728594
 30
0.0
 11
-99.42701851768892
 21
-114.1711165593594
 31
0.0
  0
LINE
  5
1BC
330
1F
100
AcDbEntity
  8
0
  6
CONTINUOUS
 62
     7
100
AcDbLine
 10
-102.1338547281889
 20
-114.1711165593594
 30
0.0
 11
-99.42701851768892
 21
-114.1711165593594
 31
0.0
  0
LINE
  5
1BD
330
1F
100
AcDbEntity
  8
0
  6
CONTINUOUS
 62
     7
100
AcDbLine
 10
-102.5804364755889
 20
-111.2843667553595
 30
0.0
 11
-102.5655273981889
 21
-111.1593311117595
 31
0.0
  0
LINE
  5
1BE
330
1F
100
AcDbEntity
  8
0
  6
CONTINUOUS
 62
     7
100
AcDbLine
 10
-102.1338547281889
 20
-117.0578663633595
 30
0.0
 11
-99.42701851768892
 21
-117.0578663633595
 31
0.0
  0
LINE
  5
1BF
330
1F
100
AcDbEntity
  8
0
  6
CONTINUOUS
 62
     7
100
AcDbLine
 10
-102.5746892839889
 20
-36.41185438495945
 30
0.0
 11
-102.5804364755889
 21
-36.28436377505945
 31
0.0
  0
LINE
  5
1C0
330
1F
100
AcDbEntity
  8
0
  6
CONTINUOUS
 62
     7
100
AcDbLine
 10
-102.1338547281889
 20
-33.39761397105944
 30
0.0
 11
-99.42701851768892
 21
-33.39761397105944
 31
0.0
  0
LINE
  5
1C1
330
1F
100
AcDbEntity
  8
0
  6
CONTINUOUS
 62
     7
100
AcDbLine
 10
-102.1338547281889
 20
-30.51086416705945
 30
0.0
 11
-99.42701851768892
 21
-30.51086416705945
 31
0.0
  0
LINE
  5
1C2
330
1F
100
AcDbEntity
  8
0
  6
CONTINUOUS
 62
     7
100
AcDbLine
 10
-148.4804376661889
 20
-23.78436452015944
 30
0.0
 11
-146.4804373383889
 21
-23.78436452015944
 31
0.0
  0
LINE
  5
1C3
330
1F
100
AcDbEntity
  8
0
  6
CONTINUOUS
 62
     7
100
AcDbLine
 10
-146.4804373383889
 20
-23.78436452015944
 30
0.0
 11
-125.8546113669889
 21
-42.66564449535944
 31
0.0
  0
LINE
  5
1C4
330
1F
100
AcDbEntity
  8
0
  6
CONTINUOUS
 62
     7
100
AcDbLine
 10
-125.8546113669889
 20
-104.9030860350594
 30
0.0
 11
-146.4804373383889
 21
-123.7843660102594
 31
0.0
  0
LINE
  5
1C5
330
1F
100
AcDbEntity
  8
0
  6
CONTINUOUS
 62
     7
100
AcDbLine
 10
-148.4804376661889
 20
-123.7843660102594
 30
0.0
 11
-146.4804373383889
 21
-123.7843660102594
 31
0.0
  0
LINE
  5
1C6
330
1F
100
AcDbEntity
  8
0
  6
CONTINUOUS
 62
     7
100
AcDbLine
 10
-151.4804362952889
 20
-23.78436452015944
 30
0.0
 11
-151.4804362952889
 21
-123.7843660102594
 31
0.0
  0
LINE
  5
1C7
330
1F
100
AcDbEntity
  8
0
  6
CONTINUOUS
 62
     7
100
AcDbLine
 10
-151.4804362952889
 20
-23.78436452015944
 30
0.0
 11
-148.4804376661889
 21
-23.78436452015944
 31
0.0
  0
LINE
  5
1C8
330
1F
100
AcDbEntity
  8
0
  6
CONTINUOUS
 62
     7
100
AcDbLine
 10
-151.4804362952889
 20
-123.7843660102594
 30
0.0
 11
-148.4804376661889
 21
-123.7843660102594
 31
0.0
  0
LINE
  5
1C9
330
1F
100
AcDbEntity
  8
0
  6
CONTINUOUS
 62
     7
100
AcDbLine
 10
-96.48043659328891
 20
-34.20506753115944
 30
0.0
 11
-94.48043659328891
 21
-34.20506753115944
 31
0.0
  0
LINE
  5
1CA
330
1F
100
AcDbEntity
  8
0
  6
CONTINUOUS
 62
     7
100
AcDbLine
 10
-94.48043659328891
 20
-34.20506753115944
 30
0.0
 11
-94.48043660228893
 21
-113.3636630326594
 31
0.0
  0
LINE
  5
1CB
330
1F
100
AcDbEntity
  8
0
  6
CONTINUOUS
 62
     7
100
AcDbLine
 10
-94.48043660228893
 20
-113.3636630326594
 30
0.0
 11
-96.48043660228893
 21
-113.3636630326594
 31
0.0
  0
LINE
  5
1CC
330
1F
100
AcDbEntity
  8
0
  6
CONTINUOUS
 62
     7
100
AcDbLine
 10
-124.8920559675889
 20
-105.1769545101594
 30
0.0
 11
-97.48043660228893
 21
-112.5218758181595
 31
0.0
  0
LINE
  5
1CD
330
1F
100
AcDbEntity
  8
0
  6
CONTINUOUS
 62
     7
100
AcDbLine
 10
-97.48043659328893
 20
-35.04685474565945
 30
0.0
 11
-124.8920555590889
 21
-42.39177591075945
 31
0.0
  0
LINE
  5
1CE
330
1F
100
AcDbEntity
  8
0
  6
CONTINUOUS
 62
     7
100
AcDbLine
 10
-96.48043659328891
 20
-34.07267382605944
 30
0.0
 11
-96.48043659328891
 21
-34.20506753115944
 31
0.0
  0
LINE
  5
1CF
330
1F
100
AcDbEntity
  8
0
  6
CONTINUOUS
 62
     7
100
AcDbLine
 10
-94.48043659328891
 20
-34.07267382605944
 30
0.0
 11
-94.48043659328891
 21
-34.20506753115944
 31
0.0
  0
LINE
  5
1D0
330
1F
100
AcDbEntity
  8
0
  6
CONTINUOUS
 62
     7
100
AcDbLine
 10
-94.48043660228893
 20
-113.3636630326594
 30
0.0
 11
-94.48043660228893
 21
-113.4960561245594
 31
0.0
  0
LINE
  5
1D1
330
1F
100
AcDbEntity
  8
0
  6
CONTINUOUS
 62
     7
100
AcDbLine
 10
-96.48043660228893
 20
-113.3636630326594
 30
0.0
 11
-96.48043660228893
 21
-113.4960561245594
 31
0.0
  0
LINE
  5
1D2
330
1F
100
AcDbEntity
  8
0
  6
CONTINUOUS
 62
     7
100
AcDbLine
 10
-94.48043659328891
 20
-29.24304729565945
 30
0.0
 11
-94.48043659328891
 21
-34.07267382605944
 31
0.0
  0
LINE
  5
1D3
330
1F
100
AcDbEntity
  8
0
  6
CONTINUOUS
 62
     7
100
AcDbLine
 10
-96.48043659328891
 20
-34.07267382605944
 30
0.0
 11
-96.48043659328891
 21
-29.24304729565945
 31
0.0
  0
LINE
  5
1D4
330
1F
100
AcDbEntity
  8
0
  6
CONTINUOUS
 62
     7
100
AcDbLine
 10
-94.48043660228893
 20
-113.4960561245594
 30
0.0
 11
-94.48043660228893
 21
-118.3256826549595
 31
0.0
  0
LINE
  5
1D5
330
1F
100
AcDbEntity
  8
0
  6
CONTINUOUS
 62
     7
100
AcDbLine
 10
-96.48043660228893
 20
-118.3256826549595
 30
0.0
 11
-96.48043660228893
 21
-113.4960561245594
 31
0.0
  0
LINE
  5
1D6
330
1F
100
AcDbEntity
  8
0
  6
CONTINUOUS
 62
     7
100
AcDbLine
 10
-94.48043660228893
 20
-118.3256826549595
 30
0.0
 11
-94.48043660228893
 21
-120.7843646853594
 31
0.0
  0
LINE
  5
1D7
330
1F
100
AcDbEntity
  8
0
  6
CONTINUOUS
 62
     7
100
AcDbLine
 10
-96.48043660228893
 20
-118.3256826549595
 30
0.0
 11
-96.48043660228893
 21
-120.7843646853594
 31
0.0
  0
LINE
  5
1D8
330
1F
100
AcDbEntity
  8
0
  6
CONTINUOUS
 62
     7
100
AcDbLine
 10
-94.48043659328891
 20
-26.78436526515944
 30
0.0
 11
-94.48043659328891
 21
-29.24304729565945
 31
0.0
  0
LINE
  5
1D9
330
1F
100
AcDbEntity
  8
0
  6
CONTINUOUS
 62
     7
100
AcDbLine
 10
-96.48043659328891
 20
-26.78436526515944
 30
0.0
 11
-96.48043659328891
 21
-29.24304729565945
 31
0.0
  0
LINE
  5
1DA
330
1F
100
AcDbEntity
  8
0
  6
CONTINUOUS
 62
     7
100
AcDbLine
 10
-71.48043622078893
 20
-25.78436484795944
 30
0.0
 11
-73.48043654858893
 21
-25.78436484795944
 31
0.0
  0
LINE
  5
1DB
330
1F
100
AcDbEntity
  8
0
  6
CONTINUOUS
 62
     7
100
AcDbLine
 10
-73.48043654858893
 20
-23.78436452015944
 30
0.0
 11
-71.48043622078893
 21
-23.78436452015944
 31
0.0
  0
LINE
  5
1DC
330
1F
100
AcDbEntity
  8
0
  6
CONTINUOUS
 62
     7
100
AcDbLine
 10
-71.48043622078893
 20
-25.78436484795944
 30
0.0
 11
-71.48043622078893
 21
-23.78436452015944
 31
0.0
  0
LINE
  5
1DD
330
1F
100
AcDbEntity
  8
0
  6
CONTINUOUS
 62
     7
100
AcDbLine
 10
-73.48043655758892
 20
-121.7843651026595
 30
0.0
 11
-71.48043622978892
 21
-121.7843651026595
 31
0.0
  0
LINE
  5
1DE
330
1F
100
AcDbEntity
  8
0
  6
CONTINUOUS
 62
     7
100
AcDbLine
 10
-71.48043622978892
 20
-121.7843651026595
 30
0.0
 11
-71.48043622978892
 21
-123.7843654304594
 31
0.0
  0
LINE
  5
1DF
330
1F
100
AcDbEntity
  8
0
  6
CONTINUOUS
 62
     7
100
AcDbLine
 10
-71.48043622978892
 20
-123.7843654304594
 30
0.0
 11
-73.48043655758892
 21
-123.7843654304594
 31
0.0
  0
LINE
  5
1E0
330
1F
100
AcDbEntity
  8
0
  6
CONTINUOUS
 62
     7
100
AcDbLine
 10
-93.48043660228893
 20
-121.7843646853594
 30
0.0
 11
-73.48043655758892
 21
-121.7843651026595
 31
0.0
  0
LINE
  5
1E1
330
1F
100
AcDbEntity
  8
0
  6
CONTINUOUS
 62
     7
100
AcDbLine
 10
-93.48043660228893
 20
-123.7843646853594
 30
0.0
 11
-73.48043655758892
 21
-123.7843654304594
 31
0.0
  0
LINE
  5
1E2
330
1F
100
AcDbEntity
  8
0
  6
CONTINUOUS
 62
     7
100
AcDbLine
 10
-73.48043654858893
 20
-23.78436452015944
 30
0.0
 11
-93.48043659328891
 21
-23.78436526515944
 31
0.0
  0
LINE
  5
1E3
330
1F
100
AcDbEntity
  8
0
  6
CONTINUOUS
 62
     7
100
AcDbLine
 10
-73.48043654858893
 20
-25.78436484795944
 30
0.0
 11
-93.48043659328891
 21
-25.78436526515944
 31
0.0
  0
LINE
  5
1E4
330
1F
100
AcDbEntity
  8
0
  6
CONTINUOUS
 62
     7
100
AcDbLine
 10
-98.98043653748893
 20
-35.44877743585945
 30
0.0
 11
-98.98043653748893
 21
-30.18436482415945
 31
0.0
  0
LINE
  5
1E5
330
1F
100
AcDbEntity
  8
0
  6
CONTINUOUS
 62
     7
100
AcDbLine
 10
-116.4804370434889
 20
-78.78436526515945
 30
0.0
 11
-116.4804370434889
 21
-79.88436509345945
 31
0.0
  0
LINE
  5
1E6
330
1F
100
AcDbEntity
  8
0
  6
CONTINUOUS
 62
     7
100
AcDbLine
 10
-116.6804358083889
 20
-79.88108554895945
 30
0.0
 11
-116.6804358083889
 21
-78.78436520735944
 31
0.0
  0
LINE
  5
1E7
330
1F
100
AcDbEntity
  8
0
  6
CONTINUOUS
 62
     7
100
AcDbLine
 10
-98.98043653748893
 20
-117.3843657062594
 30
0.0
 11
-98.98043653748893
 21
-112.1199530945594
 31
0.0
  0
LINE
  5
1E8
330
1F
100
AcDbEntity
  8
0
  6
CONTINUOUS
 62
     7
100
AcDbLine
 10
-136.4804351808889
 20
-78.78436526515945
 30
0.0
 11
-136.4804351808889
 21
-79.88436508615945
 31
0.0
  0
LINE
  5
1E9
330
1F
100
AcDbEntity
  8
0
  6
CONTINUOUS
 62
     7
100
AcDbLine
 10
-136.6804353614889
 20
-79.88108555635945
 30
0.0
 11
-136.6804353614889
 21
-78.78436521475945
 31
0.0
  0
LINE
  5
1EA
330
1F
100
AcDbEntity
  8
0
  6
CONTINUOUS
 62
     7
100
AcDbLine
 10
-97.48043659328893
 20
-35.04685474565945
 30
0.0
 11
-97.48043659328893
 21
-29.78436550365944
 31
0.0
  0
LINE
  5
1EB
330
1F
100
AcDbEntity
  8
0
  6
CONTINUOUS
 62
     7
100
AcDbLine
 10
-97.48043660228893
 20
-117.7843650602594
 30
0.0
 11
-97.48043660228893
 21
-112.5218758181595
 31
0.0
  0
LINE
  5
1EC
330
1F
100
AcDbEntity
  8
0
  6
CONTINUOUS
 62
     7
100
AcDbLine
 10
-71.48043622078893
 20
93.89544524194056
 30
0.0
 11
-57.83043659328894
 21
93.89544524194056
 31
0.0
  0
LINE
  5
1ED
330
1F
100
AcDbEntity
  8
0
  6
CONTINUOUS
 62
     7
100
AcDbLine
 10
-57.83043659328894
 20
99.19544524194055
 30
0.0
 11
-71.48043622078893
 21
99.19544554584056
 31
0.0
  0
LINE
  5
1EE
330
1F
100
AcDbEntity
  8
0
  6
CONTINUOUS
 62
     7
100
AcDbLine
 10
-71.48043622078893
 20
23.89544493794054
 30
0.0
 11
-57.83043659328894
 21
23.89544524194056
 31
0.0
  0
LINE
  5
1EF
330
1F
100
AcDbEntity
  8
0
  6
CONTINUOUS
 62
     7
100
AcDbLine
 10
-57.83043659328894
 20
29.19544524194055
 30
0.0
 11
-71.48043622078893
 21
29.19544524194055
 31
0.0
  0
LINE
  5
1F0
330
1F
100
AcDbEntity
  8
0
  6
CONTINUOUS
 62
     7
100
AcDbLine
 10
-101.4804365411889
 20
119.5454435729405
 30
0.0
 11
-101.4804365411889
 21
121.5454435432405
 31
0.0
  0
LINE
  5
1F1
330
1F
100
AcDbEntity
  8
0
  6
CONTINUOUS
 62
     7
100
AcDbLine
 10
-101.4804368541889
 20
1.545445912540544
 30
0.0
 11
-101.4804368541889
 21
3.545447223740553
 31
0.0
  0
LINE
  5
1F2
330
1F
100
AcDbEntity
  8
0
  6
CONTINUOUS
 62
     7
100
AcDbLine
 10
-120.4804368019889
 20
119.5454435729405
 30
0.0
 11
-120.4804368019889
 21
118.0454442584406
 31
0.0
  0
LINE
  5
1F3
330
1F
100
AcDbEntity
  8
0
  6
CONTINUOUS
 62
     7
100
AcDbLine
 10
-112.4804373532889
 20
118.0454442584406
 30
0.0
 11
-112.4804373532889
 21
119.5454435729405
 31
0.0
  0
LINE
  5
1F4
330
1F
100
AcDbEntity
  8
0
  6
CONTINUOUS
 62
     7
100
AcDbLine
 10
-140.4804363548889
 20
119.5454435729405
 30
0.0
 11
-140.4804363548889
 21
118.0454442584406
 31
0.0
  0
LINE
  5
1F5
330
1F
100
AcDbEntity
  8
0
  6
CONTINUOUS
 62
     7
100
AcDbLine
 10
-132.4804350435889
 20
118.0454442584406
 30
0.0
 11
-132.4804350435889
 21
119.5454435729405
 31
0.0
  0
LINE
  5
1F6
330
1F
100
AcDbEntity
  8
0
  6
CONTINUOUS
 62
     7
100
AcDbLine
 10
-112.4804373532889
 20
3.545446910840553
 30
0.0
 11
-112.4804373532889
 21
5.045446225340555
 31
0.0
  0
LINE
  5
1F7
330
1F
100
AcDbEntity
  8
0
  6
CONTINUOUS
 62
     7
100
AcDbLine
 10
-120.4804368019889
 20
5.045446225340555
 30
0.0
 11
-120.4804368019889
 21
3.545446910840553
 31
0.0
  0
LINE
  5
1F8
330
1F
100
AcDbEntity
  8
0
  6
CONTINUOUS
 62
     7
100
AcDbLine
 10
-132.4804350435889
 20
3.545446910840553
 30
0.0
 11
-132.4804350435889
 21
5.045446225340555
 31
0.0
  0
LINE
  5
1F9
330
1F
100
AcDbEntity
  8
0
  6
CONTINUOUS
 62
     7
100
AcDbLine
 10
-140.4804363548889
 20
5.045446225340555
 30
0.0
 11
-140.4804363548889
 21
3.545446910840553
 31
0.0
  0
LINE
  5
1FA
330
1F
100
AcDbEntity
  8
0
  6
CONTINUOUS
 62
     7
100
AcDbLine
 10
-148.9804349541889
 20
123.7454472862406
 30
0.0
 11
-148.9804349541889
 21
121.7454469584405
 31
0.0
  0
LINE
  5
1FB
330
1F
100
AcDbEntity
  8
0
  6
CONTINUOUS
 62
     7
100
AcDbLine
 10
-148.9804349541889
 20
1.345446922740564
 30
0.0
 11
-148.9804349541889
 21
-0.6545534050594597
 31
0.0
  0
LINE
  5
1FC
330
1F
100
AcDbEntity
  8
0
  6
CONTINUOUS
 62
     7
100
AcDbLine
 10
-139.4804380536889
 20
121.7454435610405
 30
0.0
 11
-139.4804380536889
 21
121.5454439008406
 31
0.0
  0
LINE
  5
1FD
330
1F
100
AcDbEntity
  8
0
  6
CONTINUOUS
 62
     7
100
AcDbLine
 10
-139.4804380536889
 20
118.0454442584406
 30
0.0
 11
-139.4804380536889
 21
114.2454469883406
 31
0.0
  0
LINE
  5
1FE
330
1F
100
AcDbEntity
  8
0
  6
CONTINUOUS
 62
     7
100
AcDbLine
 10
-133.4804370701889
 20
114.2454469883406
 30
0.0
 11
-133.4804370701889
 21
118.0454442584406
 31
0.0
  0
LINE
  5
1FF
330
1F
100
AcDbEntity
  8
0
  6
CONTINUOUS
 62
     7
100
AcDbLine
 10
-133.4804370701889
 20
121.5454439008406
 30
0.0
 11
-133.4804370701889
 21
121.7454435610405
 31
0.0
  0
LINE
  5
200
330
1F
100
AcDbEntity
  8
0
  6
CONTINUOUS
 62
     7
100
AcDbLine
 10
-130.7069323658889
 20
129.7988655352406
 30
0.0
 11
-131.4804367423889
 21
130.2454458856405
 31
0.0
  0
LINE
  5
201
330
1F
100
AcDbEntity
  8
0
  6
CONTINUOUS
 62
     7
100
AcDbLine
 10
-141.4804383814889
 20
130.2454458856405
 30
0.0
 11
-142.2539390325889
 21
129.7988655352406
 31
0.0
  0
LINE
  5
202
330
1F
100
AcDbEntity
  8
0
  6
CONTINUOUS
 62
     7
100
AcDbLine
 10
-113.4804375171889
 20
1.345446922740564
 30
0.0
 11
-113.4804375171889
 21
1.545446583040558
 31
0.0
  0
LINE
  5
203
330
1F
100
AcDbEntity
  8
0
  6
CONTINUOUS
 62
     7
100
AcDbLine
 10
-113.4804375171889
 20
5.045446225340555
 30
0.0
 11
-113.4804375171889
 21
8.845443495440549
 31
0.0
  0
LINE
  5
204
330
1F
100
AcDbEntity
  8
0
  6
CONTINUOUS
 62
     7
100
AcDbLine
 10
-119.4804366379889
 20
8.845443495440549
 30
0.0
 11
-119.4804366379889
 21
5.045446225340555
 31
0.0
  0
LINE
  5
205
330
1F
100
AcDbEntity
  8
0
  6
CONTINUOUS
 62
     7
100
AcDbLine
 10
-119.4804366379889
 20
1.545446583040558
 30
0.0
 11
-119.4804366379889
 21
1.345446922740564
 31
0.0
  0
LINE
  5
206
330
1F
100
AcDbEntity
  8
0
  6
CONTINUOUS
 62
     7
100
AcDbLine
 10
-122.2539394795889
 20
-6.707975051459442
 30
0.0
 11
-121.4804369658889
 21
-7.154555401859454
 31
0.0
  0
LINE
  5
207
330
1F
100
AcDbEntity
  8
0
  6
CONTINUOUS
 62
     7
100
AcDbLine
 10
-111.4804362580889
 20
-7.154555401859454
 30
0.0
 11
-110.7069337442889
 21
-6.707975051459442
 31
0.0
  0
LINE
  5
208
330
1F
100
AcDbEntity
  8
0
  6
CONTINUOUS
 62
     7
100
AcDbLine
 10
-133.4804370701889
 20
1.345446922740564
 30
0.0
 11
-133.4804370701889
 21
1.545446583040558
 31
0.0
  0
LINE
  5
209
330
1F
100
AcDbEntity
  8
0
  6
CONTINUOUS
 62
     7
100
AcDbLine
 10
-133.4804370701889
 20
5.045446225340555
 30
0.0
 11
-133.4804370701889
 21
8.845443495440549
 31
0.0
  0
LINE
  5
20A
330
1F
100
AcDbEntity
  8
0
  6
CONTINUOUS
 62
     7
100
AcDbLine
 10
-139.4804380536889
 20
8.845443495440549
 30
0.0
 11
-139.4804380536889
 21
5.045446225340555
 31
0.0
  0
LINE
  5
20B
330
1F
100
AcDbEntity
  8
0
  6
CONTINUOUS
 62
     7
100
AcDbLine
 10
-139.4804380536889
 20
1.545446583040558
 30
0.0
 11
-139.4804380536889
 21
1.345446922740564
 31
0.0
  0
LINE
  5
20C
330
1F
100
AcDbEntity
  8
0
  6
CONTINUOUS
 62
     7
100
AcDbLine
 10
-142.2539390325889
 20
-6.707975051459442
 30
0.0
 11
-141.4804383814889
 21
-7.154555401859454
 31
0.0
  0
LINE
  5
20D
330
1F
100
AcDbEntity
  8
0
  6
CONTINUOUS
 62
     7
100
AcDbLine
 10
-131.4804367423889
 20
-7.154555401859454
 30
0.0
 11
-130.7069323658889
 21
-6.707975051459442
 31
0.0
  0
LINE
  5
20E
330
1F
100
AcDbEntity
  8
0
  6
CONTINUOUS
 62
     7
100
AcDbLine
 10
-119.4804366379889
 20
121.7454435610405
 30
0.0
 11
-119.4804366379889
 21
121.5454439008406
 31
0.0
  0
LINE
  5
20F
330
1F
100
AcDbEntity
  8
0
  6
CONTINUOUS
 62
     7
100
AcDbLine
 10
-119.4804366379889
 20
118.0454442584406
 30
0.0
 11
-119.4804366379889
 21
114.2454469883406
 31
0.0
  0
LINE
  5
210
330
1F
100
AcDbEntity
  8
0
  6
CONTINUOUS
 62
     7
100
AcDbLine
 10
-113.4804375171889
 20
114.2454469883406
 30
0.0
 11
-113.4804375171889
 21
118.0454442584406
 31
0.0
  0
LINE
  5
211
330
1F
100
AcDbEntity
  8
0
  6
CONTINUOUS
 62
     7
100
AcDbLine
 10
-113.4804375171889
 20
121.5454439008406
 30
0.0
 11
-113.4804375171889
 21
121.7454435610405
 31
0.0
  0
LINE
  5
212
330
1F
100
AcDbEntity
  8
0
  6
CONTINUOUS
 62
     7
100
AcDbLine
 10
-110.7069337442889
 20
129.7988655352406
 30
0.0
 11
-111.4804362580889
 21
130.2454458856405
 31
0.0
  0
LINE
  5
213
330
1F
100
AcDbEntity
  8
0
  6
CONTINUOUS
 62
     7
100
AcDbLine
 10
-121.4804369658889
 20
130.2454458856405
 30
0.0
 11
-122.2539394795889
 21
129.7988655352406
 31
0.0
  0
LINE
  5
214
330
1F
100
AcDbEntity
  8
0
  6
CONTINUOUS
 62
     7
100
AcDbLine
 10
-97.48043664078892
 20
32.64544590654054
 30
0.0
 11
-98.98043653748893
 21
32.64544590654054
 31
0.0
  0
LINE
  5
215
330
1F
100
AcDbEntity
  8
0
  6
CONTINUOUS
 62
     7
100
AcDbLine
 10
-130.3804367482889
 20
124.7454421901406
 30
0.0
 11
-130.3804367482889
 21
126.2454452299406
 31
0.0
  0
LINE
  5
216
330
1F
100
AcDbEntity
  8
0
  6
CONTINUOUS
 62
     7
100
AcDbLine
 10
-142.5804383754889
 20
126.2454452299406
 30
0.0
 11
-142.5804383754889
 21
124.7454421901406
 31
0.0
  0
LINE
  5
217
330
1F
100
AcDbEntity
  8
0
  6
CONTINUOUS
 62
     7
100
AcDbLine
 10
-110.3804362639889
 20
124.7454421901406
 30
0.0
 11
-110.3804362639889
 21
126.2454452299406
 31
0.0
  0
LINE
  5
218
330
1F
100
AcDbEntity
  8
0
  6
CONTINUOUS
 62
     7
100
AcDbLine
 10
-122.5804369598889
 20
126.2454452299406
 30
0.0
 11
-122.5804369598889
 21
124.7454421901406
 31
0.0
  0
LINE
  5
219
330
1F
100
AcDbEntity
  8
0
  6
CONTINUOUS
 62
     7
100
AcDbLine
 10
-142.5804383754889
 20
-1.654551706359456
 30
0.0
 11
-142.5804383754889
 21
-3.154554746159448
 31
0.0
  0
LINE
  5
21A
330
1F
100
AcDbEntity
  8
0
  6
CONTINUOUS
 62
     7
100
AcDbLine
 10
-130.3804367482889
 20
-3.154554746159448
 30
0.0
 11
-130.3804367482889
 21
-1.654551706359456
 31
0.0
  0
LINE
  5
21B
330
1F
100
AcDbEntity
  8
0
  6
CONTINUOUS
 62
     7
100
AcDbLine
 10
-122.5804369598889
 20
-1.654551706359456
 30
0.0
 11
-122.5804369598889
 21
-3.154554746159448
 31
0.0
  0
LINE
  5
21C
330
1F
100
AcDbEntity
  8
0
  6
CONTINUOUS
 62
     7
100
AcDbLine
 10
-110.3804362639889
 20
-3.154554746159448
 30
0.0
 11
-110.3804362639889
 21
-1.654551706359456
 31
0.0
  0
LINE
  5
21D
330
1F
100
AcDbEntity
  8
0
  6
CONTINUOUS
 62
     7
100
AcDbLine
 10
-146.9804383516889
 20
37.64544486344056
 30
0.0
 11
-148.4804376661889
 21
37.64544486344056
 31
0.0
  0
LINE
  5
21E
330
1F
100
AcDbEntity
  8
0
  6
CONTINUOUS
 62
     7
100
AcDbLine
 10
-97.48043664078892
 20
102.6454443418406
 30
0.0
 11
-98.98043653748893
 21
102.6454443418406
 31
0.0
  0
LINE
  5
21F
330
1F
100
AcDbEntity
  8
0
  6
CONTINUOUS
 62
     7
100
AcDbLine
 10
-146.9804383516889
 20
97.64544538494056
 30
0.0
 11
-148.4804376661889
 21
97.64544538494056
 31
0.0
  0
LINE
  5
220
330
1F
100
AcDbEntity
  8
0
  6
CONTINUOUS
 62
     7
100
AcDbLine
 10
-96.48043659328891
 20
103.0454436623406
 30
0.0
 11
-97.48043664078892
 21
103.0454436623406
 31
0.0
  0
LINE
  5
221
330
1F
100
AcDbEntity
  8
0
  6
CONTINUOUS
 62
     7
100
AcDbLine
 10
-97.48043664078892
 20
90.04544525684057
 30
0.0
 11
-96.48043659328891
 21
90.04544525684057
 31
0.0
  0
LINE
  5
222
330
1F
100
AcDbEntity
  8
0
  6
CONTINUOUS
 62
     7
100
AcDbLine
 10
-122.9804362803889
 20
-0.6545534050594597
 30
0.0
 11
-122.9804362803889
 21
-1.654551706359456
 31
0.0
  0
LINE
  5
223
330
1F
100
AcDbEntity
  8
0
  6
CONTINUOUS
 62
     7
100
AcDbLine
 10
-109.9804369434889
 20
-1.654551706359456
 30
0.0
 11
-109.9804369434889
 21
-0.6545534050594597
 31
0.0
  0
LINE
  5
224
330
1F
100
AcDbEntity
  8
0
  6
CONTINUOUS
 62
     7
100
AcDbLine
 10
-142.9804376959889
 20
-0.6545534050594597
 30
0.0
 11
-142.9804376959889
 21
-1.654551706359456
 31
0.0
  0
LINE
  5
225
330
1F
100
AcDbEntity
  8
0
  6
CONTINUOUS
 62
     7
100
AcDbLine
 10
-129.9804374277889
 20
-1.654551706359456
 30
0.0
 11
-129.9804374277889
 21
-0.6545534050594597
 31
0.0
  0
LINE
  5
226
330
1F
100
AcDbEntity
  8
0
  6
CONTINUOUS
 62
     7
100
AcDbLine
 10
-129.9804374277889
 20
123.7454438888406
 30
0.0
 11
-129.9804374277889
 21
124.7454421901406
 31
0.0
  0
LINE
  5
227
330
1F
100
AcDbEntity
  8
0
  6
CONTINUOUS
 62
     7
100
AcDbLine
 10
-142.9804376959889
 20
124.7454421901406
 30
0.0
 11
-142.9804376959889
 21
123.7454438888406
 31
0.0
  0
LINE
  5
228
330
1F
100
AcDbEntity
  8
0
  6
CONTINUOUS
 62
     7
100
AcDbLine
 10
-149.4804359674889
 20
85.04544443724055
 30
0.0
 11
-148.4804376661889
 21
85.04544443724055
 31
0.0
  0
LINE
  5
229
330
1F
100
AcDbEntity
  8
0
  6
CONTINUOUS
 62
     7
100
AcDbLine
 10
-148.4804376661889
 20
98.04544470544056
 30
0.0
 11
-149.4804359674889
 21
98.04544470544056
 31
0.0
  0
LINE
  5
22A
330
1F
100
AcDbEntity
  8
0
  6
CONTINUOUS
 62
     7
100
AcDbLine
 10
-149.4804359674889
 20
25.04544577834056
 30
0.0
 11
-148.4804376661889
 21
25.04544577834056
 31
0.0
  0
LINE
  5
22B
330
1F
100
AcDbEntity
  8
0
  6
CONTINUOUS
 62
     7
100
AcDbLine
 10
-148.4804376661889
 20
38.04544604654055
 30
0.0
 11
-149.4804359674889
 21
38.04544604654055
 31
0.0
  0
LINE
  5
22C
330
1F
100
AcDbEntity
  8
0
  6
CONTINUOUS
 62
     7
100
AcDbLine
 10
-96.48043659328891
 20
33.04544522704055
 30
0.0
 11
-97.48043664078892
 21
33.04544522704055
 31
0.0
  0
LINE
  5
22D
330
1F
100
AcDbEntity
  8
0
  6
CONTINUOUS
 62
     7
100
AcDbLine
 10
-97.48043664078892
 20
20.04544682144055
 30
0.0
 11
-96.48043659328891
 21
20.04544682144055
 31
0.0
  0
LINE
  5
22E
330
1F
100
AcDbEntity
  8
0
  6
CONTINUOUS
 62
     7
100
AcDbLine
 10
-109.9804369434889
 20
123.7454438888406
 30
0.0
 11
-109.9804369434889
 21
124.7454421901406
 31
0.0
  0
LINE
  5
22F
330
1F
100
AcDbEntity
  8
0
  6
CONTINUOUS
 62
     7
100
AcDbLine
 10
-122.9804362803889
 20
124.7454421901406
 30
0.0
 11
-122.9804362803889
 21
123.7454438888406
 31
0.0
  0
LINE
  5
230
330
1F
100
AcDbEntity
  8
0
  6
CONTINUOUS
 62
     7
100
AcDbLine
 10
-105.7338546663889
 20
26.54544509294055
 30
0.0
 11
-103.0270186886889
 21
26.54544509294055
 31
0.0
  0
LINE
  5
231
330
1F
100
AcDbEntity
  8
0
  6
CONTINUOUS
 62
     7
100
AcDbLine
 10
-105.7338546663889
 20
31.54544591244056
 30
0.0
 11
-103.0270186886889
 21
31.54544591244056
 31
0.0
  0
LINE
  5
232
330
1F
100
AcDbEntity
  8
0
  6
CONTINUOUS
 62
     7
100
AcDbLine
 10
-106.1804368793889
 20
24.04544375174055
 30
0.0
 11
-106.1804368793889
 21
29.04544643404054
 31
0.0
  0
LINE
  5
233
330
1F
100
AcDbEntity
  8
0
  6
CONTINUOUS
 62
     7
100
AcDbLine
 10
-102.5804364755889
 20
24.04544375174055
 30
0.0
 11
-102.5804364755889
 21
29.04544643404054
 31
0.0
  0
LINE
  5
234
330
1F
100
AcDbEntity
  8
0
  6
CONTINUOUS
 62
     7
100
AcDbLine
 10
-105.7338546663889
 20
21.54544613594055
 30
0.0
 11
-103.0270186886889
 21
21.54544613594055
 31
0.0
  0
LINE
  5
235
330
1F
100
AcDbEntity
  8
0
  6
CONTINUOUS
 62
     7
100
AcDbLine
 10
-106.1804368793889
 20
29.04544643404054
 30
0.0
 11
-106.1804368793889
 21
31.54544591244056
 31
0.0
  0
LINE
  5
236
330
1F
100
AcDbEntity
  8
0
  6
CONTINUOUS
 62
     7
100
AcDbLine
 10
-102.5804364755889
 20
29.04544643404054
 30
0.0
 11
-102.5804364755889
 21
31.54544591244056
 31
0.0
  0
LINE
  5
237
330
1F
100
AcDbEntity
  8
0
  6
CONTINUOUS
 62
     7
100
AcDbLine
 10
-102.5804364755889
 20
21.54544613594055
 30
0.0
 11
-102.5804364755889
 21
24.04544375174055
 31
0.0
  0
LINE
  5
238
330
1F
100
AcDbEntity
  8
0
  6
CONTINUOUS
 62
     7
100
AcDbLine
 10
-106.1804368793889
 20
21.54544613594055
 30
0.0
 11
-106.1804368793889
 21
24.04544375174055
 31
0.0
  0
LINE
  5
239
330
1F
100
AcDbEntity
  8
0
  6
CONTINUOUS
 62
     7
100
AcDbLine
 10
-105.7338546663889
 20
96.54544539094056
 30
0.0
 11
-103.0270186886889
 21
96.54544539094056
 31
0.0
  0
LINE
  5
23A
330
1F
100
AcDbEntity
  8
0
  6
CONTINUOUS
 62
     7
100
AcDbLine
 10
-105.7338546663889
 20
101.5454443478405
 30
0.0
 11
-103.0270186886889
 21
101.5454443478405
 31
0.0
  0
LINE
  5
23B
330
1F
100
AcDbEntity
  8
0
  6
CONTINUOUS
 62
     7
100
AcDbLine
 10
-102.5804364755889
 20
94.04544404984054
 30
0.0
 11
-102.5804364755889
 21
99.04544673204055
 31
0.0
  0
LINE
  5
23C
330
1F
100
AcDbEntity
  8
0
  6
CONTINUOUS
 62
     7
100
AcDbLine
 10
-106.1804368793889
 20
94.04544404984054
 30
0.0
 11
-106.1804368793889
 21
99.04544673204055
 31
0.0
  0
LINE
  5
23D
330
1F
100
AcDbEntity
  8
0
  6
CONTINUOUS
 62
     7
100
AcDbLine
 10
-105.7338546663889
 20
91.54544457134054
 30
0.0
 11
-103.0270186886889
 21
91.54544457134054
 31
0.0
  0
LINE
  5
23E
330
1F
100
AcDbEntity
  8
0
  6
CONTINUOUS
 62
     7
100
AcDbLine
 10
-102.5804364755889
 20
99.04544673204055
 30
0.0
 11
-102.5804364755889
 21
101.5454443478405
 31
0.0
  0
LINE
  5
23F
330
1F
100
AcDbEntity
  8
0
  6
CONTINUOUS
 62
     7
100
AcDbLine
 10
-106.1804368793889
 20
99.04544673204055
 30
0.0
 11
-106.1804368793889
 21
101.5454443478405
 31
0.0
  0
LINE
  5
240
330
1F
100
AcDbEntity
  8
0
  6
CONTINUOUS
 62
     7
100
AcDbLine
 10
-106.1804368793889
 20
91.54544457134054
 30
0.0
 11
-106.1804368793889
 21
94.04544404984054
 31
0.0
  0
LINE
  5
241
330
1F
100
AcDbEntity
  8
0
  6
CONTINUOUS
 62
     7
100
AcDbLine
 10
-102.5804364755889
 20
91.54544457134054
 30
0.0
 11
-102.5804364755889
 21
94.04544404984054
 31
0.0
  0
LINE
  5
242
330
1F
100
AcDbEntity
  8
0
  6
CONTINUOUS
 62
     7
100
AcDbLine
 10
-102.1338547281889
 20
26.54544509294055
 30
0.0
 11
-99.42701851768892
 21
26.54544509294055
 31
0.0
  0
LINE
  5
243
330
1F
100
AcDbEntity
  8
0
  6
CONTINUOUS
 62
     7
100
AcDbLine
 10
-102.1338547281889
 20
31.54544591244056
 30
0.0
 11
-99.42701851768892
 21
31.54544591244056
 31
0.0
  0
LINE
  5
244
330
1F
100
AcDbEntity
  8
0
  6
CONTINUOUS
 62
     7
100
AcDbLine
 10
-102.1338547281889
 20
21.54544613594055
 30
0.0
 11
-99.42701851768892
 21
21.54544613594055
 31
0.0
  0
LINE
  5
245
330
1F
100
AcDbEntity
  8
0
  6
CONTINUOUS
 62
     7
100
AcDbLine
 10
-102.1338547281889
 20
96.54544539094056
 30
0.0
 11
-99.42701851768892
 21
96.54544539094056
 31
0.0
  0
LINE
  5
246
330
1F
100
AcDbEntity
  8
0
  6
CONTINUOUS
 62
     7
100
AcDbLine
 10
-102.1338547281889
 20
101.5454443478405
 30
0.0
 11
-99.42701851768892
 21
101.5454443478405
 31
0.0
  0
LINE
  5
247
330
1F
100
AcDbEntity
  8
0
  6
CONTINUOUS
 62
     7
100
AcDbLine
 10
-102.1338547281889
 20
91.54544457134054
 30
0.0
 11
-99.42701851768892
 21
91.54544457134054
 31
0.0
  0
LINE
  5
248
330
1F
100
AcDbEntity
  8
0
  6
CONTINUOUS
 62
     7
100
AcDbLine
 10
-149.4804366528889
 20
118.5454452419406
 30
0.0
 11
-149.4804366528889
 21
4.54544521214055
 31
0.0
  0
LINE
  5
249
330
1F
100
AcDbEntity
  8
0
  6
CONTINUOUS
 62
     7
100
AcDbLine
 10
-148.4804369657889
 20
3.545445554840541
 30
0.0
 11
-146.4804377109889
 21
3.545447223740553
 31
0.0
  0
LINE
  5
24A
330
1F
100
AcDbEntity
  8
0
  6
CONTINUOUS
 62
     7
100
AcDbLine
 10
-146.4804377109889
 20
3.545447223740553
 30
0.0
 11
-146.4804377109889
 21
1.545445912540544
 31
0.0
  0
LINE
  5
24B
330
1F
100
AcDbEntity
  8
0
  6
CONTINUOUS
 62
     7
100
AcDbLine
 10
-148.4804380387889
 20
1.545445912540544
 30
0.0
 11
-146.4804377109889
 21
1.545445912540544
 31
0.0
  0
LINE
  5
24C
330
1F
100
AcDbEntity
  8
0
  6
CONTINUOUS
 62
     7
100
AcDbLine
 10
-151.4804362952889
 20
118.5454452717406
 30
0.0
 11
-151.4804362952889
 21
4.545445241940541
 31
0.0
  0
LINE
  5
24D
330
1F
100
AcDbEntity
  8
0
  6
CONTINUOUS
 62
     7
100
AcDbLine
 10
-146.4804373979889
 20
121.5454435432405
 30
0.0
 11
-148.4804366528889
 21
121.5454448843406
 31
0.0
  0
LINE
  5
24E
330
1F
100
AcDbEntity
  8
0
  6
CONTINUOUS
 62
     7
100
AcDbLine
 10
-146.4804373979889
 20
119.5454435729405
 30
0.0
 11
-146.4804373979889
 21
121.5454435432405
 31
0.0
  0
LINE
  5
24F
330
1F
100
AcDbEntity
  8
0
  6
CONTINUOUS
 62
     7
100
AcDbLine
 10
-146.4804373979889
 20
119.5454435729405
 30
0.0
 11
-148.4804366528889
 21
119.5454452419406
 31
0.0
  0
LINE
  5
250
330
1F
100
AcDbEntity
  8
0
  6
CONTINUOUS
 62
     7
100
AcDbLine
 10
-146.4804373979889
 20
119.5454435729405
 30
0.0
 11
-107.9759458377889
 21
119.5454435729405
 31
0.0
  0
LINE
  5
251
330
1F
100
AcDbEntity
  8
0
  6
CONTINUOUS
 62
     7
100
AcDbLine
 10
-146.4804373979889
 20
121.5454435432405
 30
0.0
 11
-107.9759458377889
 21
121.5454435432405
 31
0.0
  0
LINE
  5
252
330
1F
100
AcDbEntity
  8
0
  6
CONTINUOUS
 62
     7
100
AcDbLine
 10
-146.4804377109889
 20
1.545445912540544
 30
0.0
 11
-107.9759461507889
 21
1.545445912540544
 31
0.0
  0
LINE
  5
253
330
1F
100
AcDbEntity
  8
0
  6
CONTINUOUS
 62
     7
100
AcDbLine
 10
-146.4804377109889
 20
3.545447223740553
 30
0.0
 11
-107.9759461507889
 21
3.545447223740553
 31
0.0
  0
LINE
  5
254
330
1F
100
AcDbEntity
  8
0
  6
CONTINUOUS
 62
     7
100
AcDbLine
 10
-107.9759458377889
 20
119.5454435729405
 30
0.0
 11
-101.4804365411889
 21
119.5454435729405
 31
0.0
  0
LINE
  5
255
330
1F
100
AcDbEntity
  8
0
  6
CONTINUOUS
 62
     7
100
AcDbLine
 10
-107.9759458377889
 20
121.5454435432405
 30
0.0
 11
-101.4804365411889
 21
121.5454435432405
 31
0.0
  0
LINE
  5
256
330
1F
100
AcDbEntity
  8
0
  6
CONTINUOUS
 62
     7
100
AcDbLine
 10
-107.9759461507889
 20
1.545445912540544
 30
0.0
 11
-101.4804368541889
 21
1.545445912540544
 31
0.0
  0
LINE
  5
257
330
1F
100
AcDbEntity
  8
0
  6
CONTINUOUS
 62
     7
100
AcDbLine
 10
-107.9759461507889
 20
3.545447223740553
 30
0.0
 11
-101.4804368541889
 21
3.545447223740553
 31
0.0
  0
LINE
  5
258
330
1F
100
AcDbEntity
  8
0
  6
CONTINUOUS
 62
     7
100
AcDbLine
 10
-112.4804373532889
 20
118.0454442584406
 30
0.0
 11
-120.4804368019889
 21
118.0454442584406
 31
0.0
  0
LINE
  5
259
330
1F
100
AcDbEntity
  8
0
  6
CONTINUOUS
 62
     7
100
AcDbLine
 10
-132.4804350435889
 20
118.0454442584406
 30
0.0
 11
-140.4804363548889
 21
118.0454442584406
 31
0.0
  0
LINE
  5
25A
330
1F
100
AcDbEntity
  8
0
  6
CONTINUOUS
 62
     7
100
AcDbLine
 10
-112.4804373532889
 20
5.045446225340555
 30
0.0
 11
-120.4804368019889
 21
5.045446225340555
 31
0.0
  0
LINE
  5
25B
330
1F
100
AcDbEntity
  8
0
  6
CONTINUOUS
 62
     7
100
AcDbLine
 10
-132.4804350435889
 20
5.045446225340555
 30
0.0
 11
-140.4804363548889
 21
5.045446225340555
 31
0.0
  0
LINE
  5
25C
330
1F
100
AcDbEntity
  8
0
  6
CONTINUOUS
 62
     7
100
AcDbLine
 10
-93.48043661478891
 20
6.545447238640548
 30
0.0
 11
-96.48043664078892
 21
6.545447238640548
 31
0.0
  0
LINE
  5
25D
330
1F
100
AcDbEntity
  8
0
  6
CONTINUOUS
 62
     7
100
AcDbLine
 10
-96.48043664078892
 20
6.545447238640548
 30
0.0
 11
-96.48043664078892
 21
116.5454466425405
 31
0.0
  0
LINE
  5
25E
330
1F
100
AcDbEntity
  8
0
  6
CONTINUOUS
 62
     7
100
AcDbLine
 10
-93.48043661478891
 20
116.5454466425405
 30
0.0
 11
-96.48043664078892
 21
116.5454466425405
 31
0.0
  0
LINE
  5
25F
330
1F
100
AcDbEntity
  8
0
  6
CONTINUOUS
 62
     7
100
AcDbLine
 10
-71.48043645458893
 20
8.545447752740557
 30
0.0
 11
-71.48043682708894
 21
32.83133909614054
 31
0.0
  0
LINE
  5
260
330
1F
100
AcDbEntity
  8
0
  6
CONTINUOUS
 62
     7
100
AcDbLine
 10
-73.48043664078892
 20
6.545446940640545
 30
0.0
 11
-93.48043661478891
 21
6.545447238640548
 31
0.0
  0
LINE
  5
261
330
1F
100
AcDbEntity
  8
0
  6
CONTINUOUS
 62
     7
100
AcDbLine
 10
-73.48043659608894
 20
116.5454466425405
 30
0.0
 11
-93.48043661478891
 21
116.5454466425405
 31
0.0
  0
LINE
  5
262
330
1F
100
AcDbEntity
  8
0
  6
CONTINUOUS
 62
     7
100
AcDbLine
 10
-71.48043678978894
 20
90.25955482234056
 30
0.0
 11
-71.48043678978894
 21
114.5454467916405
 31
0.0
  0
LINE
  5
263
330
1F
100
AcDbEntity
  8
0
  6
CONTINUOUS
 62
     7
100
AcDbLine
 10
-94.48043664078892
 20
120.2513508581405
 30
0.0
 11
-94.48043664078892
 21
116.5454469703405
 31
0.0
  0
LINE
  5
264
330
1F
100
AcDbEntity
  8
0
  6
CONTINUOUS
 62
     7
100
AcDbLine
 10
-96.48043664078892
 20
116.5454466425405
 30
0.0
 11
-96.48043664078892
 21
120.2513505303406
 31
0.0
  0
LINE
  5
265
330
1F
100
AcDbEntity
  8
0
  6
CONTINUOUS
 62
     7
100
AcDbLine
 10
-94.48043664078892
 20
6.545446910840553
 30
0.0
 11
-94.48043664078892
 21
2.839543023040562
 31
0.0
  0
LINE
  5
266
330
1F
100
AcDbEntity
  8
0
  6
CONTINUOUS
 62
     7
100
AcDbLine
 10
-96.48043664078892
 20
2.839543350840557
 30
0.0
 11
-96.48043664078892
 21
6.545447238640548
 31
0.0
  0
LINE
  5
267
330
1F
100
AcDbEntity
  8
0
  6
CONTINUOUS
 62
     7
100
AcDbLine
 10
-96.48043664078892
 20
120.7454469584405
 30
0.0
 11
-94.48043664078892
 21
120.7454472862406
 31
0.0
  0
LINE
  5
268
330
1F
100
AcDbEntity
  8
0
  6
CONTINUOUS
 62
     7
100
AcDbLine
 10
-94.48043664078892
 20
120.2513508581405
 30
0.0
 11
-94.48043664078892
 21
120.7454472862406
 31
0.0
  0
LINE
  5
269
330
1F
100
AcDbEntity
  8
0
  6
CONTINUOUS
 62
     7
100
AcDbLine
 10
-96.48043664078892
 20
120.2513505303406
 30
0.0
 11
-96.48043664078892
 21
120.7454469584405
 31
0.0
  0
LINE
  5
26A
330
1F
100
AcDbEntity
  8
0
  6
CONTINUOUS
 62
     7
100
AcDbLine
 10
-96.48043664078892
 20
2.345446922740564
 30
0.0
 11
-94.48043664078892
 21
2.34544659494054
 31
0.0
  0
LINE
  5
26B
330
1F
100
AcDbEntity
  8
0
  6
CONTINUOUS
 62
     7
100
AcDbLine
 10
-94.48043664078892
 20
2.839543023040562
 30
0.0
 11
-94.48043664078892
 21
2.34544659494054
 31
0.0
  0
LINE
  5
26C
330
1F
100
AcDbEntity
  8
0
  6
CONTINUOUS
 62
     7
100
AcDbLine
 10
-96.48043664078892
 20
2.839543350840557
 30
0.0
 11
-96.48043664078892
 21
2.345446922740564
 31
0.0
  0
LINE
  5
26D
330
1F
100
AcDbEntity
  8
0
  6
CONTINUOUS
 62
     7
100
AcDbLine
 10
-97.48043664078892
 20
121.7454469584405
 30
0.0
 11
-97.48043664078892
 21
123.7454472862406
 31
0.0
  0
LINE
  5
26E
330
1F
100
AcDbEntity
  8
0
  6
CONTINUOUS
 62
     7
100
AcDbLine
 10
-97.48043664078892
 20
1.345446922740564
 30
0.0
 11
-97.48043664078892
 21
-0.6545534050594597
 31
0.0
  0
LINE
  5
26F
330
1F
100
AcDbEntity
  8
0
  6
CONTINUOUS
 62
     7
100
AcDbLine
 10
-97.48043664078892
 20
121.7454469584405
 30
0.0
 11
-124.8920559585889
 21
121.7454469584405
 31
0.0
  0
LINE
  5
270
330
1F
100
AcDbEntity
  8
0
  6
CONTINUOUS
 62
     7
100
AcDbLine
 10
-124.8920559585889
 20
123.7454472862406
 30
0.0
 11
-97.48043664078892
 21
123.7454472862406
 31
0.0
  0
LINE
  5
271
330
1F
100
AcDbEntity
  8
0
  6
CONTINUOUS
 62
     7
100
AcDbLine
 10
-97.48043664078892
 20
-0.6545534050594597
 30
0.0
 11
-124.8920559585889
 21
-0.6545534050594597
 31
0.0
  0
LINE
  5
272
330
1F
100
AcDbEntity
  8
0
  6
CONTINUOUS
 62
     7
100
AcDbLine
 10
-97.48043664078892
 20
1.345446922740564
 30
0.0
 11
-124.8920559585889
 21
1.345446922740564
 31
0.0
  0
LINE
  5
273
330
1F
100
AcDbEntity
  8
0
  6
CONTINUOUS
 62
     7
100
AcDbLine
 10
-124.8920559585889
 20
121.7454469584405
 30
0.0
 11
-148.9804349541889
 21
121.7454469584405
 31
0.0
  0
LINE
  5
274
330
1F
100
AcDbEntity
  8
0
  6
CONTINUOUS
 62
     7
100
AcDbLine
 10
-148.9804349541889
 20
123.7454472862406
 30
0.0
 11
-124.8920559585889
 21
123.7454472862406
 31
0.0
  0
LINE
  5
275
330
1F
100
AcDbEntity
  8
0
  6
CONTINUOUS
 62
     7
100
AcDbLine
 10
-124.8920559585889
 20
-0.6545534050594597
 30
0.0
 11
-148.9804349541889
 21
-0.6545534050594597
 31
0.0
  0
LINE
  5
276
330
1F
100
AcDbEntity
  8
0
  6
CONTINUOUS
 62
     7
100
AcDbLine
 10
-124.8920559585889
 20
1.345446922740564
 30
0.0
 11
-148.9804349541889
 21
1.345446922740564
 31
0.0
  0
LINE
  5
277
330
1F
100
AcDbEntity
  8
0
  6
CONTINUOUS
 62
     7
100
AcDbLine
 10
-140.8105641305889
 20
130.2454458856405
 30
0.0
 11
-136.4804356992889
 21
130.2454458856405
 31
0.0
  0
LINE
  5
278
330
1F
100
AcDbEntity
  8
0
  6
CONTINUOUS
 62
     7
100
AcDbLine
 10
-136.4804356992889
 20
130.2454458856405
 30
0.0
 11
-132.1503109931889
 21
130.2454458856405
 31
0.0
  0
LINE
  5
279
330
1F
100
AcDbEntity
  8
0
  6
CONTINUOUS
 62
     7
100
AcDbLine
 10
-139.3671892285889
 20
129.7988655352406
 30
0.0
 11
-139.3671892285889
 21
126.2454452299406
 31
0.0
  0
LINE
  5
27A
330
1F
100
AcDbEntity
  8
0
  6
CONTINUOUS
 62
     7
100
AcDbLine
 10
-142.2539390325889
 20
129.7988655352406
 30
0.0
 11
-142.2539390325889
 21
126.2454452299406
 31
0.0
  0
LINE
  5
27B
330
1F
100
AcDbEntity
  8
0
  6
CONTINUOUS
 62
     7
100
AcDbLine
 10
-130.7069323658889
 20
129.7988655352406
 30
0.0
 11
-130.7069323658889
 21
126.2454452299406
 31
0.0
  0
LINE
  5
27C
330
1F
100
AcDbEntity
  8
0
  6
CONTINUOUS
 62
     7
100
AcDbLine
 10
-133.5936858951889
 20
129.7988655352406
 30
0.0
 11
-133.5936858951889
 21
126.2454452299406
 31
0.0
  0
LINE
  5
27D
330
1F
100
AcDbEntity
  8
0
  6
CONTINUOUS
 62
     7
100
AcDbLine
 10
-139.4804380536889
 20
114.2454469883406
 30
0.0
 11
-133.4804370701889
 21
114.2454469883406
 31
0.0
  0
LINE
  5
27E
330
1F
100
AcDbEntity
  8
0
  6
CONTINUOUS
 62
     7
100
AcDbLine
 10
-132.1503109931889
 20
130.2454458856405
 30
0.0
 11
-131.4804367423889
 21
130.2454458856405
 31
0.0
  0
LINE
  5
27F
330
1F
100
AcDbEntity
  8
0
  6
CONTINUOUS
 62
     7
100
AcDbLine
 10
-141.4804383814889
 20
130.2454458856405
 30
0.0
 11
-140.8105641305889
 21
130.2454458856405
 31
0.0
  0
LINE
  5
280
330
1F
100
AcDbEntity
  8
0
  6
CONTINUOUS
 62
     7
100
AcDbLine
 10
-122.2539394795889
 20
-6.707975051459442
 30
0.0
 11
-122.2539394795889
 21
-3.154554746159448
 31
0.0
  0
LINE
  5
281
330
1F
100
AcDbEntity
  8
0
  6
CONTINUOUS
 62
     7
100
AcDbLine
 10
-119.3671878128889
 20
-6.707975051459442
 30
0.0
 11
-119.3671878128889
 21
-3.154554746159448
 31
0.0
  0
LINE
  5
282
330
1F
100
AcDbEntity
  8
0
  6
CONTINUOUS
 62
     7
100
AcDbLine
 10
-113.5936844795889
 20
-6.707975051459442
 30
0.0
 11
-113.5936844795889
 21
-3.154554746159448
 31
0.0
  0
LINE
  5
283
330
1F
100
AcDbEntity
  8
0
  6
CONTINUOUS
 62
     7
100
AcDbLine
 10
-116.4804361462889
 20
-7.154555401859454
 30
0.0
 11
-120.8105627148889
 21
-7.154555401859454
 31
0.0
  0
LINE
  5
284
330
1F
100
AcDbEntity
  8
0
  6
CONTINUOUS
 62
     7
100
AcDbLine
 10
-110.7069337442889
 20
-6.707975051459442
 30
0.0
 11
-110.7069337442889
 21
-3.154554746159448
 31
0.0
  0
LINE
  5
285
330
1F
100
AcDbEntity
  8
0
  6
CONTINUOUS
 62
     7
100
AcDbLine
 10
-112.1503095775889
 20
-7.154555401859454
 30
0.0
 11
-116.4804361462889
 21
-7.154555401859454
 31
0.0
  0
LINE
  5
286
330
1F
100
AcDbEntity
  8
0
  6
CONTINUOUS
 62
     7
100
AcDbLine
 10
-113.4804375171889
 20
8.845443495440549
 30
0.0
 11
-119.4804366379889
 21
8.845443495440549
 31
0.0
  0
LINE
  5
287
330
1F
100
AcDbEntity
  8
0
  6
CONTINUOUS
 62
     7
100
AcDbLine
 10
-120.8105627148889
 20
-7.154555401859454
 30
0.0
 11
-121.4804369658889
 21
-7.154555401859454
 31
0.0
  0
LINE
  5
288
330
1F
100
AcDbEntity
  8
0
  6
CONTINUOUS
 62
     7
100
AcDbLine
 10
-111.4804362580889
 20
-7.154555401859454
 30
0.0
 11
-112.1503095775889
 21
-7.154555401859454
 31
0.0
  0
LINE
  5
289
330
1F
100
AcDbEntity
  8
0
  6
CONTINUOUS
 62
     7
100
AcDbLine
 10
-142.2539390325889
 20
-6.707975051459442
 30
0.0
 11
-142.2539390325889
 21
-3.154554746159448
 31
0.0
  0
LINE
  5
28A
330
1F
100
AcDbEntity
  8
0
  6
CONTINUOUS
 62
     7
100
AcDbLine
 10
-139.3671892285889
 20
-6.707975051459442
 30
0.0
 11
-139.3671892285889
 21
-3.154554746159448
 31
0.0
  0
LINE
  5
28B
330
1F
100
AcDbEntity
  8
0
  6
CONTINUOUS
 62
     7
100
AcDbLine
 10
-133.5936858951889
 20
-6.707975051459442
 30
0.0
 11
-133.5936858951889
 21
-3.154554746159448
 31
0.0
  0
LINE
  5
28C
330
1F
100
AcDbEntity
  8
0
  6
CONTINUOUS
 62
     7
100
AcDbLine
 10
-136.4804356992889
 20
-7.154555401859454
 30
0.0
 11
-140.8105641305889
 21
-7.154555401859454
 31
0.0
  0
LINE
  5
28D
330
1F
100
AcDbEntity
  8
0
  6
CONTINUOUS
 62
     7
100
AcDbLine
 10
-130.7069323658889
 20
-6.707975051459442
 30
0.0
 11
-130.7069323658889
 21
-3.154554746159448
 31
0.0
  0
LINE
  5
28E
330
1F
100
AcDbEntity
  8
0
  6
CONTINUOUS
 62
     7
100
AcDbLine
 10
-132.1503109931889
 20
-7.154555401859454
 30
0.0
 11
-136.4804356992889
 21
-7.154555401859454
 31
0.0
  0
LINE
  5
28F
330
1F
100
AcDbEntity
  8
0
  6
CONTINUOUS
 62
     7
100
AcDbLine
 10
-133.4804370701889
 20
8.845443495440549
 30
0.0
 11
-139.4804380536889
 21
8.845443495440549
 31
0.0
  0
LINE
  5
290
330
1F
100
AcDbEntity
  8
0
  6
CONTINUOUS
 62
     7
100
AcDbLine
 10
-140.8105641305889
 20
-7.154555401859454
 30
0.0
 11
-141.4804383814889
 21
-7.154555401859454
 31
0.0
  0
LINE
  5
291
330
1F
100
AcDbEntity
  8
0
  6
CONTINUOUS
 62
     7
100
AcDbLine
 10
-131.4804367423889
 20
-7.154555401859454
 30
0.0
 11
-132.1503109931889
 21
-7.154555401859454
 31
0.0
  0
LINE
  5
292
330
1F
100
AcDbEntity
  8
0
  6
CONTINUOUS
 62
     7
100
AcDbLine
 10
-120.8105627148889
 20
130.2454458856405
 30
0.0
 11
-116.4804361462889
 21
130.2454458856405
 31
0.0
  0
LINE
  5
293
330
1F
100
AcDbEntity
  8
0
  6
CONTINUOUS
 62
     7
100
AcDbLine
 10
-116.4804361462889
 20
130.2454458856405
 30
0.0
 11
-112.1503095775889
 21
130.2454458856405
 31
0.0
  0
LINE
  5
294
330
1F
100
AcDbEntity
  8
0
  6
CONTINUOUS
 62
     7
100
AcDbLine
 10
-119.3671878128889
 20
129.7988655352406
 30
0.0
 11
-119.3671878128889
 21
126.2454452299406
 31
0.0
  0
LINE
  5
295
330
1F
100
AcDbEntity
  8
0
  6
CONTINUOUS
 62
     7
100
AcDbLine
 10
-122.2539394795889
 20
129.7988655352406
 30
0.0
 11
-122.2539394795889
 21
126.2454452299406
 31
0.0
  0
LINE
  5
296
330
1F
100
AcDbEntity
  8
0
  6
CONTINUOUS
 62
     7
100
AcDbLine
 10
-113.5936844795889
 20
129.7988655352406
 30
0.0
 11
-113.5936844795889
 21
126.2454452299406
 31
0.0
  0
LINE
  5
297
330
1F
100
AcDbEntity
  8
0
  6
CONTINUOUS
 62
     7
100
AcDbLine
 10
-110.7069337442889
 20
129.7988655352406
 30
0.0
 11
-110.7069337442889
 21
126.2454452299406
 31
0.0
  0
LINE
  5
298
330
1F
100
AcDbEntity
  8
0
  6
CONTINUOUS
 62
     7
100
AcDbLine
 10
-119.4804366379889
 20
114.2454469883406
 30
0.0
 11
-113.4804375171889
 21
114.2454469883406
 31
0.0
  0
LINE
  5
299
330
1F
100
AcDbEntity
  8
0
  6
CONTINUOUS
 62
     7
100
AcDbLine
 10
-112.1503095775889
 20
130.2454458856405
 30
0.0
 11
-111.4804362580889
 21
130.2454458856405
 31
0.0
  0
LINE
  5
29A
330
1F
100
AcDbEntity
  8
0
  6
CONTINUOUS
 62
     7
100
AcDbLine
 10
-121.4804369658889
 20
130.2454458856405
 30
0.0
 11
-120.8105627148889
 21
130.2454458856405
 31
0.0
  0
LINE
  5
29B
330
1F
100
AcDbEntity
  8
0
  6
CONTINUOUS
 62
     7
100
AcDbLine
 10
-98.98043653748893
 20
20.44544614194055
 30
0.0
 11
-97.48043664078892
 21
20.44544614194055
 31
0.0
  0
LINE
  5
29C
330
1F
100
AcDbEntity
  8
0
  6
CONTINUOUS
 62
     7
100
AcDbLine
 10
-98.98043653748893
 20
20.44544614194055
 30
0.0
 11
-98.98043653748893
 21
32.64544590654054
 31
0.0
  0
LINE
  5
29D
330
1F
100
AcDbEntity
  8
0
  6
CONTINUOUS
 62
     7
100
AcDbLine
 10
-136.4804356992889
 20
126.2454452299406
 30
0.0
 11
-136.4804356992889
 21
124.7454421901406
 31
0.0
  0
LINE
  5
29E
330
1F
100
AcDbEntity
  8
0
  6
CONTINUOUS
 62
     7
100
AcDbLine
 10
-136.4804356992889
 20
126.2454452299406
 30
0.0
 11
-130.3804367482889
 21
126.2454452299406
 31
0.0
  0
LINE
  5
29F
330
1F
100
AcDbEntity
  8
0
  6
CONTINUOUS
 62
     7
100
AcDbLine
 10
-142.5804383754889
 20
126.2454452299406
 30
0.0
 11
-136.6804353594889
 21
126.2454452299406
 31
0.0
  0
LINE
  5
2A0
330
1F
100
AcDbEntity
  8
0
  6
CONTINUOUS
 62
     7
100
AcDbLine
 10
-136.6804353594889
 20
126.2454452299406
 30
0.0
 11
-136.6804353594889
 21
124.7454421901406
 31
0.0
  0
LINE
  5
2A1
330
1F
100
AcDbEntity
  8
0
  6
CONTINUOUS
 62
     7
100
AcDbLine
 10
-116.4804361462889
 20
126.2454452299406
 30
0.0
 11
-116.4804361462889
 21
124.7454421901406
 31
0.0
  0
LINE
  5
2A2
330
1F
100
AcDbEntity
  8
0
  6
CONTINUOUS
 62
     7
100
AcDbLine
 10
-116.6804358065889
 20
126.2454452299406
 30
0.0
 11
-116.6804358065889
 21
124.7454421901406
 31
0.0
  0
LINE
  5
2A3
330
1F
100
AcDbEntity
  8
0
  6
CONTINUOUS
 62
     7
100
AcDbLine
 10
-116.4804361462889
 20
126.2454452299406
 30
0.0
 11
-110.3804362639889
 21
126.2454452299406
 31
0.0
  0
LINE
  5
2A4
330
1F
100
AcDbEntity
  8
0
  6
CONTINUOUS
 62
     7
100
AcDbLine
 10
-122.5804369598889
 20
126.2454452299406
 30
0.0
 11
-116.6804358065889
 21
126.2454452299406
 31
0.0
  0
LINE
  5
2A5
330
1F
100
AcDbEntity
  8
0
  6
CONTINUOUS
 62
     7
100
AcDbLine
 10
-130.3804367482889
 20
-3.154554746159448
 30
0.0
 11
-142.5804383754889
 21
-3.154554746159448
 31
0.0
  0
LINE
  5
2A6
330
1F
100
AcDbEntity
  8
0
  6
CONTINUOUS
 62
     7
100
AcDbLine
 10
-110.3804362639889
 20
-3.154554746159448
 30
0.0
 11
-122.5804369598889
 21
-3.154554746159448
 31
0.0
  0
LINE
  5
2A7
330
1F
100
AcDbEntity
  8
0
  6
CONTINUOUS
 62
     7
100
AcDbLine
 10
-146.9804383516889
 20
25.44544509884057
 30
0.0
 11
-148.4804376661889
 21
25.44544509884057
 31
0.0
  0
LINE
  5
2A8
330
1F
100
AcDbEntity
  8
0
  6
CONTINUOUS
 62
     7
100
AcDbLine
 10
-146.9804383516889
 20
37.64544486344056
 30
0.0
 11
-146.9804383516889
 21
25.44872335434056
 31
0.0
  0
LINE
  5
2A9
330
1F
100
AcDbEntity
  8
0
  6
CONTINUOUS
 62
     7
100
AcDbLine
 10
-146.9804383516889
 20
25.44872335434056
 30
0.0
 11
-148.4804376661889
 21
25.44872335434056
 31
0.0
  0
LINE
  5
2AA
330
1F
100
AcDbEntity
  8
0
  6
CONTINUOUS
 62
     7
100
AcDbLine
 10
-146.9804383516889
 20
25.44872335434056
 30
0.0
 11
-146.9804383516889
 21
25.44544509884057
 31
0.0
  0
LINE
  5
2AB
330
1F
100
AcDbEntity
  8
0
  6
CONTINUOUS
 62
     7
100
AcDbLine
 10
-98.98043653748893
 20
90.44544457734054
 30
0.0
 11
-97.48043664078892
 21
90.44544457734054
 31
0.0
  0
LINE
  5
2AC
330
1F
100
AcDbEntity
  8
0
  6
CONTINUOUS
 62
     7
100
AcDbLine
 10
-98.98043653748893
 20
90.44544457734054
 30
0.0
 11
-98.98043653748893
 21
102.6454443418406
 31
0.0
  0
LINE
  5
2AD
330
1F
100
AcDbEntity
  8
0
  6
CONTINUOUS
 62
     7
100
AcDbLine
 10
-146.9804383516889
 20
85.44544562044055
 30
0.0
 11
-148.4804376661889
 21
85.44544562044055
 31
0.0
  0
LINE
  5
2AE
330
1F
100
AcDbEntity
  8
0
  6
CONTINUOUS
 62
     7
100
AcDbLine
 10
-146.9804383516889
 20
97.64544538494056
 30
0.0
 11
-146.9804383516889
 21
85.44872573854056
 31
0.0
  0
LINE
  5
2AF
330
1F
100
AcDbEntity
  8
0
  6
CONTINUOUS
 62
     7
100
AcDbLine
 10
-146.9804383516889
 20
85.44872573854056
 30
0.0
 11
-148.4804376661889
 21
85.44872573854056
 31
0.0
  0
LINE
  5
2B0
330
1F
100
AcDbEntity
  8
0
  6
CONTINUOUS
 62
     7
100
AcDbLine
 10
-146.9804383516889
 20
85.44872573854056
 30
0.0
 11
-146.9804383516889
 21
85.44544562044055
 31
0.0
  0
LINE
  5
2B1
330
1F
100
AcDbEntity
  8
0
  6
CONTINUOUS
 62
     7
100
AcDbLine
 10
-97.48043664078892
 20
90.04544525684057
 30
0.0
 11
-97.48043664078892
 21
103.0454436623406
 31
0.0
  0
LINE
  5
2B2
330
1F
100
AcDbEntity
  8
0
  6
CONTINUOUS
 62
     7
100
AcDbLine
 10
-109.9804369434889
 20
-1.654551706359456
 30
0.0
 11
-122.9804362803889
 21
-1.654551706359456
 31
0.0
  0
LINE
  5
2B3
330
1F
100
AcDbEntity
  8
0
  6
CONTINUOUS
 62
     7
100
AcDbLine
 10
-129.9804374277889
 20
-1.654551706359456
 30
0.0
 11
-142.9804376959889
 21
-1.654551706359456
 31
0.0
  0
LINE
  5
2B4
330
1F
100
AcDbEntity
  8
0
  6
CONTINUOUS
 62
     7
100
AcDbLine
 10
-142.9804376959889
 20
124.7454421901406
 30
0.0
 11
-129.9804374277889
 21
124.7454421901406
 31
0.0
  0
LINE
  5
2B5
330
1F
100
AcDbEntity
  8
0
  6
CONTINUOUS
 62
     7
100
AcDbLine
 10
-148.4804376661889
 20
91.54544457134054
 30
0.0
 11
-148.4804376661889
 21
85.04544443724055
 31
0.0
  0
LINE
  5
2B6
330
1F
100
AcDbEntity
  8
0
  6
CONTINUOUS
 62
     7
100
AcDbLine
 10
-148.4804376661889
 20
98.04544470544056
 30
0.0
 11
-148.4804376661889
 21
91.54544457134054
 31
0.0
  0
LINE
  5
2B7
330
1F
100
AcDbEntity
  8
0
  6
CONTINUOUS
 62
     7
100
AcDbLine
 10
-148.4804376661889
 20
31.54544591244056
 30
0.0
 11
-148.4804376661889
 21
25.04544577834056
 31
0.0
  0
LINE
  5
2B8
330
1F
100
AcDbEntity
  8
0
  6
CONTINUOUS
 62
     7
100
AcDbLine
 10
-148.4804376661889
 20
38.04544604654055
 30
0.0
 11
-148.4804376661889
 21
31.54544591244056
 31
0.0
  0
LINE
  5
2B9
330
1F
100
AcDbEntity
  8
0
  6
CONTINUOUS
 62
     7
100
AcDbLine
 10
-97.48043664078892
 20
20.04544682144055
 30
0.0
 11
-97.48043664078892
 21
33.04544522704055
 31
0.0
  0
LINE
  5
2BA
330
1F
100
AcDbEntity
  8
0
  6
CONTINUOUS
 62
     7
100
AcDbLine
 10
-122.9804362803889
 20
124.7454421901406
 30
0.0
 11
-109.9804369434889
 21
124.7454421901406
 31
0.0
  0
LINE
  5
2BB
330
1F
100
AcDbEntity
  8
0
  6
CONTINUOUS
 62
     7
100
AcDbLine
 10
117.7581067830111
 20
-108.6343666003594
 30
0.0
 11
47.75810648501107
 21
-108.6343666003594
 31
0.0
  0
LINE
  5
2BC
330
1F
100
AcDbEntity
  8
0
  6
CONTINUOUS
 62
     7
100
AcDbLine
 10
47.75810648501107
 20
-113.9343669102595
 30
0.0
 11
117.7581067830111
 21
-113.9343669102595
 31
0.0
  0
LINE
  5
2BD
330
1F
100
AcDbEntity
  8
0
  6
CONTINUOUS
 62
     7
100
AcDbLine
 10
117.7581067830111
 20
-33.63436362015945
 30
0.0
 11
47.75810648501107
 21
-33.63436362015945
 31
0.0
  0
LINE
  5
2BE
330
1F
100
AcDbEntity
  8
0
  6
CONTINUOUS
 62
     7
100
AcDbLine
 10
47.75810648501107
 20
-38.93436393005945
 30
0.0
 11
117.7581067830111
 21
-38.93436393005945
 31
0.0
  0
LINE
  5
2BF
330
1F
100
AcDbEntity
  8
0
  6
CONTINUOUS
 62
     7
100
AcDbLine
 10
19.55810968581108
 20
-67.68436538295944
 30
0.0
 11
18.05810664591107
 21
-67.68436538295944
 31
0.0
  0
LINE
  5
2C0
330
1F
100
AcDbEntity
  8
0
  6
CONTINUOUS
 62
     7
100
AcDbLine
 10
145.9581035823111
 20
-79.88436514745945
 30
0.0
 11
147.4581066221111
 21
-79.88436514745945
 31
0.0
  0
LINE
  5
2C1
330
1F
100
AcDbEntity
  8
0
  6
CONTINUOUS
 62
     7
100
AcDbLine
 10
144.9581052810111
 20
-80.28436539935944
 30
0.0
 11
145.9581035823111
 21
-80.28436539935944
 31
0.0
  0
LINE
  5
2C2
330
1F
100
AcDbEntity
  8
0
  6
CONTINUOUS
 62
     7
100
AcDbLine
 10
145.9581035823111
 20
-67.28436513105945
 30
0.0
 11
144.9581052810111
 21
-67.28436513105945
 31
0.0
  0
LINE
  5
2C3
330
1F
100
AcDbEntity
  8
0
  6
CONTINUOUS
 62
     7
100
AcDbLine
 10
20.55810798711107
 20
-67.28436513105945
 30
0.0
 11
19.55810968581108
 21
-67.28436513105945
 31
0.0
  0
LINE
  5
2C4
330
1F
100
AcDbEntity
  8
0
  6
CONTINUOUS
 62
     7
100
AcDbLine
 10
19.55810968581108
 20
-80.28436539935944
 30
0.0
 11
20.55810798711107
 21
-80.28436539935944
 31
0.0
  0
LINE
  5
2C5
330
1F
100
AcDbEntity
  8
0
  6
CONTINUOUS
 62
     7
100
AcDbLine
 10
140.758104965111
 20
-123.7843660102594
 30
0.0
 11
142.7581052929111
 21
-123.7843660102594
 31
0.0
  0
LINE
  5
2C6
330
1F
100
AcDbEntity
  8
0
  6
CONTINUOUS
 62
     7
100
AcDbLine
 10
140.758104965111
 20
-113.7431105063594
 30
0.0
 11
140.758104965111
 21
-123.7843660102594
 31
0.0
  0
LINE
  5
2C7
330
1F
100
AcDbEntity
  8
0
  6
CONTINUOUS
 62
     7
100
AcDbLine
 10
142.7581052929111
 20
-113.2170175598594
 30
0.0
 11
142.7581052929111
 21
-123.7843660102594
 31
0.0
  0
LINE
  5
2C8
330
1F
100
AcDbEntity
  8
0
  6
CONTINUOUS
 62
     7
100
AcDbLine
 10
140.7581065057111
 20
-23.78436738945945
 30
0.0
 11
142.7581068335111
 21
-23.78436738945945
 31
0.0
  0
LINE
  5
2C9
330
1F
100
AcDbEntity
  8
0
  6
CONTINUOUS
 62
     7
100
AcDbLine
 10
140.7581065057111
 20
-23.78436738945945
 30
0.0
 11
140.7581065057111
 21
-33.82562289335945
 31
0.0
  0
LINE
  5
2CA
330
1F
100
AcDbEntity
  8
0
  6
CONTINUOUS
 62
     7
100
AcDbLine
 10
142.7581068335111
 20
-23.78436738945945
 30
0.0
 11
142.7581068335111
 21
-34.35171583985945
 31
0.0
  0
LINE
  5
2CB
330
1F
100
AcDbEntity
  8
0
  6
CONTINUOUS
 62
     7
100
AcDbLine
 10
24.75810830301108
 20
-123.7843660102594
 30
0.0
 11
22.75810797511107
 21
-123.7843660102594
 31
0.0
  0
LINE
  5
2CC
330
1F
100
AcDbEntity
  8
0
  6
CONTINUOUS
 62
     7
100
AcDbLine
 10
22.75810797511107
 20
-113.2170175598594
 30
0.0
 11
22.75810797511107
 21
-123.7843660102594
 31
0.0
  0
LINE
  5
2CD
330
1F
100
AcDbEntity
  8
0
  6
CONTINUOUS
 62
     7
100
AcDbLine
 10
24.75810830301108
 20
-113.7431105063594
 30
0.0
 11
24.75810830301108
 21
-123.7843660102594
 31
0.0
  0
LINE
  5
2CE
330
1F
100
AcDbEntity
  8
0
  6
CONTINUOUS
 62
     7
100
AcDbLine
 10
24.75810790031107
 20
-23.78436738945945
 30
0.0
 11
22.75810757241106
 21
-23.78436738945945
 31
0.0
  0
LINE
  5
2CF
330
1F
100
AcDbEntity
  8
0
  6
CONTINUOUS
 62
     7
100
AcDbLine
 10
22.75810757241106
 20
-23.78436738945945
 30
0.0
 11
22.75810757241106
 21
-34.35171583985945
 31
0.0
  0
LINE
  5
2D0
330
1F
100
AcDbEntity
  8
0
  6
CONTINUOUS
 62
     7
100
AcDbLine
 10
24.75810790031107
 20
-23.78436738945945
 30
0.0
 11
24.75810790031107
 21
-33.82562289335945
 31
0.0
  0
LINE
  5
2D1
330
1F
100
AcDbEntity
  8
0
  6
CONTINUOUS
 62
     7
100
AcDbLine
 10
140.7581065057111
 20
-23.78436738945945
 30
0.0
 11
139.7581082044111
 21
-23.78436738945945
 31
0.0
  0
LINE
  5
2D2
330
1F
100
AcDbEntity
  8
0
  6
CONTINUOUS
 62
     7
100
AcDbLine
 10
140.758104965111
 20
-123.7843660102594
 30
0.0
 11
139.7581066638111
 21
-123.7843660102594
 31
0.0
  0
LINE
  5
2D3
330
1F
100
AcDbEntity
  8
0
  6
CONTINUOUS
 62
     7
100
AcDbLine
 10
25.75810620151108
 20
-23.78436738945945
 30
0.0
 11
24.75810790031107
 21
-23.78436738945945
 31
0.0
  0
LINE
  5
2D4
330
1F
100
AcDbEntity
  8
0
  6
CONTINUOUS
 62
     7
100
AcDbLine
 10
25.75810660421106
 20
-123.7843660102594
 30
0.0
 11
24.75810830301108
 21
-123.7843660102594
 31
0.0
  0
LINE
  5
2D5
330
1F
100
AcDbEntity
  8
0
  6
CONTINUOUS
 62
     7
100
AcDbLine
 10
139.7581082044111
 20
-23.78436738945945
 30
0.0
 11
137.7581078766111
 21
-23.78436738945945
 31
0.0
  0
LINE
  5
2D6
330
1F
100
AcDbEntity
  8
0
  6
CONTINUOUS
 62
     7
100
AcDbLine
 10
27.75810652941107
 20
-23.78436738945945
 30
0.0
 11
25.75810620151108
 21
-23.78436738945945
 31
0.0
  0
LINE
  5
2D7
330
1F
100
AcDbEntity
  8
0
  6
CONTINUOUS
 62
     7
100
AcDbLine
 10
139.7581066638111
 20
-123.7843660102594
 30
0.0
 11
137.7581063360111
 21
-123.7843660102594
 31
0.0
  0
LINE
  5
2D8
330
1F
100
AcDbEntity
  8
0
  6
CONTINUOUS
 62
     7
100
AcDbLine
 10
27.75810693211108
 20
-123.7843660102594
 30
0.0
 11
25.75810660421106
 21
-123.7843660102594
 31
0.0
  0
LINE
  5
2D9
330
1F
100
AcDbEntity
  8
0
  6
CONTINUOUS
 62
     7
100
AcDbLine
 10
135.7581060082111
 20
-121.7843656824595
 30
0.0
 11
137.7581063360111
 21
-121.7843656824595
 31
0.0
  0
LINE
  5
2DA
330
1F
100
AcDbEntity
  8
0
  6
CONTINUOUS
 62
     7
100
AcDbLine
 10
137.7581063360111
 20
-121.7843656824595
 30
0.0
 11
137.7581063360111
 21
-123.7843660102594
 31
0.0
  0
LINE
  5
2DB
330
1F
100
AcDbEntity
  8
0
  6
CONTINUOUS
 62
     7
100
AcDbLine
 10
137.7581063360111
 20
-123.7843660102594
 30
0.0
 11
135.7581060082111
 21
-123.7843660102594
 31
0.0
  0
LINE
  5
2DC
330
1F
100
AcDbEntity
  8
0
  6
CONTINUOUS
 62
     7
100
AcDbLine
 10
135.758105605511
 20
-23.78436738945945
 30
0.0
 11
137.7581078766111
 21
-23.78436738945945
 31
0.0
  0
LINE
  5
2DD
330
1F
100
AcDbEntity
  8
0
  6
CONTINUOUS
 62
     7
100
AcDbLine
 10
137.7581078766111
 20
-25.78436771725944
 30
0.0
 11
137.7581078766111
 21
-23.78436738945945
 31
0.0
  0
LINE
  5
2DE
330
1F
100
AcDbEntity
  8
0
  6
CONTINUOUS
 62
     7
100
AcDbLine
 10
137.7581078766111
 20
-25.78436771725944
 30
0.0
 11
135.758105605511
 21
-25.78436771725944
 31
0.0
  0
LINE
  5
2DF
330
1F
100
AcDbEntity
  8
0
  6
CONTINUOUS
 62
     7
100
AcDbLine
 10
111.4722139835111
 20
-123.7843660102594
 30
0.0
 11
135.7581060082111
 21
-123.7843660102594
 31
0.0
  0
LINE
  5
2E0
330
1F
100
AcDbEntity
  8
0
  6
CONTINUOUS
 62
     7
100
AcDbLine
 10
111.4722139835111
 20
-121.7843656824595
 30
0.0
 11
135.7581060082111
 21
-121.7843656824595
 31
0.0
  0
LINE
  5
2E1
330
1F
100
AcDbEntity
  8
0
  6
CONTINUOUS
 62
     7
100
AcDbLine
 10
111.4722135808111
 20
-23.78436738945945
 30
0.0
 11
135.758105605511
 21
-23.78436738945945
 31
0.0
  0
LINE
  5
2E2
330
1F
100
AcDbEntity
  8
0
  6
CONTINUOUS
 62
     7
100
AcDbLine
 10
111.4722135808111
 20
-25.78436771725944
 30
0.0
 11
135.758105605511
 21
-25.78436771725944
 31
0.0
  0
LINE
  5
2E3
330
1F
100
AcDbEntity
  8
0
  6
CONTINUOUS
 62
     7
100
AcDbLine
 10
111.4722139835111
 20
-123.7843660102594
 30
0.0
 11
109.718680724511
 21
-123.7843660102594
 31
0.0
  0
LINE
  5
2E4
330
1F
100
AcDbEntity
  8
0
  6
CONTINUOUS
 62
     7
100
AcDbLine
 10
109.718680724511
 20
-121.7843656824595
 30
0.0
 11
111.4722139835111
 21
-121.7843656824595
 31
0.0
  0
LINE
  5
2E5
330
1F
100
AcDbEntity
  8
0
  6
CONTINUOUS
 62
     7
100
AcDbLine
 10
109.7186803218111
 20
-23.78436738945945
 30
0.0
 11
111.4722135808111
 21
-23.78436738945945
 31
0.0
  0
LINE
  5
2E6
330
1F
100
AcDbEntity
  8
0
  6
CONTINUOUS
 62
     7
100
AcDbLine
 10
111.4722135808111
 20
-25.78436771725944
 30
0.0
 11
109.7186803218111
 21
-25.78436771725944
 31
0.0
  0
LINE
  5
2E7
330
1F
100
AcDbEntity
  8
0
  6
CONTINUOUS
 62
     7
100
AcDbLine
 10
55.79753254351107
 20
-123.7843660102594
 30
0.0
 11
54.04399928451107
 21
-123.7843660102594
 31
0.0
  0
LINE
  5
2E8
330
1F
100
AcDbEntity
  8
0
  6
CONTINUOUS
 62
     7
100
AcDbLine
 10
54.04399928451107
 20
-121.7843656824595
 30
0.0
 11
55.79753254351107
 21
-121.7843656824595
 31
0.0
  0
LINE
  5
2E9
330
1F
100
AcDbEntity
  8
0
  6
CONTINUOUS
 62
     7
100
AcDbLine
 10
54.04399888181109
 20
-23.78436738945945
 30
0.0
 11
55.79753214081109
 21
-23.78436738945945
 31
0.0
  0
LINE
  5
2EA
330
1F
100
AcDbEntity
  8
0
  6
CONTINUOUS
 62
     7
100
AcDbLine
 10
55.79753214081109
 20
-25.78436771725944
 30
0.0
 11
54.04399888181109
 21
-25.78436771725944
 31
0.0
  0
LINE
  5
2EB
330
1F
100
AcDbEntity
  8
0
  6
CONTINUOUS
 62
     7
100
AcDbLine
 10
29.75810725991107
 20
-123.7843660102594
 30
0.0
 11
54.04399928451107
 21
-123.7843660102594
 31
0.0
  0
LINE
  5
2EC
330
1F
100
AcDbEntity
  8
0
  6
CONTINUOUS
 62
     7
100
AcDbLine
 10
29.75810725991107
 20
-121.7843656824595
 30
0.0
 11
54.04399928451107
 21
-121.7843656824595
 31
0.0
  0
LINE
  5
2ED
330
1F
100
AcDbEntity
  8
0
  6
CONTINUOUS
 62
     7
100
AcDbLine
 10
29.75810685721106
 20
-23.78436738945945
 30
0.0
 11
54.04399888181109
 21
-23.78436738945945
 31
0.0
  0
LINE
  5
2EE
330
1F
100
AcDbEntity
  8
0
  6
CONTINUOUS
 62
     7
100
AcDbLine
 10
29.75810685721106
 20
-25.78436771725944
 30
0.0
 11
54.04399888181109
 21
-25.78436771725944
 31
0.0
  0
LINE
  5
2EF
330
1F
100
AcDbEntity
  8
0
  6
CONTINUOUS
 62
     7
100
AcDbLine
 10
27.75810693211108
 20
-121.7843656824595
 30
0.0
 11
27.75810693211108
 21
-123.7843660102594
 31
0.0
  0
LINE
  5
2F0
330
1F
100
AcDbEntity
  8
0
  6
CONTINUOUS
 62
     7
100
AcDbLine
 10
29.75810725991107
 20
-123.7843660102594
 30
0.0
 11
27.75810693211108
 21
-123.7843660102594
 31
0.0
  0
LINE
  5
2F1
330
1F
100
AcDbEntity
  8
0
  6
CONTINUOUS
 62
     7
100
AcDbLine
 10
27.75810693211108
 20
-121.7843656824595
 30
0.0
 11
29.75810725991107
 21
-121.7843656824595
 31
0.0
  0
LINE
  5
2F2
330
1F
100
AcDbEntity
  8
0
  6
CONTINUOUS
 62
     7
100
AcDbLine
 10
27.75810652941107
 20
-25.78436771725944
 30
0.0
 11
27.75810652941107
 21
-23.78436738945945
 31
0.0
  0
LINE
  5
2F3
330
1F
100
AcDbEntity
  8
0
  6
CONTINUOUS
 62
     7
100
AcDbLine
 10
27.75810652941107
 20
-23.78436738945945
 30
0.0
 11
29.75810685721106
 21
-23.78436738945945
 31
0.0
  0
LINE
  5
2F4
330
1F
100
AcDbEntity
  8
0
  6
CONTINUOUS
 62
     7
100
AcDbLine
 10
29.75810685721106
 20
-25.78436771725944
 30
0.0
 11
27.75810652941107
 21
-25.78436771725944
 31
0.0
  0
LINE
  5
2F5
330
1F
100
AcDbEntity
  8
0
  6
CONTINUOUS
 62
     7
100
AcDbLine
 10
55.79753254351107
 20
-123.7843660102594
 30
0.0
 11
109.718680724511
 21
-123.7843660102594
 31
0.0
  0
LINE
  5
2F6
330
1F
100
AcDbEntity
  8
0
  6
CONTINUOUS
 62
     7
100
AcDbLine
 10
109.718680724511
 20
-121.7843656824595
 30
0.0
 11
55.79753254351107
 21
-121.7843656824595
 31
0.0
  0
LINE
  5
2F7
330
1F
100
AcDbEntity
  8
0
  6
CONTINUOUS
 62
     7
100
AcDbLine
 10
109.7186803218111
 20
-23.78436738945945
 30
0.0
 11
55.79753214081109
 21
-23.78436738945945
 31
0.0
  0
LINE
  5
2F8
330
1F
100
AcDbEntity
  8
0
  6
CONTINUOUS
 62
     7
100
AcDbLine
 10
55.79753214081109
 20
-25.78436771725944
 30
0.0
 11
109.7186803218111
 21
-25.78436771725944
 31
0.0
  0
LINE
  5
2F9
330
1F
100
AcDbEntity
  8
0
  6
CONTINUOUS
 62
     7
100
AcDbLine
 10
137.7581078766111
 20
-25.78436771725944
 30
0.0
 11
137.7581078766111
 21
-26.78436785045946
 31
0.0
  0
LINE
  5
2FA
330
1F
100
AcDbEntity
  8
0
  6
CONTINUOUS
 62
     7
100
AcDbLine
 10
27.75810652941107
 20
-25.78436771725944
 30
0.0
 11
27.75810652941107
 21
-26.78436974385946
 31
0.0
  0
LINE
  5
2FB
330
1F
100
AcDbEntity
  8
0
  6
CONTINUOUS
 62
     7
100
AcDbLine
 10
27.75810693211108
 20
-120.7843636558595
 30
0.0
 11
27.75810693211108
 21
-121.7843656824595
 31
0.0
  0
LINE
  5
2FC
330
1F
100
AcDbEntity
  8
0
  6
CONTINUOUS
 62
     7
100
AcDbLine
 10
137.7581063360111
 20
-120.7843636558595
 30
0.0
 11
137.7581063360111
 21
-121.7843656824595
 31
0.0
  0
LINE
  5
2FD
330
1F
100
AcDbEntity
  8
0
  6
CONTINUOUS
 62
     7
100
AcDbLine
 10
144.9581079871111
 20
-35.04685586555945
 30
0.0
 11
144.9581066340111
 21
-112.5218757847594
 31
0.0
  0
LINE
  5
2FE
330
1F
100
AcDbEntity
  8
0
  6
CONTINUOUS
 62
     7
100
AcDbLine
 10
27.75810693211108
 20
-118.3256832347595
 30
0.0
 11
27.75810693211108
 21
-120.7843636558595
 31
0.0
  0
LINE
  5
2FF
330
1F
100
AcDbEntity
  8
0
  6
CONTINUOUS
 62
     7
100
AcDbLine
 10
23.55810680371107
 20
-113.3636634684594
 30
0.0
 11
24.05220204711108
 21
-113.4960552718594
 31
0.0
  0
LINE
  5
300
330
1F
100
AcDbEntity
  8
0
  6
CONTINUOUS
 62
     7
100
AcDbLine
 10
24.05220323191108
 20
-34.07267714835945
 30
0.0
 11
23.55810680371107
 21
-34.20507024025945
 31
0.0
  0
LINE
  5
301
330
1F
100
AcDbEntity
  8
0
  6
CONTINUOUS
 62
     7
100
AcDbLine
 10
27.75810652941107
 20
-26.78436974385946
 30
0.0
 11
27.75810623131107
 21
-29.24304885235945
 31
0.0
  0
LINE
  5
302
330
1F
100
AcDbEntity
  8
0
  6
CONTINUOUS
 62
     7
100
AcDbLine
 10
137.7581078766111
 20
-26.78436785045946
 30
0.0
 11
137.7581078766111
 21
-29.24304827155945
 31
0.0
  0
LINE
  5
303
330
1F
100
AcDbEntity
  8
0
  6
CONTINUOUS
 62
     7
100
AcDbLine
 10
141.4640127615111
 20
-34.07267623435945
 30
0.0
 11
141.9581079871111
 21
-34.20506865105945
 31
0.0
  0
LINE
  5
304
330
1F
100
AcDbEntity
  8
0
  6
CONTINUOUS
 62
     7
100
AcDbLine
 10
137.7581066340111
 20
-118.3256845472594
 30
0.0
 11
137.7581063360111
 21
-120.7843636558595
 31
0.0
  0
LINE
  5
305
330
1F
100
AcDbEntity
  8
0
  6
CONTINUOUS
 62
     7
100
AcDbLine
 10
141.9581066340111
 20
-113.3636629991594
 30
0.0
 11
141.4640114085111
 21
-113.4960554158594
 31
0.0
  0
LINE
  5
306
330
1F
100
AcDbEntity
  8
0
  6
CONTINUOUS
 62
     7
100
AcDbLine
 10
20.55810680371107
 20
-35.04685745475945
 30
0.0
 11
20.55810680371107
 21
-112.5218762540594
 31
0.0
  0
LINE
  5
307
330
1F
100
AcDbEntity
  8
0
  6
CONTINUOUS
 62
     7
100
AcDbLine
 10
151.0115269274111
 20
-73.78436526515945
 30
0.0
 11
147.4581066221111
 21
-73.78436526515945
 31
0.0
  0
LINE
  5
308
330
1F
100
AcDbEntity
  8
0
  6
CONTINUOUS
 62
     7
100
AcDbLine
 10
151.0115269274111
 20
-68.78436537695944
 30
0.0
 11
147.4581066221111
 21
-68.78436537695944
 31
0.0
  0
LINE
  5
309
330
1F
100
AcDbEntity
  8
0
  6
CONTINUOUS
 62
     7
100
AcDbLine
 10
151.0115269274111
 20
-78.78436515345945
 30
0.0
 11
147.4581066221111
 21
-78.78436515345945
 31
0.0
  0
LINE
  5
30A
330
1F
100
AcDbEntity
  8
0
  6
CONTINUOUS
 62
     7
100
AcDbLine
 10
151.4581072778111
 20
-71.28436532105945
 30
0.0
 11
151.4581072778111
 21
-76.28436520935945
 31
0.0
  0
LINE
  5
30B
330
1F
100
AcDbEntity
  8
0
  6
CONTINUOUS
 62
     7
100
AcDbLine
 10
151.4581072778111
 20
-76.28436520935945
 30
0.0
 11
151.4581072778111
 21
-78.78436515345945
 31
0.0
  0
LINE
  5
30C
330
1F
100
AcDbEntity
  8
0
  6
CONTINUOUS
 62
     7
100
AcDbLine
 10
151.4581072778111
 20
-68.78436537695944
 30
0.0
 11
151.4581072778111
 21
-71.28436532105945
 31
0.0
  0
LINE
  5
30D
330
1F
100
AcDbEntity
  8
0
  6
CONTINUOUS
 62
     7
100
AcDbLine
 10
14.50468634071106
 20
-68.78436537695944
 30
0.0
 11
18.05810664591107
 21
-68.78436537695944
 31
0.0
  0
LINE
  5
30E
330
1F
100
AcDbEntity
  8
0
  6
CONTINUOUS
 62
     7
100
AcDbLine
 10
14.50468634071106
 20
-73.78436526515945
 30
0.0
 11
18.05810664591107
 21
-73.78436526515945
 31
0.0
  0
LINE
  5
30F
330
1F
100
AcDbEntity
  8
0
  6
CONTINUOUS
 62
     7
100
AcDbLine
 10
14.50468634071106
 20
-78.78436515345945
 30
0.0
 11
18.05810664591107
 21
-78.78436515345945
 31
0.0
  0
LINE
  5
310
330
1F
100
AcDbEntity
  8
0
  6
CONTINUOUS
 62
     7
100
AcDbLine
 10
14.05810599031108
 20
-76.28436520935945
 30
0.0
 11
14.05810599031108
 21
-71.28436532105945
 31
0.0
  0
LINE
  5
311
330
1F
100
AcDbEntity
  8
0
  6
CONTINUOUS
 62
     7
100
AcDbLine
 10
14.05810599031108
 20
-71.28436532105945
 30
0.0
 11
14.05810599031108
 21
-68.78436537695944
 31
0.0
  0
LINE
  5
312
330
1F
100
AcDbEntity
  8
0
  6
CONTINUOUS
 62
     7
100
AcDbLine
 10
14.05810599031108
 20
-78.78436515345945
 30
0.0
 11
14.05810599031108
 21
-76.28436520935945
 31
0.0
  0
LINE
  5
313
330
1F
100
AcDbEntity
  8
0
  6
CONTINUOUS
 62
     7
100
AcDbLine
 10
18.05810664591107
 20
-79.88436514745945
 30
0.0
 11
19.55810968581108
 21
-79.88436514745945
 31
0.0
  0
LINE
  5
314
330
1F
100
AcDbEntity
  8
0
  6
CONTINUOUS
 62
     7
100
AcDbLine
 10
18.05810664591107
 20
-79.88436514745945
 30
0.0
 11
18.05810664591107
 21
-67.68436538295944
 31
0.0
  0
LINE
  5
315
330
1F
100
AcDbEntity
  8
0
  6
CONTINUOUS
 62
     7
100
AcDbLine
 10
44.51426534371109
 20
-111.4843678998594
 30
0.0
 11
44.71467106061107
 21
-111.4843678998594
 31
0.0
  0
LINE
  5
316
330
1F
100
AcDbEntity
  8
0
  6
CONTINUOUS
 62
     7
100
AcDbLine
 10
44.70810663401107
 20
-111.2843667552594
 30
0.0
 11
44.50810734931105
 21
-111.2843682454594
 31
0.0
  0
LINE
  5
317
330
1F
100
AcDbEntity
  8
0
  6
CONTINUOUS
 62
     7
100
AcDbLine
 10
147.4581066221111
 20
-67.68436538295944
 30
0.0
 11
145.9581035823111
 21
-67.68436538295944
 31
0.0
  0
LINE
  5
318
330
1F
100
AcDbEntity
  8
0
  6
CONTINUOUS
 62
     7
100
AcDbLine
 10
147.4581066221111
 20
-67.68436538295944
 30
0.0
 11
147.4581066221111
 21
-79.88436514745945
 31
0.0
  0
LINE
  5
319
330
1F
100
AcDbEntity
  8
0
  6
CONTINUOUS
 62
     7
100
AcDbLine
 10
44.5142652462111
 20
-36.48436194585945
 30
0.0
 11
44.71467096311108
 21
-36.48436194585945
 31
0.0
  0
LINE
  5
31A
330
1F
100
AcDbEntity
  8
0
  6
CONTINUOUS
 62
     7
100
AcDbLine
 10
44.70810663401107
 20
-36.28436377505945
 30
0.0
 11
44.50810734931105
 21
-36.28436228495944
 31
0.0
  0
LINE
  5
31B
330
1F
100
AcDbEntity
  8
0
  6
CONTINUOUS
 62
     7
100
AcDbLine
 10
145.9581035823111
 20
-67.28436513105945
 30
0.0
 11
145.9581035823111
 21
-80.28436539935944
 31
0.0
  0
LINE
  5
31C
330
1F
100
AcDbEntity
  8
0
  6
CONTINUOUS
 62
     7
100
AcDbLine
 10
19.55810968581108
 20
-80.28436539935944
 30
0.0
 11
19.55810968581108
 21
-67.28436513105945
 31
0.0
  0
ARC
  5
31D
330
1F
100
AcDbEntity
  8
0
  6
CONTINUOUS
 62
     7
100
AcDbCircle
 10
-22.83043659328894
 20
-111.2843652651595
 30
0.0
 40
2.650000000000006
100
AcDbArc
 50
270.0
 51
90.0
  0
ARC
  5
31E
330
1F
100
AcDbEntity
  8
0
  6
CONTINUOUS
 62
     7
100
AcDbCircle
 10
-22.83043659328894
 20
-36.28436526515945
 30
0.0
 40
2.65000000000002
100
AcDbArc
 50
270.0
 51
90.0
  0
ARC
  5
31F
330
1F
100
AcDbEntity
  8
0
  6
CONTINUOUS
 62
     7
100
AcDbCircle
 10
-116.4804365932889
 20
-73.78436526515945
 30
0.0
 40
16.80000000000001
100
AcDbArc
 50
197.7555862293
 51
220.0
  0
ARC
  5
320
330
1F
100
AcDbEntity
  8
0
  6
CONTINUOUS
 62
     7
100
AcDbCircle
 10
-116.4804365932889
 20
-73.78436526515945
 30
0.0
 40
16.80000000000003
100
AcDbArc
 50
140.0
 51
162.2444137707
  0
ARC
  5
321
330
1F
100
AcDbEntity
  8
0
  6
CONTINUOUS
 62
     7
100
AcDbCircle
 10
-131.8013254556889
 20
-60.92861307145945
 30
0.0
 40
3.199999999997924
100
AcDbArc
 50
320.0000000007001
 51
140.0
  0
ARC
  5
322
330
1F
100
AcDbEntity
  8
0
  6
CONTINUOUS
 62
     7
100
AcDbCircle
 10
-116.4804365932889
 20
-73.78436526515945
 30
0.0
 40
23.19999999999587
100
AcDbArc
 50
140.0000000001
 51
164.9074434365
  0
ARC
  5
323
330
1F
100
AcDbEntity
  8
0
  6
CONTINUOUS
 62
     7
100
AcDbCircle
 10
-116.4804365932889
 20
-73.78436526515945
 30
0.0
 40
23.19999999999999
100
AcDbArc
 50
195.0925565635
 51
220.0
  0
ARC
  5
324
330
1F
100
AcDbEntity
  8
0
  6
CONTINUOUS
 62
     7
100
AcDbCircle
 10
-131.8013254556889
 20
-86.64011745895945
 30
0.0
 40
3.199999999999991
100
AcDbArc
 50
219.9999999993001
 51
40.00000000069983
  0
ARC
  5
325
330
1F
100
AcDbEntity
  8
0
  6
CONTINUOUS
 62
     7
100
AcDbCircle
 10
-116.4804365932889
 20
-73.78436526515945
 30
0.0
 40
32.50000000000001
100
AcDbArc
 50
105.0
 51
254.9999992545999
  0
ARC
  5
326
330
1F
100
AcDbEntity
  8
0
  6
CONTINUOUS
 62
     7
100
AcDbCircle
 10
-93.48043660228893
 20
-120.7843646853594
 30
0.0
 40
3.0
100
AcDbArc
 50
180.0
 51
270.0
  0
ARC
  5
327
330
1F
100
AcDbEntity
  8
0
  6
CONTINUOUS
 62
     7
100
AcDbCircle
 10
-93.48043660228893
 20
-120.7843646853594
 30
0.0
 40
1.0
100
AcDbArc
 50
180.0
 51
270.0
  0
ARC
  5
328
330
1F
100
AcDbEntity
  8
0
  6
CONTINUOUS
 62
     7
100
AcDbCircle
 10
-93.48043659328891
 20
-26.78436526515944
 30
0.0
 40
3.0
100
AcDbArc
 50
90.0
 51
180.0
  0
ARC
  5
329
330
1F
100
AcDbEntity
  8
0
  6
CONTINUOUS
 62
     7
100
AcDbCircle
 10
-93.48043659328891
 20
-26.78436526515944
 30
0.0
 40
1.0
100
AcDbArc
 50
90.0
 51
180.0
  0
ARC
  5
32A
330
1F
100
AcDbEntity
  8
0
  6
CONTINUOUS
 62
     7
100
AcDbCircle
 10
-116.4804365932889
 20
-73.78436526515945
 30
0.0
 40
5.000000000000011
100
AcDbArc
 50
29.99999603389999
 51
89.99999285750003
  0
ARC
  5
32B
330
1F
100
AcDbEntity
  8
0
  6
CONTINUOUS
 62
     7
100
AcDbCircle
 10
-116.4804365932889
 20
-73.78436526515945
 30
0.0
 40
5.000000000000006
100
AcDbArc
 50
269.9999948404999
 51
329.9999942859999
  0
ARC
  5
32C
330
1F
100
AcDbEntity
  8
0
  6
CONTINUOUS
 62
     7
100
AcDbCircle
 10
-116.4804365932889
 20
-73.78436526515945
 30
0.0
 40
5.000000000000023
100
AcDbArc
 50
89.99999285750003
 51
149.9999932945001
  0
ARC
  5
32D
330
1F
100
AcDbEntity
  8
0
  6
CONTINUOUS
 62
     7
100
AcDbCircle
 10
-116.4804365932889
 20
-73.78436526515945
 30
0.0
 40
5.000000000000002
100
AcDbArc
 50
329.9999942859999
 51
29.99999603389998
  0
ARC
  5
32E
330
1F
100
AcDbEntity
  8
0
  6
CONTINUOUS
 62
     7
100
AcDbCircle
 10
-116.4804365932889
 20
-73.78436526515945
 30
0.0
 40
5.000000000000006
100
AcDbArc
 50
210.0
 51
269.9999948404999
  0
ARC
  5
32F
330
1F
100
AcDbEntity
  8
0
  6
CONTINUOUS
 62
     7
100
AcDbCircle
 10
-116.4804365932889
 20
-73.78436526515945
 30
0.0
 40
5.000000000000023
100
AcDbArc
 50
149.9999932945001
 51
210.0
  0
ARC
  5
330
330
1F
100
AcDbEntity
  8
0
  6
CONTINUOUS
 62
     7
100
AcDbCircle
 10
-136.4804365932889
 20
-73.78436526515945
 30
0.0
 40
5.000000000000005
100
AcDbArc
 50
270.0000161849
 51
329.9999942859999
  0
ARC
  5
331
330
1F
100
AcDbEntity
  8
0
  6
CONTINUOUS
 62
     7
100
AcDbCircle
 10
-136.4804365932889
 20
-73.78436526515945
 30
0.0
 40
5.000000000000005
100
AcDbArc
 50
329.9999942859999
 51
30.00000599129993
  0
ARC
  5
332
330
1F
100
AcDbEntity
  8
0
  6
CONTINUOUS
 62
     7
100
AcDbCircle
 10
-136.4804365932889
 20
-73.78436526515945
 30
0.0
 40
5.000000000000003
100
AcDbArc
 50
30.00000599129991
 51
89.99998436969996
  0
ARC
  5
333
330
1F
100
AcDbEntity
  8
0
  6
CONTINUOUS
 62
     7
100
AcDbCircle
 10
-136.4804365932889
 20
-73.78436526515945
 30
0.0
 40
5.000000000000002
100
AcDbArc
 50
89.99998436969996
 51
150.0000011091
  0
ARC
  5
334
330
1F
100
AcDbEntity
  8
0
  6
CONTINUOUS
 62
     7
100
AcDbCircle
 10
-136.4804365932889
 20
-73.78436526515945
 30
0.0
 40
5.000000000000001
100
AcDbArc
 50
210.0
 51
270.0000161849
  0
ARC
  5
335
330
1F
100
AcDbEntity
  8
0
  6
CONTINUOUS
 62
     7
100
AcDbCircle
 10
-136.4804365932889
 20
-73.78436526515945
 30
0.0
 40
4.999999999999993
100
AcDbArc
 50
150.0000011091
 51
210.0000000000001
  0
ARC
  5
336
330
1F
100
AcDbEntity
  8
0
  6
CONTINUOUS
 62
     7
100
AcDbCircle
 10
-116.4804365932889
 20
-73.78436526515945
 30
0.0
 40
6.099999828321833
100
AcDbArc
 50
269.9999957709
 51
268.1211204456001
  0
ARC
  5
337
330
1F
100
AcDbEntity
  8
0
  6
CONTINUOUS
 62
     7
100
AcDbCircle
 10
-136.4804365932889
 20
-73.78436526515945
 30
0.0
 40
6.099999820992382
100
AcDbArc
 50
270.0000132663
 51
268.1211246428001
  0
CIRCLE
  5
338
330
1F
100
AcDbEntity
  8
0
  6
CONTINUOUS
 62
     7
100
AcDbCircle
 10
-136.4804365932889
 20
-73.78436526515945
 30
0.0
 40
6.500000000000014
  0
CIRCLE
  5
339
330
1F
100
AcDbEntity
  8
0
  6
CONTINUOUS
 62
     7
100
AcDbCircle
 10
-116.4804365932889
 20
-73.78436526515945
 30
0.0
 40
6.5
  0
ARC
  5
33A
330
1F
100
AcDbEntity
  8
0
  6
CONTINUOUS
 62
     7
100
AcDbCircle
 10
-57.83043659328894
 20
61.54544524194054
 30
0.0
 40
32.35000000000002
100
AcDbArc
 50
270.0
 51
90.0
  0
ARC
  5
33B
330
1F
100
AcDbEntity
  8
0
  6
CONTINUOUS
 62
     7
100
AcDbCircle
 10
-57.83043659328894
 20
61.54544524194054
 30
0.0
 40
37.65000000000006
100
AcDbArc
 50
270.0
 51
90.0
  0
ARC
  5
33C
330
1F
100
AcDbEntity
  8
0
  6
CONTINUOUS
 62
     7
100
AcDbCircle
 10
-148.4804366528889
 20
118.5454452419406
 30
0.0
 40
1.0
100
AcDbArc
 50
90.0
 51
180.0
  0
ARC
  5
33D
330
1F
100
AcDbEntity
  8
0
  6
CONTINUOUS
 62
     7
100
AcDbCircle
 10
-148.4804369657889
 20
4.545445241940541
 30
0.0
 40
0.9999996871000012
100
AcDbArc
 50
180.0000017073996
 51
270.0
  0
ARC
  5
33E
330
1F
100
AcDbEntity
  8
0
  6
CONTINUOUS
 62
     7
100
AcDbCircle
 10
-148.4804369657889
 20
4.545445241940541
 30
0.0
 40
2.999999329450098
100
AcDbArc
 50
180.0
 51
269.9999795091
  0
ARC
  5
33F
330
1F
100
AcDbEntity
  8
0
  6
CONTINUOUS
 62
     7
100
AcDbCircle
 10
-148.4804366528889
 20
118.5454452419406
 30
0.0
 40
2.99999964235009
100
AcDbArc
 50
90.0
 51
179.9999994309
  0
ARC
  5
340
330
1F
100
AcDbEntity
  8
0
  6
CONTINUOUS
 62
     7
100
AcDbCircle
 10
-73.48043678988893
 20
90.25955482234056
 30
0.0
 40
2.000000000000028
100
AcDbArc
 50
298.7452465147997
 51
0.0
  0
ARC
  5
341
330
1F
100
AcDbEntity
  8
0
  6
CONTINUOUS
 62
     7
100
AcDbCircle
 10
-57.73043650288892
 20
61.54544694904055
 30
0.0
 40
30.74999999999017
100
AcDbArc
 50
118.7452471247
 51
241.2547527961
  0
ARC
  5
342
330
1F
100
AcDbEntity
  8
0
  6
CONTINUOUS
 62
     7
100
AcDbCircle
 10
-73.48043682708894
 20
32.83133909614054
 30
0.0
 40
2.000000000033966
100
AcDbArc
 50
0.0
 51
61.2547534858003
  0
ARC
  5
343
330
1F
100
AcDbEntity
  8
0
  6
CONTINUOUS
 62
     7
100
AcDbCircle
 10
-73.48043664078892
 20
8.545447126940559
 30
0.0
 40
2.000000186250061
100
AcDbArc
 50
270.0
 51
0.0000179277996479
  0
ARC
  5
344
330
1F
100
AcDbEntity
  8
0
  6
CONTINUOUS
 62
     7
100
AcDbCircle
 10
-73.48043664078892
 20
114.5454467916405
 30
0.0
 40
1.999999850950019
100
AcDbArc
 50
0.0
 51
89.9999987193997
  0
ARC
  5
345
330
1F
100
AcDbEntity
  8
0
  6
CONTINUOUS
 62
     7
100
AcDbCircle
 10
47.75810663401109
 20
-111.2843667552594
 30
0.0
 40
2.650000154950011
100
AcDbArc
 50
90.00000322149957
 51
269.9999967785005
  0
ARC
  5
346
330
1F
100
AcDbEntity
  8
0
  6
CONTINUOUS
 62
     7
100
AcDbCircle
 10
117.7581067830111
 20
-111.2843667552594
 30
0.0
 40
2.650000154950007
100
AcDbArc
 50
270.0
 51
90.0
  0
ARC
  5
347
330
1F
100
AcDbEntity
  8
0
  6
CONTINUOUS
 62
     7
100
AcDbCircle
 10
117.7581067830111
 20
-111.2843667552594
 30
0.0
 40
3.000000000000022
100
AcDbArc
 50
0.0
 51
117.9528865891003
  0
ARC
  5
348
330
1F
100
AcDbEntity
  8
0
  6
CONTINUOUS
 62
     7
100
AcDbCircle
 10
117.7581067830111
 20
-111.2843667552594
 30
0.0
 40
3.000000000000022
100
AcDbArc
 50
242.0471134108997
 51
0.0
  0
ARC
  5
349
330
1F
100
AcDbEntity
  8
0
  6
CONTINUOUS
 62
     7
100
AcDbCircle
 10
47.75810663401109
 20
-111.2843667552594
 30
0.0
 40
3.0
100
AcDbArc
 50
62.04711341089957
 51
180.0
  0
ARC
  5
34A
330
1F
100
AcDbEntity
  8
0
  6
CONTINUOUS
 62
     7
100
AcDbCircle
 10
47.75810663401109
 20
-111.2843667552594
 30
0.0
 40
3.0
100
AcDbArc
 50
180.0
 51
297.9528865891004
  0
ARC
  5
34B
330
1F
100
AcDbEntity
  8
0
  6
CONTINUOUS
 62
     7
100
AcDbCircle
 10
47.75810663401109
 20
-36.28436377505945
 30
0.0
 40
2.650000154949997
100
AcDbArc
 50
90.00000322149957
 51
269.9999967785005
  0
ARC
  5
34C
330
1F
100
AcDbEntity
  8
0
  6
CONTINUOUS
 62
     7
100
AcDbCircle
 10
117.7581067830111
 20
-36.28436377505945
 30
0.0
 40
2.650000154949993
100
AcDbArc
 50
270.0
 51
90.0
  0
ARC
  5
34D
330
1F
100
AcDbEntity
  8
0
  6
CONTINUOUS
 62
     7
100
AcDbCircle
 10
117.7581067830111
 20
-36.28436377505945
 30
0.0
 40
3.000000000000022
100
AcDbArc
 50
0.0
 51
117.9528865891003
  0
ARC
  5
34E
330
1F
100
AcDbEntity
  8
0
  6
CONTINUOUS
 62
     7
100
AcDbCircle
 10
117.7581067830111
 20
-36.28436377505945
 30
0.0
 40
3.000000000000022
100
AcDbArc
 50
242.0471134108998
 51
0.0
  0
ARC
  5
34F
330
1F
100
AcDbEntity
  8
0
  6
CONTINUOUS
 62
     7
100
AcDbCircle
 10
47.75810663401109
 20
-36.28436377505945
 30
0.0
 40
3.0
100
AcDbArc
 50
62.0471134108995
 51
180.0
  0
ARC
  5
350
330
1F
100
AcDbEntity
  8
0
  6
CONTINUOUS
 62
     7
100
AcDbCircle
 10
47.75810663401109
 20
-36.28436377505945
 30
0.0
 40
3.0
100
AcDbArc
 50
180.0
 51
297.9528865891005
  0
CIRCLE
  5
351
330
1F
100
AcDbEntity
  8
0
  6
CONTINUOUS
 62
     7
100
AcDbCircle
 10
82.75810663401109
 20
-73.78436526515945
 30
0.0
 40
24.99999999999994
  0
ARC
  5
352
330
1F
100
AcDbEntity
  8
0
  6
CONTINUOUS
 62
     7
100
AcDbCircle
 10
22.75810678311106
 20
-118.3256845472594
 30
0.0
 40
5.000000149050097
100
AcDbArc
 50
0.0000150401000291
 51
75.00000000000001
  0
ARC
  5
353
330
1F
100
AcDbEntity
  8
0
  6
CONTINUOUS
 62
     7
100
AcDbCircle
 10
22.75810670031106
 20
-29.24304885235945
 30
0.0
 40
4.999999531051571
100
AcDbArc
 50
285.0000169354
 51
0.0
  0
ARC
  5
354
330
1F
100
AcDbEntity
  8
0
  6
CONTINUOUS
 62
     7
100
AcDbCircle
 10
142.7581080256111
 20
-29.24304695895945
 30
0.0
 40
5.000000149000131
100
AcDbArc
 50
180.0000150413
 51
254.9999999999997
  0
ARC
  5
355
330
1F
100
AcDbEntity
  8
0
  6
CONTINUOUS
 62
     7
100
AcDbCircle
 10
142.7581066340111
 20
-118.3256845472594
 30
0.0
 40
5.0
100
AcDbArc
 50
104.9999999999999
 51
180.0
  0
ARC
  5
356
330
1F
100
AcDbEntity
  8
0
  6
CONTINUOUS
 62
     7
100
AcDbCircle
 10
117.7581067830111
 20
-36.28436377505945
 30
0.0
 40
4.0
100
AcDbArc
 50
221.4908168557
 51
0.0
  0
ARC
  5
357
330
1F
100
AcDbEntity
  8
0
  6
CONTINUOUS
 62
     7
100
AcDbCircle
 10
117.7581067830111
 20
-36.28436377505945
 30
0.0
 40
4.0
100
AcDbArc
 50
0.0
 51
138.5091831443
  0
ARC
  5
358
330
1F
100
AcDbEntity
  8
0
  6
CONTINUOUS
 62
     7
100
AcDbCircle
 10
47.75810663401109
 20
-36.28436377505945
 30
0.0
 40
4.000000000000004
100
AcDbArc
 50
41.49081685569998
 51
318.5091831443
  0
ARC
  5
359
330
1F
100
AcDbEntity
  8
0
  6
CONTINUOUS
 62
     7
100
AcDbCircle
 10
47.75810663401109
 20
-111.2843667552594
 30
0.0
 40
4.000000000000004
100
AcDbArc
 50
41.49081685569998
 51
318.5091831443
  0
ARC
  5
35A
330
1F
100
AcDbEntity
  8
0
  6
CONTINUOUS
 62
     7
100
AcDbCircle
 10
117.7581067830111
 20
-111.2843667552594
 30
0.0
 40
4.0
100
AcDbArc
 50
221.4908168557
 51
0.0
  0
ARC
  5
35B
330
1F
100
AcDbEntity
  8
0
  6
CONTINUOUS
 62
     7
100
AcDbCircle
 10
117.7581067830111
 20
-111.2843667552594
 30
0.0
 40
4.0
100
AcDbArc
 50
0.0
 51
138.5091831443
  0
CIRCLE
  5
35C
330
1F
100
AcDbEntity
  8
0
  6
CONTINUOUS
 62
     7
100
AcDbCircle
 10
82.75810663401109
 20
-73.78436526515945
 30
0.0
 40
29.99999999999994
  0
ARC
  5
35D
330
1F
100
AcDbEntity
  8
0
  6
CONTINUOUS
 62
     7
100
AcDbCircle
 10
117.7581067830111
 20
-36.28436377505945
 30
0.0
 40
3.049999999999972
100
AcDbArc
 50
240.3255604462999
 51
119.6744395537001
  0
ARC
  5
35E
330
1F
100
AcDbEntity
  8
0
  6
CONTINUOUS
 62
     7
100
AcDbCircle
 10
47.75810663401109
 20
-111.2843667552594
 30
0.0
 40
3.050000089752601
100
AcDbArc
 50
183.7598194932
 51
299.6744395537001
  0
ARC
  5
35F
330
1F
100
AcDbEntity
  8
0
  6
CONTINUOUS
 62
     7
100
AcDbCircle
 10
47.75810663401109
 20
-111.2843667552594
 30
0.0
 40
3.050000000000011
100
AcDbArc
 50
60.32556044630024
 51
180.0
  0
ARC
  5
360
330
1F
100
AcDbEntity
  8
0
  6
CONTINUOUS
 62
     7
100
AcDbCircle
 10
117.7581067830111
 20
-111.2843667552594
 30
0.0
 40
3.049999999999966
100
AcDbArc
 50
240.3255604462998
 51
119.6744395537002
  0
ARC
  5
361
330
1F
100
AcDbEntity
  8
0
  6
CONTINUOUS
 62
     7
100
AcDbCircle
 10
47.75810663401109
 20
-36.28436377505945
 30
0.0
 40
3.049999992041262
100
AcDbArc
 50
183.7597636291001
 51
299.6744395536995
  0
ARC
  5
362
330
1F
100
AcDbEntity
  8
0
  6
CONTINUOUS
 62
     7
100
AcDbCircle
 10
47.75810663401109
 20
-36.28436377505945
 30
0.0
 40
3.050000000000011
100
AcDbArc
 50
60.32556044630017
 51
180.0
  0
ARC
  5
363
330
1F
100
AcDbEntity
  8
0
  6
CONTINUOUS
 62
     7
100
AcDbCircle
 10
47.75810663401109
 20
-111.2843667552594
 30
0.0
 40
3.250000000000036
100
AcDbArc
 50
54.62540955279997
 51
270.0
  0
ARC
  5
364
330
1F
100
AcDbEntity
  8
0
  6
CONTINUOUS
 62
     7
100
AcDbCircle
 10
47.75810663401109
 20
-111.2843667552594
 30
0.0
 40
3.250000000000036
100
AcDbArc
 50
270.0
 51
305.3745904472
  0
ARC
  5
365
330
1F
100
AcDbEntity
  8
0
  6
CONTINUOUS
 62
     7
100
AcDbCircle
 10
117.7581067830111
 20
-111.2843667552594
 30
0.0
 40
3.250000000000014
100
AcDbArc
 50
234.6254095527997
 51
270.0
  0
ARC
  5
366
330
1F
100
AcDbEntity
  8
0
  6
CONTINUOUS
 62
     7
100
AcDbCircle
 10
117.7581067830111
 20
-111.2843667552594
 30
0.0
 40
3.250000000000014
100
AcDbArc
 50
270.0
 51
125.3745904472003
  0
ARC
  5
367
330
1F
100
AcDbEntity
  8
0
  6
CONTINUOUS
 62
     7
100
AcDbCircle
 10
47.75810663401109
 20
-36.28436377505945
 30
0.0
 40
3.250000000000028
100
AcDbArc
 50
54.62540955279989
 51
270.0
  0
ARC
  5
368
330
1F
100
AcDbEntity
  8
0
  6
CONTINUOUS
 62
     7
100
AcDbCircle
 10
47.75810663401109
 20
-36.28436377505945
 30
0.0
 40
3.250000000000028
100
AcDbArc
 50
270.0
 51
305.3745904472001
  0
ARC
  5
369
330
1F
100
AcDbEntity
  8
0
  6
CONTINUOUS
 62
     7
100
AcDbCircle
 10
117.7581067830111
 20
-36.28436377505945
 30
0.0
 40
3.250000000000011
100
AcDbArc
 50
234.6254095527997
 51
270.0
  0
ARC
  5
36A
330
1F
100
AcDbEntity
  8
0
  6
CONTINUOUS
 62
     7
100
AcDbCircle
 10
117.7581067830111
 20
-36.28436377505945
 30
0.0
 40
3.250000000000011
100
AcDbArc
 50
270.0
 51
125.3745904472003
  0
SPLINE
  5
36B
330
1F
100
AcDbEntity
  8
0
  6
CONTINUOUS
 62
     7
100
AcDbSpline
210
0.0
220
0.0
230
1.0
 70
     8
 71
     3
 72
     9
 73
     5
 74
     0
 42
0.000000001
 43
0.0000000001
 40
0.0
 40
0.0
 40
0.0
 40
0.0
 40
0.2686337075287577
 40
1.0
 40
1.0
 40
1.0
 40
1.0
 10
-102.5804364756129
 20
-111.2843667553154
 30
0.0
 10
-102.5870654020585
 20
-111.5468532006333
 30
0.0
 10
-102.6117418527786
 20
-112.5239697647927
 30
0.0
 10
-102.8515968376448
 20
-113.4753263908892
 30
0.0
 10
-103.0270186886571
 20
-114.1711165593353
 30
0.0
  0
SPLINE
  5
36C
330
1F
100
AcDbEntity
  8
0
  6
CONTINUOUS
 62
     7
100
AcDbSpline
210
0.0
220
0.0
230
1.0
 70
     8
 71
     3
 72
     9
 73
     5
 74
     0
 42
0.000000001
 43
0.0000000001
 40
0.0
 40
0.0
 40
0.0
 40
0.0
 40
0.7313662790256349
 40
1.0
 40
1.0
 40
1.0
 40
1.0
 10
-105.7338546663447
 20
-114.1711165593353
 30
0.0
 10
-105.9092761509386
 20
-113.4753263729627
 30
0.0
 10
-106.149130639209
 20
-112.5239697048653
 30
0.0
 10
-106.1738077699381
 20
-111.5468531982996
 30
0.0
 10
-106.1804368793889
 20
-111.2843667553154
 30
0.0
  0
SPLINE
  5
36D
330
1F
100
AcDbEntity
  8
0
  6
CONTINUOUS
 62
     7
100
AcDbSpline
210
0.0
220
0.0
230
1.0
 70
     8
 71
     3
 72
    10
 73
     6
 74
     0
 42
0.000000001
 43
0.0000000001
 40
0.0
 40
0.0
 40
0.0
 40
0.0
 40
0.0700628874623752
 40
0.5307708595304613
 40
1.0
 40
1.0
 40
1.0
 40
1.0
 10
-102.5804364756129
 20
-115.6144914613453
 30
0.0
 10
-102.5809693609824
 20
-115.648690950181
 30
0.0
 10
-102.5850063060162
 20
-115.9077737933567
 30
0.0
 10
-102.6825331430252
 20
-116.3962755508313
 30
0.0
 10
-102.9114908476063
 20
-116.8359930244036
 30
0.0
 10
-103.0270186886571
 20
-117.0578663633552
 30
0.0
  0
SPLINE
  5
36E
330
1F
100
AcDbEntity
  8
0
  6
CONTINUOUS
 62
     7
100
AcDbSpline
210
0.0
220
0.0
230
1.0
 70
     8
 71
     3
 72
     9
 73
     5
 74
     0
 42
0.000000001
 43
0.0000000001
 40
0.0
 40
0.0
 40
0.0
 40
0.0
 40
0.4954573243201449
 40
1.0
 40
1.0
 40
1.0
 40
1.0
 10
-105.7338546663447
 20
-117.0578663633552
 30
0.0
 10
-105.858673263972
 20
-116.8234561021069
 30
0.0
 10
-106.1105992957419
 20
-116.3503371274909
 30
0.0
 10
-106.1570171107869
 20
-115.8612545125274
 30
0.0
 10
-106.1804368793889
 20
-115.6144914613453
 30
0.0
  0
SPLINE
  5
36F
330
1F
100
AcDbEntity
  8
0
  6
CONTINUOUS
 62
     7
100
AcDbSpline
210
0.0
220
0.0
230
1.0
 70
     8
 71
     3
 72
    10
 73
     6
 74
     0
 42
0.000000001
 43
0.0000000001
 40
0.0
 40
0.0
 40
0.0
 40
0.0
 40
0.0700629680479624
 40
0.5307697130535071
 40
1.0
 40
1.0
 40
1.0
 40
1.0
 10
-106.1804368793889
 20
-115.6144914613453
 30
0.0
 10
-106.1799038291062
 20
-115.5802919644239
 30
0.0
 10
-106.1758656481173
 20
-115.3212099176127
 30
0.0
 10
-106.0783400112724
 20
-114.8327112306395
 30
0.0
 10
-105.8493826343482
 20
-114.3929915654659
 30
0.0
 10
-105.7338546663447
 20
-114.1711165593353
 30
0.0
  0
SPLINE
  5
370
330
1F
100
AcDbEntity
  8
0
  6
CONTINUOUS
 62
     7
100
AcDbSpline
210
0.0
220
0.0
230
1.0
 70
     8
 71
     3
 72
     9
 73
     5
 74
     0
 42
0.000000001
 43
0.0000000001
 40
0.0
 40
0.0
 40
0.0
 40
0.0
 40
0.495457892716419
 40
1.0
 40
1.0
 40
1.0
 40
1.0
 10
-103.0270186886571
 20
-114.1711165593353
 30
0.0
 10
-102.9021998629051
 20
-114.4055266833406
 30
0.0
 10
-102.6502736597163
 20
-114.8786448381855
 30
0.0
 10
-102.6038560926936
 20
-115.3677282740013
 30
0.0
 10
-102.5804364756129
 20
-115.6144914613453
 30
0.0
  0
SPLINE
  5
371
330
1F
100
AcDbEntity
  8
0
  6
CONTINUOUS
 62
     7
100
AcDbSpline
210
0.0
220
0.0
230
1.0
 70
     8
 71
     3
 72
     9
 73
     5
 74
     0
 42
0.000000001
 43
0.0000000001
 40
0.0
 40
0.0
 40
0.0
 40
0.0
 40
0.2575519334693815
 40
0.9999999999999999
 40
0.9999999999999999
 40
0.9999999999999999
 40
0.9999999999999999
 10
-103.0270186886571
 20
-33.39761397106325
 30
0.0
 10
-102.9596033674796
 20
-33.63996219684915
 30
0.0
 10
-102.6978490864331
 20
-34.58093057756105
 30
0.0
 10
-102.6304653789497
 20
-35.55853974149655
 30
0.0
 10
-102.5804364756129
 20
-36.28436377508315
 30
0.0
  0
SPLINE
  5
372
330
1F
100
AcDbEntity
  8
0
  6
CONTINUOUS
 62
     7
100
AcDbSpline
210
0.0
220
0.0
230
1.0
 70
     8
 71
     3
 72
    10
 73
     6
 74
     0
 42
0.000000001
 43
0.0000000001
 40
0.0
 40
0.0
 40
0.0
 40
0.0
 40
0.0700629652010533
 40
0.5307697195097232
 40
1.0
 40
1.0
 40
1.0
 40
1.0
 10
-102.5804364756129
 20
-31.95423906905324
 30
0.0
 10
-102.580969357065
 20
-31.98843856614904
 30
0.0
 10
-102.5850062592724
 20
-32.24752062796075
 30
0.0
 10
-102.6825339099549
 20
-32.73601928070175
 30
0.0
 10
-102.9114909118367
 20
-33.17573896102195
 30
0.0
 10
-103.0270186886571
 20
-33.39761397106325
 30
0.0
  0
SPLINE
  5
373
330
1F
100
AcDbEntity
  8
0
  6
CONTINUOUS
 62
     7
100
AcDbSpline
210
0.0
220
0.0
230
1.0
 70
     8
 71
     3
 72
     9
 73
     5
 74
     0
 42
0.000000001
 43
0.0000000001
 40
0.0
 40
0.0
 40
0.0
 40
0.0
 40
0.2687818394868145
 40
1.0
 40
1.0
 40
1.0
 40
1.0
 10
-106.0895090625069
 20
-37.35364875061185
 30
0.0
 10
-106.1099168202184
 20
-37.25931511142265
 30
0.0
 10
-106.1858436676214
 20
-36.90834780139444
 30
0.0
 10
-106.1827205556357
 20
-36.54791718638384
 30
0.0
 10
-106.1804368794344
 20
-36.28436377508315
 30
0.0
  0
SPLINE
  5
374
330
1F
100
AcDbEntity
  8
0
  6
CONTINUOUS
 62
     7
100
AcDbSpline
210
0.0
220
0.0
230
1.0
 70
     8
 71
     3
 72
     9
 73
     5
 74
     0
 42
0.000000001
 43
0.0000000001
 40
0.0
 40
0.0
 40
0.0
 40
0.0
 40
0.7424480665306183
 40
0.9999999999999999
 40
0.9999999999999999
 40
0.9999999999999999
 40
0.9999999999999999
 10
-106.1804368794344
 20
-36.28436377508315
 30
0.0
 10
-106.1304079760976
 20
-35.55853974149655
 30
0.0
 10
-106.0630242686141
 20
-34.58093057756105
 30
0.0
 10
-105.8012699875676
 20
-33.63996219684915
 30
0.0
 10
-105.7338546663902
 20
-33.39761397106325
 30
0.0
  0
SPLINE
  5
375
330
1F
100
AcDbEntity
  8
0
  6
CONTINUOUS
 62
     7
100
AcDbSpline
210
0.0
220
0.0
230
1.0
 70
     8
 71
     3
 72
     9
 73
     5
 74
     0
 42
0.000000001
 43
0.0000000001
 40
0.0
 40
0.0
 40
0.0
 40
0.0
 40
0.4954578682650879
 40
1.0
 40
1.0
 40
1.0
 40
1.0
 10
-105.7338546663902
 20
-33.39761397106325
 30
0.0
 10
-105.8586732608512
 20
-33.16320384115394
 30
0.0
 10
-106.1105990096501
 20
-32.69008565104414
 30
0.0
 10
-106.1570170316591
 20
-32.20100225053984
 30
0.0
 10
-106.1804368794344
 20
-31.95423906905324
 30
0.0
  0
SPLINE
  5
376
330
1F
100
AcDbEntity
  8
0
  6
CONTINUOUS
 62
     7
100
AcDbSpline
210
0.0
220
0.0
230
1.0
 70
     8
 71
     3
 72
    10
 73
     6
 74
     0
 42
0.000000001
 43
0.0000000001
 40
0.0
 40
0.0
 40
0.0
 40
0.0
 40
0.070062890309276
 40
0.5307708530742955
 40
1.0
 40
1.0
 40
1.0
 40
1.0
 10
-106.1804368794344
 20
-31.95423906905324
 30
0.0
 10
-106.1799038252343
 20
-31.92003958039194
 30
0.0
 10
-106.1758656014151
 20
-31.66095675221675
 30
0.0
 10
-106.0783407782461
 20
-31.17245496051005
 30
0.0
 10
-105.8493826986233
 20
-30.73273750208425
 30
0.0
 10
-105.7338546663902
 20
-30.51086416704325
 30
0.0
  0
SPLINE
  5
377
330
1F
100
AcDbEntity
  8
0
  6
CONTINUOUS
 62
     7
100
AcDbSpline
210
0.0
220
0.0
230
1.0
 70
     8
 71
     3
 72
     9
 73
     5
 74
     0
 42
0.000000001
 43
0.0000000001
 40
0.0
 40
0.0
 40
0.0
 40
0.0
 40
0.4954573487714471
 40
1.0
 40
1.0
 40
1.0
 40
1.0
 10
-103.0270186886571
 20
-30.51086416704325
 30
0.0
 10
-102.902199859739
 20
-30.74527442238765
 30
0.0
 10
-102.6502733735791
 20
-31.21839336173875
 30
0.0
 10
-102.6038560135201
 20
-31.70747601201364
 30
0.0
 10
-102.5804364756129
 20
-31.95423906905324
 30
0.0
  0
SPLINE
  5
378
330
1F
100
AcDbEntity
  8
0
  6
CONTINUOUS
 62
     7
100
AcDbSpline
210
0.0
220
0.0
230
1.0
 70
     8
 71
     3
 72
     9
 73
     5
 74
     0
 42
0.000000001
 43
0.0000000001
 40
0.0
 40
0.0
 40
0.0
 40
0.0
 40
0.4954578837586039
 40
0.9999999999999999
 40
0.9999999999999999
 40
0.9999999999999999
 40
0.9999999999999999
 10
-99.42701851773003
 20
-114.1711165593353
 30
0.0
 10
-99.30219978876252
 20
-114.4055266855035
 30
0.0
 10
-99.05027377636223
 20
-114.8786448532678
 30
0.0
 10
-99.00385617323113
 20
-115.3677282761471
 30
0.0
 10
-98.98043653751652
 20
-115.6144914613453
 30
0.0
  0
SPLINE
  5
379
330
1F
100
AcDbEntity
  8
0
  6
CONTINUOUS
 62
     7
100
AcDbSpline
210
0.0
220
0.0
230
1.0
 70
     8
 71
     3
 72
     9
 73
     5
 74
     0
 42
0.000000001
 43
0.0000000001
 40
0.0
 40
0.0
 40
0.0
 40
0.0
 40
0.7313662842648936
 40
1.0
 40
1.0
 40
1.0
 40
1.0
 10
-102.13385472823
 20
-114.1711165593353
 30
0.0
 10
-102.3092763673208
 20
-113.475326379948
 30
0.0
 10
-102.5491310651172
 20
-112.5239697282168
 30
0.0
 10
-102.57380754195
 20
-111.546853199209
 30
0.0
 10
-102.5804364756129
 20
-111.2843667553154
 30
0.0
  0
SPLINE
  5
37A
330
1F
100
AcDbEntity
  8
0
  6
CONTINUOUS
 62
     7
100
AcDbSpline
210
0.0
220
0.0
230
1.0
 70
     8
 71
     3
 72
    10
 73
     6
 74
     0
 42
0.000000001
 43
0.0000000001
 40
0.0
 40
0.0
 40
0.0
 40
0.0
 40
0.0700628873008225
 40
0.5307708723173513
 40
1.0
 40
1.0
 40
1.0
 40
1.0
 10
-98.98043653751652
 20
-115.6144914613453
 30
0.0
 10
-98.98096933827183
 20
-115.6486909502914
 30
0.0
 10
-98.98500564240602
 20
-115.9077738011424
 30
0.0
 10
-99.08253354626503
 20
-116.3962755255213
 30
0.0
 10
-99.31149087133963
 20
-116.8359930199597
 30
0.0
 10
-99.42701851773003
 20
-117.0578663633552
 30
0.0
  0
SPLINE
  5
37B
330
1F
100
AcDbEntity
  8
0
  6
CONTINUOUS
 62
     7
100
AcDbSpline
210
0.0
220
0.0
230
1.0
 70
     8
 71
     3
 72
     9
 73
     5
 74
     0
 42
0.000000001
 43
0.0000000001
 40
0.0
 40
0.0
 40
0.0
 40
0.0
 40
0.495457330855823
 40
1.0
 40
1.0
 40
1.0
 40
1.0
 10
-102.13385472823
 20
-117.0578663633552
 30
0.0
 10
-102.2586733635794
 20
-116.823456103685
 30
0.0
 10
-102.510599468162
 20
-116.350337138495
 30
0.0
 10
-102.5570169004377
 20
-115.8612545140931
 30
0.0
 10
-102.5804364756129
 20
-115.6144914613453
 30
0.0
  0
SPLINE
  5
37C
330
1F
100
AcDbEntity
  8
0
  6
CONTINUOUS
 62
     7
100
AcDbSpline
210
0.0
220
0.0
230
1.0
 70
     8
 71
     3
 72
    10
 73
     6
 74
     0
 42
0.000000001
 43
0.0000000001
 40
0.0
 40
0.0
 40
0.0
 40
0.0
 40
0.0700629648780239
 40
0.5307697450835506
 40
1.0
 40
1.0
 40
1.0
 40
1.0
 10
-102.5804364756129
 20
-115.6144914613453
 30
0.0
 10
-102.5799037633892
 20
-115.5802919640287
 30
0.0
 10
-102.5758681429774
 20
-115.3212098868667
 30
0.0
 10
-102.4783383585978
 20
-114.8327113003167
 30
0.0
 10
-102.2493821157289
 20
-114.3929915782643
 30
0.0
 10
-102.13385472823
 20
-114.1711165593353
 30
0.0
  0
SPLINE
  5
37D
330
1F
100
AcDbEntity
  8
0
  6
CONTINUOUS
 62
     7
100
AcDbSpline
210
0.0
220
0.0
230
1.0
 70
     8
 71
     3
 72
     9
 73
     5
 74
     0
 42
0.000000001
 43
0.0000000001
 40
0.0
 40
0.0
 40
0.0
 40
0.0
 40
0.7424480962153203
 40
1.0
 40
1.0
 40
1.0
 40
1.0
 10
-102.5804364756129
 20
-36.28436377508315
 30
0.0
 10
-102.5304074180832
 20
-35.55853978162244
 30
0.0
 10
-102.4630235056121
 20
-34.58093071081925
 30
0.0
 10
-102.2012698742976
 20
-33.63996220192925
 30
0.0
 10
-102.13385472823
 20
-33.39761397106325
 30
0.0
  0
SPLINE
  5
37E
330
1F
100
AcDbEntity
  8
0
  6
CONTINUOUS
 62
     7
100
AcDbSpline
210
0.0
220
0.0
230
1.0
 70
     8
 71
     3
 72
     9
 73
     5
 74
     0
 42
0.000000001
 43
0.0000000001
 40
0.0
 40
0.0
 40
0.0
 40
0.0
 40
0.3570521446470969
 40
1.0
 40
1.0
 40
1.0
 40
1.0
 10
-99.42701851768892
 20
-33.39761397106325
 30
0.0
 10
-99.35794293620843
 20
-33.63964920809696
 30
0.0
 10
-99.16448216999792
 20
-34.31752004758725
 30
0.0
 10
-99.11122631949712
 20
-35.02182087223805
 30
0.0
 10
-99.07698558463262
 20
-35.47464957697065
 30
0.0
  0
SPLINE
  5
37F
330
1F
100
AcDbEntity
  8
0
  6
CONTINUOUS
 62
     7
100
AcDbSpline
210
0.0
220
0.0
230
1.0
 70
     8
 71
     3
 72
    10
 73
     6
 74
     0
 42
0.000000001
 43
0.0000000001
 40
0.0
 40
0.0
 40
0.0
 40
0.0
 40
0.0700629650394976
 40
0.5307697322966158
 40
1.0
 40
1.0
 40
1.0
 40
1.0
 10
-98.98043653747543
 20
-31.95423906905324
 30
0.0
 10
-98.98096933431333
 20
-31.98843856625945
 30
0.0
 10
-98.98500559562292
 20
-32.24752063574645
 30
0.0
 10
-99.08253431315403
 20
-32.73601925539165
 30
0.0
 10
-99.31149093552932
 20
-33.17573895657804
 30
0.0
 10
-99.42701851768892
 20
-33.39761397106325
 30
0.0
  0
SPLINE
  5
380
330
1F
100
AcDbEntity
  8
0
  6
CONTINUOUS
 62
     7
100
AcDbSpline
210
0.0
220
0.0
230
1.0
 70
     8
 71
     3
 72
     9
 73
     5
 74
     0
 42
0.000000001
 43
0.0000000001
 40
0.0
 40
0.0
 40
0.0
 40
0.0
 40
0.4954578748007947
 40
1.0
 40
1.0
 40
1.0
 40
1.0
 10
-102.13385472823
 20
-33.39761397106325
 30
0.0
 10
-102.2586733604132
 20
-33.16320384273205
 30
0.0
 10
-102.510599182025
 20
-32.69008566204835
 30
0.0
 10
-102.5570168212644
 20
-32.20100225210545
 30
0.0
 10
-102.5804364756129
 20
-31.95423906905324
 30
0.0
  0
SPLINE
  5
381
330
1F
100
AcDbEntity
  8
0
  6
CONTINUOUS
 62
     7
100
AcDbSpline
210
0.0
220
0.0
230
1.0
 70
     8
 71
     3
 72
    10
 73
     6
 74
     0
 42
0.000000001
 43
0.0000000001
 40
0.0
 40
0.0
 40
0.0
 40
0.0
 40
0.0700628871393518
 40
0.5307708851042835
 40
1.0
 40
1.0
 40
1.0
 40
1.0
 10
-102.5804364756129
 20
-31.95423906905324
 30
0.0
 10
-102.5799037594718
 20
-31.92003957999675
 30
0.0
 10
-102.5758680962374
 20
-31.66095672147075
 30
0.0
 10
-102.4783391255283
 20
-31.17245503018715
 30
0.0
 10
-102.2493821799602
 20
-30.73273751488264
 30
0.0
 10
-102.13385472823
 20
-30.51086416704325
 30
0.0
  0
SPLINE
  5
382
330
1F
100
AcDbEntity
  8
0
  6
CONTINUOUS
 62
     7
100
AcDbSpline
210
0.0
220
0.0
230
1.0
 70
     8
 71
     3
 72
     9
 73
     5
 74
     0
 42
0.000000001
 43
0.0000000001
 40
0.0
 40
0.0
 40
0.0
 40
0.0
 40
0.4954573398136322
 40
1.0
 40
1.0
 40
1.0
 40
1.0
 10
-99.42701851768892
 20
-30.51086416704325
 30
0.0
 10
-99.30219978555523
 20
-30.74527442455064
 30
0.0
 10
-99.05027349018403
 20
-31.21839337682106
 30
0.0
 10
-99.00385609401663
 20
-31.70747601415955
 30
0.0
 10
-98.98043653747543
 20
-31.95423906905324
 30
0.0
  0
SPLINE
  5
383
330
1F
100
AcDbEntity
  8
0
  6
CONTINUOUS
 62
     7
100
AcDbSpline
210
0.0
220
0.0
230
1.0
 70
     8
 71
     3
 72
    14
 73
    10
 74
     0
 42
0.000000001
 43
0.0000000001
 40
0.0
 40
0.0
 40
0.0
 40
0.0
 40
0.25
 40
0.25
 40
0.5
 40
0.5
 40
0.75
 40
0.75
 40
1.0
 40
1.0
 40
1.0
 40
1.0
 10
-97.48043659333213
 20
-35.04685474568025
 30
0.0
 10
-97.08766889848162
 20
-34.97669355458144
 30
0.0
 10
-96.69519294025423
 20
-34.90655687660075
 30
0.0
 10
-95.96957965221944
 20
-34.76625900752124
 30
0.0
 10
-95.63679643340734
 20
-34.69611007298145
 30
0.0
 10
-95.08143606613751
 20
-34.55581220390195
 30
0.0
 10
-94.85907742826933
 20
-34.48566326936225
 30
0.0
 10
-94.55851856332714
 20
-34.34536540028274
 30
0.0
 10
-94.48043659333212
 20
-34.27522872230205
 30
0.0
 10
-94.48043659333212
 20
-34.20506753120324
 30
0.0
  0
SPLINE
  5
384
330
1F
100
AcDbEntity
  8
0
  6
CONTINUOUS
 62
     7
100
AcDbSpline
210
0.0
220
0.0
230
1.0
 70
     8
 71
     3
 72
    10
 73
     6
 74
     0
 42
0.000000001
 43
0.0000000001
 40
0.0
 40
0.0
 40
0.0
 40
0.0
 40
0.5
 40
0.5
 40
1.0
 40
1.0
 40
1.0
 40
1.0
 10
-97.48043659333213
 20
-35.04685474568025
 30
0.0
 10
-97.21863720553293
 20
-34.90655687660075
 30
0.0
 10
-96.95844993456883
 20
-34.76625900752124
 30
0.0
 10
-96.58820968972222
 20
-34.48566326936225
 30
0.0
 10
-96.48043659333212
 20
-34.34536540028274
 30
0.0
 10
-96.48043659333212
 20
-34.20506753120324
 30
0.0
  0
SPLINE
  5
385
330
1F
100
AcDbEntity
  8
0
  6
CONTINUOUS
 62
     7
100
AcDbSpline
210
0.0
220
0.0
230
1.0
 70
     8
 71
     3
 72
    14
 73
    10
 74
     0
 42
0.000000001
 43
0.0000000001
 40
0.0
 40
0.0
 40
0.0
 40
0.0
 40
0.25
 40
0.25
 40
0.5
 40
0.5
 40
0.75
 40
0.75
 40
1.0
 40
1.0
 40
1.0
 40
1.0
 10
-94.48043660229652
 20
-113.3636630326508
 30
0.0
 10
-94.48043660229652
 20
-113.293501841552
 30
0.0
 10
-94.55851857229152
 20
-113.2233651635713
 30
0.0
 10
-94.85907743723374
 20
-113.0830672944918
 30
0.0
 10
-95.08143607510192
 20
-113.0129183599521
 30
0.0
 10
-95.63679644237172
 20
-112.8726204908726
 30
0.0
 10
-95.96957966118381
 20
-112.8024715563329
 30
0.0
 10
-96.69519294921862
 20
-112.6621736872534
 30
0.0
 10
-97.08766890744603
 20
-112.5920370092727
 30
0.0
 10
-97.48043660229652
 20
-112.5218758181739
 30
0.0
  0
SPLINE
  5
386
330
1F
100
AcDbEntity
  8
0
  6
CONTINUOUS
 62
     7
100
AcDbSpline
210
0.0
220
0.0
230
1.0
 70
     8
 71
     3
 72
    10
 73
     6
 74
     0
 42
0.000000001
 43
0.0000000001
 40
0.0
 40
0.0
 40
0.0
 40
0.0
 40
0.5
 40
0.5
 40
1.0
 40
1.0
 40
1.0
 40
1.0
 10
-96.48043660229652
 20
-113.3636630326508
 30
0.0
 10
-96.48043660229652
 20
-113.2233651635713
 30
0.0
 10
-96.58820969868663
 20
-113.0830672944918
 30
0.0
 10
-96.95844994353322
 20
-112.8024715563329
 30
0.0
 10
-97.21863721449732
 20
-112.6621736872534
 30
0.0
 10
-97.48043660229652
 20
-112.5218758181739
 30
0.0
  0
SPLINE
  5
387
330
1F
100
AcDbEntity
  8
0
  6
CONTINUOUS
 62
     7
100
AcDbSpline
210
0.0
220
0.0
230
1.0
 70
    24
 71
     3
 72
     9
 73
     5
 74
     0
 42
0.000000001
 43
0.0000000001
 40
0.0
 40
0.0
 40
0.0
 40
0.0
 40
0.2575515137944234
 40
1.0
 40
1.0
 40
1.0
 40
1.0
 10
-113.5936843033238
 20
-68.7843656207753
 30
0.0
 10
-113.8360325731956
 20
-68.78436559092067
 30
0.0
 10
-114.7770026583697
 20
-68.78436547500357
 30
0.0
 10
-115.7546116523254
 20
-68.78436535457296
 30
0.0
 10
-116.4804359699887
 20
-68.78436526515947
 30
0.0
  0
SPLINE
  5
388
330
1F
100
AcDbEntity
  8
0
  6
CONTINUOUS
 62
     7
100
AcDbSpline
210
0.0
220
0.0
230
1.0
 70
     8
 71
     3
 72
    10
 73
     6
 74
     0
 42
0.000000001
 43
0.0000000001
 40
0.0
 40
0.0
 40
0.0
 40
0.0
 40
0.0700628406033709
 40
0.5307704939541554
 40
1.0
 40
1.0
 40
1.0
 40
1.0
 10
-112.1503094013138
 20
-71.28436556489595
 30
0.0
 10
-112.1845088996142
 20
-71.22513056688041
 30
0.0
 10
-112.4435918093213
 20
-70.77638785411965
 30
0.0
 10
-112.932090958469
 20
-69.93028149665824
 30
0.0
 10
-113.3718100076614
 20
-69.16866404189342
 30
0.0
 10
-113.5936843033238
 20
-68.7843656207753
 30
0.0
  0
SPLINE
  5
389
330
1F
100
AcDbEntity
  8
0
  6
CONTINUOUS
 62
     7
100
AcDbSpline
210
0.0
220
0.0
230
1.0
 70
    24
 71
     3
 72
     9
 73
     5
 74
     0
 42
0.000000001
 43
0.0000000001
 40
0.0
 40
0.0
 40
0.0
 40
0.0
 40
0.7424484862055766
 40
1.0
 40
1.0
 40
1.0
 40
1.0
 10
-116.480437043536
 20
-78.78436526515944
 30
0.0
 10
-115.7546127258726
 20
-78.78436526515944
 30
0.0
 10
-114.7770037319169
 20
-78.78436526515944
 30
0.0
 10
-113.8360336467428
 20
-78.78436526515944
 30
0.0
 10
-113.593685376871
 20
-78.78436526515944
 30
0.0
  0
SPLINE
  5
38A
330
1F
100
AcDbEntity
  8
0
  6
CONTINUOUS
 62
     7
100
AcDbSpline
210
0.0
220
0.0
230
1.0
 70
     8
 71
     3
 72
     9
 73
     5
 74
     0
 42
0.000000001
 43
0.0000000001
 40
0.0
 40
0.0
 40
0.0
 40
0.0
 40
0.4954575813658327
 40
1.0
 40
1.0
 40
1.0
 40
1.0
 10
-113.593685376871
 20
-78.78436526515944
 30
0.0
 10
-113.3592750719343
 20
-78.37835424514661
 30
0.0
 10
-112.886156254597
 20
-77.55888748293951
 30
0.0
 10
-112.3970730477717
 20
-76.71177159563727
 30
0.0
 10
-112.1503098236867
 20
-76.28436569699437
 30
0.0
  0
SPLINE
  5
38B
330
1F
100
AcDbEntity
  8
0
  6
CONTINUOUS
 62
     7
100
AcDbSpline
210
0.0
220
0.0
230
1.0
 70
     8
 71
     3
 72
     9
 73
     5
 74
     0
 42
0.000000001
 43
0.0000000001
 40
0.0
 40
0.0
 40
0.0
 40
0.0
 40
0.4954576934972444
 40
1.0
 40
1.0
 40
1.0
 40
1.0
 10
-110.7069339903542
 20
-73.78436575287373
 30
0.0
 10
-110.9413444812131
 20
-73.37835462123734
 30
0.0
 10
-111.4144635667284
 20
-72.5588878191972
 30
0.0
 10
-111.9035464136547
 20
-71.71177155746588
 30
0.0
 10
-112.1503094013138
 20
-71.28436556489595
 30
0.0
  0
SPLINE
  5
38C
330
1F
100
AcDbEntity
  8
0
  6
CONTINUOUS
 62
     7
100
AcDbSpline
210
0.0
220
0.0
230
1.0
 70
     8
 71
     3
 72
    10
 73
     6
 74
     0
 42
0.000000001
 43
0.0000000001
 40
0.0
 40
0.0
 40
0.0
 40
0.0
 40
0.0700626711251644
 40
0.5307702211186623
 40
1.0
 40
1.0
 40
1.0
 40
1.0
 10
-112.1503098236867
 20
-76.28436569699437
 30
0.0
 10
-112.1161106520175
 20
-76.22513068954854
 30
0.0
 10
-111.8570297232228
 20
-75.7763870505311
 30
0.0
 10
-111.3685288018818
 20
-74.93028156954074
 30
0.0
 10
-110.9288088367548
 20
-74.16866425609797
 30
0.0
 10
-110.7069339903542
 20
-73.78436575287373
 30
0.0
  0
SPLINE
  5
38D
330
1F
100
AcDbEntity
  8
0
  6
CONTINUOUS
 62
     7
100
AcDbSpline
210
0.0
220
0.0
230
1.0
 70
     8
 71
     3
 72
    10
 73
     6
 74
     0
 42
0.000000001
 43
0.0000000001
 40
0.0
 40
0.0
 40
0.0
 40
0.0
 40
0.0700625232438425
 40
0.5307701803929501
 40
1.0
 40
1.0
 40
1.0
 40
1.0
 10
-120.8105636122111
 20
-76.28436526515945
 30
0.0
 10
-120.7763647679205
 20
-76.34360028238079
 30
0.0
 10
-120.5172857922727
 20
-76.7923449081877
 30
0.0
 10
-120.0287830174277
 20
-77.63844914490616
 30
0.0
 10
-119.589063376826
 20
-78.4000666414329
 30
0.0
 10
-119.3671887102011
 20
-78.7843652092801
 30
0.0
  0
SPLINE
  5
38E
330
1F
100
AcDbEntity
  8
0
  6
CONTINUOUS
 62
     7
100
AcDbSpline
210
0.0
220
0.0
230
1.0
 70
    24
 71
     3
 72
     9
 73
     5
 74
     0
 42
0.000000001
 43
0.0000000001
 40
0.0
 40
0.0
 40
0.0
 40
0.0
 40
0.7313664946173408
 40
1.0
 40
1.0
 40
1.0
 40
1.0
 10
-119.3671887102011
 20
-78.7843652092801
 30
0.0
 10
-118.6713979633408
 20
-78.78436522274865
 30
0.0
 10
-117.7200408093269
 20
-78.78436524116421
 30
0.0
 10
-116.7429234933082
 20
-78.78436526007845
 30
0.0
 10
-116.480437043536
 20
-78.78436526515944
 30
0.0
  0
SPLINE
  5
38F
330
1F
100
AcDbEntity
  8
0
  6
CONTINUOUS
 62
     7
100
AcDbSpline
210
0.0
220
0.0
230
1.0
 70
     8
 71
     3
 72
     9
 73
     5
 74
     0
 42
0.000000001
 43
0.0000000001
 40
0.0
 40
0.0
 40
0.0
 40
0.0
 40
0.4954578947930229
 40
1.0
 40
1.0
 40
1.0
 40
1.0
 10
-119.3671876366539
 20
-68.78436526515948
 30
0.0
 10
-119.6015988127229
 20
-69.19037614192246
 30
0.0
 10
-120.0747190890017
 20
-70.0098420966078
 30
0.0
 10
-120.5638009352853
 20
-70.85695874251073
 30
0.0
 10
-120.8105633196278
 20
-71.28436475839044
 30
0.0
  0
SPLINE
  5
390
330
1F
100
AcDbEntity
  8
0
  6
CONTINUOUS
 62
     7
100
AcDbSpline
210
0.0
220
0.0
230
1.0
 70
    24
 71
     3
 72
     9
 73
     5
 74
     0
 42
0.000000001
 43
0.0000000001
 40
0.0
 40
0.0
 40
0.0
 40
0.0
 40
0.2686335053826592
 40
1.0
 40
1.0
 40
1.0
 40
1.0
 10
-116.4804359699887
 20
-68.78436526515947
 30
0.0
 10
-116.742922419761
 20
-68.78436526515947
 30
0.0
 10
-117.7200397357796
 20
-68.78436526515947
 30
0.0
 10
-118.6713968897936
 20
-68.78436526515947
 30
0.0
 10
-119.3671876366539
 20
-68.78436526515948
 30
0.0
  0
SPLINE
  5
391
330
1F
100
AcDbEntity
  8
0
  6
CONTINUOUS
 62
     7
100
AcDbSpline
210
0.0
220
0.0
230
1.0
 70
     8
 71
     3
 72
     9
 73
     5
 74
     0
 42
0.000000001
 43
0.0000000001
 40
0.0
 40
0.0
 40
0.0
 40
0.0
 40
0.4954577716992042
 40
1.0
 40
1.0
 40
1.0
 40
1.0
 10
-122.2539396949141
 20
-73.78436492731342
 30
0.0
 10
-122.0195288777483
 20
-74.19037605058386
 30
0.0
 10
-121.5464092083124
 20
-75.00984270639597
 30
0.0
 10
-121.0573264944743
 20
-75.85695921452012
 30
0.0
 10
-120.8105636122111
 20
-76.28436526515945
 30
0.0
  0
SPLINE
  5
392
330
1F
100
AcDbEntity
  8
0
  6
CONTINUOUS
 62
     7
100
AcDbSpline
210
0.0
220
0.0
230
1.0
 70
     8
 71
     3
 72
    10
 73
     6
 74
     0
 42
0.000000001
 43
0.0000000001
 40
0.0
 40
0.0
 40
0.0
 40
0.0
 40
0.0700628189564393
 40
0.5307702957116847
 40
1.0
 40
1.0
 40
1.0
 40
1.0
 10
-120.8105633196278
 20
-71.28436475839045
 30
0.0
 10
-120.8447628097262
 20
-71.34359976121489
 30
0.0
 10
-121.1038456405784
 20
-71.79234248144638
 30
0.0
 10
-121.5923444913835
 20
-72.63844933687801
 30
0.0
 10
-122.03206471705
 20
-73.40006649995904
 30
0.0
 10
-122.2539396949141
 20
-73.78436492731343
 30
0.0
  0
SPLINE
  5
393
330
1F
100
AcDbEntity
  8
0
  6
CONTINUOUS
 62
     7
100
AcDbSpline
210
0.0
220
0.0
230
1.0
 70
    24
 71
     3
 72
     9
 73
     5
 74
     0
 42
0.000000001
 43
0.0000000001
 40
0.0
 40
0.0
 40
0.0
 40
0.0
 40
0.7424495638712612
 40
1.0
 40
1.0
 40
1.0
 40
1.0
 10
-136.4804351808909
 20
-78.78436526515924
 30
0.0
 10
-135.7546101397296
 20
-78.78436526515924
 30
0.0
 10
-134.7770015902994
 20
-78.78436526515924
 30
0.0
 10
-133.8360324017624
 20
-78.78436526515924
 30
0.0
 10
-133.593685376871
 20
-78.78436526515925
 30
0.0
  0
SPLINE
  5
394
330
1F
100
AcDbEntity
  8
0
  6
CONTINUOUS
 62
     7
100
AcDbSpline
210
0.0
220
0.0
230
1.0
 70
     8
 71
     3
 72
     9
 73
     5
 74
     0
 42
0.000000001
 43
0.0000000001
 40
0.0
 40
0.0
 40
0.0
 40
0.0
 40
0.4954575813658327
 40
1.0
 40
1.0
 40
1.0
 40
1.0
 10
-133.593685376871
 20
-78.78436526515927
 30
0.0
 10
-133.3592750719344
 20
-78.37835424514645
 30
0.0
 10
-132.886156254597
 20
-77.55888748293935
 30
0.0
 10
-132.3970730477716
 20
-76.71177159563713
 30
0.0
 10
-132.1503098236867
 20
-76.28436569699423
 30
0.0
  0
SPLINE
  5
395
330
1F
100
AcDbEntity
  8
0
  6
CONTINUOUS
 62
     7
100
AcDbSpline
210
0.0
220
0.0
230
1.0
 70
     8
 71
     3
 72
     9
 73
     5
 74
     0
 42
0.000000001
 43
0.0000000001
 40
0.0
 40
0.0
 40
0.0
 40
0.0
 40
0.4954579281032904
 40
1.0
 40
1.0
 40
1.0
 40
1.0
 10
-130.7069320653271
 20
-73.78436525118963
 30
0.0
 10
-130.9413435910172
 20
-73.37835417693101
 30
0.0
 10
-131.4144645411401
 20
-72.55888787872709
 30
0.0
 10
-131.9035471054563
 20
-71.71177094516707
 30
0.0
 10
-132.1503098357849
 20
-71.28436481236992
 30
0.0
  0
SPLINE
  5
396
330
1F
100
AcDbEntity
  8
0
  6
CONTINUOUS
 62
     7
100
AcDbSpline
210
0.0
220
0.0
230
1.0
 70
     8
 71
     3
 72
    10
 73
     6
 74
     0
 42
0.000000001
 43
0.0000000001
 40
0.0
 40
0.0
 40
0.0
 40
0.0
 40
0.0700627967872977
 40
0.5307704441844451
 40
0.9999999999999999
 40
0.9999999999999999
 40
0.9999999999999999
 40
0.9999999999999999
 10
-132.1503098236867
 20
-76.28436569699424
 30
0.0
 10
-132.1161103515105
 20
-76.22513068388027
 30
0.0
 10
-131.8570275019784
 20
-75.77638761818116
 30
0.0
 10
-131.3685266246321
 20
-74.93028155735543
 30
0.0
 10
-130.928806776965
 20
-74.16866383166578
 30
0.0
 10
-130.7069320653271
 20
-73.78436525118963
 30
0.0
  0
SPLINE
  5
397
330
1F
100
AcDbEntity
  8
0
  6
CONTINUOUS
 62
     7
100
AcDbSpline
210
0.0
220
0.0
230
1.0
 70
     8
 71
     3
 72
    10
 73
     6
 74
     0
 42
0.000000001
 43
0.0000000001
 40
0.0
 40
0.0
 40
0.0
 40
0.0
 40
0.0700622054171227
 40
0.5307701796822604
 40
1.0
 40
1.0
 40
1.0
 40
1.0
 10
-132.1503098357849
 20
-71.28436481236992
 30
0.0
 10
-132.1845080344956
 20
-71.22512978092836
 30
0.0
 10
-132.4435832943512
 20
-70.77638301233125
 30
0.0
 10
-132.9320923683044
 20
-69.93028239496556
 30
0.0
 10
-133.3718112281095
 20
-69.16866410340573
 30
0.0
 10
-133.5936854252639
 20
-68.78436526515964
 30
0.0
  0
SPLINE
  5
398
330
1F
100
AcDbEntity
  8
0
  6
CONTINUOUS
 62
     7
100
AcDbSpline
210
0.0
220
0.0
230
1.0
 70
    24
 71
     3
 72
     9
 73
     5
 74
     0
 42
0.000000001
 43
0.0000000001
 40
0.0
 40
0.0
 40
0.0
 40
0.0
 40
0.2575504361287389
 40
1.0
 40
1.0
 40
1.0
 40
1.0
 10
-133.5936854252639
 20
-68.78436526515964
 30
0.0
 10
-133.8360324501554
 20
-68.78436526515964
 30
0.0
 10
-134.7770016386923
 20
-68.78436526515964
 30
0.0
 10
-135.7546101881226
 20
-68.78436526515964
 30
0.0
 10
-136.4804352292839
 20
-68.78436526515964
 30
0.0
  0
SPLINE
  5
399
330
1F
100
AcDbEntity
  8
0
  6
CONTINUOUS
 62
     7
100
AcDbSpline
210
0.0
220
0.0
230
1.0
 70
     8
 71
     3
 72
    10
 73
     6
 74
     0
 42
0.000000001
 43
0.0000000001
 40
0.0
 40
0.0
 40
0.0
 40
0.0
 40
0.0700628410745409
 40
0.5307701811059811
 40
1.0
 40
1.0
 40
1.0
 40
1.0
 10
-140.8105636122111
 20
-76.28436526515945
 30
0.0
 10
-140.7763641060516
 20
-76.34360025875596
 30
0.0
 10
-140.5172812912579
 20
-76.79234267052297
 30
0.0
 10
-140.028784582792
 20
-77.63845039226916
 30
0.0
 10
-139.5890639519687
 20
-78.40006697284517
 30
0.0
 10
-139.3671887102012
 20
-78.7843652092801
 30
0.0
  0
SPLINE
  5
39A
330
1F
100
AcDbEntity
  8
0
  6
CONTINUOUS
 62
     7
100
AcDbSpline
210
0.0
220
0.0
230
1.0
 70
    24
 71
     3
 72
     9
 73
     5
 74
     0
 42
0.000000001
 43
0.0000000001
 40
0.0
 40
0.0
 40
0.0
 40
0.0
 40
0.7313666623616154
 40
1.0
 40
1.0
 40
1.0
 40
1.0
 10
-139.3671887102012
 20
-78.7843652092801
 30
0.0
 10
-138.6713973390604
 20
-78.7843652227486
 30
0.0
 10
-137.7200395496664
 20
-78.78436524116412
 30
0.0
 10
-136.7429216291465
 20
-78.78436526007827
 30
0.0
 10
-136.4804351808909
 20
-78.78436526515924
 30
0.0
  0
SPLINE
  5
39B
330
1F
100
AcDbEntity
  8
0
  6
CONTINUOUS
 62
     7
100
AcDbSpline
210
0.0
220
0.0
230
1.0
 70
     8
 71
     3
 72
     9
 73
     5
 74
     0
 42
0.000000001
 43
0.0000000001
 40
0.0
 40
0.0
 40
0.0
 40
0.0
 40
0.4954575813658327
 40
1.0
 40
1.0
 40
1.0
 40
1.0
 10
-139.3671887585941
 20
-68.78436540485785
 30
0.0
 10
-139.6015989577771
 20
-69.19037648592746
 30
0.0
 10
-140.0747175616682
 20
-70.00984337136767
 30
0.0
 10
-140.5638005478454
 20
-70.85695938606126
 30
0.0
 10
-140.8105636606041
 20
-71.2843653489785
 30
0.0
  0
SPLINE
  5
39C
330
1F
100
AcDbEntity
  8
0
  6
CONTINUOUS
 62
     7
100
AcDbSpline
210
0.0
220
0.0
230
1.0
 70
    24
 71
     3
 72
     9
 73
     5
 74
     0
 42
0.000000001
 43
0.0000000001
 40
0.0
 40
0.0
 40
0.0
 40
0.0
 40
0.2686333376383846
 40
1.0
 40
1.0
 40
1.0
 40
1.0
 10
-136.4804352292839
 20
-68.78436526515964
 30
0.0
 10
-136.7429216775394
 20
-68.78436527786212
 30
0.0
 10
-137.7200395980593
 20
-68.78436532514762
 30
0.0
 10
-138.6713973874533
 20
-68.78436537118654
 30
0.0
 10
-139.3671887585941
 20
-68.78436540485785
 30
0.0
  0
SPLINE
  5
39D
330
1F
100
AcDbEntity
  8
0
  6
CONTINUOUS
 62
     7
100
AcDbSpline
210
0.0
220
0.0
230
1.0
 70
     8
 71
     3
 72
     9
 73
     5
 74
     0
 42
0.000000001
 43
0.0000000001
 40
0.0
 40
0.0
 40
0.0
 40
0.0
 40
0.4954576152953357
 40
0.9999999999999999
 40
0.9999999999999999
 40
0.9999999999999999
 40
0.9999999999999999
 10
-142.2539385142211
 20
-73.78436532103882
 30
0.0
 10
-142.0195283232306
 20
-74.1903764457769
 30
0.0
 10
-141.5464097682744
 20
-75.00984336323675
 30
0.0
 10
-141.0573267330977
 20
-75.85695934672756
 30
0.0
 10
-140.8105636122111
 20
-76.28436526515945
 30
0.0
  0
SPLINE
  5
39E
330
1F
100
AcDbEntity
  8
0
  6
CONTINUOUS
 62
     7
100
AcDbSpline
210
0.0
220
0.0
230
1.0
 70
     8
 71
     3
 72
    10
 73
     6
 74
     0
 42
0.000000001
 43
0.0000000001
 40
0.0
 40
0.0
 40
0.0
 40
0.0
 40
0.0700628411255487
 40
0.5307701472391406
 40
1.0
 40
1.0
 40
1.0
 40
1.0
 10
-140.8105636606041
 20
-71.28436534897848
 30
0.0
 10
-140.8447631653408
 20
-71.34360034340929
 30
0.0
 10
-141.1038459526359
 20
-71.79234273253695
 30
0.0
 10
-141.5923427299913
 20
-72.6384504096554
 30
0.0
 10
-142.0320632914352
 20
-73.40006703450585
 30
0.0
 10
-142.2539385142211
 20
-73.7843653210388
 30
0.0
  0
SPLINE
  5
39F
330
1F
100
AcDbEntity
  8
0
  6
CONTINUOUS
 62
     7
100
AcDbSpline
210
0.0
220
0.0
230
1.0
 70
     8
 71
     3
 72
    10
 73
     6
 74
     0
 42
0.000000001
 43
0.0000000001
 40
0.0
 40
0.0
 40
0.0
 40
0.0
 40
0.0700628874623752
 40
0.5307708595304613
 40
1.0
 40
1.0
 40
1.0
 40
1.0
 10
-102.5804364756129
 20
29.04544643399524
 30
0.0
 10
-102.5809693609824
 20
28.98621135253305
 30
0.0
 10
-102.5850063060162
 20
28.53746799865786
 30
0.0
 10
-102.6825331430252
 20
27.69136290926096
 30
0.0
 10
-102.9114908476063
 20
26.92974397865106
 30
0.0
 10
-103.0270186886571
 20
26.54544509289076
 30
0.0
  0
SPLINE
  5
3A0
330
1F
100
AcDbEntity
  8
0
  6
CONTINUOUS
 62
     7
100
AcDbSpline
210
0.0
220
0.0
230
1.0
 70
     8
 71
     3
 72
     9
 73
     5
 74
     0
 42
0.000000001
 43
0.0000000001
 40
0.0
 40
0.0
 40
0.0
 40
0.0
 40
0.4954573243201449
 40
1.0
 40
1.0
 40
1.0
 40
1.0
 10
-105.7338546663902
 20
26.54544509289096
 30
0.0
 10
-105.8586732640175
 20
26.95145570531406
 30
0.0
 10
-106.1105992957874
 20
27.77092207001104
 30
0.0
 10
-106.1570171108324
 20
28.61803952609014
 30
0.0
 10
-106.1804368794344
 20
29.04544643399547
 30
0.0
  0
SPLINE
  5
3A1
330
1F
100
AcDbEntity
  8
0
  6
CONTINUOUS
 62
     7
100
AcDbSpline
210
0.0
220
0.0
230
1.0
 70
     8
 71
     3
 72
    10
 73
     6
 74
     0
 42
0.000000001
 43
0.0000000001
 40
0.0
 40
0.0
 40
0.0
 40
0.0
 40
0.0700629296498203
 40
0.5307699702160531
 40
1.0
 40
1.0
 40
1.0
 40
1.0
 10
-106.1804368794344
 20
29.04544643399547
 30
0.0
 10
-106.1799038280556
 20
29.10468150857065
 30
0.0
 10
-106.1758656345934
 20
29.55342378819196
 30
0.0
 10
-106.0783401913594
 20
30.39953050233726
 30
0.0
 10
-105.849382649521
 20
31.16114733799026
 30
0.0
 10
-105.7338546663902
 20
31.54544591245474
 30
0.0
  0
SPLINE
  5
3A2
330
1F
100
AcDbEntity
  8
0
  6
CONTINUOUS
 62
     7
100
AcDbSpline
210
0.0
220
0.0
230
1.0
 70
     8
 71
     3
 72
     9
 73
     5
 74
     0
 42
0.000000001
 43
0.0000000001
 40
0.0
 40
0.0
 40
0.0
 40
0.0
 40
0.495458163615648
 40
0.9999999999999999
 40
0.9999999999999999
 40
0.9999999999999999
 40
0.9999999999999999
 10
-103.0270186886571
 20
31.54544591245454
 30
0.0
 10
-102.902199864482
 20
31.13943457426384
 30
0.0
 10
-102.6502738022203
 20
30.31996813288396
 30
0.0
 10
-102.603856132124
 20
29.47285197561476
 30
0.0
 10
-102.5804364756129
 20
29.04544643399524
 30
0.0
  0
SPLINE
  5
3A3
330
1F
100
AcDbEntity
  8
0
  6
CONTINUOUS
 62
     7
100
AcDbSpline
210
0.0
220
0.0
230
1.0
 70
     8
 71
     3
 72
    10
 73
     6
 74
     0
 42
0.000000001
 43
0.0000000001
 40
0.0
 40
0.0
 40
0.0
 40
0.0
 40
0.070062890309276
 40
0.5307708530742955
 40
1.0
 40
1.0
 40
1.0
 40
1.0
 10
-106.1804368794344
 20
24.04544375178637
 30
0.0
 10
-106.1799038252343
 20
24.10467883294646
 30
0.0
 10
-106.1758656014151
 20
24.55342216083994
 30
0.0
 10
-106.0783407782461
 20
25.39952730952876
 30
0.0
 10
-105.8493826986233
 20
26.16114621390406
 30
0.0
 10
-105.7338546663902
 20
26.54544509289096
 30
0.0
  0
SPLINE
  5
3A4
330
1F
100
AcDbEntity
  8
0
  6
CONTINUOUS
 62
     7
100
AcDbSpline
210
0.0
220
0.0
230
1.0
 70
     8
 71
     3
 72
     9
 73
     5
 74
     0
 42
0.000000001
 43
0.0000000001
 40
0.0
 40
0.0
 40
0.0
 40
0.0
 40
0.4954573487714471
 40
1.0
 40
1.0
 40
1.0
 40
1.0
 10
-103.0270186886571
 20
26.54544509289076
 30
0.0
 10
-102.902199859739
 20
26.13943449069356
 30
0.0
 10
-102.6502733735791
 20
25.31996818707725
 30
0.0
 10
-102.6038560135201
 20
24.47285066983684
 30
0.0
 10
-102.5804364756129
 20
24.04544375178625
 30
0.0
  0
SPLINE
  5
3A5
330
1F
100
AcDbEntity
  8
0
  6
CONTINUOUS
 62
     7
100
AcDbSpline
210
0.0
220
0.0
230
1.0
 70
     8
 71
     3
 72
    10
 73
     6
 74
     0
 42
0.000000001
 43
0.0000000001
 40
0.0
 40
0.0
 40
0.0
 40
0.0
 40
0.0700629652010533
 40
0.5307697195097232
 40
1.0
 40
1.0
 40
1.0
 40
1.0
 10
-102.5804364756129
 20
24.04544375178625
 30
0.0
 10
-102.580969357065
 20
23.98620867465576
 30
0.0
 10
-102.5850062592724
 20
23.53746681533676
 30
0.0
 10
-102.6825339099549
 20
22.69136132359756
 30
0.0
 10
-102.9114909118367
 20
21.92974478205394
 30
0.0
 10
-103.0270186886571
 20
21.54544613597216
 30
0.0
  0
SPLINE
  5
3A6
330
1F
100
AcDbEntity
  8
0
  6
CONTINUOUS
 62
     7
100
AcDbSpline
210
0.0
220
0.0
230
1.0
 70
     8
 71
     3
 72
     9
 73
     5
 74
     0
 42
0.000000001
 43
0.0000000001
 40
0.0
 40
0.0
 40
0.0
 40
0.0
 40
0.4954578682650879
 40
1.0
 40
1.0
 40
1.0
 40
1.0
 10
-105.7338546663902
 20
21.54544613597204
 30
0.0
 10
-105.8586732608512
 20
21.95145682299085
 30
0.0
 10
-106.1105990096501
 20
22.77092243858485
 30
0.0
 10
-106.1570170316591
 20
23.61803817321154
 30
0.0
 10
-106.1804368794344
 20
24.04544375178637
 30
0.0
  0
SPLINE
  5
3A7
330
1F
100
AcDbEntity
  8
0
  6
CONTINUOUS
 62
     7
100
AcDbSpline
210
0.0
220
0.0
230
1.0
 70
    24
 71
     3
 72
     9
 73
     5
 74
     0
 42
0.000000001
 43
0.0000000001
 40
0.0
 40
0.0
 40
0.0
 40
0.0
 40
0.2575519334693815
 40
0.9999999999999999
 40
0.9999999999999999
 40
0.9999999999999999
 40
0.9999999999999999
 10
-105.7338546663902
 20
31.54544591245474
 30
0.0
 10
-105.8012699875676
 20
31.54544591245474
 30
0.0
 10
-106.0630242686141
 20
31.54544591245465
 30
0.0
 10
-106.1304079760976
 20
31.54544591245454
 30
0.0
 10
-106.1804368794344
 20
31.54544591245454
 30
0.0
  0
SPLINE
  5
3A8
330
1F
100
AcDbEntity
  8
0
  6
CONTINUOUS
 62
     7
100
AcDbSpline
210
0.0
220
0.0
230
1.0
 70
    24
 71
     3
 72
     9
 73
     5
 74
     0
 42
0.000000001
 43
0.0000000001
 40
0.0
 40
0.0
 40
0.0
 40
0.0
 40
0.7424480665306183
 40
0.9999999999999999
 40
0.9999999999999999
 40
0.9999999999999999
 40
0.9999999999999999
 10
-102.5804364756129
 20
31.54544591245454
 30
0.0
 10
-102.6304653789497
 20
31.54544591245454
 30
0.0
 10
-102.6978490864331
 20
31.54544591245454
 30
0.0
 10
-102.9596033674796
 20
31.54544591245454
 30
0.0
 10
-103.0270186886571
 20
31.54544591245454
 30
0.0
  0
SPLINE
  5
3A9
330
1F
100
AcDbEntity
  8
0
  6
CONTINUOUS
 62
     7
100
AcDbSpline
210
0.0
220
0.0
230
1.0
 70
    24
 71
     3
 72
     9
 73
     5
 74
     0
 42
0.000000001
 43
0.0000000001
 40
0.0
 40
0.0
 40
0.0
 40
0.0
 40
0.2575519334693815
 40
0.9999999999999999
 40
0.9999999999999999
 40
0.9999999999999999
 40
0.9999999999999999
 10
-103.0270186886571
 20
21.54544613597216
 30
0.0
 10
-102.9596033674796
 20
21.54544613597216
 30
0.0
 10
-102.6978490864331
 20
21.54544613597204
 30
0.0
 10
-102.6304653789497
 20
21.54544613597204
 30
0.0
 10
-102.5804364756129
 20
21.54544613597204
 30
0.0
  0
SPLINE
  5
3AA
330
1F
100
AcDbEntity
  8
0
  6
CONTINUOUS
 62
     7
100
AcDbSpline
210
0.0
220
0.0
230
1.0
 70
    24
 71
     3
 72
     9
 73
     5
 74
     0
 42
0.000000001
 43
0.0000000001
 40
0.0
 40
0.0
 40
0.0
 40
0.0
 40
0.7424480665306183
 40
0.9999999999999999
 40
0.9999999999999999
 40
0.9999999999999999
 40
0.9999999999999999
 10
-106.1804368794344
 20
21.54544613597204
 30
0.0
 10
-106.1304079760976
 20
21.54544613597204
 30
0.0
 10
-106.0630242686141
 20
21.54544613597204
 30
0.0
 10
-105.8012699875676
 20
21.54544613597204
 30
0.0
 10
-105.7338546663902
 20
21.54544613597204
 30
0.0
  0
SPLINE
  5
3AB
330
1F
100
AcDbEntity
  8
0
  6
CONTINUOUS
 62
     7
100
AcDbSpline
210
0.0
220
0.0
230
1.0
 70
     8
 71
     3
 72
    10
 73
     6
 74
     0
 42
0.000000001
 43
0.0000000001
 40
0.0
 40
0.0
 40
0.0
 40
0.0
 40
0.0700628874623752
 40
0.5307708595304613
 40
1.0
 40
1.0
 40
1.0
 40
1.0
 10
-102.5804364756129
 20
99.04544673201846
 30
0.0
 10
-102.5809693609824
 20
98.98621165055624
 30
0.0
 10
-102.5850063060162
 20
98.53746829668114
 30
0.0
 10
-102.6825331430252
 20
97.69136320728416
 30
0.0
 10
-102.9114908476063
 20
96.92974427667426
 30
0.0
 10
-103.0270186886571
 20
96.54544539091395
 30
0.0
  0
SPLINE
  5
3AC
330
1F
100
AcDbEntity
  8
0
  6
CONTINUOUS
 62
     7
100
AcDbSpline
210
0.0
220
0.0
230
1.0
 70
     8
 71
     3
 72
     9
 73
     5
 74
     0
 42
0.000000001
 43
0.0000000001
 40
0.0
 40
0.0
 40
0.0
 40
0.0
 40
0.4954573243201449
 40
1.0
 40
1.0
 40
1.0
 40
1.0
 10
-105.7338546663902
 20
96.54544539091395
 30
0.0
 10
-105.8586732640175
 20
96.95145600333714
 30
0.0
 10
-106.1105992957874
 20
97.77092236803406
 30
0.0
 10
-106.1570171108324
 20
98.61803982411314
 30
0.0
 10
-106.1804368794344
 20
99.04544673201846
 30
0.0
  0
SPLINE
  5
3AD
330
1F
100
AcDbEntity
  8
0
  6
CONTINUOUS
 62
     7
100
AcDbSpline
210
0.0
220
0.0
230
1.0
 70
     8
 71
     3
 72
    10
 73
     6
 74
     0
 42
0.000000001
 43
0.0000000001
 40
0.0
 40
0.0
 40
0.0
 40
0.0
 40
0.0700629680479624
 40
0.5307697130535071
 40
1.0
 40
1.0
 40
1.0
 40
1.0
 10
-106.1804368794344
 20
99.04544673201846
 30
0.0
 10
-106.1799038291517
 20
99.10468180884686
 30
0.0
 10
-106.1758656481628
 20
99.55342364218424
 30
0.0
 10
-106.0783400113179
 20
100.3995291932154
 30
0.0
 10
-105.8493826343937
 20
101.1611457085244
 30
0.0
 10
-105.7338546663902
 20
101.5454443478326
 30
0.0
  0
SPLINE
  5
3AE
330
1F
100
AcDbEntity
  8
0
  6
CONTINUOUS
 62
     7
100
AcDbSpline
210
0.0
220
0.0
230
1.0
 70
     8
 71
     3
 72
     9
 73
     5
 74
     0
 42
0.000000001
 43
0.0000000001
 40
0.0
 40
0.0
 40
0.0
 40
0.0
 40
0.495457892716419
 40
1.0
 40
1.0
 40
1.0
 40
1.0
 10
-103.0270186886571
 20
101.5454443478326
 30
0.0
 10
-102.9021998629051
 20
101.1394336710399
 30
0.0
 10
-102.6502736597163
 20
100.3199681165266
 30
0.0
 10
-102.6038560926936
 20
99.47285232073855
 30
0.0
 10
-102.5804364756129
 20
99.04544673201846
 30
0.0
  0
SPLINE
  5
3AF
330
1F
100
AcDbEntity
  8
0
  6
CONTINUOUS
 62
     7
100
AcDbSpline
210
0.0
220
0.0
230
1.0
 70
     8
 71
     3
 72
     9
 73
     5
 74
     0
 42
0.000000001
 43
0.0000000001
 40
0.0
 40
0.0
 40
0.0
 40
0.0
 40
0.4954573487714471
 40
1.0
 40
1.0
 40
1.0
 40
1.0
 10
-103.0270186886571
 20
96.54544539091395
 30
0.0
 10
-102.902199859739
 20
96.13943478871676
 30
0.0
 10
-102.6502733735791
 20
95.31996848510056
 30
0.0
 10
-102.6038560135201
 20
94.47285096786004
 30
0.0
 10
-102.5804364756129
 20
94.04544404980945
 30
0.0
  0
SPLINE
  5
3B0
330
1F
100
AcDbEntity
  8
0
  6
CONTINUOUS
 62
     7
100
AcDbSpline
210
0.0
220
0.0
230
1.0
 70
     8
 71
     3
 72
    10
 73
     6
 74
     0
 42
0.000000001
 43
0.0000000001
 40
0.0
 40
0.0
 40
0.0
 40
0.0
 40
0.070062890309276
 40
0.5307708530742955
 40
1.0
 40
1.0
 40
1.0
 40
1.0
 10
-106.1804368794344
 20
94.04544404980945
 30
0.0
 10
-106.1799038252343
 20
94.10467913096946
 30
0.0
 10
-106.1758656014151
 20
94.55342245886305
 30
0.0
 10
-106.0783407782461
 20
95.39952760755176
 30
0.0
 10
-105.8493826986233
 20
96.16114651192706
 30
0.0
 10
-105.7338546663902
 20
96.54544539091395
 30
0.0
  0
SPLINE
  5
3B1
330
1F
100
AcDbEntity
  8
0
  6
CONTINUOUS
 62
     7
100
AcDbSpline
210
0.0
220
0.0
230
1.0
 70
     8
 71
     3
 72
    10
 73
     6
 74
     0
 42
0.000000001
 43
0.0000000001
 40
0.0
 40
0.0
 40
0.0
 40
0.0
 40
0.0700629268029146
 40
0.5307699766722535
 40
0.9999999999999999
 40
0.9999999999999999
 40
0.9999999999999999
 40
0.9999999999999999
 10
-102.5804364756129
 20
94.04544404980945
 30
0.0
 10
-102.5809693581611
 20
93.98620897493214
 30
0.0
 10
-102.5850062728406
 20
93.53746666932915
 30
0.0
 10
-102.6825337299132
 20
92.69136001447575
 30
0.0
 10
-102.9114908967094
 20
91.92974315258814
 30
0.0
 10
-103.0270186886571
 20
91.54544457135006
 30
0.0
  0
SPLINE
  5
3B2
330
1F
100
AcDbEntity
  8
0
  6
CONTINUOUS
 62
     7
100
AcDbSpline
210
0.0
220
0.0
230
1.0
 70
     8
 71
     3
 72
     9
 73
     5
 74
     0
 42
0.000000001
 43
0.0000000001
 40
0.0
 40
0.0
 40
0.0
 40
0.0
 40
0.4954581391643556
 40
0.9999999999999999
 40
0.9999999999999999
 40
0.9999999999999999
 40
0.9999999999999999
 10
-105.7338546663902
 20
91.54544457135006
 30
0.0
 10
-105.8586732592743
 20
91.95145591976674
 30
0.0
 10
-106.1105988671462
 20
92.77092242222736
 30
0.0
 10
-106.1570169922287
 20
93.61803851833534
 30
0.0
 10
-106.1804368794344
 20
94.04544404980945
 30
0.0
  0
SPLINE
  5
3B3
330
1F
100
AcDbEntity
  8
0
  6
CONTINUOUS
 62
     7
100
AcDbSpline
210
0.0
220
0.0
230
1.0
 70
    24
 71
     3
 72
     9
 73
     5
 74
     0
 42
0.000000001
 43
0.0000000001
 40
0.0
 40
0.0
 40
0.0
 40
0.0
 40
0.7424480665306183
 40
0.9999999999999999
 40
0.9999999999999999
 40
0.9999999999999999
 40
0.9999999999999999
 10
-102.5804364756129
 20
101.5454443478326
 30
0.0
 10
-102.6304653789497
 20
101.5454443478326
 30
0.0
 10
-102.6978490864331
 20
101.5454443478326
 30
0.0
 10
-102.9596033674796
 20
101.5454443478326
 30
0.0
 10
-103.0270186886571
 20
101.5454443478326
 30
0.0
  0
SPLINE
  5
3B4
330
1F
100
AcDbEntity
  8
0
  6
CONTINUOUS
 62
     7
100
AcDbSpline
210
0.0
220
0.0
230
1.0
 70
    24
 71
     3
 72
     9
 73
     5
 74
     0
 42
0.000000001
 43
0.0000000001
 40
0.0
 40
0.0
 40
0.0
 40
0.0
 40
0.2575519334693815
 40
0.9999999999999999
 40
0.9999999999999999
 40
0.9999999999999999
 40
0.9999999999999999
 10
-105.7338546663902
 20
101.5454443478326
 30
0.0
 10
-105.8012699875676
 20
101.5454443478326
 30
0.0
 10
-106.0630242686141
 20
101.5454443478326
 30
0.0
 10
-106.1304079760976
 20
101.5454443478326
 30
0.0
 10
-106.1804368794344
 20
101.5454443478326
 30
0.0
  0
SPLINE
  5
3B5
330
1F
100
AcDbEntity
  8
0
  6
CONTINUOUS
 62
     7
100
AcDbSpline
210
0.0
220
0.0
230
1.0
 70
    24
 71
     3
 72
     9
 73
     5
 74
     0
 42
0.000000001
 43
0.0000000001
 40
0.0
 40
0.0
 40
0.0
 40
0.0
 40
0.7424480665306183
 40
0.9999999999999999
 40
0.9999999999999999
 40
0.9999999999999999
 40
0.9999999999999999
 10
-106.1804368794344
 20
91.54544457135006
 30
0.0
 10
-106.1304079760976
 20
91.54544457135006
 30
0.0
 10
-106.0630242686141
 20
91.54544457135006
 30
0.0
 10
-105.8012699875676
 20
91.54544457135006
 30
0.0
 10
-105.7338546663902
 20
91.54544457135006
 30
0.0
  0
SPLINE
  5
3B6
330
1F
100
AcDbEntity
  8
0
  6
CONTINUOUS
 62
     7
100
AcDbSpline
210
0.0
220
0.0
230
1.0
 70
    24
 71
     3
 72
     9
 73
     5
 74
     0
 42
0.000000001
 43
0.0000000001
 40
0.0
 40
0.0
 40
0.0
 40
0.0
 40
0.2575519334693815
 40
0.9999999999999999
 40
0.9999999999999999
 40
0.9999999999999999
 40
0.9999999999999999
 10
-103.0270186886571
 20
91.54544457135006
 30
0.0
 10
-102.9596033674796
 20
91.54544457135006
 30
0.0
 10
-102.6978490864331
 20
91.54544457135006
 30
0.0
 10
-102.6304653789497
 20
91.54544457135006
 30
0.0
 10
-102.5804364756129
 20
91.54544457135006
 30
0.0
  0
SPLINE
  5
3B7
330
1F
100
AcDbEntity
  8
0
  6
CONTINUOUS
 62
     7
100
AcDbSpline
210
0.0
220
0.0
230
1.0
 70
     8
 71
     3
 72
    10
 73
     6
 74
     0
 42
0.000000001
 43
0.0000000001
 40
0.0
 40
0.0
 40
0.0
 40
0.0
 40
0.0700628873008225
 40
0.5307708723173513
 40
1.0
 40
1.0
 40
1.0
 40
1.0
 10
-98.98043653749383
 20
29.04544643399515
 30
0.0
 10
-98.98096933824912
 20
28.98621135234174
 30
0.0
 10
-98.98500564238333
 20
28.53746798517275
 30
0.0
 10
-99.08253354624233
 20
27.69136295309906
 30
0.0
 10
-99.31149087131692
 20
26.92974398634794
 30
0.0
 10
-99.42701851770732
 20
26.54544509289065
 30
0.0
  0
SPLINE
  5
3B8
330
1F
100
AcDbEntity
  8
0
  6
CONTINUOUS
 62
     7
100
AcDbSpline
210
0.0
220
0.0
230
1.0
 70
     8
 71
     3
 72
     9
 73
     5
 74
     0
 42
0.000000001
 43
0.0000000001
 40
0.0
 40
0.0
 40
0.0
 40
0.0
 40
0.495457330855823
 40
1.0
 40
1.0
 40
1.0
 40
1.0
 10
-102.13385472823
 20
26.54544509289076
 30
0.0
 10
-102.2586733635794
 20
26.95145570258055
 30
0.0
 10
-102.510599468162
 20
27.77092205095104
 30
0.0
 10
-102.5570169004377
 20
28.61803952337814
 30
0.0
 10
-102.5804364756129
 20
29.04544643399524
 30
0.0
  0
SPLINE
  5
3B9
330
1F
100
AcDbEntity
  8
0
  6
CONTINUOUS
 62
     7
100
AcDbSpline
210
0.0
220
0.0
230
1.0
 70
     8
 71
     3
 72
    10
 73
     6
 74
     0
 42
0.000000001
 43
0.0000000001
 40
0.0
 40
0.0
 40
0.0
 40
0.0
 40
0.0700629264798858
 40
0.5307700022460639
 40
1.0
 40
1.0
 40
1.0
 40
1.0
 10
-102.5804364756129
 20
29.04544643399524
 30
0.0
 10
-102.5799037622931
 20
29.10468150925496
 30
0.0
 10
-102.5758681294104
 20
29.55342384144527
 30
0.0
 10
-102.4783385386395
 20
30.39953038165254
 30
0.0
 10
-102.2493821308564
 20
31.16114731582255
 30
0.0
 10
-102.13385472823
 20
31.54544591245454
 30
0.0
  0
SPLINE
  5
3BA
330
1F
100
AcDbEntity
  8
0
  6
CONTINUOUS
 62
     7
100
AcDbSpline
210
0.0
220
0.0
230
1.0
 70
     8
 71
     3
 72
     9
 73
     5
 74
     0
 42
0.000000001
 43
0.0000000001
 40
0.0
 40
0.0
 40
0.0
 40
0.0
 40
0.4954581546578523
 40
1.0
 40
1.0
 40
1.0
 40
1.0
 10
-99.42701851770732
 20
31.54544591245445
 30
0.0
 10
-99.30219979031662
 20
31.13943457051747
 30
0.0
 10
-99.05027391884333
 20
30.31996810676046
 30
0.0
 10
-99.00385621263882
 20
29.47285197189785
 30
0.0
 10
-98.98043653749383
 20
29.04544643399515
 30
0.0
  0
SPLINE
  5
3BB
330
1F
100
AcDbEntity
  8
0
  6
CONTINUOUS
 62
     7
100
AcDbSpline
210
0.0
220
0.0
230
1.0
 70
     8
 71
     3
 72
    10
 73
     6
 74
     0
 42
0.000000001
 43
0.0000000001
 40
0.0
 40
0.0
 40
0.0
 40
0.0
 40
0.0700628871393518
 40
0.5307708851042835
 40
1.0
 40
1.0
 40
1.0
 40
1.0
 10
-102.5804364756129
 20
24.04544375178625
 30
0.0
 10
-102.5799037594718
 20
24.10467883363074
 30
0.0
 10
-102.5758680962374
 20
24.55342221409325
 30
0.0
 10
-102.4783391255283
 20
25.39952718884416
 30
0.0
 10
-102.2493821799602
 20
26.16114619173646
 30
0.0
 10
-102.13385472823
 20
26.54544509289076
 30
0.0
  0
SPLINE
  5
3BC
330
1F
100
AcDbEntity
  8
0
  6
CONTINUOUS
 62
     7
100
AcDbSpline
210
0.0
220
0.0
230
1.0
 70
     8
 71
     3
 72
     9
 73
     5
 74
     0
 42
0.000000001
 43
0.0000000001
 40
0.0
 40
0.0
 40
0.0
 40
0.0
 40
0.4954573398136322
 40
1.0
 40
1.0
 40
1.0
 40
1.0
 10
-99.42701851770732
 20
26.54544509289065
 30
0.0
 10
-99.30219978557362
 20
26.13943448694715
 30
0.0
 10
-99.05027349020243
 20
25.31996816095375
 30
0.0
 10
-99.00385609403503
 20
24.47285066611994
 30
0.0
 10
-98.98043653749383
 20
24.04544375178614
 30
0.0
  0
SPLINE
  5
3BD
330
1F
100
AcDbEntity
  8
0
  6
CONTINUOUS
 62
     7
100
AcDbSpline
210
0.0
220
0.0
230
1.0
 70
     8
 71
     3
 72
    10
 73
     6
 74
     0
 42
0.000000001
 43
0.0000000001
 40
0.0
 40
0.0
 40
0.0
 40
0.0
 40
0.0700629650394976
 40
0.5307697322966158
 40
1.0
 40
1.0
 40
1.0
 40
1.0
 10
-98.98043653749383
 20
24.04544375178614
 30
0.0
 10
-98.98096933433173
 20
23.98620867446445
 30
0.0
 10
-98.98500559564133
 20
23.53746680185156
 30
0.0
 10
-99.08253431317243
 20
22.69136136743575
 30
0.0
 10
-99.31149093554772
 20
21.92974478975086
 30
0.0
 10
-99.42701851770732
 20
21.54544613597204
 30
0.0
  0
SPLINE
  5
3BE
330
1F
100
AcDbEntity
  8
0
  6
CONTINUOUS
 62
     7
100
AcDbSpline
210
0.0
220
0.0
230
1.0
 70
     8
 71
     3
 72
     9
 73
     5
 74
     0
 42
0.000000001
 43
0.0000000001
 40
0.0
 40
0.0
 40
0.0
 40
0.0
 40
0.4954578748007947
 40
1.0
 40
1.0
 40
1.0
 40
1.0
 10
-102.13385472823
 20
21.54544613597204
 30
0.0
 10
-102.2586733604132
 20
21.95145682025745
 30
0.0
 10
-102.510599182025
 20
22.77092241952485
 30
0.0
 10
-102.5570168212644
 20
23.61803817049966
 30
0.0
 10
-102.5804364756129
 20
24.04544375178625
 30
0.0
  0
SPLINE
  5
3BF
330
1F
100
AcDbEntity
  8
0
  6
CONTINUOUS
 62
     7
100
AcDbSpline
210
0.0
220
0.0
230
1.0
 70
    24
 71
     3
 72
     9
 73
     5
 74
     0
 42
0.000000001
 43
0.0000000001
 40
0.0
 40
0.0
 40
0.0
 40
0.0
 40
0.2575519037846797
 40
1.0
 40
1.0
 40
1.0
 40
1.0
 10
-102.13385472823
 20
31.54544591245454
 30
0.0
 10
-102.2012698742976
 20
31.54544591245454
 30
0.0
 10
-102.4630235056121
 20
31.54544591245454
 30
0.0
 10
-102.5304074180832
 20
31.54544591245454
 30
0.0
 10
-102.5804364756129
 20
31.54544591245454
 30
0.0
  0
SPLINE
  5
3C0
330
1F
100
AcDbEntity
  8
0
  6
CONTINUOUS
 62
     7
100
AcDbSpline
210
0.0
220
0.0
230
1.0
 70
    24
 71
     3
 72
     9
 73
     5
 74
     0
 42
0.000000001
 43
0.0000000001
 40
0.0
 40
0.0
 40
0.0
 40
0.0
 40
0.7424480813729776
 40
1.0
 40
1.0
 40
1.0
 40
1.0
 10
-98.98043653749383
 20
31.54544591245445
 30
0.0
 10
-99.03046551792703
 20
31.54544591245445
 30
0.0
 10
-99.09784932790433
 20
31.54544591245445
 30
0.0
 10
-99.35960328408483
 20
31.54544591245445
 30
0.0
 10
-99.42701851770732
 20
31.54544591245445
 30
0.0
  0
SPLINE
  5
3C1
330
1F
100
AcDbEntity
  8
0
  6
CONTINUOUS
 62
     7
100
AcDbSpline
210
0.0
220
0.0
230
1.0
 70
    24
 71
     3
 72
     9
 73
     5
 74
     0
 42
0.000000001
 43
0.0000000001
 40
0.0
 40
0.0
 40
0.0
 40
0.0
 40
0.2575519186270224
 40
1.0
 40
1.0
 40
1.0
 40
1.0
 10
-99.42701851770732
 20
21.54544613597204
 30
0.0
 10
-99.35960328408483
 20
21.54544613597196
 30
0.0
 10
-99.09784932790433
 20
21.54544613597196
 30
0.0
 10
-99.03046551792703
 20
21.54544613597196
 30
0.0
 10
-98.98043653749383
 20
21.54544613597196
 30
0.0
  0
SPLINE
  5
3C2
330
1F
100
AcDbEntity
  8
0
  6
CONTINUOUS
 62
     7
100
AcDbSpline
210
0.0
220
0.0
230
1.0
 70
    24
 71
     3
 72
     9
 73
     5
 74
     0
 42
0.000000001
 43
0.0000000001
 40
0.0
 40
0.0
 40
0.0
 40
0.0
 40
0.7424480962153203
 40
1.0
 40
1.0
 40
1.0
 40
1.0
 10
-102.5804364756129
 20
21.54544613597204
 30
0.0
 10
-102.5304074180832
 20
21.54544613597204
 30
0.0
 10
-102.4630235056121
 20
21.54544613597204
 30
0.0
 10
-102.2012698742976
 20
21.54544613597204
 30
0.0
 10
-102.13385472823
 20
21.54544613597204
 30
0.0
  0
SPLINE
  5
3C3
330
1F
100
AcDbEntity
  8
0
  6
CONTINUOUS
 62
     7
100
AcDbSpline
210
0.0
220
0.0
230
1.0
 70
     8
 71
     3
 72
    10
 73
     6
 74
     0
 42
0.000000001
 43
0.0000000001
 40
0.0
 40
0.0
 40
0.0
 40
0.0
 40
0.0700628873008225
 40
0.5307708723173513
 40
1.0
 40
1.0
 40
1.0
 40
1.0
 10
-98.98043653749383
 20
99.04544673201846
 30
0.0
 10
-98.98096933824912
 20
98.98621165036516
 30
0.0
 10
-98.98500564238333
 20
98.53746828319606
 30
0.0
 10
-99.08253354624233
 20
97.69136325112234
 30
0.0
 10
-99.31149087131692
 20
96.92974428437134
 30
0.0
 10
-99.42701851770732
 20
96.54544539091395
 30
0.0
  0
SPLINE
  5
3C4
330
1F
100
AcDbEntity
  8
0
  6
CONTINUOUS
 62
     7
100
AcDbSpline
210
0.0
220
0.0
230
1.0
 70
     8
 71
     3
 72
     9
 73
     5
 74
     0
 42
0.000000001
 43
0.0000000001
 40
0.0
 40
0.0
 40
0.0
 40
0.0
 40
0.495457330855823
 40
1.0
 40
1.0
 40
1.0
 40
1.0
 10
-102.13385472823
 20
96.54544539091395
 30
0.0
 10
-102.2586733635794
 20
96.95145600060374
 30
0.0
 10
-102.510599468162
 20
97.77092234897424
 30
0.0
 10
-102.5570169004377
 20
98.61803982140134
 30
0.0
 10
-102.5804364756129
 20
99.04544673201846
 30
0.0
  0
SPLINE
  5
3C5
330
1F
100
AcDbEntity
  8
0
  6
CONTINUOUS
 62
     7
100
AcDbSpline
210
0.0
220
0.0
230
1.0
 70
     8
 71
     3
 72
    10
 73
     6
 74
     0
 42
0.000000001
 43
0.0000000001
 40
0.0
 40
0.0
 40
0.0
 40
0.0
 40
0.0700629648780239
 40
0.5307697450835506
 40
1.0
 40
1.0
 40
1.0
 40
1.0
 10
-102.5804364756129
 20
99.04544673201846
 30
0.0
 10
-102.5799037633892
 20
99.10468180953146
 30
0.0
 10
-102.5758681429774
 20
99.55342369543774
 30
0.0
 10
-102.4783383585978
 20
100.3995290725309
 30
0.0
 10
-102.2493821157289
 20
101.1611456863569
 30
0.0
 10
-102.13385472823
 20
101.5454443478326
 30
0.0
  0
SPLINE
  5
3C6
330
1F
100
AcDbEntity
  8
0
  6
CONTINUOUS
 62
     7
100
AcDbSpline
210
0.0
220
0.0
230
1.0
 70
     8
 71
     3
 72
     9
 73
     5
 74
     0
 42
0.000000001
 43
0.0000000001
 40
0.0
 40
0.0
 40
0.0
 40
0.0
 40
0.4954578837586039
 40
0.9999999999999999
 40
0.9999999999999999
 40
0.9999999999999999
 40
0.9999999999999999
 10
-99.42701851770732
 20
101.5454443478326
 30
0.0
 10
-99.30219978873983
 20
101.1394336672935
 30
0.0
 10
-99.05027377633952
 20
100.3199680904032
 30
0.0
 10
-99.00385617320843
 20
99.47285231702176
 30
0.0
 10
-98.98043653749383
 20
99.04544673201846
 30
0.0
  0
SPLINE
  5
3C7
330
1F
100
AcDbEntity
  8
0
  6
CONTINUOUS
 62
     7
100
AcDbSpline
210
0.0
220
0.0
230
1.0
 70
     8
 71
     3
 72
    10
 73
     6
 74
     0
 42
0.000000001
 43
0.0000000001
 40
0.0
 40
0.0
 40
0.0
 40
0.0
 40
0.0700628871393518
 40
0.5307708851042835
 40
1.0
 40
1.0
 40
1.0
 40
1.0
 10
-102.5804364756129
 20
94.04544404980945
 30
0.0
 10
-102.5799037594718
 20
94.10467913165405
 30
0.0
 10
-102.5758680962374
 20
94.55342251211644
 30
0.0
 10
-102.4783391255283
 20
95.39952748686736
 30
0.0
 10
-102.2493821799602
 20
96.16114648975966
 30
0.0
 10
-102.13385472823
 20
96.54544539091395
 30
0.0
  0
SPLINE
  5
3C8
330
1F
100
AcDbEntity
  8
0
  6
CONTINUOUS
 62
     7
100
AcDbSpline
210
0.0
220
0.0
230
1.0
 70
     8
 71
     3
 72
     9
 73
     5
 74
     0
 42
0.000000001
 43
0.0000000001
 40
0.0
 40
0.0
 40
0.0
 40
0.0
 40
0.4954573398136322
 40
1.0
 40
1.0
 40
1.0
 40
1.0
 10
-99.42701851770732
 20
96.54544539091395
 30
0.0
 10
-99.30219978557362
 20
96.13943478497046
 30
0.0
 10
-99.05027349020243
 20
95.31996845897706
 30
0.0
 10
-99.00385609403503
 20
94.47285096414336
 30
0.0
 10
-98.98043653749383
 20
94.04544404980945
 30
0.0
  0
SPLINE
  5
3C9
330
1F
100
AcDbEntity
  8
0
  6
CONTINUOUS
 62
     7
100
AcDbSpline
210
0.0
220
0.0
230
1.0
 70
     8
 71
     3
 72
    10
 73
     6
 74
     0
 42
0.000000001
 43
0.0000000001
 40
0.0
 40
0.0
 40
0.0
 40
0.0
 40
0.0700629266413592
 40
0.5307699894591376
 40
0.9999999999999999
 40
0.9999999999999999
 40
0.9999999999999999
 40
0.9999999999999999
 10
-98.98043653749383
 20
94.04544404980945
 30
0.0
 10
-98.98096933542783
 20
93.98620897474106
 30
0.0
 10
-98.98500560920893
 20
93.53746665584404
 30
0.0
 10
-99.08253413313072
 20
92.69136005831405
 30
0.0
 10
-99.31149092042033
 20
91.92974316028514
 30
0.0
 10
-99.42701851770732
 20
91.54544457135006
 30
0.0
  0
SPLINE
  5
3CA
330
1F
100
AcDbEntity
  8
0
  6
CONTINUOUS
 62
     7
100
AcDbSpline
210
0.0
220
0.0
230
1.0
 70
     8
 71
     3
 72
     9
 73
     5
 74
     0
 42
0.000000001
 43
0.0000000001
 40
0.0
 40
0.0
 40
0.0
 40
0.0
 40
0.4954581457000624
 40
1.0
 40
1.0
 40
1.0
 40
1.0
 10
-102.13385472823
 20
91.54544457135006
 30
0.0
 10
-102.2586733588364
 20
91.95145591703346
 30
0.0
 10
-102.5105990395212
 20
92.77092240316756
 30
0.0
 10
-102.557016781834
 20
93.61803851562354
 30
0.0
 10
-102.5804364756129
 20
94.04544404980945
 30
0.0
  0
SPLINE
  5
3CB
330
1F
100
AcDbEntity
  8
0
  6
CONTINUOUS
 62
     7
100
AcDbSpline
210
0.0
220
0.0
230
1.0
 70
    24
 71
     3
 72
     9
 73
     5
 74
     0
 42
0.000000001
 43
0.0000000001
 40
0.0
 40
0.0
 40
0.0
 40
0.0
 40
0.2575519037846797
 40
1.0
 40
1.0
 40
1.0
 40
1.0
 10
-102.13385472823
 20
101.5454443478326
 30
0.0
 10
-102.2012698742976
 20
101.5454443478326
 30
0.0
 10
-102.4630235056121
 20
101.5454443478326
 30
0.0
 10
-102.5304074180832
 20
101.5454443478326
 30
0.0
 10
-102.5804364756129
 20
101.5454443478326
 30
0.0
  0
SPLINE
  5
3CC
330
1F
100
AcDbEntity
  8
0
  6
CONTINUOUS
 62
     7
100
AcDbSpline
210
0.0
220
0.0
230
1.0
 70
    24
 71
     3
 72
     9
 73
     5
 74
     0
 42
0.000000001
 43
0.0000000001
 40
0.0
 40
0.0
 40
0.0
 40
0.0
 40
0.7424480813729776
 40
1.0
 40
1.0
 40
1.0
 40
1.0
 10
-98.98043653749383
 20
101.5454443478326
 30
0.0
 10
-99.03046551792703
 20
101.5454443478326
 30
0.0
 10
-99.09784932790433
 20
101.5454443478326
 30
0.0
 10
-99.35960328408483
 20
101.5454443478326
 30
0.0
 10
-99.42701851770732
 20
101.5454443478326
 30
0.0
  0
SPLINE
  5
3CD
330
1F
100
AcDbEntity
  8
0
  6
CONTINUOUS
 62
     7
100
AcDbSpline
210
0.0
220
0.0
230
1.0
 70
    24
 71
     3
 72
     9
 73
     5
 74
     0
 42
0.000000001
 43
0.0000000001
 40
0.0
 40
0.0
 40
0.0
 40
0.0
 40
0.2575519186270224
 40
1.0
 40
1.0
 40
1.0
 40
1.0
 10
-99.42701851770732
 20
91.54544457135006
 30
0.0
 10
-99.35960328408483
 20
91.54544457135006
 30
0.0
 10
-99.09784932790433
 20
91.54544457135006
 30
0.0
 10
-99.03046551792703
 20
91.54544457135006
 30
0.0
 10
-98.98043653749383
 20
91.54544457135006
 30
0.0
  0
SPLINE
  5
3CE
330
1F
100
AcDbEntity
  8
0
  6
CONTINUOUS
 62
     7
100
AcDbSpline
210
0.0
220
0.0
230
1.0
 70
    24
 71
     3
 72
     9
 73
     5
 74
     0
 42
0.000000001
 43
0.0000000001
 40
0.0
 40
0.0
 40
0.0
 40
0.0
 40
0.7424480962153203
 40
1.0
 40
1.0
 40
1.0
 40
1.0
 10
-102.5804364756129
 20
91.54544457135006
 30
0.0
 10
-102.5304074180832
 20
91.54544457135006
 30
0.0
 10
-102.4630235056121
 20
91.54544457135006
 30
0.0
 10
-102.2012698742976
 20
91.54544457135006
 30
0.0
 10
-102.13385472823
 20
91.54544457135006
 30
0.0
  0
SPLINE
  5
3CF
330
1F
100
AcDbEntity
  8
0
  6
CONTINUOUS
 62
     7
100
AcDbSpline
210
0.0
220
0.0
230
1.0
 70
     8
 71
     3
 72
    10
 73
     6
 74
     0
 42
0.000000001
 43
0.0000000001
 40
0.0
 40
0.0
 40
0.0
 40
0.0
 40
0.5
 40
0.5
 40
1.0
 40
1.0
 40
1.0
 40
1.0
 10
-96.48043664078892
 20
120.7454469584405
 30
0.0
 10
-96.48043664078892
 20
121.0072463462399
 30
0.0
 10
-96.58820973717903
 20
121.2674336172038
 30
0.0
 10
-96.95844998202563
 20
121.6376738620505
 30
0.0
 10
-97.21863725298972
 20
121.7454469584405
 30
0.0
 10
-97.48043664078892
 20
121.7454469584405
 30
0.0
  0
SPLINE
  5
3D0
330
1F
100
AcDbEntity
  8
0
  6
CONTINUOUS
 62
     7
100
AcDbSpline
210
0.0
220
0.0
230
1.0
 70
     8
 71
     3
 72
    14
 73
    10
 74
     0
 42
0.000000001
 43
0.0000000001
 40
0.0
 40
0.0
 40
0.0
 40
0.0
 40
0.25
 40
0.25
 40
0.5
 40
0.5
 40
0.75
 40
0.75
 40
1.0
 40
1.0
 40
1.0
 40
1.0
 10
-94.48043664078892
 20
120.7454472862407
 30
0.0
 10
-94.48043664078892
 20
121.1382149810912
 30
0.0
 10
-94.55851861078392
 20
121.5306909393186
 30
0.0
 10
-94.85907747572614
 20
122.2563042273533
 30
0.0
 10
-95.08143611359432
 20
122.5890874461655
 30
0.0
 10
-95.63679648086423
 20
123.1444478134352
 30
0.0
 10
-95.96957969967622
 20
123.3668064513034
 30
0.0
 10
-96.69519298771112
 20
123.6673653162457
 30
0.0
 10
-97.08766894593853
 20
123.7454472862407
 30
0.0
 10
-97.48043664078892
 20
123.7454472862407
 30
0.0
  0
SPLINE
  5
3D1
330
1F
100
AcDbEntity
  8
0
  6
CONTINUOUS
 62
     7
100
AcDbSpline
210
0.0
220
0.0
230
1.0
 70
     8
 71
     3
 72
    10
 73
     6
 74
     0
 42
0.000000001
 43
0.0000000001
 40
0.0
 40
0.0
 40
0.0
 40
0.0
 40
0.5
 40
0.5
 40
1.0
 40
1.0
 40
1.0
 40
1.0
 10
-97.48043664078892
 20
1.345446922740564
 30
0.0
 10
-97.21863725298972
 20
1.345446922740564
 30
0.0
 10
-96.95844998202563
 20
1.453220019130754
 30
0.0
 10
-96.58820973717903
 20
1.823460263977239
 30
0.0
 10
-96.48043664078892
 20
2.083647534941349
 30
0.0
 10
-96.48043664078892
 20
2.345446922740564
 30
0.0
  0
SPLINE
  5
3D2
330
1F
100
AcDbEntity
  8
0
  6
CONTINUOUS
 62
     7
100
AcDbSpline
210
0.0
220
0.0
230
1.0
 70
     8
 71
     3
 72
    14
 73
    10
 74
     0
 42
0.000000001
 43
0.0000000001
 40
0.0
 40
0.0
 40
0.0
 40
0.0
 40
0.25
 40
0.25
 40
0.5
 40
0.5
 40
0.75
 40
0.75
 40
1.0
 40
1.0
 40
1.0
 40
1.0
 10
-97.48043664078892
 20
-0.6545534050594597
 30
0.0
 10
-97.08766894593843
 20
-0.6545534050594597
 30
0.0
 10
-96.69519298771102
 20
-0.576471435064434
 30
0.0
 10
-95.96957969967622
 20
-0.2759125701222445
 30
0.0
 10
-95.63679648086412
 20
-0.0535539322539478
 30
0.0
 10
-95.08143611359432
 20
0.5018064350157658
 30
0.0
 10
-94.85907747572614
 20
0.8345896538278623
 30
0.0
 10
-94.55851861078392
 20
1.560202941862656
 30
0.0
 10
-94.48043664078892
 20
1.952678900090064
 30
0.0
 10
-94.48043664078892
 20
2.34544659494054
 30
0.0
  0
SPLINE
  5
3D3
330
1F
100
AcDbEntity
  8
0
  6
CONTINUOUS
 62
     7
100
AcDbSpline
210
0.0
220
0.0
230
1.0
 70
     8
 71
     3
 72
     9
 73
     5
 74
     0
 42
0.000000001
 43
0.0000000001
 40
0.0
 40
0.0
 40
0.0
 40
0.0
 40
0.7313666623616154
 40
1.0
 40
1.0
 40
1.0
 40
1.0
 10
-139.367189228569
 20
129.7988655352406
 30
0.0
 10
-138.6713978574282
 20
129.9742883681909
 30
0.0
 10
-137.7200400680342
 20
130.2141445743569
 30
0.0
 10
-136.7429221475143
 20
130.2388178273403
 30
0.0
 10
-136.4804356992587
 20
130.2454458856395
 30
0.0
  0
SPLINE
  5
3D4
330
1F
100
AcDbEntity
  8
0
  6
CONTINUOUS
 62
     7
100
AcDbSpline
210
0.0
220
0.0
230
1.0
 70
     8
 71
     3
 72
    10
 73
     6
 74
     0
 42
0.000000001
 43
0.0000000001
 40
0.0
 40
0.0
 40
0.0
 40
0.0
 40
0.0700628410745409
 40
0.5307701811059811
 40
1.0
 40
1.0
 40
1.0
 40
1.0
 10
-140.8105641305789
 20
130.2454458856395
 30
0.0
 10
-140.7763646244194
 20
130.244913494372
 30
0.0
 10
-140.5172818096257
 20
130.2408802949593
 30
0.0
 10
-140.0287851011599
 20
130.1433512754945
 30
0.0
 10
-139.5890644703365
 20
129.9143935487468
 30
0.0
 10
-139.367189228569
 20
129.7988655352406
 30
0.0
  0
SPLINE
  5
3D5
330
1F
100
AcDbEntity
  8
0
  6
CONTINUOUS
 62
     7
100
AcDbSpline
210
0.0
220
0.0
230
1.0
 70
     8
 71
     3
 72
     9
 73
     5
 74
     0
 42
0.000000001
 43
0.0000000001
 40
0.0
 40
0.0
 40
0.0
 40
0.0
 40
0.7424495638712612
 40
1.0
 40
1.0
 40
1.0
 40
1.0
 10
-136.4804356992587
 20
130.2454458856395
 30
0.0
 10
-135.7546106580975
 20
130.1954154030066
 30
0.0
 10
-134.7770021086672
 20
130.1280297042769
 30
0.0
 10
-133.8360329201302
 20
129.8662794320177
 30
0.0
 10
-133.5936858952388
 20
129.7988655352406
 30
0.0
  0
SPLINE
  5
3D6
330
1F
100
AcDbEntity
  8
0
  6
CONTINUOUS
 62
     7
100
AcDbSpline
210
0.0
220
0.0
230
1.0
 70
     8
 71
     3
 72
     9
 73
     5
 74
     0
 42
0.000000001
 43
0.0000000001
 40
0.0
 40
0.0
 40
0.0
 40
0.0
 40
0.4954575813658327
 40
1.0
 40
1.0
 40
1.0
 40
1.0
 10
-133.5936858952388
 20
129.7988655352406
 30
0.0
 10
-133.3592756960558
 20
129.9236819680805
 30
0.0
 10
-132.8861570921648
 20
130.1756034998812
 30
0.0
 10
-132.3970741059875
 20
130.2220245145986
 30
0.0
 10
-132.1503109932289
 20
130.2454458856395
 30
0.0
  0
SPLINE
  5
3D7
330
1F
100
AcDbEntity
  8
0
  6
CONTINUOUS
 62
     7
100
AcDbSpline
210
0.0
220
0.0
230
1.0
 70
     8
 71
     3
 72
     9
 73
     5
 74
     0
 42
0.000000001
 43
0.0000000001
 40
0.0
 40
0.0
 40
0.0
 40
0.0
 40
0.4954576152953398
 40
0.9999999999999999
 40
0.9999999999999999
 40
0.9999999999999999
 40
0.9999999999999999
 10
-142.2539390325889
 20
129.7988655352406
 30
0.0
 10
-142.0195288415984
 20
129.9236819678828
 30
0.0
 10
-141.5464102866422
 20
130.1756034820328
 30
0.0
 10
-141.0573272514656
 20
130.2220245096601
 30
0.0
 10
-140.8105641305789
 20
130.2454458856395
 30
0.0
  0
SPLINE
  5
3D8
330
1F
100
AcDbEntity
  8
0
  6
CONTINUOUS
 62
     7
100
AcDbSpline
210
0.0
220
0.0
230
1.0
 70
     8
 71
     3
 72
    10
 73
     6
 74
     0
 42
0.000000001
 43
0.0000000001
 40
0.0
 40
0.0
 40
0.0
 40
0.0
 40
0.0700627967872971
 40
0.5307704441844403
 40
1.0
 40
1.0
 40
1.0
 40
1.0
 10
-132.1503109932289
 20
130.2454458856395
 30
0.0
 10
-132.116111500464
 20
130.2449134931999
 30
0.0
 10
-131.8570284949595
 20
130.2408802803574
 30
0.0
 10
-131.3685273235269
 20
130.1433514613668
 30
0.0
 10
-130.9288072111395
 20
129.914393564375
 30
0.0
 10
-130.7069323659286
 20
129.7988655352406
 30
0.0
  0
SPLINE
  5
3D9
330
1F
100
AcDbEntity
  8
0
  6
CONTINUOUS
 62
     7
100
AcDbSpline
210
0.0
220
0.0
230
1.0
 70
     8
 71
     3
 72
    10
 73
     6
 74
     0
 42
0.000000001
 43
0.0000000001
 40
0.0
 40
0.0
 40
0.0
 40
0.0
 40
0.0700628189564393
 40
0.5307702957116847
 40
1.0
 40
1.0
 40
1.0
 40
1.0
 10
-120.8105627149338
 20
-7.15455540185846
 30
0.0
 10
-120.8447622142579
 20
-7.154023010051446
 30
0.0
 10
-121.1038451150007
 20
-7.149989804407738
 30
0.0
 10
-121.5923440975848
 20
-7.052460873638836
 30
0.0
 10
-122.0320644418713
 20
-6.823503071860245
 30
0.0
 10
-122.2539394795889
 20
-6.707975051459442
 30
0.0
  0
SPLINE
  5
3DA
330
1F
100
AcDbEntity
  8
0
  6
CONTINUOUS
 62
     7
100
AcDbSpline
210
0.0
220
0.0
230
1.0
 70
     8
 71
     3
 72
     9
 73
     5
 74
     0
 42
0.000000001
 43
0.0000000001
 40
0.0
 40
0.0
 40
0.0
 40
0.0
 40
0.4954578947930229
 40
1.0
 40
1.0
 40
1.0
 40
1.0
 10
-119.3671878129238
 20
-6.707975051459442
 30
0.0
 10
-119.6015988621609
 20
-6.832791482474249
 30
0.0
 10
-120.0747188824503
 20
-7.084712851225248
 30
0.0
 10
-120.5638004641068
 20
-7.131133985197835
 30
0.0
 10
-120.8105627149338
 20
-7.15455540185846
 30
0.0
  0
SPLINE
  5
3DB
330
1F
100
AcDbEntity
  8
0
  6
CONTINUOUS
 62
     7
100
AcDbSpline
210
0.0
220
0.0
230
1.0
 70
     8
 71
     3
 72
     9
 73
     5
 74
     0
 42
0.000000001
 43
0.0000000001
 40
0.0
 40
0.0
 40
0.0
 40
0.0
 40
0.2686335053826592
 40
1.0
 40
1.0
 40
1.0
 40
1.0
 10
-116.4804361462587
 20
-7.15455540185846
 30
0.0
 10
-116.7429225960309
 20
-7.147927352564352
 30
0.0
 10
-117.7200399120496
 20
-7.123254148510142
 30
0.0
 10
-118.6713970660635
 20
-6.883397885643944
 30
0.0
 10
-119.3671878129238
 20
-6.707975051459442
 30
0.0
  0
SPLINE
  5
3DC
330
1F
100
AcDbEntity
  8
0
  6
CONTINUOUS
 62
     7
100
AcDbSpline
210
0.0
220
0.0
230
1.0
 70
     8
 71
     3
 72
     9
 73
     5
 74
     0
 42
0.000000001
 43
0.0000000001
 40
0.0
 40
0.0
 40
0.0
 40
0.0
 40
0.2575515137944234
 40
1.0
 40
1.0
 40
1.0
 40
1.0
 10
-113.5936844795937
 20
-6.707975051459442
 30
0.0
 10
-113.8360327494655
 20
-6.775388944631942
 30
0.0
 10
-114.7770028346396
 20
-7.03713810766115
 30
0.0
 10
-115.7546118285953
 20
-7.104524486728735
 30
0.0
 10
-116.4804361462587
 20
-7.15455540185846
 30
0.0
  0
SPLINE
  5
3DD
330
1F
100
AcDbEntity
  8
0
  6
CONTINUOUS
 62
     7
100
AcDbSpline
210
0.0
220
0.0
230
1.0
 70
     8
 71
     3
 72
    10
 73
     6
 74
     0
 42
0.000000001
 43
0.0000000001
 40
0.0
 40
0.0
 40
0.0
 40
0.0
 40
0.0700628406033709
 40
0.5307704939541554
 40
1.0
 40
1.0
 40
1.0
 40
1.0
 10
-112.1503095775837
 20
-7.15455540185846
 30
0.0
 10
-112.1845090758841
 20
-7.154023009728348
 30
0.0
 10
-112.4435919855913
 20
-7.149989801376449
 30
0.0
 10
-112.932091134739
 20
-7.052460995137153
 30
0.0
 10
-113.3718101839313
 20
-6.823503081953561
 30
0.0
 10
-113.5936844795937
 20
-6.707975051459442
 30
0.0
  0
SPLINE
  5
3DE
330
1F
100
AcDbEntity
  8
0
  6
CONTINUOUS
 62
     7
100
AcDbSpline
210
0.0
220
0.0
230
1.0
 70
     8
 71
     3
 72
     9
 73
     5
 74
     0
 42
0.000000001
 43
0.0000000001
 40
0.0
 40
0.0
 40
0.0
 40
0.0
 40
0.4954576934972444
 40
1.0
 40
1.0
 40
1.0
 40
1.0
 10
-110.7069337442512
 20
-6.707975051459442
 30
0.0
 10
-110.9413443037053
 20
-6.832791483646361
 30
0.0
 10
-111.4144635276689
 20
-7.084712957114562
 30
0.0
 10
-111.9035465177147
 20
-7.131134014496553
 30
0.0
 10
-112.1503095775837
 20
-7.15455540185846
 30
0.0
  0
SPLINE
  5
3DF
330
1F
100
AcDbEntity
  8
0
  6
CONTINUOUS
 62
     7
100
AcDbSpline
210
0.0
220
0.0
230
1.0
 70
     8
 71
     3
 72
    10
 73
     6
 74
     0
 42
0.000000001
 43
0.0000000001
 40
0.0
 40
0.0
 40
0.0
 40
0.0
 40
0.0700628411255487
 40
0.5307701472391406
 40
1.0
 40
1.0
 40
1.0
 40
1.0
 10
-140.8105641305789
 20
-7.15455540185846
 30
0.0
 10
-140.8447636364623
 20
-7.154023010684256
 30
0.0
 10
-141.1038464324438
 20
-7.149989812239141
 30
0.0
 10
-141.5923432261775
 20
-7.052460769692146
 30
0.0
 10
-142.0320638023641
 20
-6.823503063126651
 30
0.0
 10
-142.2539390325889
 20
-6.707975051459442
 30
0.0
  0
SPLINE
  5
3E0
330
1F
100
AcDbEntity
  8
0
  6
CONTINUOUS
 62
     7
100
AcDbSpline
210
0.0
220
0.0
230
1.0
 70
     8
 71
     3
 72
     9
 73
     5
 74
     0
 42
0.000000001
 43
0.0000000001
 40
0.0
 40
0.0
 40
0.0
 40
0.0
 40
0.4954575813658327
 40
1.0
 40
1.0
 40
1.0
 40
1.0
 10
-139.367189228569
 20
-6.707975051459442
 30
0.0
 10
-139.601599427752
 20
-6.832791484299349
 30
0.0
 10
-140.0747180316431
 20
-7.084713016100039
 30
0.0
 10
-140.5638010178203
 20
-7.131134030817435
 30
0.0
 10
-140.8105641305789
 20
-7.15455540185846
 30
0.0
  0
SPLINE
  5
3E1
330
1F
100
AcDbEntity
  8
0
  6
CONTINUOUS
 62
     7
100
AcDbSpline
210
0.0
220
0.0
230
1.0
 70
     8
 71
     3
 72
     9
 73
     5
 74
     0
 42
0.000000001
 43
0.0000000001
 40
0.0
 40
0.0
 40
0.0
 40
0.0
 40
0.2686333376383846
 40
1.0
 40
1.0
 40
1.0
 40
1.0
 10
-136.4804356992587
 20
-7.15455540185846
 30
0.0
 10
-136.7429221475143
 20
-7.147927343559047
 30
0.0
 10
-137.7200400680342
 20
-7.123254090575642
 30
0.0
 10
-138.6713978574282
 20
-6.88339788440976
 30
0.0
 10
-139.367189228569
 20
-6.707975051459442
 30
0.0
  0
SPLINE
  5
3E2
330
1F
100
AcDbEntity
  8
0
  6
CONTINUOUS
 62
     7
100
AcDbSpline
210
0.0
220
0.0
230
1.0
 70
     8
 71
     3
 72
     9
 73
     5
 74
     0
 42
0.000000001
 43
0.0000000001
 40
0.0
 40
0.0
 40
0.0
 40
0.0
 40
0.2575504361287389
 40
1.0
 40
1.0
 40
1.0
 40
1.0
 10
-133.5936858952388
 20
-6.707975051459442
 30
0.0
 10
-133.8360329201302
 20
-6.775388948236554
 30
0.0
 10
-134.7770021086672
 20
-7.03713922049576
 30
0.0
 10
-135.7546106580975
 20
-7.10452491922544
 30
0.0
 10
-136.4804356992587
 20
-7.15455540185846
 30
0.0
  0
SPLINE
  5
3E3
330
1F
100
AcDbEntity
  8
0
  6
CONTINUOUS
 62
     7
100
AcDbSpline
210
0.0
220
0.0
230
1.0
 70
     8
 71
     3
 72
    10
 73
     6
 74
     0
 42
0.000000001
 43
0.0000000001
 40
0.0
 40
0.0
 40
0.0
 40
0.0
 40
0.0700622054171227
 40
0.5307701796822604
 40
1.0
 40
1.0
 40
1.0
 40
1.0
 10
-132.1503109932289
 20
-7.15455540185846
 30
0.0
 10
-132.1845091756507
 20
-7.15402300412174
 30
0.0
 10
-132.4435843121064
 20
-7.149989719118935
 30
0.0
 10
-132.9320931533924
 20
-7.052461005280549
 30
0.0
 10
-133.3718118037618
 20
-6.823503084335556
 30
0.0
 10
-133.5936858952388
 20
-6.707975051459442
 30
0.0
  0
SPLINE
  5
3E4
330
1F
100
AcDbEntity
  8
0
  6
CONTINUOUS
 62
     7
100
AcDbSpline
210
0.0
220
0.0
230
1.0
 70
     8
 71
     3
 72
     9
 73
     5
 74
     0
 42
0.000000001
 43
0.0000000001
 40
0.0
 40
0.0
 40
0.0
 40
0.0
 40
0.4954579281032904
 40
1.0
 40
1.0
 40
1.0
 40
1.0
 10
-130.7069323659286
 20
-6.707975051459442
 30
0.0
 10
-130.9413440307737
 20
-6.832791482280243
 30
0.0
 10
-131.4144652617579
 20
-7.084712833702838
 30
0.0
 10
-131.9035481164124
 20
-7.13113398034946
 30
0.0
 10
-132.1503109932289
 20
-7.15455540185846
 30
0.0
  0
SPLINE
  5
3E5
330
1F
100
AcDbEntity
  8
0
  6
CONTINUOUS
 62
     7
100
AcDbSpline
210
0.0
220
0.0
230
1.0
 70
     8
 71
     3
 72
     9
 73
     5
 74
     0
 42
0.000000001
 43
0.0000000001
 40
0.0
 40
0.0
 40
0.0
 40
0.0
 40
0.7313664946173408
 40
1.0
 40
1.0
 40
1.0
 40
1.0
 10
-119.3671878129238
 20
129.7988655352406
 30
0.0
 10
-118.6713970660635
 20
129.9742883694249
 30
0.0
 10
-117.7200399120496
 20
130.2141446322913
 30
0.0
 10
-116.7429225960309
 20
130.2388178363453
 30
0.0
 10
-116.4804361462587
 20
130.2454458856395
 30
0.0
  0
SPLINE
  5
3E6
330
1F
100
AcDbEntity
  8
0
  6
CONTINUOUS
 62
     7
100
AcDbSpline
210
0.0
220
0.0
230
1.0
 70
     8
 71
     3
 72
    10
 73
     6
 74
     0
 42
0.000000001
 43
0.0000000001
 40
0.0
 40
0.0
 40
0.0
 40
0.0
 40
0.0700625232438425
 40
0.5307701803929501
 40
1.0
 40
1.0
 40
1.0
 40
1.0
 10
-120.8105627149338
 20
130.2454458856395
 30
0.0
 10
-120.7763638706432
 20
130.2449134911374
 30
0.0
 10
-120.5172848949954
 20
130.2408802489296
 30
0.0
 10
-120.0287821201504
 20
130.1433513822781
 30
0.0
 10
-119.5890624795487
 20
129.9143935584316
 30
0.0
 10
-119.3671878129238
 20
129.7988655352406
 30
0.0
  0
SPLINE
  5
3E7
330
1F
100
AcDbEntity
  8
0
  6
CONTINUOUS
 62
     7
100
AcDbSpline
210
0.0
220
0.0
230
1.0
 70
     8
 71
     3
 72
     9
 73
     5
 74
     0
 42
0.000000001
 43
0.0000000001
 40
0.0
 40
0.0
 40
0.0
 40
0.0
 40
0.7424484862055766
 40
1.0
 40
1.0
 40
1.0
 40
1.0
 10
-116.4804361462587
 20
130.2454458856395
 30
0.0
 10
-115.7546118285953
 20
130.1954149705098
 30
0.0
 10
-114.7770028346396
 20
130.1280285914423
 30
0.0
 10
-113.8360327494655
 20
129.8662794284131
 30
0.0
 10
-113.5936844795937
 20
129.7988655352406
 30
0.0
  0
SPLINE
  5
3E8
330
1F
100
AcDbEntity
  8
0
  6
CONTINUOUS
 62
     7
100
AcDbSpline
210
0.0
220
0.0
230
1.0
 70
     8
 71
     3
 72
     9
 73
     5
 74
     0
 42
0.000000001
 43
0.0000000001
 40
0.0
 40
0.0
 40
0.0
 40
0.0
 40
0.4954575813658327
 40
1.0
 40
1.0
 40
1.0
 40
1.0
 10
-113.5936844795937
 20
129.7988655352406
 30
0.0
 10
-113.3592742804106
 20
129.9236819680805
 30
0.0
 10
-112.8861556765196
 20
130.1756034998812
 30
0.0
 10
-112.3970726903424
 20
130.2220245145986
 30
0.0
 10
-112.1503095775837
 20
130.2454458856395
 30
0.0
  0
SPLINE
  5
3E9
330
1F
100
AcDbEntity
  8
0
  6
CONTINUOUS
 62
     7
100
AcDbSpline
210
0.0
220
0.0
230
1.0
 70
     8
 71
     3
 72
     9
 73
     5
 74
     0
 42
0.000000001
 43
0.0000000001
 40
0.0
 40
0.0
 40
0.0
 40
0.0
 40
0.4954577716992061
 40
1.0
 40
1.0
 40
1.0
 40
1.0
 10
-122.2539394795889
 20
129.7988655352406
 30
0.0
 10
-122.0195285516711
 20
129.923681966972
 30
0.0
 10
-121.5464086587004
 20
130.1756033997585
 30
0.0
 10
-121.0573257137852
 20
130.2220244868952
 30
0.0
 10
-120.8105627149338
 20
130.2454458856395
 30
0.0
  0
SPLINE
  5
3EA
330
1F
100
AcDbEntity
  8
0
  6
CONTINUOUS
 62
     7
100
AcDbSpline
210
0.0
220
0.0
230
1.0
 70
     8
 71
     3
 72
    10
 73
     6
 74
     0
 42
0.000000001
 43
0.0000000001
 40
0.0
 40
0.0
 40
0.0
 40
0.0
 40
0.0700626711251641
 40
0.5307702211186599
 40
1.0
 40
1.0
 40
1.0
 40
1.0
 10
-112.1503095775837
 20
130.2454458856395
 30
0.0
 10
-112.1161104059145
 20
130.2449134925317
 30
0.0
 10
-111.8570294771198
 20
130.2408802690895
 30
0.0
 10
-111.3685285557788
 20
130.1433513588383
 30
0.0
 10
-110.9288085906518
 20
129.914393556117
 30
0.0
 10
-110.7069337442512
 20
129.7988655352406
 30
0.0
  0
SPLINE
  5
3EB
330
1F
100
AcDbEntity
  8
0
  6
CONTINUOUS
 62
     7
100
AcDbSpline
210
0.0
220
0.0
230
1.0
 70
     8
 71
     3
 72
    14
 73
    10
 74
     0
 42
0.000000001
 43
0.0000000001
 40
0.0
 40
0.0
 40
0.0
 40
0.0
 40
0.25
 40
0.25
 40
0.5
 40
0.5
 40
0.75
 40
0.75
 40
1.0
 40
1.0
 40
1.0
 40
1.0
 10
141.9581079870664
 20
-34.20506865106215
 30
0.0
 10
142.3508756819168
 20
-34.27522984216095
 30
0.0
 10
142.7433516401443
 20
-34.34536652014165
 30
0.0
 10
143.468964928179
 20
-34.48566438922114
 30
0.0
 10
143.8017481469911
 20
-34.55581332376084
 30
0.0
 10
144.3571085142609
 20
-34.69611119284035
 30
0.0
 10
144.5794671521291
 20
-34.76626012738005
 30
0.0
 10
144.8800260170711
 20
-34.90655799645955
 30
0.0
 10
144.9581079870664
 20
-34.97669467444025
 30
0.0
 10
144.9581079870664
 20
-35.04685586553904
 30
0.0
  0
SPLINE
  5
3EC
330
1F
100
AcDbEntity
  8
0
  6
CONTINUOUS
 62
     7
100
AcDbSpline
210
0.0
220
0.0
230
1.0
 70
     8
 71
     3
 72
    14
 73
    10
 74
     0
 42
0.000000001
 43
0.0000000001
 40
0.0
 40
0.0
 40
0.0
 40
0.0
 40
0.25
 40
0.25
 40
0.5
 40
0.5
 40
0.75
 40
0.75
 40
1.0
 40
1.0
 40
1.0
 40
1.0
 10
144.9581066340387
 20
-112.5218757847183
 30
0.0
 10
144.9581066340387
 20
-112.5920369758171
 30
0.0
 10
144.8800246640436
 20
-112.6621736537978
 30
0.0
 10
144.5794657991015
 20
-112.8024715228773
 30
0.0
 10
144.3571071612332
 20
-112.872620457417
 30
0.0
 10
143.8017467939634
 20
-113.0129183264965
 30
0.0
 10
143.4689635751513
 20
-113.0830672610363
 30
0.0
 10
142.7433502871165
 20
-113.2233651301158
 30
0.0
 10
142.3508743288891
 20
-113.2935018080964
 30
0.0
 10
141.9581066340387
 20
-113.3636629991952
 30
0.0
  0
SPLINE
  5
3ED
330
1F
100
AcDbEntity
  8
0
  6
CONTINUOUS
 62
     7
100
AcDbSpline
210
0.0
220
0.0
230
1.0
 70
     8
 71
     3
 72
    14
 73
    10
 74
     0
 42
0.000000001
 43
0.0000000001
 40
0.0
 40
0.0
 40
0.0
 40
0.0
 40
0.25
 40
0.25
 40
0.5
 40
0.5
 40
0.75
 40
0.75
 40
1.0
 40
1.0
 40
1.0
 40
1.0
 10
20.55810680373818
 20
-35.04685745471114
 30
0.0
 10
20.55810680373818
 20
-34.97669626361235
 30
0.0
 10
20.63618877373327
 20
-34.90655958563165
 30
0.0
 10
20.93674763867537
 20
-34.76626171655215
 30
0.0
 10
21.15910627654358
 20
-34.69611278201235
 30
0.0
 10
21.71446664381338
 20
-34.55581491293285
 30
0.0
 10
22.04724986262548
 20
-34.48566597839314
 30
0.0
 10
22.77286315066027
 20
-34.34536810931365
 30
0.0
 10
23.16533910888776
 20
-34.27523143133295
 30
0.0
 10
23.55810680373818
 20
-34.20507024023415
 30
0.0
  0
SPLINE
  5
3EE
330
1F
100
AcDbEntity
  8
0
  6
CONTINUOUS
 62
     7
100
AcDbSpline
210
0.0
220
0.0
230
1.0
 70
     8
 71
     3
 72
    14
 73
    10
 74
     0
 42
0.000000001
 43
0.0000000001
 40
0.0
 40
0.0
 40
0.0
 40
0.0
 40
0.25
 40
0.25
 40
0.5
 40
0.5
 40
0.75
 40
0.75
 40
1.0
 40
1.0
 40
1.0
 40
1.0
 10
23.55810680373818
 20
-113.3636634684881
 30
0.0
 10
23.16533910888776
 20
-113.2935022773893
 30
0.0
 10
22.77286315066027
 20
-113.2233655994086
 30
0.0
 10
22.04724986262548
 20
-113.0830677303291
 30
0.0
 10
21.71446664381338
 20
-113.0129187957894
 30
0.0
 10
21.15910627654358
 20
-112.8726209267099
 30
0.0
 10
20.93674763867537
 20
-112.8024719921702
 30
0.0
 10
20.63618877373318
 20
-112.6621741230907
 30
0.0
 10
20.55810680373818
 20
-112.59203744511
 30
0.0
 10
20.55810680373818
 20
-112.5218762540112
 30
0.0
  0
SPLINE
  5
3EF
330
1F
100
AcDbEntity
  8
0
  6
CONTINUOUS
 62
     7
100
AcDbSpline
210
0.0
220
0.0
230
1.0
 70
     8
 71
     3
 72
    10
 73
     6
 74
     0
 42
0.000000001
 43
0.0000000001
 40
0.0
 40
0.0
 40
0.0
 40
0.0
 40
0.0700626711251641
 40
0.5307702211186599
 40
1.0
 40
1.0
 40
1.0
 40
1.0
 10
151.458107277769
 20
-71.2843653210786
 30
0.0
 10
151.457574884661
 20
-71.34360032852442
 30
0.0
 10
151.453541661219
 20
-71.79234396754185
 30
0.0
 10
151.3560127509677
 20
-72.63844944853221
 30
0.0
 10
151.1270549482464
 20
-73.40006676197501
 30
0.0
 10
151.0115269273699
 20
-73.78436526519926
 30
0.0
  0
SPLINE
  5
3F0
330
1F
100
AcDbEntity
  8
0
  6
CONTINUOUS
 62
     7
100
AcDbSpline
210
0.0
220
0.0
230
1.0
 70
     8
 71
     3
 72
     9
 73
     5
 74
     0
 42
0.000000001
 43
0.0000000001
 40
0.0
 40
0.0
 40
0.0
 40
0.0
 40
0.4954575813658327
 40
1.0
 40
1.0
 40
1.0
 40
1.0
 10
151.0115269273699
 20
-68.78436537695795
 30
0.0
 10
151.1363433602098
 20
-69.19037645802756
 30
0.0
 10
151.3882648920105
 20
-70.00984334346776
 30
0.0
 10
151.4346859067279
 20
-70.85695935816133
 30
0.0
 10
151.458107277769
 20
-71.2843653210786
 30
0.0
  0
SPLINE
  5
3F1
330
1F
100
AcDbEntity
  8
0
  6
CONTINUOUS
 62
     7
100
AcDbSpline
210
0.0
220
0.0
230
1.0
 70
     8
 71
     3
 72
    10
 73
     6
 74
     0
 42
0.000000001
 43
0.0000000001
 40
0.0
 40
0.0
 40
0.0
 40
0.0
 40
0.0700628406033709
 40
0.5307704939541554
 40
1.0
 40
1.0
 40
1.0
 40
1.0
 10
151.458107277769
 20
-76.28436520931989
 30
0.0
 10
151.4575748856388
 20
-76.34360020733541
 30
0.0
 10
151.4535416772869
 20
-76.79234292009617
 30
0.0
 10
151.3560128710477
 20
-77.6384492775576
 30
0.0
 10
151.1270549578639
 20
-78.40006673232241
 30
0.0
 10
151.0115269273699
 20
-78.78436515344053
 30
0.0
  0
SPLINE
  5
3F2
330
1F
100
AcDbEntity
  8
0
  6
CONTINUOUS
 62
     7
100
AcDbSpline
210
0.0
220
0.0
230
1.0
 70
     8
 71
     3
 72
     9
 73
     5
 74
     0
 42
0.000000001
 43
0.0000000001
 40
0.0
 40
0.0
 40
0.0
 40
0.0
 40
0.4954576934972422
 40
1.0
 40
1.0
 40
1.0
 40
1.0
 10
151.0115269273699
 20
-73.78436526519926
 30
0.0
 10
151.1363433595567
 20
-74.19037635723214
 30
0.0
 10
151.3882648330249
 20
-75.00984307933918
 30
0.0
 10
151.4346858904071
 20
-75.85695925844036
 30
0.0
 10
151.458107277769
 20
-76.28436520931989
 30
0.0
  0
SPLINE
  5
3F3
330
1F
100
AcDbEntity
  8
0
  6
CONTINUOUS
 62
     7
100
AcDbSpline
210
0.0
220
0.0
230
1.0
 70
    24
 71
     3
 72
     9
 73
     5
 74
     0
 42
0.000000001
 43
0.0000000001
 40
0.0
 40
0.0
 40
0.0
 40
0.0
 40
0.2575515137944234
 40
1.0
 40
1.0
 40
1.0
 40
1.0
 10
151.0115269273699
 20
-78.78436515344053
 30
0.0
 10
151.0789408205424
 20
-78.78436515344053
 30
0.0
 10
151.3406899835716
 20
-78.78436515344053
 30
0.0
 10
151.4080763626393
 20
-78.78436515344053
 30
0.0
 10
151.458107277769
 20
-78.78436515344053
 30
0.0
  0
SPLINE
  5
3F4
330
1F
100
AcDbEntity
  8
0
  6
CONTINUOUS
 62
     7
100
AcDbSpline
210
0.0
220
0.0
230
1.0
 70
    24
 71
     3
 72
     9
 73
     5
 74
     0
 42
0.000000001
 43
0.0000000001
 40
0.0
 40
0.0
 40
0.0
 40
0.0
 40
0.7424484862055766
 40
1.0
 40
1.0
 40
1.0
 40
1.0
 10
151.458107277769
 20
-68.78436537695795
 30
0.0
 10
151.4080763626393
 20
-68.78436537695795
 30
0.0
 10
151.3406899835716
 20
-68.78436537695795
 30
0.0
 10
151.0789408205424
 20
-68.78436537695795
 30
0.0
 10
151.0115269273699
 20
-68.78436537695795
 30
0.0
  0
SPLINE
  5
3F5
330
1F
100
AcDbEntity
  8
0
  6
CONTINUOUS
 62
     7
100
AcDbSpline
210
0.0
220
0.0
230
1.0
 70
     8
 71
     3
 72
    10
 73
     6
 74
     0
 42
0.000000001
 43
0.0000000001
 40
0.0
 40
0.0
 40
0.0
 40
0.0
 40
0.0700628406033709
 40
0.5307704939541554
 40
1.0
 40
1.0
 40
1.0
 40
1.0
 10
14.05810599030846
 20
-71.2843653210786
 30
0.0
 10
14.05863838243869
 20
-71.22513032306306
 30
0.0
 10
14.06267159079047
 20
-70.7763876103023
 30
0.0
 10
14.16020039702977
 20
-69.93028125284087
 30
0.0
 10
14.38915831021336
 20
-69.16866379807607
 30
0.0
 10
14.50468634070756
 20
-68.78436537695795
 30
0.0
  0
SPLINE
  5
3F6
330
1F
100
AcDbEntity
  8
0
  6
CONTINUOUS
 62
     7
100
AcDbSpline
210
0.0
220
0.0
230
1.0
 70
     8
 71
     3
 72
     9
 73
     5
 74
     0
 42
0.000000001
 43
0.0000000001
 40
0.0
 40
0.0
 40
0.0
 40
0.0
 40
0.4954576934972444
 40
1.0
 40
1.0
 40
1.0
 40
1.0
 10
14.50468634070748
 20
-73.78436526519926
 30
0.0
 10
14.37986990852048
 20
-73.37835417316633
 30
0.0
 10
14.12794843505228
 20
-72.55888745105928
 30
0.0
 10
14.08152737767037
 20
-71.71177127195811
 30
0.0
 10
14.05810599030846
 20
-71.2843653210786
 30
0.0
  0
SPLINE
  5
3F7
330
1F
100
AcDbEntity
  8
0
  6
CONTINUOUS
 62
     7
100
AcDbSpline
210
0.0
220
0.0
230
1.0
 70
     8
 71
     3
 72
    10
 73
     6
 74
     0
 42
0.000000001
 43
0.0000000001
 40
0.0
 40
0.0
 40
0.0
 40
0.0
 40
0.0700626711251644
 40
0.5307702211186623
 40
1.0
 40
1.0
 40
1.0
 40
1.0
 10
14.05810599030846
 20
-76.28436520931989
 30
0.0
 10
14.05863838341637
 20
-76.22513020187405
 30
0.0
 10
14.06267160685837
 20
-75.77638656285662
 30
0.0
 10
14.16020051710979
 20
-74.93028108186626
 30
0.0
 10
14.38915831983107
 20
-74.16866376842349
 30
0.0
 10
14.50468634070748
 20
-73.78436526519924
 30
0.0
  0
SPLINE
  5
3F8
330
1F
100
AcDbEntity
  8
0
  6
CONTINUOUS
 62
     7
100
AcDbSpline
210
0.0
220
0.0
230
1.0
 70
     8
 71
     3
 72
     9
 73
     5
 74
     0
 42
0.000000001
 43
0.0000000001
 40
0.0
 40
0.0
 40
0.0
 40
0.0
 40
0.4954575813658327
 40
1.0
 40
1.0
 40
1.0
 40
1.0
 10
14.50468634070756
 20
-78.78436515344053
 30
0.0
 10
14.37986990786769
 20
-78.37835407237094
 30
0.0
 10
14.12794837606697
 20
-77.55888718693072
 30
0.0
 10
14.08152736134949
 20
-76.71177117223714
 30
0.0
 10
14.05810599030846
 20
-76.2843652093199
 30
0.0
  0
SPLINE
  5
3F9
330
1F
100
AcDbEntity
  8
0
  6
CONTINUOUS
 62
     7
100
AcDbSpline
210
0.0
220
0.0
230
1.0
 70
    24
 71
     3
 72
     9
 73
     5
 74
     0
 42
0.000000001
 43
0.0000000001
 40
0.0
 40
0.0
 40
0.0
 40
0.0
 40
0.2575515137944234
 40
1.0
 40
1.0
 40
1.0
 40
1.0
 10
14.50468634070756
 20
-68.78436537695795
 30
0.0
 10
14.43727244753498
 20
-68.78436537695795
 30
0.0
 10
14.17552328450577
 20
-68.78436537695795
 30
0.0
 10
14.10813690543819
 20
-68.78436537695795
 30
0.0
 10
14.05810599030846
 20
-68.78436537695795
 30
0.0
  0
SPLINE
  5
3FA
330
1F
100
AcDbEntity
  8
0
  6
CONTINUOUS
 62
     7
100
AcDbSpline
210
0.0
220
0.0
230
1.0
 70
    24
 71
     3
 72
     9
 73
     5
 74
     0
 42
0.000000001
 43
0.0000000001
 40
0.0
 40
0.0
 40
0.0
 40
0.0
 40
0.7424484862055766
 40
1.0
 40
1.0
 40
1.0
 40
1.0
 10
14.05810599030846
 20
-78.78436515344053
 30
0.0
 10
14.10813690543819
 20
-78.78436515344053
 30
0.0
 10
14.17552328450569
 20
-78.78436515344053
 30
0.0
 10
14.43727244753498
 20
-78.78436515344053
 30
0.0
 10
14.50468634070756
 20
-78.78436515344053
 30
0.0
  0
TEXT
  5
3FC
330
1F
100
AcDbEntity
  8
0
 62
     7
100
AcDbText
 10
145.7174026583111
 20
-137.1469415698595
 30
0.0
 40
6.8791666667
  1
000
 41
0.464210526315789
  7
DCSTYLE0
 72
     5
 11
154.3851526583531
 21
-137.1469415698595
 31
0.0
100
AcDbText
  0
VIEWPORT
  5
AD
330
1B
100
AcDbEntity
 67
     1
  8
0
100
AcDbViewport
 10
0.0
 20
-3.439583333349987
 30
0.0
 40
908.8826177717336
 41
802.2441494190568
 68
     1
 69
     1
1001
ACAD
1000
MVIEW
1002
{
1070
    16
1010
0.0
1020
0.0
1030
0.0
1010
0.0
1020
0.0
1030
1.0
1040
0.0
1040
802.2441494190568
1040
0.0
1040
-3.439583333349987
1040
50.0
1040
0.0
1040
0.0
1070
     0
1070
   100
1070
     0
1070
     3
1070
     0
1070
     0
1070
     0
1070
     0
1040
0.0
1040
0.0
1040
0.0
1040
0.5
1040
0.5
1040
0.0
1040
0.0
1070
     0
1002
{
1002
}
1002
}
  0
ENDSEC
  0
SECTION
  2
OBJECTS
  0
DICTIONARY
  5
C
330
0
100
AcDbDictionary
  3
ACAD_GROUP
350
D
  3
ACAD_LAYOUT
350
1A
  3
ACAD_MATERIAL
350
43
  3
ACAD_MLEADERSTYLE
350
420
  3
ACAD_MLINESTYLE
350
17
  3
ACAD_PLOTSETTINGS
350
19
  3
ACAD_SCALELIST
350
47
  3
ACAD_VISUALSTYLE
350
2A
  3
ACDBHEADERROUNDTRIPXREC
350
3FD
  3
ACDBVARIABLEDICTIONARY
350
41E
  0
DICTIONARY
  5
425
330
8
100
AcDbDictionary
280
     1
  3
ACAD_XREC_ROUNDTRIP
360
426
  0
DICTIONARY
  5
D
102
{ACAD_REACTORS
330
C
102
}
330
C
100
AcDbDictionary
  0
DICTIONARY
  5
1A
102
{ACAD_REACTORS
330
C
102
}
330
C
100
AcDbDictionary
  0
DICTIONARY
  5
43
102
{ACAD_REACTORS
330
C
102
}
330
C
100
AcDbDictionary
  3
BYBLOCK
350
45
  3
BYLAYER
350
44
  3
GLOBAL
350
46
  0
DICTIONARY
  5
420
102
{ACAD_REACTORS
330
C
102
}
330
C
100
AcDbDictionary
  0
DICTIONARY
  5
17
102
{ACAD_REACTORS
330
C
102
}
330
C
100
AcDbDictionary
  3
STANDARD
350
18
  0
DICTIONARY
  5
19
102
{ACAD_REACTORS
330
C
102
}
330
C
100
AcDbDictionary
  0
DICTIONARY
  5
47
102
{ACAD_REACTORS
330
C
102
}
330
C
100
AcDbDictionary
  3
A0
350
48
  3
A1
350
49
  3
A2
350
4A
  3
A3
350
4B
  3
A4
350
4C
  3
A5
350
4D
  3
A6
350
4E
  3
A7
350
4F
  3
A8
350
50
  3
A9
350
51
  3
B0
350
52
  3
B1
350
53
  3
B2
350
54
  3
B3
350
55
  3
B4
350
56
  3
B5
350
57
  3
B6
350
58
  3
B7
350
59
  3
B8
350
5A
  3
B9
350
5B
  3
C0
350
5C
  3
C1
350
5D
  3
C2
350
5E
  3
C3
350
5F
  3
C4
350
60
  3
C5
350
61
  3
C6
350
62
  3
C7
350
63
  3
C8
350
64
  3
C9
350
65
  3
D0
350
66
  3
D1
350
67
  3
D2
350
68
  0
DICTIONARY
  5
2A
102
{ACAD_REACTORS
330
C
102
}
330
C
100
AcDbDictionary
  3
2DWIREFRAME
350
2F
  3
BASIC
350
32
  3
BRIGHTEN
350
36
  3
COLORCHANGE
350
3A
  3
CONCEPTUAL
350
34
  3
DIM
350
35
  3
EDGECOLOROFF
350
3D
  3
FACEPATTERN
350
39
  3
FLAT
350
2B
  3
FLATWITHEDGES
350
2C
  3
GOURAUD
350
2D
  3
GOURAUDWITHEDGES
350
2E
  3
HIDDEN
350
31
  3
JITTEROFF
350
3B
  3
LINEPATTERN
350
38
  3
OVERHANGOFF
350
3C
  3
REALISTIC
350
33
  3
SHADED
350
42
  3
SHADED_WITH_EDGES
350
41
  3
SHADES_OF_GRAY
350
3E
  3
SKETCHY
350
3F
  3
THICKEN
350
37
  3
WIREFRAME
350
30
  3
X-RAY
350
40
  0
DICTIONARY
  5
3FD
102
{ACAD_REACTORS
330
C
102
}
330
C
100
AcDbDictionary
  3
CEPSNID
350
407
  3
CEPSNTYPE
350
406
  3
DIMSTYLEDATA
350
41D
  3
FINGERPRINTGUID
350
408
  3
HYPERLINKBASE
350
400
  3
INSUNITS
350
405
  3
LAYOUTDICT
350
402
  3
LWETCUNION
350
404
  3
PLOTSETDICT
350
403
  3
PSVPSCALE
350
40A
  3
PUCSBASE
350
40D
  3
PUCSORGBACK
350
413
  3
PUCSORGBOTTOM
350
40F
  3
PUCSORGFRONT
350
412
  3
PUCSORGLEFT
350
410
  3
PUCSORGRIGHT
350
411
  3
PUCSORGTOP
350
40E
  3
PUCSORTHOREF
350
40B
  3
PUCSORTHOVIEW
350
40C
  3
STYLESHEET
350
401
  3
TSTACKALIGN
350
3FE
  3
TSTACKSIZE
350
3FF
  3
UCSBASE
350
416
  3
UCSORGBACK
350
41C
  3
UCSORGBOTTOM
350
418
  3
UCSORGFRONT
350
41B
  3
UCSORGLEFT
350
419
  3
UCSORGRIGHT
350
41A
  3
UCSORGTOP
350
417
  3
UCSORTHOREF
350
414
  3
UCSORTHOVIEW
350
415
  3
VERSIONGUID
350
409
  0
DICTIONARY
  5
41E
102
{ACAD_REACTORS
330
C
102
}
330
C
100
AcDbDictionary
  3
CANNOSCALE
350
427
  3
DIMASSOC
350
423
  3
HIDETEXT
350
424
  3
MSLTSCALE
350
428
  0
XRECORD
  5
426
102
{ACAD_REACTORS
330
425
102
}
330
425
100
AcDbXrecord
102
VTR_0.000_0.000_1.000_1.000_GRIDDISPLAY
 70
     3
102
VTR_0.000_0.000_1.000_1.000_GRIDMAJOR
 70
     5
102
VTR_0.000_0.000_1.000_1.000_DEFAULTLIGHTING
280
     1
102
VTR_0.000_0.000_1.000_1.000_DEFAULTLIGHTINGTYPE
 70
     1
102
VTR_0.000_0.000_1.000_1.000_BRIGHTNESS
141
0.0
102
VTR_0.000_0.000_1.000_1.000_CONTRAST
142
0.0
  0
MATERIAL
  5
45
102
{ACAD_REACTORS
330
43
102
}
102
{ACAD_XDICTIONARY
360
42B
102
}
330
43
100
AcDbMaterial
  1
BYBLOCK
  0
MATERIAL
  5
44
102
{ACAD_REACTORS
330
43
102
}
102
{ACAD_XDICTIONARY
360
429
102
}
330
43
100
AcDbMaterial
  1
BYLAYER
  0
MATERIAL
  5
46
102
{ACAD_REACTORS
330
43
102
}
102
{ACAD_XDICTIONARY
360
42D
102
}
330
43
100
AcDbMaterial
  1
GLOBAL
  0
MLINESTYLE
  5
18
102
{ACAD_REACTORS
330
17
102
}
330
17
100
AcDbMlineStyle
  2
Standard
 70
     0
  3

 62
   256
 51
90.0
 52
90.0
 71
     2
 49
0.5
 62
   256
  6
BYLAYER
 49
-0.5
 62
   256
  6
BYLAYER
  0
ACAD_PROXY_OBJECT
  5
48
102
{ACAD_REACTORS
330
47
102
}
330
47
100
AcDbProxyObject
 90
      499
 91
      503
 93
       41
310
903313A31580
  0
ACAD_PROXY_OBJECT
  5
49
102
{ACAD_REACTORS
330
47
102
}
330
47
100
AcDbProxyObject
 90
      499
 91
      503
 93
      105
310
903313A324000000000000004000
  0
ACAD_PROXY_OBJECT
  5
4A
102
{ACAD_REACTORS
330
47
102
}
330
47
100
AcDbProxyObject
 90
      499
 91
      503
 93
      105
310
903313A344000000000000104000
  0
ACAD_PROXY_OBJECT
  5
4B
102
{ACAD_REACTORS
330
47
102
}
330
47
100
AcDbProxyObject
 90
      499
 91
      503
 93
      105
310
903313A354000000000000144000
  0
ACAD_PROXY_OBJECT
  5
4C
102
{ACAD_REACTORS
330
47
102
}
330
47
100
AcDbProxyObject
 90
      499
 91
      503
 93
      105
310
903313A384000000000000204000
  0
ACAD_PROXY_OBJECT
  5
4D
102
{ACAD_REACTORS
330
47
102
}
330
47
100
AcDbProxyObject
 90
      499
 91
      503
 93
      113
310
904313A31304000000000000244000
  0
ACAD_PROXY_OBJECT
  5
4E
102
{ACAD_REACTORS
330
47
102
}
330
47
100
AcDbProxyObject
 90
      499
 91
      503
 93
      113
310
904313A31364000000000000304000
  0
ACAD_PROXY_OBJECT
  5
4F
102
{ACAD_REACTORS
330
47
102
}
330
47
100
AcDbProxyObject
 90
      499
 91
      503
 93
      113
310
904313A32304000000000000344000
  0
ACAD_PROXY_OBJECT
  5
50
102
{ACAD_REACTORS
330
47
102
}
330
47
100
AcDbProxyObject
 90
      499
 91
      503
 93
      113
310
904313A333040000000000003E4000
  0
ACAD_PROXY_OBJECT
  5
51
102
{ACAD_REACTORS
330
47
102
}
330
47
100
AcDbProxyObject
 90
      499
 91
      503
 93
      113
310
904313A34304000000000000444000
  0
ACAD_PROXY_OBJECT
  5
52
102
{ACAD_REACTORS
330
47
102
}
330
47
100
AcDbProxyObject
 90
      499
 91
      503
 93
      113
310
904313A35304000000000000494000
  0
ACAD_PROXY_OBJECT
  5
53
102
{ACAD_REACTORS
330
47
102
}
330
47
100
AcDbProxyObject
 90
      499
 91
      503
 93
      121
310
905313A3130304000000000000594000
  0
ACAD_PROXY_OBJECT
  5
54
102
{ACAD_REACTORS
330
47
102
}
330
47
100
AcDbProxyObject
 90
      499
 91
      503
 93
      105
310
903323A310000000000000010100
  0
ACAD_PROXY_OBJECT
  5
55
102
{ACAD_REACTORS
330
47
102
}
330
47
100
AcDbProxyObject
 90
      499
 91
      503
 93
      105
310
903343A310000000000000410100
  0
ACAD_PROXY_OBJECT
  5
56
102
{ACAD_REACTORS
330
47
102
}
330
47
100
AcDbProxyObject
 90
      499
 91
      503
 93
      105
310
903383A310000000000000810100
  0
ACAD_PROXY_OBJECT
  5
57
102
{ACAD_REACTORS
330
47
102
}
330
47
100
AcDbProxyObject
 90
      499
 91
      503
 93
      113
310
90431303A310000000000000910100
  0
ACAD_PROXY_OBJECT
  5
58
102
{ACAD_REACTORS
330
47
102
}
330
47
100
AcDbProxyObject
 90
      499
 91
      503
 93
      121
310
9053130303A310000000000001650100
  0
ACAD_PROXY_OBJECT
  5
59
102
{ACAD_REACTORS
330
47
102
}
330
47
100
AcDbProxyObject
 90
      499
 91
      503
 93
      257
310
90E312F31323822203D2031272D3022000000000000200FC000000000000284000
  0
ACAD_PROXY_OBJECT
  5
5A
102
{ACAD_REACTORS
330
47
102
}
330
47
100
AcDbProxyObject
 90
      499
 91
      503
 93
      249
310
90D312F363422203D2031272D3022000000000000240FC000000000000284000
  0
ACAD_PROXY_OBJECT
  5
5B
102
{ACAD_REACTORS
330
47
102
}
330
47
100
AcDbProxyObject
 90
      499
 91
      503
 93
      249
310
90D312F333222203D2031272D3022000000000000280FC000000000000284000
  0
ACAD_PROXY_OBJECT
  5
5C
102
{ACAD_REACTORS
330
47
102
}
330
47
100
AcDbProxyObject
 90
      499
 91
      503
 93
      249
310
90D312F313622203D2031272D30220000000000002C0FC000000000000284000
  0
ACAD_PROXY_OBJECT
  5
5D
102
{ACAD_REACTORS
330
47
102
}
330
47
100
AcDbProxyObject
 90
      499
 91
      503
 93
      249
310
90D332F333222203D2031272D30220000000000002E0FC000000000000284000
  0
ACAD_PROXY_OBJECT
  5
5E
102
{ACAD_REACTORS
330
47
102
}
330
47
100
AcDbProxyObject
 90
      499
 91
      503
 93
      241
310
90C312F3822203D2031272D3022000000000000300FC000000000000284000
  0
ACAD_PROXY_OBJECT
  5
5F
102
{ACAD_REACTORS
330
47
102
}
330
47
100
AcDbProxyObject
 90
      499
 91
      503
 93
      249
310
90D332F313622203D2031272D3022000000000000320FC000000000000284000
  0
ACAD_PROXY_OBJECT
  5
60
102
{ACAD_REACTORS
330
47
102
}
330
47
100
AcDbProxyObject
 90
      499
 91
      503
 93
      241
310
90C312F3422203D2031272D3022000000000000340FC000000000000284000
  0
ACAD_PROXY_OBJECT
  5
61
102
{ACAD_REACTORS
330
47
102
}
330
47
100
AcDbProxyObject
 90
      499
 91
      503
 93
      241
310
90C332F3822203D2031272D3022000000000000360FC000000000000284000
  0
ACAD_PROXY_OBJECT
  5
62
102
{ACAD_REACTORS
330
47
102
}
330
47
100
AcDbProxyObject
 90
      499
 91
      503
 93
      241
310
90C312F3222203D2031272D3022000000000000380FC000000000000284000
  0
ACAD_PROXY_OBJECT
  5
63
102
{ACAD_REACTORS
330
47
102
}
330
47
100
AcDbProxyObject
 90
      499
 91
      503
 93
      241
310
90C332F3422203D2031272D30220000000000003A0FC000000000000284000
  0
ACAD_PROXY_OBJECT
  5
64
102
{ACAD_REACTORS
330
47
102
}
330
47
100
AcDbProxyObject
 90
      499
 91
      503
 93
      161
310
90A3122203D2031272D30224000000000000284000
  0
ACAD_PROXY_OBJECT
  5
65
102
{ACAD_REACTORS
330
47
102
}
330
47
100
AcDbProxyObject
 90
      499
 91
      503
 93
      257
310
90E312D312F3222203D2031272D30220000000000003E0FC000000000000284000
  0
ACAD_PROXY_OBJECT
  5
66
102
{ACAD_REACTORS
330
47
102
}
330
47
100
AcDbProxyObject
 90
      499
 91
      503
 93
      225
310
90A3322203D2031272D302200000000000002100000000000000284000
  0
ACAD_PROXY_OBJECT
  5
67
102
{ACAD_REACTORS
330
47
102
}
330
47
100
AcDbProxyObject
 90
      499
 91
      503
 93
      225
310
90A3622203D2031272D302200000000000006100000000000000284000
  0
ACAD_PROXY_OBJECT
  5
68
102
{ACAD_REACTORS
330
47
102
}
330
47
100
AcDbProxyObject
 90
      499
 91
      503
 93
      249
310
90D31272D3022203D2031272D30220000000000000A100000000000000284000
  0
ACAD_PROXY_OBJECT
  5
2F
102
{ACAD_REACTORS
330
2A
102
}
330
2A
100
AcDbProxyObject
 90
      499
 91
      501
 93
      436
310
42CC9915DA5C99599C985B595049028333333333333E33F0000000000000F90107901411070040501600405405064090741402480A0340
1001
ACAD
1000
AcDbSavedByObjectVersion
1070
     0
  0
ACAD_PROXY_OBJECT
  5
32
102
{ACAD_REACTORS
330
2A
102
}
330
2A
100
AcDbProxyObject
 90
      499
 91
      501
 93
      388
310
4150985CDA58D07406404333333333333E33F0000000000000F90107A41107004050150841D405064090741402480A0350
1001
ACAD
1000
AcDbSavedByObjectVersion
1070
     0
  0
ACAD_PROXY_OBJECT
  5
36
102
{ACAD_REACTORS
330
2A
102
}
330
2A
100
AcDbProxyObject
 90
      499
 91
      501
 93
      428
310
42109C9A59DA1D195B90C409028333333333333E33F0000000000000F9010790141107004050150841D405064090741402480A029950
1001
ACAD
1000
AcDbSavedByObjectVersion
1070
     0
  0
ACAD_PROXY_OBJECT
  5
3A
102
{ACAD_REACTORS
330
2A
102
}
330
2A
100
AcDbProxyObject
 90
      499
 91
      501
 93
      452
310
42D0DBDB1BDC90DA185B99D95104090240C333333333333E33F0000000000000F90108901411070040501508421405064090741402480A0350
1001
ACAD
1000
AcDbSavedByObjectVersion
1070
     0
  0
ACAD_PROXY_OBJECT
  5
34
102
{ACAD_REACTORS
330
2A
102
}
330
2A
100
AcDbProxyObject
 90
      499
 91
      501
 93
      500
310
4290DBDB98D95C1D1D585B10940D028333333333333E33F0000000000000F90107902409070040501000000000018199010841D405064090740C02480A0340
1001
ACAD
1000
AcDbSavedByObjectVersion
1070
     0
  0
ACAD_PROXY_OBJECT
  5
35
102
{ACAD_REACTORS
330
2A
102
}
330
2A
100
AcDbProxyObject
 90
      499
 91
      501
 93
      412
310
40D11A5B50B409028333333333333E33F0000000000000F9010790141107004050150841D405064090741402480A02677FFFFFD0
1001
ACAD
1000
AcDbSavedByObjectVersion
1070
     0
  0
ACAD_PROXY_OBJECT
  5
3D
102
{ACAD_REACTORS
330
2A
102
}
330
2A
100
AcDbProxyObject
 90
      499
 91
      501
 93
      452
310
43115919D950DBDB1BDC93D999916409028333333333333E33F0000000000000F9010790141107004050150841D405064090741402480A0350
1001
ACAD
1000
AcDbSavedByObjectVersion
1070
     0
  0
ACAD_PROXY_OBJECT
  5
39
102
{ACAD_REACTORS
330
2A
102
}
330
2A
100
AcDbProxyObject
 90
      499
 91
      501
 93
      444
310
42D19858D95C185D1D195C9B90F409028333333333333E33F0000000000000F9010790141107004050150841D405064090741402480A0350
1001
ACAD
1000
AcDbSavedByObjectVersion
1070
     0
  0
ACAD_PROXY_OBJECT
  5
2B
102
{ACAD_REACTORS
330
2A
102
}
330
2A
100
AcDbProxyObject
 90
      499
 91
      501
 93
      380
310
41119B185D240901404333333333333E33F0000000000000F9010740A907004050150841D405064090741402480A1B50
1001
ACAD
1000
AcDbSavedByObjectVersion
1070
     0
  0
ACAD_PROXY_OBJECT
  5
2C
102
{ACAD_REACTORS
330
2A
102
}
330
2A
100
AcDbProxyObject
 90
      499
 91
      501
 93
      468
310
43519B185D15DA5D1A115919D95CD0140901404333333333333E33F0000000000000F90107409019070040501600405405064090741402480A1B50
1001
ACAD
1000
AcDbSavedByObjectVersion
1070
     0
  0
ACAD_PROXY_OBJECT
  5
2D
102
{ACAD_REACTORS
330
2A
102
}
330
2A
100
AcDbProxyObject
 90
      499
 91
      501
 93
      404
310
41D1DBDD5C985D5910240902404333333333333E33F0000000000000F9010740A9070040501641D405064090741402480A1B50
1001
ACAD
1000
AcDbSavedByObjectVersion
1070
     0
  0
ACAD_PROXY_OBJECT
  5
2E
102
{ACAD_REACTORS
330
2A
102
}
330
2A
100
AcDbProxyObject
 90
      499
 91
      501
 93
      492
310
4411DBDD5C985D5915DA5D1A115919D95CD0340902404333333333333E33F0000000000000F90107409019070040501600405405064090741402480A1B50
1001
ACAD
1000
AcDbSavedByObjectVersion
1070
     0
  0
ACAD_PROXY_OBJECT
  5
31
102
{ACAD_REACTORS
330
2A
102
}
330
2A
100
AcDbProxyObject
 90
      499
 91
      501
 93
      476
310
41921A5919195B90640502408333333333333E33F0000000000000F901079024090700405020000000000001110200405405064090740C02480A0340
1001
ACAD
1000
AcDbSavedByObjectVersion
1070
     0
  0
ACAD_PROXY_OBJECT
  5
3B
102
{ACAD_REACTORS
330
2A
102
}
330
2A
100
AcDbProxyObject
 90
      499
 91
      501
 93
      428
310
42529A5D1D195C93D999914409028333333333333E33F0000000000000F9010790141107004050150A41D405064090741402480A0350
1001
ACAD
1000
AcDbSavedByObjectVersion
1070
     0
  0
ACAD_PROXY_OBJECT
  5
38
102
{ACAD_REACTORS
330
2A
102
}
330
2A
100
AcDbProxyObject
 90
      499
 91
      501
 93
      444
310
42D31A5B995C185D1D195C9B90E409028333333333333E33F0000000000000F9010790141107004050750841D405064090741402483A0350
1001
ACAD
1000
AcDbSavedByObjectVersion
1070
     0
  0
ACAD_PROXY_OBJECT
  5
3C
102
{ACAD_REACTORS
330
2A
102
}
330
2A
100
AcDbProxyObject
 90
      499
 91
      501
 93
      444
310
42D3DD995C9A185B99D3D999915409028333333333333E33F0000000000000F9010790141107004050150941D405064090741402480A0350
1001
ACAD
1000
AcDbSavedByObjectVersion
1070
     0
  0
ACAD_PROXY_OBJECT
  5
33
102
{ACAD_REACTORS
330
2A
102
}
330
2A
100
AcDbProxyObject
 90
      499
 91
      501
 93
      428
310
425499585B1A5CDD1A58D08409038333333333333E33F0000000000000F9010740A907004050150800405405064090740C02480A1B40
1001
ACAD
1000
AcDbSavedByObjectVersion
1070
     0
  0
ACAD_PROXY_OBJECT
  5
42
102
{ACAD_REACTORS
330
2A
102
}
330
2A
100
AcDbProxyObject
 90
      499
 91
      501
 93
      420
310
4194DA1859195911B40902404333333333333E33F0000000000000F9010740A41107004050150800405405064090840C02480A0B40
1001
ACAD
1000
AcDbSavedByObjectVersion
1070
     0
  0
ACAD_PROXY_OBJECT
  5
41
102
{ACAD_REACTORS
330
2A
102
}
330
2A
100
AcDbProxyObject
 90
      499
 91
      501
 93
      516
310
4454DA18591959081DDA5D1A08195919D95CD1A40902404333333333333E33F0000000000000F901074090142907004050250800405405064090740C02480A0B40
1001
ACAD
1000
AcDbSavedByObjectVersion
1070
     0
  0
ACAD_PROXY_OBJECT
  5
3E
102
{ACAD_REACTORS
330
2A
102
}
330
2A
100
AcDbProxyObject
 90
      499
 91
      501
 93
      532
310
4394DA1859195CC81BD98811DC985E5174090240C333333333333E33F0000000000000F901079024090741D01000000000000111010841D405064090740C02480A0340
1001
ACAD
1000
AcDbSavedByObjectVersion
1070
     0
  0
ACAD_PROXY_OBJECT
  5
3F
102
{ACAD_REACTORS
330
2A
102
}
330
2A
100
AcDbProxyObject
 90
      499
 91
      501
 93
      476
310
41D4DAD95D18DA1E51840502408333333333333E33F0000000000000F901079024090741D01000000000000111010B41D405064090741802480A0340
1001
ACAD
1000
AcDbSavedByObjectVersion
1070
     0
  0
ACAD_PROXY_OBJECT
  5
37
102
{ACAD_REACTORS
330
2A
102
}
330
2A
100
AcDbProxyObject
 90
      499
 91
      501
 93
      412
310
41D51A1A58DAD95B90D409028333333333333E33F0000000000000F9010790141107004050150C41D405064090741402480A0350
1001
ACAD
1000
AcDbSavedByObjectVersion
1070
     0
  0
ACAD_PROXY_OBJECT
  5
30
102
{ACAD_REACTORS
330
2A
102
}
330
2A
100
AcDbProxyObject
 90
      499
 91
      501
 93
      420
310
4255DA5C99599C985B595059028333333333333E33F0000000000000F90107901411070040501600405405064090740C02480A0340
1001
ACAD
1000
AcDbSavedByObjectVersion
1070
     0
  0
ACAD_PROXY_OBJECT
  5
40
102
{ACAD_REACTORS
330
2A
102
}
330
2A
100
AcDbProxyObject
 90
      499
 91
      501
 93
      404
310
41560B54985E51940902404000000000000E03F0000000000000F9010740501907004050150841D405064090740C02480A1B40
1001
ACAD
1000
AcDbSavedByObjectVersion
1070
     0
  0
XRECORD
  5
407
102
{ACAD_REACTORS
330
3FD
102
}
330
3FD
100
AcDbXrecord
340
0
  0
XRECORD
  5
406
102
{ACAD_REACTORS
330
3FD
102
}
330
3FD
100
AcDbXrecord
 90
        0
  0
XRECORD
  5
41D
102
{ACAD_REACTORS
330
3FD
102
}
330
3FD
100
AcDbXrecord
1000
DSTYLE
1002
{
1070
   179
 70
     2
1070
   171
 70
     2
1070
   143
 40
25.4
1070
   274
 70
     2
1070
    41
 40
1.000000635782878
1070
    79
 70
     2
1070
   141
 40
0.0
1070
    43
 40
10.0
1070
   278
 70
    46
1070
    44
 40
1.0
1070
    42
 40
1.0
1070
   147
 40
0.09
1070
   146
 40
0.65
1070
   172
 70
     0
1070
   340
340
11
1070
   140
 40
1.166666666666667
1070
   284
 70
     0
1070
    90
 70
     1
1002
}
  0
XRECORD
  5
408
102
{ACAD_REACTORS
330
3FD
102
}
330
3FD
100
AcDbXrecord
  1
{61A5E1CF-17B1-4669-953C-81CAE76716B3}
  0
XRECORD
  5
400
102
{ACAD_REACTORS
330
3FD
102
}
330
3FD
100
AcDbXrecord
  1

  0
XRECORD
  5
405
102
{ACAD_REACTORS
330
3FD
102
}
330
3FD
100
AcDbXrecord
 90
        4
  0
XRECORD
  5
402
102
{ACAD_REACTORS
330
3FD
102
}
330
3FD
100
AcDbXrecord
340
1A
  0
XRECORD
  5
404
102
{ACAD_REACTORS
330
3FD
102
}
330
3FD
100
AcDbXrecord
 90
    10781
  0
XRECORD
  5
403
102
{ACAD_REACTORS
330
3FD
102
}
330
3FD
100
AcDbXrecord
340
19
  0
XRECORD
  5
40A
102
{ACAD_REACTORS
330
3FD
102
}
330
3FD
100
AcDbXrecord
 40
0.0
  0
XRECORD
  5
40D
102
{ACAD_REACTORS
330
3FD
102
}
330
3FD
100
AcDbXrecord
340
0
  0
XRECORD
  5
413
102
{ACAD_REACTORS
330
3FD
102
}
330
3FD
100
AcDbXrecord
 10
0.0
 20
0.0
 30
0.0
  0
XRECORD
  5
40F
102
{ACAD_REACTORS
330
3FD
102
}
330
3FD
100
AcDbXrecord
 10
0.0
 20
0.0
 30
0.0
  0
XRECORD
  5
412
102
{ACAD_REACTORS
330
3FD
102
}
330
3FD
100
AcDbXrecord
 10
0.0
 20
0.0
 30
0.0
  0
XRECORD
  5
410
102
{ACAD_REACTORS
330
3FD
102
}
330
3FD
100
AcDbXrecord
 10
0.0
 20
0.0
 30
0.0
  0
XRECORD
  5
411
102
{ACAD_REACTORS
330
3FD
102
}
330
3FD
100
AcDbXrecord
 10
0.0
 20
0.0
 30
0.0
  0
XRECORD
  5
40E
102
{ACAD_REACTORS
330
3FD
102
}
330
3FD
100
AcDbXrecord
 10
0.0
 20
0.0
 30
0.0
  0
XRECORD
  5
40B
102
{ACAD_REACTORS
330
3FD
102
}
330
3FD
100
AcDbXrecord
340
0
  0
XRECORD
  5
40C
102
{ACAD_REACTORS
330
3FD
102
}
330
3FD
100
AcDbXrecord
 70
     0
  0
XRECORD
  5
401
102
{ACAD_REACTORS
330
3FD
102
}
330
3FD
100
AcDbXrecord
  1

  0
XRECORD
  5
3FE
102
{ACAD_REACTORS
330
3FD
102
}
330
3FD
100
AcDbXrecord
 90
        1
  0
XRECORD
  5
3FF
102
{ACAD_REACTORS
330
3FD
102
}
330
3FD
100
AcDbXrecord
 90
       70
  0
XRECORD
  5
416
102
{ACAD_REACTORS
330
3FD
102
}
330
3FD
100
AcDbXrecord
340
0
  0
XRECORD
  5
41C
102
{ACAD_REACTORS
330
3FD
102
}
330
3FD
100
AcDbXrecord
 10
0.0
 20
0.0
 30
0.0
  0
XRECORD
  5
418
102
{ACAD_REACTORS
330
3FD
102
}
330
3FD
100
AcDbXrecord
 10
0.0
 20
0.0
 30
0.0
  0
XRECORD
  5
41B
102
{ACAD_REACTORS
330
3FD
102
}
330
3FD
100
AcDbXrecord
 10
0.0
 20
0.0
 30
0.0
  0
XRECORD
  5
419
102
{ACAD_REACTORS
330
3FD
102
}
330
3FD
100
AcDbXrecord
 10
0.0
 20
0.0
 30
0.0
  0
XRECORD
  5
41A
102
{ACAD_REACTORS
330
3FD
102
}
330
3FD
100
AcDbXrecord
 10
0.0
 20
0.0
 30
0.0
  0
XRECORD
  5
417
102
{ACAD_REACTORS
330
3FD
102
}
330
3FD
100
AcDbXrecord
 10
0.0
 20
0.0
 30
0.0
  0
XRECORD
  5
414
102
{ACAD_REACTORS
330
3FD
102
}
330
3FD
100
AcDbXrecord
340
0
  0
XRECORD
  5
415
102
{ACAD_REACTORS
330
3FD
102
}
330
3FD
100
AcDbXrecord
 70
     0
  0
XRECORD
  5
409
102
{ACAD_REACTORS
330
3FD
102
}
330
3FD
100
AcDbXrecord
  1
{FAEB1C32-E019-11D5-929B-00C0DF256EC4}
  0
DICTIONARYVAR
  5
427
102
{ACAD_REACTORS
330
41E
102
}
330
41E
100
DictionaryVariables
280
     0
  1
1:1
  0
DICTIONARYVAR
  5
423
102
{ACAD_REACTORS
330
41E
102
}
330
41E
100
DictionaryVariables
280
     0
  1
2
  0
DICTIONARYVAR
  5
424
102
{ACAD_REACTORS
330
41E
102
}
330
41E
100
DictionaryVariables
280
     0
  1
1
  0
DICTIONARYVAR
  5
428
102
{ACAD_REACTORS
330
41E
102
}
330
41E
100
DictionaryVariables
280
     0
  1
1
  0
DICTIONARY
  5
42B
330
45
100
AcDbDictionary
280
     1
  3
ACAD_XREC_ROUNDTRIP
360
42C
  0
DICTIONARY
  5
429
330
44
100
AcDbDictionary
280
     1
  3
ACAD_XREC_ROUNDTRIP
360
42A
  0
DICTIONARY
  5
42D
330
46
100
AcDbDictionary
280
     1
  3
ACAD_XREC_ROUNDTRIP
360
42E
  0
XRECORD
  5
42C
102
{ACAD_REACTORS
330
42B
102
}
330
42B
100
AcDbXrecord
102
MATERIAL
148
0.0
149
0.0
149
0.0
 93
        0
 94
      127
282
     0
 72
     1
 77
     1
171
     1
175
     1
179
     1
273
     0
  0
XRECORD
  5
42A
102
{ACAD_REACTORS
330
429
102
}
330
429
100
AcDbXrecord
102
MATERIAL
148
0.0
149
0.0
149
0.0
 93
        0
 94
      127
282
     0
 72
     1
 77
     1
171
     1
175
     1
179
     1
273
     0
  0
XRECORD
  5
42E
102
{ACAD_REACTORS
330
42D
102
}
330
42D
100
AcDbXrecord
102
MATERIAL
148
0.0
149
0.0
149
0.0
 93
        0
 94
      127
282
     0
 72
     1
 77
     1
171
     1
175
     1
179
     1
273
     0
  0
ENDSEC
  0
EOF
