  0
SECTION
  2
HEADER
  9
$ACADVER
  1
AC1014
  9
$ACADMAINTVER
 70
     9
  9
$DWGCODEPAGE
  3
ANSI_932
  9
$INSBASE
 10
0.0
 20
0.0
 30
0.0
  9
$EXTMIN
 10
-1531.001321388593
 20
-1158.867209498869
 30
0.0
  9
$EXTMAX
 10
1513.77715145971
 20
1117.379950961682
 30
0.0
  9
$LIMMIN
 10
-594.5
 20
-420.5
  9
$LIMMAX
 10
594.5
 20
420.5
  9
$ORTHOMODE
 70
     0
  9
$REGENMODE
 70
     1
  9
$FILLMODE
 70
     1
  9
$QTEXTMODE
 70
     0
  9
$MIRRTEXT
 70
     1
  9
$DRAGMODE
 70
     2
  9
$LTSCALE
 40
0.25
  9
$OSMODE
 70
    37
  9
$ATTMODE
 70
     1
  9
$TEXTSIZE
 40
0.2
  9
$TRACEWID
 40
0.05
  9
$TEXTSTYLE
  7
STANDARD
  9
$CLAYER
  8
0
  9
$CELTYPE
  6
BYLAYER
  9
$CECOLOR
 62
   256
  9
$CELTSCALE
 40
1.0
  9
$DELOBJ
 70
     1
  9
$DISPSILH
 70
     0
  9
$DIMSCALE
 40
1.0
  9
$DIMASZ
 40
2.000107526779175
  9
$DIMEXO
 40
1.0
  9
$DIMDLI
 40
10.0
  9
$DIMRND
 40
0.0
  9
$DIMDLE
 40
0.0
  9
$DIMEXE
 40
1.0
  9
$DIMTP
 40
0.0
  9
$DIMTM
 40
0.0
  9
$DIMTXT
 40
3.5
  9
$DIMCEN
 40
0.0
  9
$DIMTSZ
 40
0.0
  9
$DIMTOL
 70
     0
  9
$DIMLIM
 70
     0
  9
$DIMTIH
 70
     0
  9
$DIMTOH
 70
     0
  9
$DIMSE1
 70
     0
  9
$DIMSE2
 70
     0
  9
$DIMTAD
 70
     1
  9
$DIMZIN
 70
     8
  9
$DIMBLK
  1

  9
$DIMASO
 70
     1
  9
$DIMSHO
 70
     1
  9
$DIMPOST
  1

  9
$DIMAPOST
  1

  9
$DIMALT
 70
     0
  9
$DIMALTD
 70
     2
  9
$DIMALTF
 40
0.0393700787401575
  9
$DIMLFAC
 40
1.0
  9
$DIMTOFL
 70
     0
  9
$DIMTVP
 40
0.0
  9
$DIMTIX
 70
     0
  9
$DIMSOXD
 70
     0
  9
$DIMSAH
 70
     0
  9
$DIMBLK1
  1

  9
$DIMBLK2
  1

  9
$DIMSTYLE
  2
STANDARD
  9
$DIMCLRD
 70
     0
  9
$DIMCLRE
 70
     0
  9
$DIMCLRT
 70
     0
  9
$DIMTFAC
 40
0.65
  9
$DIMGAP
 40
0.09
  9
$DIMJUST
 70
     0
  9
$DIMSD1
 70
     0
  9
$DIMSD2
 70
     0
  9
$DIMTOLJ
 70
     0
  9
$DIMTZIN
 70
     0
  9
$DIMALTZ
 70
     0
  9
$DIMALTTZ
 70
     0
  9
$DIMFIT
 70
     3
  9
$DIMUPT
 70
     0
  9
$DIMUNIT
 70
     2
  9
$DIMDEC
 70
     3
  9
$DIMTDEC
 70
     3
  9
$DIMALTU
 70
     2
  9
$DIMALTTD
 70
     3
  9
$DIMTXSTY
  7
STANDARD
  9
$DIMAUNIT
 70
     0
  9
$LUNITS
 70
     2
  9
$LUPREC
 70
     4
  9
$SKETCHINC
 40
0.1
  9
$FILLETRAD
 40
0.5
  9
$AUNITS
 70
     0
  9
$AUPREC
 70
     0
  9
$MENU
  1
.
  9
$ELEVATION
 40
0.0
  9
$PELEVATION
 40
0.0
  9
$THICKNESS
 40
0.0
  9
$LIMCHECK
 70
     0
  9
$CHAMFERA
 40
0.0
  9
$CHAMFERB
 40
0.0
  9
$CHAMFERC
 40
0.0
  9
$CHAMFERD
 40
0.0
  9
$SKPOLY
 70
     0
  9
$TDCREATE
 40
2458437.384512141
  9
$TDUPDATE
 40
2458437.384512326
  9
$TDINDWG
 40
0.0000000116
  9
$TDUSRTIMER
 40
0.0000000116
  9
$USRTIMER
 70
     1
  9
$ANGBASE
 50
0.0
  9
$ANGDIR
 70
     0
  9
$PDMODE
 70
     0
  9
$PDSIZE
 40
1.0
  9
$PLINEWID
 40
0.0
  9
$COORDS
 70
     1
  9
$SPLFRAME
 70
     0
  9
$SPLINETYPE
 70
     6
  9
$SPLINESEGS
 70
     8
  9
$ATTDIA
 70
     0
  9
$ATTREQ
 70
     1
  9
$HANDLING
 70
     1
  9
$HANDSEED
  5
2A2
  9
$SURFTAB1
 70
     6
  9
$SURFTAB2
 70
     6
  9
$SURFTYPE
 70
     6
  9
$SURFU
 70
     6
  9
$SURFV
 70
     6
  9
$UCSNAME
  2

  9
$UCSORG
 10
0.0
 20
0.0
 30
0.0
  9
$UCSXDIR
 10
1.0
 20
0.0
 30
0.0
  9
$UCSYDIR
 10
0.0
 20
1.0
 30
0.0
  9
$PUCSNAME
  2

  9
$PUCSORG
 10
0.0
 20
0.0
 30
0.0
  9
$PUCSXDIR
 10
1.0
 20
0.0
 30
0.0
  9
$PUCSYDIR
 10
0.0
 20
1.0
 30
0.0
  9
$USERI1
 70
     0
  9
$USERI2
 70
     0
  9
$USERI3
 70
     0
  9
$USERI4
 70
     0
  9
$USERI5
 70
     0
  9
$USERR1
 40
0.0
  9
$USERR2
 40
0.0
  9
$USERR3
 40
0.0
  9
$USERR4
 40
0.0
  9
$USERR5
 40
0.0
  9
$WORLDVIEW
 70
     1
  9
$SHADEDGE
 70
     3
  9
$SHADEDIF
 70
    70
  9
$TILEMODE
 70
     1
  9
$MAXACTVP
 70
    64
  9
$PINSBASE
 10
0.0
 20
0.0
 30
0.0
  9
$PLIMCHECK
 70
     0
  9
$PEXTMIN
 10
1.000000000000000E+20
 20
1.000000000000000E+20
 30
1.000000000000000E+20
  9
$PEXTMAX
 10
-1.000000000000000E+20
 20
-1.000000000000000E+20
 30
-1.000000000000000E+20
  9
$PLIMMIN
 10
0.0
 20
0.0
  9
$PLIMMAX
 10
12.0
 20
9.0
  9
$UNITMODE
 70
     0
  9
$VISRETAIN
 70
     0
  9
$PLINEGEN
 70
     1
  9
$PSLTSCALE
 70
     0
  9
$TREEDEPTH
 70
  3020
  9
$PICKSTYLE
 70
     1
  9
$CMLSTYLE
  2
STANDARD
  9
$CMLJUST
 70
     0
  9
$CMLSCALE
 40
1.0
  9
$PROXYGRAPHICS
 70
     0
  9
$MEASUREMENT
 70
     1
  0
ENDSEC
  0
SECTION
  2
CLASSES
  0
CLASS
  1
ACDBDICTIONARYWDFLT
  2
AcDbDictionaryWithDefault
  3
ObjectDBX Classes
 90
        0
280
     0
281
     0
  0
CLASS
  1
VISUALSTYLE
  2
AcDbVisualStyle
  3
ObjectDBX Classes
 90
     4095
280
     0
281
     0
  0
CLASS
  1
MATERIAL
  2
AcDbMaterial
  3
ObjectDBX Classes
 90
     1153
280
     0
281
     0
  0
CLASS
  1
SCALE
  2
AcDbScale
  3
ObjectDBX Classes
 90
     1153
280
     0
281
     0
  0
CLASS
  1
TABLESTYLE
  2
AcDbTableStyle
  3
ObjectDBX Classes
 90
     4095
280
     0
281
     0
  0
CLASS
  1
MLEADERSTYLE
  2
AcDbMLeaderStyle
  3
ACDB_MLEADERSTYLE_CLASS
 90
     4095
280
     0
281
     0
  0
CLASS
  1
SUN
  2
AcDbSun
  3
SCENEOE
 90
     1153
280
     0
281
     0
  0
CLASS
  1
DICTIONARYVAR
  2
AcDbDictionaryVar
  3
ObjectDBX Classes
 90
        0
280
     0
281
     0
  0
CLASS
  1
XRECORD
  2
AcDbXrecord
  3
ObjectDBX Classes
 90
        0
280
     0
281
     0
  0
CLASS
  1
LWPOLYLINE
  2
AcDbPolyline
  3
ObjectDBX Classes
 90
        0
280
     0
281
     1
  0
CLASS
  1
HATCH
  2
AcDbHatch
  3
ObjectDBX Classes
 90
        0
280
     0
281
     1
  0
CLASS
  1
ACDBPLACEHOLDER
  2
AcDbPlaceHolder
  3
ObjectDBX Classes
 90
        0
280
     0
281
     0
  0
CLASS
  1
LAYOUT
  2
AcDbLayout
  3
ObjectDBX Classes
 90
        0
280
     0
281
     0
  0
ENDSEC
  0
SECTION
  2
TABLES
  0
TABLE
  2
VPORT
  5
8
102
{ACAD_XDICTIONARY
360
297
102
}
330
0
100
AcDbSymbolTable
 70
     1
  0
VPORT
  5
29
330
8
100
AcDbSymbolTableRecord
100
AcDbViewportTableRecord
  2
*ACTIVE
 70
     0
 10
0.0
 20
0.0
 11
1.0
 21
1.0
 12
1.482915035559014
 22
-22.11418228847617
 13
0.0
 23
0.0
 14
0.5
 24
0.5
 15
0.5
 25
0.5
 16
0.0
 26
0.0
 36
1.0
 17
0.0
 27
0.0
 37
0.0
 40
776.7199627171474
 41
1.359329657338693
 42
50.0
 43
0.0
 44
0.0
 50
0.0
 51
0.0
 71
     0
 72
  1000
 73
     1
 74
     1
 75
     0
 76
     0
 77
     0
 78
     0
  0
ENDTAB
  0
TABLE
  2
LTYPE
  5
5
330
0
100
AcDbSymbolTable
 70
    67
  0
LTYPE
  5
14
330
5
100
AcDbSymbolTableRecord
100
AcDbLinetypeTableRecord
  2
BYBLOCK
 70
     0
  3

 72
    65
 73
     0
 40
0.0
  0
LTYPE
  5
15
330
5
100
AcDbSymbolTableRecord
100
AcDbLinetypeTableRecord
  2
BYLAYER
 70
     0
  3

 72
    65
 73
     0
 40
0.0
  0
LTYPE
  5
16
330
5
100
AcDbSymbolTableRecord
100
AcDbLinetypeTableRecord
  2
CONTINUOUS
 70
     0
  3
Solid line
 72
    65
 73
     0
 40
0.0
  0
LTYPE
  5
6F
330
5
100
AcDbSymbolTableRecord
100
AcDbLinetypeTableRecord
  2
HIDDENX2
 70
     0
  3
Hidden (2x) ____ ____ ____ ____ ____ ____ ____ 
 72
    65
 73
     2
 40
19.05
 49
12.7
 74
     0
 49
-6.35
 74
     0
  0
LTYPE
  5
70
330
5
100
AcDbSymbolTableRecord
100
AcDbLinetypeTableRecord
  2
HIDDEN
 70
     0
  3
Hidden __ __ __ __ __ __ __ __ __ __ __ __ __ __
 72
    65
 73
     2
 40
9.524999999999999
 49
6.35
 74
     0
 49
-3.175
 74
     0
  0
LTYPE
  5
71
330
5
100
AcDbSymbolTableRecord
100
AcDbLinetypeTableRecord
  2
HIDDEN2
 70
     0
  3
Hidden (.5x) _ _ _ _ _ _ _ _ _ _ _ _ _ _ _ _ _ 
 72
    65
 73
     2
 40
4.762499999999999
 49
3.175
 74
     0
 49
-1.5875
 74
     0
  0
LTYPE
  5
72
330
5
100
AcDbSymbolTableRecord
100
AcDbLinetypeTableRecord
  2
DASHED
 70
     0
  3
Dashed __ __ __ __ __ __ __ __ __ __ __ __ __ _
 72
    65
 73
     2
 40
19.05
 49
12.7
 74
     0
 49
-6.35
 74
     0
  0
LTYPE
  5
73
330
5
100
AcDbSymbolTableRecord
100
AcDbLinetypeTableRecord
  2
DASHED2
 70
     0
  3
Dashed (.5x) _ _ _ _ _ _ _ _ _ _ _ _ _ _ _ _ _ 
 72
    65
 73
     2
 40
9.524999999999999
 49
6.35
 74
     0
 49
-3.175
 74
     0
  0
LTYPE
  5
74
330
5
100
AcDbSymbolTableRecord
100
AcDbLinetypeTableRecord
  2
DASHEDX2
 70
     0
  3
Dashed (2x) ____  ____  ____  ____  ____  ___
 72
    65
 73
     2
 40
38.09999999999999
 49
25.4
 74
     0
 49
-12.7
 74
     0
  0
LTYPE
  5
75
330
5
100
AcDbSymbolTableRecord
100
AcDbLinetypeTableRecord
  2
DOTX2
 70
     0
  3
Dot (2x) .  .  .  .  .  .  .  .  .  .  .  .  .  .
 72
    65
 73
     2
 40
12.7
 49
0.0
 74
     0
 49
-12.7
 74
     0
  0
LTYPE
  5
76
330
5
100
AcDbSymbolTableRecord
100
AcDbLinetypeTableRecord
  2
DOT
 70
     0
  3
Dot . . . . . . . . . . . . . . . . . . . . . . . .
 72
    65
 73
     2
 40
6.35
 49
0.0
 74
     0
 49
-6.35
 74
     0
  0
LTYPE
  5
77
330
5
100
AcDbSymbolTableRecord
100
AcDbLinetypeTableRecord
  2
DOT2
 70
     0
  3
Dot (.5x) ........................................
 72
    65
 73
     2
 40
3.175
 49
0.0
 74
     0
 49
-3.175
 74
     0
  0
LTYPE
  5
78
330
5
100
AcDbSymbolTableRecord
100
AcDbLinetypeTableRecord
  2
CENTERX2
 70
     0
  3
Center (2x) ________  __  ________  __  _____
 72
    65
 73
     4
 40
101.6
 49
63.5
 74
     0
 49
-12.7
 74
     0
 49
12.7
 74
     0
 49
-12.7
 74
     0
  0
LTYPE
  5
79
330
5
100
AcDbSymbolTableRecord
100
AcDbLinetypeTableRecord
  2
CENTER
 70
     0
  3
Center ____ _ ____ _ ____ _ ____ _ ____ _ ____
 72
    65
 73
     4
 40
50.8
 49
31.75
 74
     0
 49
-6.35
 74
     0
 49
6.35
 74
     0
 49
-6.35
 74
     0
  0
LTYPE
  5
7A
330
5
100
AcDbSymbolTableRecord
100
AcDbLinetypeTableRecord
  2
CENTER2
 70
     0
  3
Center (.5x) ___ _ ___ _ ___ _ ___ _ ___ _ ___
 72
    65
 73
     4
 40
28.575
 49
19.05
 74
     0
 49
-3.175
 74
     0
 49
3.175
 74
     0
 49
-3.175
 74
     0
  0
LTYPE
  5
7B
330
5
100
AcDbSymbolTableRecord
100
AcDbLinetypeTableRecord
  2
DASHDOTX2
 70
     0
  3
Dash dot (2x) ____  .  ____  .  ____  .  ___
 72
    65
 73
     4
 40
50.8
 49
25.4
 74
     0
 49
-12.7
 74
     0
 49
0.0
 74
     0
 49
-12.7
 74
     0
  0
LTYPE
  5
7C
330
5
100
AcDbSymbolTableRecord
100
AcDbLinetypeTableRecord
  2
DASHDOT
 70
     0
  3
Dash dot __ . __ . __ . __ . __ . __ . __ . __
 72
    65
 73
     4
 40
25.4
 49
12.7
 74
     0
 49
-6.35
 74
     0
 49
0.0
 74
     0
 49
-6.35
 74
     0
  0
LTYPE
  5
7D
330
5
100
AcDbSymbolTableRecord
100
AcDbLinetypeTableRecord
  2
DASHDOT2
 70
     0
  3
Dash dot (.5x) _._._._._._._._._._._._._._._.
 72
    65
 73
     4
 40
12.7
 49
6.35
 74
     0
 49
-3.175
 74
     0
 49
0.0
 74
     0
 49
-3.175
 74
     0
  0
LTYPE
  5
7E
330
5
100
AcDbSymbolTableRecord
100
AcDbLinetypeTableRecord
  2
DIVIDEX2
 70
     0
  3
Divide (2x) ________  .  .  ________  .  .  _
 72
    65
 73
     6
 40
63.5
 49
25.4
 74
     0
 49
-12.7
 74
     0
 49
0.0
 74
     0
 49
-12.7
 74
     0
 49
0.0
 74
     0
 49
-12.7
 74
     0
  0
LTYPE
  5
7F
330
5
100
AcDbSymbolTableRecord
100
AcDbLinetypeTableRecord
  2
DIVIDE
 70
     0
  3
Divide ____ . . ____ . . ____ . . ____ . . ____
 72
    65
 73
     6
 40
31.75
 49
12.7
 74
     0
 49
-6.35
 74
     0
 49
0.0
 74
     0
 49
-6.35
 74
     0
 49
0.0
 74
     0
 49
-6.35
 74
     0
  0
LTYPE
  5
80
330
5
100
AcDbSymbolTableRecord
100
AcDbLinetypeTableRecord
  2
DIVIDE2
 70
     0
  3
Divide (.5x) __..__..__..__..__..__..__..__.._
 72
    65
 73
     6
 40
15.875
 49
6.35
 74
     0
 49
-3.175
 74
     0
 49
0.0
 74
     0
 49
-3.175
 74
     0
 49
0.0
 74
     0
 49
-3.175
 74
     0
  0
LTYPE
  5
81
330
5
100
AcDbSymbolTableRecord
100
AcDbLinetypeTableRecord
  2
BORDERX2
 70
     0
  3
Border (2x) ____  ____  .  ____  ____  .  ___
 72
    65
 73
     6
 40
88.89999999999999
 49
25.4
 74
     0
 49
-12.7
 74
     0
 49
25.4
 74
     0
 49
-12.7
 74
     0
 49
0.0
 74
     0
 49
-12.7
 74
     0
  0
LTYPE
  5
82
330
5
100
AcDbSymbolTableRecord
100
AcDbLinetypeTableRecord
  2
BORDER
 70
     0
  3
Border __ __ . __ __ . __ __ . __ __ . __ __ .
 72
    65
 73
     6
 40
44.45
 49
12.7
 74
     0
 49
-6.35
 74
     0
 49
12.7
 74
     0
 49
-6.35
 74
     0
 49
0.0
 74
     0
 49
-6.35
 74
     0
  0
LTYPE
  5
83
330
5
100
AcDbSymbolTableRecord
100
AcDbLinetypeTableRecord
  2
BORDER2
 70
     0
  3
Border (.5x) __.__.__.__.__.__.__.__.__.__.__.
 72
    65
 73
     6
 40
22.225
 49
6.35
 74
     0
 49
-3.175
 74
     0
 49
6.35
 74
     0
 49
-3.175
 74
     0
 49
0.0
 74
     0
 49
-3.175
 74
     0
  0
LTYPE
  5
84
330
5
100
AcDbSymbolTableRecord
100
AcDbLinetypeTableRecord
  2
PHANTOMX2
 70
     0
  3
Phantom (2x) ____________    ____    ____   _
 72
    65
 73
     6
 40
127.0
 49
63.5
 74
     0
 49
-12.7
 74
     0
 49
12.7
 74
     0
 49
-12.7
 74
     0
 49
12.7
 74
     0
 49
-12.7
 74
     0
  0
LTYPE
  5
85
330
5
100
AcDbSymbolTableRecord
100
AcDbLinetypeTableRecord
  2
PHANTOM
 70
     0
  3
Phantom ______  __  __  ______  __  __  ______ 
 72
    65
 73
     6
 40
63.5
 49
31.75
 74
     0
 49
-6.35
 74
     0
 49
6.35
 74
     0
 49
-6.35
 74
     0
 49
6.35
 74
     0
 49
-6.35
 74
     0
  0
LTYPE
  5
86
330
5
100
AcDbSymbolTableRecord
100
AcDbLinetypeTableRecord
  2
PHANTOM2
 70
     0
  3
Phantom (.5x) ___ _ _ ___ _ _ ___ _ _ ___ _ _
 72
    65
 73
     6
 40
31.75
 49
15.875
 74
     0
 49
-3.175
 74
     0
 49
3.175
 74
     0
 49
-3.175
 74
     0
 49
3.175
 74
     0
 49
-3.175
 74
     0
  0
LTYPE
  5
87
330
5
100
AcDbSymbolTableRecord
100
AcDbLinetypeTableRecord
  2
ACAD_ISO06W100
 70
     0
  3
ISO long-dash triple-dot ____ ... ____ ... ____
 72
    65
 73
     8
 40
36.0
 49
24.0
 74
     0
 49
-3.0
 74
     0
 49
0.0
 74
     0
 49
-3.0
 74
     0
 49
0.0
 74
     0
 49
-3.0
 74
     0
 49
0.0
 74
     0
 49
-3.0
 74
     0
  0
LTYPE
  5
88
330
5
100
AcDbSymbolTableRecord
100
AcDbLinetypeTableRecord
  2
ACAD_ISO13W100
 70
     0
  3
ISO double-dash double-dot __ __ . . __ __ . . _
 72
    65
 73
     8
 40
36.0
 49
12.0
 74
     0
 49
-3.0
 74
     0
 49
12.0
 74
     0
 49
-3.0
 74
     0
 49
0.0
 74
     0
 49
-3.0
 74
     0
 49
0.0
 74
     0
 49
-3.0
 74
     0
  0
LTYPE
  5
89
330
5
100
AcDbSymbolTableRecord
100
AcDbLinetypeTableRecord
  2
ACAD_ISO14W100
 70
     0
  3
ISO dash triple-dot __ . . . __ . . . __ . . . _
 72
    65
 73
     8
 40
24.0
 49
12.0
 74
     0
 49
-3.0
 74
     0
 49
0.0
 74
     0
 49
-3.0
 74
     0
 49
0.0
 74
     0
 49
-3.0
 74
     0
 49
0.0
 74
     0
 49
-3.0
 74
     0
  0
LTYPE
  5
8A
330
5
100
AcDbSymbolTableRecord
100
AcDbLinetypeTableRecord
  2
ACAD_ISO02W100
 70
     0
  3
ISO dash __ __ __ __ __ __ __ __ __ __ __ __ __
 72
    65
 73
     2
 40
15.0
 49
12.0
 74
     0
 49
-3.0
 74
     0
  0
LTYPE
  5
8B
330
5
100
AcDbSymbolTableRecord
100
AcDbLinetypeTableRecord
  2
ACAD_ISO03W100
 70
     0
  3
ISO dash space __    __    __    __    __    __
 72
    65
 73
     2
 40
30.0
 49
12.0
 74
     0
 49
-18.0
 74
     0
  0
LTYPE
  5
8C
330
5
100
AcDbSymbolTableRecord
100
AcDbLinetypeTableRecord
  2
ACAD_ISO04W100
 70
     0
  3
ISO long-dash dot ____ . ____ . ____ . ____ . _
 72
    65
 73
     4
 40
30.0
 49
24.0
 74
     0
 49
-3.0
 74
     0
 49
0.0
 74
     0
 49
-3.0
 74
     0
  0
LTYPE
  5
8D
330
5
100
AcDbSymbolTableRecord
100
AcDbLinetypeTableRecord
  2
ACAD_ISO05W100
 70
     0
  3
ISO long-dash double-dot ____ .. ____ .. ____ . 
 72
    65
 73
     6
 40
33.0
 49
24.0
 74
     0
 49
-3.0
 74
     0
 49
0.0
 74
     0
 49
-3.0
 74
     0
 49
0.0
 74
     0
 49
-3.0
 74
     0
  0
LTYPE
  5
8E
330
5
100
AcDbSymbolTableRecord
100
AcDbLinetypeTableRecord
  2
ACAD_ISO07W100
 70
     0
  3
ISO dot . . . . . . . . . . . . . . . . . . . . 
 72
    65
 73
     2
 40
3.0
 49
0.0
 74
     0
 49
-3.0
 74
     0
  0
LTYPE
  5
8F
330
5
100
AcDbSymbolTableRecord
100
AcDbLinetypeTableRecord
  2
ACAD_ISO08W100
 70
     0
  3
ISO long-dash short-dash ____ __ ____ __ ____ _
 72
    65
 73
     4
 40
36.0
 49
24.0
 74
     0
 49
-3.0
 74
     0
 49
6.0
 74
     0
 49
-3.0
 74
     0
  0
LTYPE
  5
90
330
5
100
AcDbSymbolTableRecord
100
AcDbLinetypeTableRecord
  2
ACAD_ISO09W100
 70
     0
  3
ISO long-dash double-short-dash ____ __ __ ____
 72
    65
 73
     6
 40
45.0
 49
24.0
 74
     0
 49
-3.0
 74
     0
 49
6.0
 74
     0
 49
-3.0
 74
     0
 49
6.0
 74
     0
 49
-3.0
 74
     0
  0
LTYPE
  5
91
330
5
100
AcDbSymbolTableRecord
100
AcDbLinetypeTableRecord
  2
ACAD_ISO10W100
 70
     0
  3
ISO dash dot __ . __ . __ . __ . __ . __ . __ . 
 72
    65
 73
     4
 40
18.0
 49
12.0
 74
     0
 49
-3.0
 74
     0
 49
0.0
 74
     0
 49
-3.0
 74
     0
  0
LTYPE
  5
92
330
5
100
AcDbSymbolTableRecord
100
AcDbLinetypeTableRecord
  2
ACAD_ISO11W100
 70
     0
  3
ISO double-dash dot __ __ . __ __ . __ __ . __ _
 72
    65
 73
     6
 40
33.0
 49
12.0
 74
     0
 49
-3.0
 74
     0
 49
12.0
 74
     0
 49
-3.0
 74
     0
 49
0.0
 74
     0
 49
-3.0
 74
     0
  0
LTYPE
  5
93
330
5
100
AcDbSymbolTableRecord
100
AcDbLinetypeTableRecord
  2
ACAD_ISO12W100
 70
     0
  3
ISO dash double-dot __ . . __ . . __ . . __ . . 
 72
    65
 73
     6
 40
21.0
 49
12.0
 74
     0
 49
-3.0
 74
     0
 49
0.0
 74
     0
 49
-3.0
 74
     0
 49
0.0
 74
     0
 49
-3.0
 74
     0
  0
LTYPE
  5
94
330
5
100
AcDbSymbolTableRecord
100
AcDbLinetypeTableRecord
  2
ACAD_ISO15W100
 70
     0
  3
ISO double-dash triple-dot __ __ . . . __ __ . .
 72
    65
 73
    10
 40
39.0
 49
12.0
 74
     0
 49
-3.0
 74
     0
 49
12.0
 74
     0
 49
-3.0
 74
     0
 49
0.0
 74
     0
 49
-3.0
 74
     0
 49
0.0
 74
     0
 49
-3.0
 74
     0
 49
0.0
 74
     0
 49
-3.0
 74
     0
  0
LTYPE
  5
95
330
5
100
AcDbSymbolTableRecord
100
AcDbLinetypeTableRecord
  2
JIS_02_0_7
 70
     0
  3
HIDDEN0.75 _ _ _ _ _ _ _ _ _ _ _ _ _ _ _ _ _ 
 72
    65
 73
     2
 40
1.35
 49
0.75
 74
     0
 49
-0.6
 74
     0
  0
LTYPE
  5
96
330
5
100
AcDbSymbolTableRecord
100
AcDbLinetypeTableRecord
  2
JIS_02_1_0
 70
     0
  3
HIDDEN01 _ _ _ _ _ _ _ _ _ _ _ _ _ _ _ _ _ 
 72
    65
 73
     2
 40
2.0
 49
1.0
 74
     0
 49
-1.0
 74
     0
  0
LTYPE
  5
97
330
5
100
AcDbSymbolTableRecord
100
AcDbLinetypeTableRecord
  2
JIS_02_1_2
 70
     0
  3
HIDDEN01.25  _ _ _ _ _ _ _ _ _ _ _ _ _ _ _ _ _ 
 72
    65
 73
     2
 40
2.5
 49
1.25
 74
     0
 49
-1.25
 74
     0
  0
LTYPE
  5
98
330
5
100
AcDbSymbolTableRecord
100
AcDbLinetypeTableRecord
  2
JIS_02_2_0
 70
     0
  3
HIDDEN02 __ __ __ __ __ __ __ __ __ __ __ 
 72
    65
 73
     2
 40
3.0
 49
2.0
 74
     0
 49
-1.0
 74
     0
  0
LTYPE
  5
99
330
5
100
AcDbSymbolTableRecord
100
AcDbLinetypeTableRecord
  2
JIS_02_4_0
 70
     0
  3
HIDDEN04 ____ ____ ____ ____ ____ ____ ____ 
 72
    65
 73
     2
 40
5.5
 49
4.0
 74
     0
 49
-1.5
 74
     0
  0
LTYPE
  5
9A
330
5
100
AcDbSymbolTableRecord
100
AcDbLinetypeTableRecord
  2
JIS_08_11
 70
     0
  3
1SASEN11 ___ _ ___ _ ___ _ ___ _ ___ _ ___
 72
    65
 73
     4
 40
12.8
 49
11.0
 74
     0
 49
-0.6
 74
     0
 49
0.6
 74
     0
 49
-0.6
 74
     0
  0
LTYPE
  5
9B
330
5
100
AcDbSymbolTableRecord
100
AcDbLinetypeTableRecord
  2
JIS_08_15
 70
     0
  3
1SASEN15 ____ _ ____ _ ____ _ ____ _ ____ 
 72
    65
 73
     4
 40
17.25
 49
15.0
 74
     0
 49
-0.75
 74
     0
 49
0.75
 74
     0
 49
-0.75
 74
     0
  0
LTYPE
  5
9C
330
5
100
AcDbSymbolTableRecord
100
AcDbLinetypeTableRecord
  2
JIS_08_25
 70
     0
  3
1SASEN25 ________  __  ________  __  _____
 72
    65
 73
     4
 40
28.0
 49
25.0
 74
     0
 49
-1.125
 74
     0
 49
0.75
 74
     0
 49
-1.125
 74
     0
  0
LTYPE
  5
9D
330
5
100
AcDbSymbolTableRecord
100
AcDbLinetypeTableRecord
  2
JIS_08_37
 70
     0
  3
1SASEN37 ________  __  ________  __  _____
 72
    65
 73
     4
 40
40.5
 49
37.5
 74
     0
 49
-1.125
 74
     0
 49
0.75
 74
     0
 49
-1.125
 74
     0
  0
LTYPE
  5
9E
330
5
100
AcDbSymbolTableRecord
100
AcDbLinetypeTableRecord
  2
JIS_08_50
 70
     0
  3
1SASEN50 _______________  __  ____________
 72
    65
 73
     4
 40
53.0
 49
50.0
 74
     0
 49
-1.125
 74
     0
 49
0.75
 74
     0
 49
-1.125
 74
     0
  0
LTYPE
  5
9F
330
5
100
AcDbSymbolTableRecord
100
AcDbLinetypeTableRecord
  2
JIS_09_08
 70
     0
  3
2SASEN8 __ _ _ __ _ _ __ _ _ __ _ _ __ _ _ 
 72
    65
 73
     6
 40
10.75
 49
8.0
 74
     0
 49
-0.55
 74
     0
 49
0.55
 74
     0
 49
-0.55
 74
     0
 49
0.55
 74
     0
 49
-0.55
 74
     0
  0
LTYPE
  5
A0
330
5
100
AcDbSymbolTableRecord
100
AcDbLinetypeTableRecord
  2
JIS_09_15
 70
     0
  3
2SASEN15 ___ _ _ ___ _ _ ___ _ _ ___ _ _ ___ 
 72
    65
 73
     6
 40
18.9
 49
15.0
 74
     0
 49
-0.9
 74
     0
 49
0.6
 74
     0
 49
-0.9
 74
     0
 49
0.6
 74
     0
 49
-0.9
 74
     0
  0
LTYPE
  5
A1
330
5
100
AcDbSymbolTableRecord
100
AcDbLinetypeTableRecord
  2
JIS_09_29
 70
     0
  3
2SASEN29 ______　__  __  ______　__  __  ___
 72
    65
 73
     6
 40
34.0
 49
29.0
 74
     0
 49
-1.2
 74
     0
 49
0.7
 74
     0
 49
-1.2
 74
     0
 49
0.7
 74
     0
 49
-1.2
 74
     0
  0
LTYPE
  5
A2
330
5
100
AcDbSymbolTableRecord
100
AcDbLinetypeTableRecord
  2
JIS_09_50
 70
     0
  3
2SASEN50 ____________　__  __  _____________
 72
    65
 73
     6
 40
55.0
 49
50.0
 74
     0
 49
-1.2
 74
     0
 49
0.7
 74
     0
 49
-1.2
 74
     0
 49
0.7
 74
     0
 49
-1.2
 74
     0
  0
LTYPE
  5
A3
330
5
100
AcDbSymbolTableRecord
100
AcDbLinetypeTableRecord
  2
SXF_破線
 70
     0
  3
02 dashed -- -- -- -- -- --
 72
    65
 73
     2
 40
7.5
 49
6.0
 74
     0
 49
-1.5
 74
     0
  0
LTYPE
  5
A4
330
5
100
AcDbSymbolTableRecord
100
AcDbLinetypeTableRecord
  2
SXF_跳び破線
 70
     0
  3
03 dashed_spaced --  --  --  --
 72
    65
 73
     2
 40
12.0
 49
6.0
 74
     0
 49
-6.0
 74
     0
  0
LTYPE
  5
A5
330
5
100
AcDbSymbolTableRecord
100
AcDbLinetypeTableRecord
  2
SXF_一点長鎖線
 70
     0
  3
04 long_dashed_dotted ---- . ---- . ----
 72
    65
 73
     4
 40
15.25
 49
12.0
 74
     0
 49
-1.5
 74
     0
 49
0.25
 74
     0
 49
-1.5
 74
     0
  0
LTYPE
  5
A6
330
5
100
AcDbSymbolTableRecord
100
AcDbLinetypeTableRecord
  2
SXF_二点長鎖線
 70
     0
  3
05 long_dashed_double-dotted ---- . . ---- 
 72
    65
 73
     6
 40
17.0
 49
12.0
 74
     0
 49
-1.5
 74
     0
 49
0.25
 74
     0
 49
-1.5
 74
     0
 49
0.25
 74
     0
 49
-1.5
 74
     0
  0
LTYPE
  5
A7
330
5
100
AcDbSymbolTableRecord
100
AcDbLinetypeTableRecord
  2
SXF_三点長鎖線
 70
     0
  3
06 long_dashed_triplicate-dotted ---- ... ---- 
 72
    65
 73
     8
 40
18.75
 49
12.0
 74
     0
 49
-1.5
 74
     0
 49
0.25
 74
     0
 49
-1.5
 74
     0
 49
0.25
 74
     0
 49
-1.5
 74
     0
 49
0.25
 74
     0
 49
-1.5
 74
     0
  0
LTYPE
  5
A8
330
5
100
AcDbSymbolTableRecord
100
AcDbLinetypeTableRecord
  2
SXF_点線
 70
     0
  3
07 dotted . . . . . . . . . . . . 
 72
    65
 73
     2
 40
1.75
 49
0.25
 74
     0
 49
-1.5
 74
     0
  0
LTYPE
  5
A9
330
5
100
AcDbSymbolTableRecord
100
AcDbLinetypeTableRecord
  2
SXF_一点鎖線
 70
     0
  3
08 chain ---- - --- - --- - ---
 72
    65
 73
     4
 40
18.5
 49
12.0
 74
     0
 49
-1.5
 74
     0
 49
3.5
 74
     0
 49
-1.5
 74
     0
  0
LTYPE
  5
AA
330
5
100
AcDbSymbolTableRecord
100
AcDbLinetypeTableRecord
  2
SXF_二点鎖線
 70
     0
  3
09 chain_double_dash ---- - - ---- - - ----
 72
    65
 73
     6
 40
23.5
 49
12.0
 74
     0
 49
-1.5
 74
     0
 49
3.5
 74
     0
 49
-1.5
 74
     0
 49
3.5
 74
     0
 49
-1.5
 74
     0
  0
LTYPE
  5
AB
330
5
100
AcDbSymbolTableRecord
100
AcDbLinetypeTableRecord
  2
SXF_一点短鎖線
 70
     0
  3
10 dashed_dotted -- . -- . -- . --
 72
    65
 73
     4
 40
9.25
 49
6.0
 74
     0
 49
-1.5
 74
     0
 49
0.25
 74
     0
 49
-1.5
 74
     0
  0
LTYPE
  5
AC
330
5
100
AcDbSymbolTableRecord
100
AcDbLinetypeTableRecord
  2
SXF_一点二短鎖線
 70
     0
  3
11 double-dashed_dotted -- -- . -- --
 72
    65
 73
     6
 40
16.75
 49
6.0
 74
     0
 49
-1.5
 74
     0
 49
6.0
 74
     0
 49
-1.5
 74
     0
 49
0.25
 74
     0
 49
-1.5
 74
     0
  0
LTYPE
  5
AD
330
5
100
AcDbSymbolTableRecord
100
AcDbLinetypeTableRecord
  2
SXF_二点短鎖線
 70
     0
  3
12 dashed_double_dotted -- . . -- . . --
 72
    65
 73
     6
 40
11.0
 49
6.0
 74
     0
 49
-1.5
 74
     0
 49
0.25
 74
     0
 49
-1.5
 74
     0
 49
0.25
 74
     0
 49
-1.5
 74
     0
  0
LTYPE
  5
AE
330
5
100
AcDbSymbolTableRecord
100
AcDbLinetypeTableRecord
  2
SXF_二点二短鎖線
 70
     0
  3
13 double-dashed_double-dotted -- -- . . -- --
 72
    65
 73
     8
 40
18.5
 49
6.0
 74
     0
 49
-1.5
 74
     0
 49
6.0
 74
     0
 49
-1.5
 74
     0
 49
0.25
 74
     0
 49
-1.5
 74
     0
 49
0.25
 74
     0
 49
-1.5
 74
     0
  0
LTYPE
  5
AF
330
5
100
AcDbSymbolTableRecord
100
AcDbLinetypeTableRecord
  2
SXF_三点短鎖線
 70
     0
  3
14 dashed triplicate-dotted -- . . . -- . . . --
 72
    65
 73
     8
 40
12.75
 49
6.0
 74
     0
 49
-1.5
 74
     0
 49
0.25
 74
     0
 49
-1.5
 74
     0
 49
0.25
 74
     0
 49
-1.5
 74
     0
 49
0.25
 74
     0
 49
-1.5
 74
     0
  0
LTYPE
  5
B0
330
5
100
AcDbSymbolTableRecord
100
AcDbLinetypeTableRecord
  2
SXF_三点二短鎖線
 70
     0
  3
15 double-dashed triplicate-dotted -- -- . . . -- -- 
 72
    65
 73
    10
 40
20.25
 49
6.0
 74
     0
 49
-1.5
 74
     0
 49
6.0
 74
     0
 49
-1.5
 74
     0
 49
0.25
 74
     0
 49
-1.5
 74
     0
 49
0.25
 74
     0
 49
-1.5
 74
     0
 49
0.25
 74
     0
 49
-1.5
 74
     0
  0
ENDTAB
  0
TABLE
  2
LAYER
  5
2
330
0
100
AcDbSymbolTable
 70
     4
  0
LAYER
  5
10
330
2
100
AcDbSymbolTableRecord
100
AcDbLayerTableRecord
  2
0
 70
     0
 62
     7
  6
CONTINUOUS
  0
LAYER
  5
B1
330
2
100
AcDbSymbolTableRecord
100
AcDbLayerTableRecord
  2
LAYER0001
 70
     0
 62
     7
  6
CONTINUOUS
  0
LAYER
  5
B2
330
2
100
AcDbSymbolTableRecord
100
AcDbLayerTableRecord
  2
LAYER0002
 70
     0
 62
     7
  6
CONTINUOUS
  0
LAYER
  5
B3
330
2
100
AcDbSymbolTableRecord
100
AcDbLayerTableRecord
  2
LAYER0004
 70
     0
 62
     7
  6
CONTINUOUS
  0
ENDTAB
  0
TABLE
  2
STYLE
  5
3
330
0
100
AcDbSymbolTable
 70
     2
  0
STYLE
  5
11
330
3
100
AcDbSymbolTableRecord
100
AcDbTextStyleTableRecord
  2
STANDARD
 70
     0
 40
0.0
 41
1.0
 50
0.0
 71
     0
 42
0.2
  3
txt.shx
  4
bigfont.shx
  0
STYLE
  5
26D
330
3
100
AcDbSymbolTableRecord
100
AcDbTextStyleTableRecord
  2
DCSTYLE0
 70
     0
 40
0.0
 41
1.0
 50
0.0
 71
     0
 42
0.2
  3
ＭＳ ゴシック
  4

1001
ACAD
1000
ＭＳ ゴシック
1071
    32802
  0
ENDTAB
  0
TABLE
  2
VIEW
  5
6
330
0
100
AcDbSymbolTable
 70
     0
  0
ENDTAB
  0
TABLE
  2
UCS
  5
7
330
0
100
AcDbSymbolTable
 70
     0
  0
ENDTAB
  0
TABLE
  2
APPID
  5
9
330
0
100
AcDbSymbolTable
 70
     3
  0
APPID
  5
12
330
9
100
AcDbSymbolTableRecord
100
AcDbRegAppTableRecord
  2
ACAD
 70
     0
  0
APPID
  5
6E
330
9
100
AcDbSymbolTableRecord
100
AcDbRegAppTableRecord
  2
DAFUSIONOUT
 70
     0
  0
APPID
  5
2A1
330
9
100
AcDbSymbolTableRecord
100
AcDbRegAppTableRecord
  2
ACAD_MLEADERVER
 70
     0
  0
ENDTAB
  0
TABLE
  2
DIMSTYLE
  5
A
330
0
100
AcDbSymbolTable
 70
     1
  0
DIMSTYLE
105
27
330
A
100
AcDbSymbolTableRecord
100
AcDbDimStyleTableRecord
  2
STANDARD
 70
     0
  3

  4

  5

  6

  7

 40
1.0
 41
0.18
 42
0.0625
 43
0.38
 44
0.18
 45
0.0
 46
0.0
 47
0.0
 48
0.0
140
0.18
141
0.09
142
0.0
143
25.4
144
1.0
145
0.0
146
1.0
147
0.09
 71
     0
 72
     0
 73
     1
 74
     1
 75
     0
 76
     0
 77
     0
 78
     0
170
     0
171
     2
172
     0
173
     0
174
     0
175
     0
176
     0
177
     0
178
     0
270
     2
271
     4
272
     4
273
     2
274
     2
340
11
275
     0
280
     0
281
     0
282
     0
283
     1
284
     0
285
     0
286
     0
287
     3
288
     0
  0
ENDTAB
  0
TABLE
  2
BLOCK_RECORD
  5
1
330
0
100
AcDbSymbolTable
 70
     0
  0
BLOCK_RECORD
  5
1F
330
1
100
AcDbSymbolTableRecord
100
AcDbBlockTableRecord
  2
*MODEL_SPACE
  0
BLOCK_RECORD
  5
1B
330
1
100
AcDbSymbolTableRecord
100
AcDbBlockTableRecord
  2
*PAPER_SPACE
  0
ENDTAB
  0
ENDSEC
  0
SECTION
  2
BLOCKS
  0
BLOCK
  5
20
330
1F
100
AcDbEntity
  8
0
100
AcDbBlockBegin
  2
*MODEL_SPACE
 70
     0
 10
0.0
 20
0.0
 30
0.0
  3
*MODEL_SPACE
  1

  0
ENDBLK
  5
21
330
1F
100
AcDbEntity
  8
0
100
AcDbBlockEnd
  0
BLOCK
  5
1C
330
1B
100
AcDbEntity
 67
     1
  8
0
100
AcDbBlockBegin
  2
*PAPER_SPACE
 70
     0
 10
0.0
 20
0.0
 30
0.0
  3
*PAPER_SPACE
  1

  0
ENDBLK
  5
1D
330
1B
100
AcDbEntity
 67
     1
  8
0
100
AcDbBlockEnd
  0
ENDSEC
  0
SECTION
  2
ENTITIES
  0
LINE
  5
B5
330
1F
100
AcDbEntity
  8
LAYER0002
  6
CENTER
 62
     4
100
AcDbLine
 10
-191.9658420892951
 20
-185.6471903225685
 30
0.0
 11
-336.9658420892951
 21
-185.6471903225685
 31
0.0
  0
LINE
  5
B6
330
1F
100
AcDbEntity
  8
LAYER0002
  6
CENTER
 62
     4
100
AcDbLine
 10
-264.4658420892951
 20
-113.1471903225685
 30
0.0
 11
-264.4658420892951
 21
-258.1471903225685
 31
0.0
  0
CIRCLE
  5
B7
330
1F
100
AcDbEntity
  8
LAYER0002
  6
CENTER
 62
     4
100
AcDbCircle
 10
-264.4658420892951
 20
-185.6471903225685
 30
0.0
 40
51.0
  0
LINE
  5
B8
330
1F
100
AcDbEntity
  8
LAYER0002
  6
CENTER
 62
     4
100
AcDbLine
 10
-236.181570841833
 20
-157.3629190751066
 30
0.0
 11
-220.625221655729
 21
-141.8065698890024
 31
0.0
  0
LINE
  5
B9
330
1F
100
AcDbEntity
  8
LAYER0002
  6
CENTER
 62
     4
100
AcDbLine
 10
-292.7501133367572
 20
-157.3629190751066
 30
0.0
 11
-308.3064625228612
 21
-141.8065698890024
 31
0.0
  0
LINE
  5
BA
330
1F
100
AcDbEntity
  8
LAYER0002
  6
CENTER
 62
     4
100
AcDbLine
 10
-236.181570841833
 20
-213.9314615700304
 30
0.0
 11
-220.625221655729
 21
-229.4878107561345
 31
0.0
  0
LINE
  5
BB
330
1F
100
AcDbEntity
  8
LAYER0002
  6
CENTER
 62
     4
100
AcDbLine
 10
-292.7501133367572
 20
-213.9314615700304
 30
0.0
 11
-308.3064625228612
 21
-229.4878107561345
 31
0.0
  0
LINE
  5
BC
330
1F
100
AcDbEntity
  8
LAYER0002
  6
CENTER
 62
     4
100
AcDbLine
 10
136.2981898225989
 20
329.6308974748313
 30
0.0
 11
158.2981898225989
 21
329.6308974748313
 31
0.0
  0
LINE
  5
BD
330
1F
100
AcDbEntity
  8
LAYER0002
  6
CENTER
 62
     4
100
AcDbLine
 10
147.2981898225989
 20
340.6308974748313
 30
0.0
 11
147.2981898225989
 21
318.6308974748313
 31
0.0
  0
LINE
  5
BE
330
1F
100
AcDbEntity
  8
LAYER0002
  6
CENTER
 62
     4
100
AcDbLine
 10
278.2981898225987
 20
329.6308974748313
 30
0.0
 11
256.2981898225987
 21
329.6308974748313
 31
0.0
  0
LINE
  5
BF
330
1F
100
AcDbEntity
  8
LAYER0002
  6
CENTER
 62
     4
100
AcDbLine
 10
267.2981898225987
 20
340.6308974748313
 30
0.0
 11
267.2981898225987
 21
318.6308974748313
 31
0.0
  0
LINE
  5
C0
330
1F
100
AcDbEntity
  8
LAYER0002
  6
CENTER
 62
     4
100
AcDbLine
 10
136.2981898225989
 20
129.6308974748304
 30
0.0
 11
158.2981898225989
 21
129.6308974748304
 31
0.0
  0
LINE
  5
C1
330
1F
100
AcDbEntity
  8
LAYER0002
  6
CENTER
 62
     4
100
AcDbLine
 10
147.2981898225989
 20
118.6308974748304
 30
0.0
 11
147.2981898225989
 21
140.6308974748304
 31
0.0
  0
LINE
  5
C2
330
1F
100
AcDbEntity
  8
LAYER0002
  6
CENTER
 62
     4
100
AcDbLine
 10
278.2981898225987
 20
129.6308974748304
 30
0.0
 11
256.2981898225987
 21
129.6308974748304
 31
0.0
  0
LINE
  5
C3
330
1F
100
AcDbEntity
  8
LAYER0002
  6
CENTER
 62
     4
100
AcDbLine
 10
267.2981898225987
 20
118.6308974748304
 30
0.0
 11
267.2981898225987
 21
140.6308974748304
 31
0.0
  0
LINE
  5
C4
330
1F
100
AcDbEntity
  8
LAYER0002
  6
CENTER
 62
     4
100
AcDbLine
 10
218.2981898225987
 20
150.4702375432839
 30
0.0
 11
218.2981898225987
 21
52.31466997822277
 31
0.0
  0
LINE
  5
C5
330
1F
100
AcDbEntity
  8
LAYER0002
  6
CENTER
 62
     4
100
AcDbLine
 10
25.36168322794332
 20
244.6308974748313
 30
0.0
 11
-516.0751637724919
 21
244.6308974748313
 31
0.0
  0
LINE
  5
C6
330
1F
100
AcDbEntity
  8
LAYER0002
  6
CENTER
 62
     4
100
AcDbLine
 10
-313.5751637724919
 20
358.6308974748313
 30
0.0
 11
-313.5751637724919
 21
130.6970487747772
 31
0.0
  0
LINE
  5
C7
330
1F
100
AcDbEntity
  8
LAYER0002
  6
CENTER
 62
     4
100
AcDbLine
 10
-290.571107676445
 20
329.6308974748313
 30
0.0
 11
-258.2026835277698
 21
329.6308974748313
 31
0.0
  0
LINE
  5
C8
330
1F
100
AcDbEntity
  8
LAYER0002
  6
CENTER
 62
     4
100
AcDbLine
 10
-287.571107676445
 20
129.6308974748304
 30
0.0
 11
-255.2026835277698
 21
129.6308974748304
 31
0.0
  0
LINE
  5
C9
330
1F
100
AcDbEntity
  8
LAYER0002
  6
CENTER
 62
     4
100
AcDbLine
 10
-384.5751637724919
 20
272.6308974748313
 30
0.0
 11
-384.5751637724919
 21
256.6308974748313
 31
0.0
  0
LINE
  5
CA
330
1F
100
AcDbEntity
  8
LAYER0002
  6
CENTER
 62
     4
100
AcDbLine
 10
-376.5751637724919
 20
264.6308974748313
 30
0.0
 11
-392.5751637724919
 21
264.6308974748313
 31
0.0
  0
LINE
  5
CB
330
1F
100
AcDbEntity
  8
LAYER0002
  6
CENTER
 62
     4
100
AcDbLine
 10
-384.5751637724919
 20
216.6308974748313
 30
0.0
 11
-384.5751637724919
 21
232.6308974748313
 31
0.0
  0
LINE
  5
CC
330
1F
100
AcDbEntity
  8
LAYER0002
  6
CENTER
 62
     4
100
AcDbLine
 10
-376.5751637724919
 20
224.6308974748313
 30
0.0
 11
-392.5751637724919
 21
224.6308974748313
 31
0.0
  0
LINE
  5
CD
330
1F
100
AcDbEntity
  8
LAYER0002
  6
CENTER
 62
     4
100
AcDbLine
 10
-289.6413150724383
 20
214.6308974748313
 30
0.0
 11
-337.5090124725456
 21
214.6308974748313
 31
0.0
  0
LINE
  5
CE
330
1F
100
AcDbEntity
  8
LAYER0002
  6
CENTER
 62
     4
100
AcDbLine
 10
-289.6413150724383
 20
154.6308974748313
 30
0.0
 11
-337.5090124725456
 21
154.6308974748313
 31
0.0
  0
LINE
  5
CF
330
1F
100
AcDbEntity
  8
LAYER0002
  6
CENTER
 62
     4
100
AcDbLine
 10
-323.5751637724919
 20
130.6308974748313
 30
0.0
 11
-323.5751637724919
 21
57.11590888716597
 31
0.0
  0
LINE
  5
D0
330
1F
100
AcDbEntity
  8
LAYER0002
  6
CENTER
 62
     4
100
AcDbLine
 10
-306.5751637724919
 20
106.6308974748313
 30
0.0
 11
-257.0751637724919
 21
106.6308974748313
 31
0.0
  0
LINE
  5
D1
330
1F
100
AcDbEntity
  8
LAYER0002
  6
CENTER
 62
     4
100
AcDbLine
 10
212.9876793117018
 20
106.6308974748313
 30
0.0
 11
223.6087003334958
 21
106.6308974748313
 31
0.0
  0
LINE
  5
D2
330
1F
100
AcDbEntity
  8
LAYER0002
  6
CENTER
 62
     4
100
AcDbLine
 10
178.2981898225989
 20
-395.0117799820006
 30
0.0
 11
178.2981898225989
 21
9.488220017999254
 31
0.0
  0
LINE
  5
D3
330
1F
100
AcDbEntity
  8
LAYER0002
  6
CENTER
 62
     4
100
AcDbLine
 10
163.2981898225989
 20
-202.5117799820006
 30
0.0
 11
273.2981898225989
 21
-202.5117799820006
 31
0.0
  0
LINE
  5
D4
330
1F
100
AcDbEntity
  8
LAYER0002
  6
CENTER
 62
     4
100
AcDbLine
 10
218.2981898225989
 20
-133.0117799820006
 30
0.0
 11
218.2981898225989
 21
-257.5117799820006
 31
0.0
  0
LINE
  5
D5
330
1F
100
AcDbEntity
  8
LAYER0002
  6
CENTER
 62
     4
100
AcDbLine
 10
89.75732892391729
 20
-192.5117799820006
 30
0.0
 11
145.332003269255
 21
-192.5117799820006
 31
0.0
  0
LINE
  5
D6
330
1F
100
AcDbEntity
  8
LAYER0002
  6
CENTER
 62
     4
100
AcDbLine
 10
147.2981898225989
 20
-161.3592000659652
 30
0.0
 11
147.2981898225989
 21
-136.472892990644
 31
0.0
  0
LINE
  5
D7
330
1F
100
AcDbEntity
  8
LAYER0002
  6
CENTER
 62
     4
100
AcDbLine
 10
267.2981898225989
 20
-161.3592000659652
 30
0.0
 11
267.2981898225989
 21
-136.472892990644
 31
0.0
  0
LINE
  5
D8
330
1F
100
AcDbEntity
  8
LAYER0002
  6
CENTER
 62
     4
100
AcDbLine
 10
127.2981898225989
 20
-298.7277172679967
 30
0.0
 11
127.2981898225989
 21
-277.9829762312963
 31
0.0
  0
LINE
  5
D9
330
1F
100
AcDbEntity
  8
LAYER0002
  6
CENTER
 62
     4
100
AcDbLine
 10
229.2981898225989
 20
-298.7277172679968
 30
0.0
 11
229.2981898225989
 21
-277.9829762312964
 31
0.0
  0
LINE
  5
DA
330
1F
100
AcDbEntity
  8
LAYER0002
  6
CENTER
 62
     4
100
AcDbLine
 10
-419.791101058488
 20
295.6308974748313
 30
0.0
 11
-399.0463600217877
 21
295.6308974748313
 31
0.0
  0
LINE
  5
DB
330
1F
100
AcDbEntity
  8
LAYER0002
  6
CENTER
 62
     4
100
AcDbLine
 10
-419.791101058488
 20
193.6308974748313
 30
0.0
 11
-399.0463600217877
 21
193.6308974748313
 31
0.0
  0
LINE
  5
DC
330
1F
100
AcDbEntity
  8
LAYER0002
  6
CENTER
 62
     4
100
AcDbLine
 10
-469.9333667962322
 20
295.6308974748313
 30
0.0
 11
-448.1886257595319
 21
295.6308974748313
 31
0.0
  0
LINE
  5
DD
330
1F
100
AcDbEntity
  8
LAYER0002
  6
CENTER
 62
     4
100
AcDbLine
 10
-469.9333667962322
 20
193.6308974748313
 30
0.0
 11
-448.1886257595319
 21
193.6308974748313
 31
0.0
  0
LINE
  5
DE
330
1F
100
AcDbEntity
  8
LAYER0002
  6
CENTER
 62
     4
100
AcDbLine
 10
127.2981898225989
 20
-348.8699830057409
 30
0.0
 11
127.2981898225989
 21
-327.1252419690405
 31
0.0
  0
LINE
  5
DF
330
1F
100
AcDbEntity
  8
LAYER0002
  6
CENTER
 62
     4
100
AcDbLine
 10
229.2981898225989
 20
-348.8699830057409
 30
0.0
 11
229.2981898225989
 21
-327.1252419690406
 31
0.0
  0
CIRCLE
  5
E0
330
1F
100
AcDbEntity
  8
LAYER0001
  6
CONTINUOUS
 62
     7
100
AcDbCircle
 10
-264.4658420892951
 20
-185.6471903225685
 30
0.0
 40
62.5
  0
CIRCLE
  5
E1
330
1F
100
AcDbEntity
  8
LAYER0001
  6
CONTINUOUS
 62
     7
100
AcDbCircle
 10
-264.4658420892951
 20
-185.6471903225685
 30
0.0
 40
35.0
  0
CIRCLE
  5
E2
330
1F
100
AcDbEntity
  8
LAYER0001
  6
CONTINUOUS
 62
     7
100
AcDbCircle
 10
-264.4658420892951
 20
-185.6471903225685
 30
0.0
 40
13.0
  0
CIRCLE
  5
E3
330
1F
100
AcDbEntity
  8
LAYER0001
  6
CONTINUOUS
 62
     7
100
AcDbCircle
 10
-264.4658420892951
 20
-185.6471903225685
 30
0.0
 40
11.0
  0
CIRCLE
  5
E4
330
1F
100
AcDbEntity
  8
LAYER0001
  6
CONTINUOUS
 62
     7
100
AcDbCircle
 10
-228.4033962487814
 20
-149.5847444820544
 30
0.0
 40
5.5
  0
CIRCLE
  5
E5
330
1F
100
AcDbEntity
  8
LAYER0001
  6
CONTINUOUS
 62
     7
100
AcDbCircle
 10
-300.5282879298086
 20
-149.5847444820544
 30
0.0
 40
5.5
  0
CIRCLE
  5
E6
330
1F
100
AcDbEntity
  8
LAYER0001
  6
CONTINUOUS
 62
     7
100
AcDbCircle
 10
-228.4033962487814
 20
-221.7096361630823
 30
0.0
 40
5.5
  0
CIRCLE
  5
E7
330
1F
100
AcDbEntity
  8
LAYER0001
  6
CONTINUOUS
 62
     7
100
AcDbCircle
 10
-300.5282879298086
 20
-221.7096361630823
 30
0.0
 40
5.5
  0
LINE
  5
E8
330
1F
100
AcDbEntity
  8
LAYER0001
  6
CONTINUOUS
 62
     7
100
AcDbLine
 10
-463.5751637724919
 20
307.1308974748313
 30
0.0
 11
-452.5751637724919
 21
307.1308974748313
 31
0.0
  0
LINE
  5
E9
330
1F
100
AcDbEntity
  8
LAYER0001
  6
CONTINUOUS
 62
     7
100
AcDbLine
 10
-471.0751637724919
 20
257.6308974748313
 30
0.0
 11
-466.0751637724919
 21
257.6308974748313
 31
0.0
  0
LINE
  5
EA
330
1F
100
AcDbEntity
  8
LAYER0001
  6
CONTINUOUS
 62
     7
100
AcDbLine
 10
-466.0751637724919
 20
279.6308974748313
 30
0.0
 11
-463.5751637724919
 21
279.6308974748313
 31
0.0
  0
LINE
  5
EB
330
1F
100
AcDbEntity
  8
LAYER0001
  6
CONTINUOUS
 62
     7
100
AcDbLine
 10
-506.0751637724919
 20
254.6308974748313
 30
0.0
 11
-506.0751637724919
 21
234.6308974748313
 31
0.0
  0
LINE
  5
EC
330
1F
100
AcDbEntity
  8
LAYER0001
  6
CONTINUOUS
 62
     7
100
AcDbLine
 10
-505.0751637724919
 20
255.6308974748313
 30
0.0
 11
-471.0751637724919
 21
255.6308974748313
 31
0.0
  0
LINE
  5
ED
330
1F
100
AcDbEntity
  8
LAYER0001
  6
CONTINUOUS
 62
     7
100
AcDbLine
 10
-505.0751637724919
 20
233.6308974748313
 30
0.0
 11
-471.0751637724919
 21
233.6308974748313
 31
0.0
  0
LINE
  5
EE
330
1F
100
AcDbEntity
  8
LAYER0001
  6
CONTINUOUS
 62
     7
100
AcDbLine
 10
-471.0751637724919
 20
257.6308974748313
 30
0.0
 11
-471.0751637724919
 21
231.6308974748313
 31
0.0
  0
LINE
  5
EF
330
1F
100
AcDbEntity
  8
LAYER0001
  6
CONTINUOUS
 62
     7
100
AcDbLine
 10
-471.0751637724919
 20
231.6308974748313
 30
0.0
 11
-466.0751637724919
 21
231.6308974748313
 31
0.0
  0
LINE
  5
F0
330
1F
100
AcDbEntity
  8
LAYER0001
  6
CONTINUOUS
 62
     7
100
AcDbLine
 10
-466.0751637724919
 20
279.6308974748313
 30
0.0
 11
-466.0751637724919
 21
209.6308974748313
 31
0.0
  0
LINE
  5
F1
330
1F
100
AcDbEntity
  8
LAYER0001
  6
CONTINUOUS
 62
     7
100
AcDbLine
 10
-466.0751637724919
 20
209.6308974748313
 30
0.0
 11
-463.5751637724919
 21
209.6308974748313
 31
0.0
  0
LINE
  5
F2
330
1F
100
AcDbEntity
  8
LAYER0001
  6
CONTINUOUS
 62
     7
100
AcDbLine
 10
-463.5751637724919
 20
307.1308974748313
 30
0.0
 11
-463.5751637724919
 21
182.1308974748313
 31
0.0
  0
LINE
  5
F3
330
1F
100
AcDbEntity
  8
LAYER0001
  6
CONTINUOUS
 62
     7
100
AcDbLine
 10
-463.5751637724919
 20
182.1308974748313
 30
0.0
 11
-452.5751637724919
 21
182.1308974748313
 31
0.0
  0
LINE
  5
F4
330
1F
100
AcDbEntity
  8
LAYER0001
  6
CONTINUOUS
 62
     7
100
AcDbLine
 10
-452.5751637724919
 20
307.1308974748313
 30
0.0
 11
-452.5751637724919
 21
182.1308974748313
 31
0.0
  0
LINE
  5
F5
330
1F
100
AcDbEntity
  8
LAYER0001
  6
CONTINUOUS
 62
     7
100
AcDbLine
 10
-404.5751637724919
 20
307.1308974748313
 30
0.0
 11
-404.5751637724919
 21
182.1308974748313
 31
0.0
  0
LINE
  5
F6
330
1F
100
AcDbEntity
  8
LAYER0001
  6
CONTINUOUS
 62
     7
100
AcDbLine
 10
-394.5751637724919
 20
307.1308974748313
 30
0.0
 11
-394.5751637724919
 21
182.1308974748313
 31
0.0
  0
LINE
  5
F7
330
1F
100
AcDbEntity
  8
LAYER0001
  6
CONTINUOUS
 62
     7
100
AcDbLine
 10
-404.5751637724919
 20
307.1308974748313
 30
0.0
 11
-394.5751637724919
 21
307.1308974748313
 31
0.0
  0
LINE
  5
F8
330
1F
100
AcDbEntity
  8
LAYER0001
  6
CONTINUOUS
 62
     7
100
AcDbLine
 10
-404.5751637724919
 20
182.1308974748313
 30
0.0
 11
-394.5751637724919
 21
182.1308974748313
 31
0.0
  0
LINE
  5
F9
330
1F
100
AcDbEntity
  8
LAYER0001
  6
CONTINUOUS
 62
     7
100
AcDbLine
 10
-452.5751637724919
 20
302.1308974748313
 30
0.0
 11
-413.4751637724919
 21
302.1308974748313
 31
0.0
  0
LINE
  5
FA
330
1F
100
AcDbEntity
  8
LAYER0001
  6
CONTINUOUS
 62
     7
100
AcDbLine
 10
-452.5751637724919
 20
187.1308974748313
 30
0.0
 11
-413.4751637724919
 21
187.1308974748313
 31
0.0
  0
LINE
  5
FB
330
1F
100
AcDbEntity
  8
LAYER0001
  6
CONTINUOUS
 62
     7
100
AcDbLine
 10
-452.5751637724919
 20
246.6308974748313
 30
0.0
 11
-404.5751637724919
 21
246.6308974748313
 31
0.0
  0
LINE
  5
FC
330
1F
100
AcDbEntity
  8
LAYER0001
  6
CONTINUOUS
 62
     7
100
AcDbLine
 10
-452.5751637724919
 20
242.6308974748313
 30
0.0
 11
-404.5751637724919
 21
242.6308974748313
 31
0.0
  0
LINE
  5
FD
330
1F
100
AcDbEntity
  8
LAYER0001
  6
CONTINUOUS
 62
     7
100
AcDbLine
 10
-476.0751637724919
 20
255.6308974748313
 30
0.0
 11
-476.0751637724919
 21
233.6308974748313
 31
0.0
  0
LINE
  5
FE
330
1F
100
AcDbEntity
  8
LAYER0001
  6
CONTINUOUS
 62
     7
100
AcDbLine
 10
-505.0751637724919
 20
255.6308974748313
 30
0.0
 11
-506.0751637724919
 21
254.6308974748313
 31
0.0
  0
LINE
  5
FF
330
1F
100
AcDbEntity
  8
LAYER0001
  6
CONTINUOUS
 62
     7
100
AcDbLine
 10
-505.0751637724919
 20
233.6308974748313
 30
0.0
 11
-506.0751637724919
 21
234.6308974748313
 31
0.0
  0
LINE
  5
100
330
1F
100
AcDbEntity
  8
LAYER0001
  6
CONTINUOUS
 62
     7
100
AcDbLine
 10
-505.0751637724919
 20
233.6308974748313
 30
0.0
 11
-505.0751637724919
 21
255.6308974748313
 31
0.0
  0
LINE
  5
101
330
1F
100
AcDbEntity
  8
LAYER0001
  6
CONTINUOUS
 62
     7
100
AcDbLine
 10
142.2981898225989
 20
342.6308974748313
 30
0.0
 11
272.2981898225987
 21
342.6308974748313
 31
0.0
  0
LINE
  5
102
330
1F
100
AcDbEntity
  8
LAYER0001
  6
CONTINUOUS
 62
     7
100
AcDbLine
 10
-347.5751637724919
 20
120.6308974748313
 30
0.0
 11
-279.5751637724919
 21
120.6308974748313
 31
0.0
  0
ARC
  5
103
330
1F
100
AcDbEntity
  8
LAYER0001
  6
CONTINUOUS
 62
     7
100
AcDbCircle
 10
207.2981898225989
 20
229.6308974748313
 30
0.0
 40
108.0
100
AcDbArc
 50
129.6554615476185
 51
230.3445384523813
  0
CIRCLE
  5
104
330
1F
100
AcDbEntity
  8
LAYER0001
  6
CONTINUOUS
 62
     7
100
AcDbCircle
 10
207.2981898225989
 20
229.6308974748313
 30
0.0
 40
103.0
  0
LINE
  5
105
330
1F
100
AcDbEntity
  8
LAYER0001
  6
CONTINUOUS
 62
     7
100
AcDbLine
 10
137.2981898225989
 20
337.6308974748313
 30
0.0
 11
137.2981898225989
 21
315.8805351552292
 31
0.0
  0
LINE
  5
106
330
1F
100
AcDbEntity
  8
LAYER0001
  6
CONTINUOUS
 62
     7
100
AcDbLine
 10
277.2981898225987
 20
337.6308974748313
 30
0.0
 11
277.2981898225987
 21
315.8805351552292
 31
0.0
  0
LINE
  5
107
330
1F
100
AcDbEntity
  8
LAYER0001
  6
CONTINUOUS
 62
     7
100
AcDbLine
 10
200.2981898225989
 20
347.6308974748313
 30
0.0
 11
236.2981898225987
 21
347.6308974748313
 31
0.0
  0
LINE
  5
108
330
1F
100
AcDbEntity
  8
LAYER0001
  6
CONTINUOUS
 62
     7
100
AcDbLine
 10
236.2981898225987
 20
347.6308974748313
 30
0.0
 11
241.2981898225987
 21
342.6308974748313
 31
0.0
  0
LINE
  5
109
330
1F
100
AcDbEntity
  8
LAYER0001
  6
CONTINUOUS
 62
     7
100
AcDbLine
 10
200.2981898225989
 20
347.6308974748313
 30
0.0
 11
195.2981898225989
 21
342.6308974748313
 31
0.0
  0
ARC
  5
10A
330
1F
100
AcDbEntity
  8
LAYER0001
  6
CONTINUOUS
 62
     7
100
AcDbCircle
 10
142.2981898225989
 20
337.6308974748313
 30
0.0
 40
5.0
100
AcDbArc
 50
90.0
 51
180.0
  0
ARC
  5
10B
330
1F
100
AcDbEntity
  8
LAYER0001
  6
CONTINUOUS
 62
     7
100
AcDbCircle
 10
272.2981898225987
 20
337.6308974748313
 30
0.0
 40
5.0
100
AcDbArc
 50
0.0
 51
90.0
  0
ARC
  5
10C
330
1F
100
AcDbEntity
  8
LAYER0001
  6
CONTINUOUS
 62
     7
100
AcDbCircle
 10
142.2981898225989
 20
315.8805351552292
 30
0.0
 40
5.0
100
AcDbArc
 50
180.0
 51
307.0026422137486
  0
ARC
  5
10D
330
1F
100
AcDbEntity
  8
LAYER0001
  6
CONTINUOUS
 62
     7
100
AcDbCircle
 10
272.2981898225999
 20
315.8805351552292
 30
0.0
 40
5.0
100
AcDbArc
 50
232.9973577862478
 51
0.0
  0
CIRCLE
  5
10E
330
1F
100
AcDbEntity
  8
LAYER0001
  6
CONTINUOUS
 62
     7
100
AcDbCircle
 10
147.2981898225989
 20
329.6308974748313
 30
0.0
 40
6.0
  0
CIRCLE
  5
10F
330
1F
100
AcDbEntity
  8
LAYER0001
  6
CONTINUOUS
 62
     7
100
AcDbCircle
 10
267.2981898225987
 20
329.6308974748313
 30
0.0
 40
6.0
  0
LINE
  5
110
330
1F
100
AcDbEntity
  8
LAYER0001
  6
CONTINUOUS
 62
     7
100
AcDbLine
 10
142.2981898225989
 20
116.6308974748304
 30
0.0
 11
272.2981898225987
 21
116.6308974748304
 31
0.0
  0
ARC
  5
111
330
1F
100
AcDbEntity
  8
LAYER0001
  6
CONTINUOUS
 62
     7
100
AcDbCircle
 10
272.2981898225999
 20
143.3812597944323
 30
0.0
 40
5.0
100
AcDbArc
 50
0.0
 51
127.0026422137486
  0
ARC
  5
112
330
1F
100
AcDbEntity
  8
LAYER0001
  6
CONTINUOUS
 62
     7
100
AcDbCircle
 10
142.2981898225989
 20
143.3812597944323
 30
0.0
 40
5.0
100
AcDbArc
 50
52.99735778625143
 51
180.0
  0
LINE
  5
113
330
1F
100
AcDbEntity
  8
LAYER0001
  6
CONTINUOUS
 62
     7
100
AcDbLine
 10
137.2981898225989
 20
121.6308974748304
 30
0.0
 11
137.2981898225989
 21
143.3812597944323
 31
0.0
  0
ARC
  5
114
330
1F
100
AcDbEntity
  8
LAYER0001
  6
CONTINUOUS
 62
     7
100
AcDbCircle
 10
142.2981898225989
 20
121.6308974748304
 30
0.0
 40
5.0
100
AcDbArc
 50
180.0
 51
270.0
  0
LINE
  5
115
330
1F
100
AcDbEntity
  8
LAYER0001
  6
CONTINUOUS
 62
     7
100
AcDbLine
 10
277.2981898225987
 20
121.6308974748304
 30
0.0
 11
277.2981898225987
 21
143.3812597944323
 31
0.0
  0
ARC
  5
116
330
1F
100
AcDbEntity
  8
LAYER0001
  6
CONTINUOUS
 62
     7
100
AcDbCircle
 10
272.2981898225987
 20
121.6308974748304
 30
0.0
 40
5.0
100
AcDbArc
 50
270.0
 51
0.0
  0
LINE
  5
117
330
1F
100
AcDbEntity
  8
LAYER0001
  6
CONTINUOUS
 62
     7
100
AcDbLine
 10
223.2981898225997
 20
98.63089747483133
 30
0.0
 11
237.2981898225987
 21
112.6308974748313
 31
0.0
  0
LINE
  5
118
330
1F
100
AcDbEntity
  8
LAYER0001
  6
CONTINUOUS
 62
     7
100
AcDbLine
 10
213.2981898225985
 20
98.63089747483133
 30
0.0
 11
199.2981898225989
 21
112.6308974748313
 31
0.0
  0
CIRCLE
  5
119
330
1F
100
AcDbEntity
  8
LAYER0001
  6
CONTINUOUS
 62
     7
100
AcDbCircle
 10
147.2981898225989
 20
129.6308974748304
 30
0.0
 40
6.0
  0
CIRCLE
  5
11A
330
1F
100
AcDbEntity
  8
LAYER0001
  6
CONTINUOUS
 62
     7
100
AcDbCircle
 10
267.2981898225987
 20
129.6308974748304
 30
0.0
 40
6.0
  0
ARC
  5
11B
330
1F
100
AcDbEntity
  8
LAYER0001
  6
CONTINUOUS
 62
     7
100
AcDbCircle
 10
207.2981898225989
 20
229.6308974748313
 30
0.0
 40
108.0
100
AcDbArc
 50
309.6554615476184
 51
50.34453845238144
  0
LINE
  5
11C
330
1F
100
AcDbEntity
  8
LAYER0001
  6
CONTINUOUS
 62
     7
100
AcDbLine
 10
113.2981898225989
 20
120.6308974748313
 30
0.0
 11
113.2981898225989
 21
176.4519542735973
 31
0.0
  0
LINE
  5
11D
330
1F
100
AcDbEntity
  8
LAYER0001
  6
CONTINUOUS
 62
     7
100
AcDbLine
 10
113.2981898225989
 20
120.6308974748313
 30
0.0
 11
123.2981898225989
 21
120.6308974748313
 31
0.0
  0
LINE
  5
11E
330
1F
100
AcDbEntity
  8
LAYER0001
  6
CONTINUOUS
 62
     7
100
AcDbLine
 10
123.2981898225989
 20
120.6308974748313
 30
0.0
 11
123.2981898225989
 21
161.7486464809224
 31
0.0
  0
LINE
  5
11F
330
1F
100
AcDbEntity
  8
LAYER0001
  6
CONTINUOUS
 62
     7
100
AcDbLine
 10
123.2981898225989
 20
132.6308974748313
 30
0.0
 11
137.2981898225989
 21
132.6308974748313
 31
0.0
  0
LINE
  5
120
330
1F
100
AcDbEntity
  8
LAYER0001
  6
CONTINUOUS
 62
     7
100
AcDbLine
 10
-268.0751637724919
 20
342.6308974748313
 30
0.0
 11
-278.5751637724919
 21
342.6308974748313
 31
0.0
  0
LINE
  5
121
330
1F
100
AcDbEntity
  8
LAYER0001
  6
CONTINUOUS
 62
     7
100
AcDbLine
 10
-272.5751637724919
 20
342.6308974748313
 30
0.0
 11
-272.5751637724919
 21
116.6308974748313
 31
0.0
  0
LINE
  5
122
330
1F
100
AcDbEntity
  8
LAYER0001
  6
CONTINUOUS
 62
     7
100
AcDbLine
 10
-268.0751637724919
 20
342.6308974748313
 30
0.0
 11
-268.0751637724919
 21
310.8805351552292
 31
0.0
  0
LINE
  5
123
330
1F
100
AcDbEntity
  8
LAYER0001
  6
CONTINUOUS
 62
     7
100
AcDbLine
 10
-331.5751637724919
 20
347.6308974748313
 30
0.0
 11
-295.5751637724919
 21
347.6308974748313
 31
0.0
  0
LINE
  5
124
330
1F
100
AcDbEntity
  8
LAYER0001
  6
CONTINUOUS
 62
     7
100
AcDbLine
 10
-295.5751637724919
 20
347.6308974748313
 30
0.0
 11
-282.5751637724917
 21
334.6308974748313
 31
0.0
  0
LINE
  5
125
330
1F
100
AcDbEntity
  8
LAYER0001
  6
CONTINUOUS
 62
     7
100
AcDbLine
 10
-331.5751637724919
 20
347.6308974748313
 30
0.0
 11
-345.5751637724919
 21
333.6308974748313
 31
0.0
  0
LINE
  5
126
330
1F
100
AcDbEntity
  8
LAYER0001
  6
CONTINUOUS
 62
     7
100
AcDbLine
 10
-345.5751637724919
 20
333.6308974748313
 30
0.0
 11
-286.5751637724919
 21
333.6308974748313
 31
0.0
  0
LINE
  5
127
330
1F
100
AcDbEntity
  8
LAYER0001
  6
CONTINUOUS
 62
     7
100
AcDbLine
 10
-345.5751637724919
 20
329.6308974748313
 30
0.0
 11
-286.5751637724919
 21
329.6308974748313
 31
0.0
  0
LINE
  5
128
330
1F
100
AcDbEntity
  8
LAYER0001
  6
CONTINUOUS
 62
     7
100
AcDbLine
 10
-345.5751637724919
 20
319.6308974748313
 30
0.0
 11
-285.7184909271114
 21
319.6308974748313
 31
0.0
  0
LINE
  5
129
330
1F
100
AcDbEntity
  8
LAYER0001
  6
CONTINUOUS
 62
     7
100
AcDbLine
 10
-345.5751637724919
 20
333.6308974748313
 30
0.0
 11
-345.5751637724919
 21
319.6308974748313
 31
0.0
  0
LINE
  5
12A
330
1F
100
AcDbEntity
  8
LAYER0001
  6
CONTINUOUS
 62
     7
100
AcDbLine
 10
-333.5751637724919
 20
319.6308974748313
 30
0.0
 11
-333.5751637724919
 21
308.1647957799162
 31
0.0
  0
LINE
  5
12B
330
1F
100
AcDbEntity
  8
LAYER0001
  6
CONTINUOUS
 62
     7
100
AcDbLine
 10
-279.5751637724919
 20
302.1308974748313
 30
0.0
 11
-290.5751637724919
 21
302.1308974748313
 31
0.0
  0
ARC
  5
12C
330
1F
100
AcDbEntity
  8
LAYER0001
  6
CONTINUOUS
 62
     7
100
AcDbCircle
 10
-278.5751637724919
 20
341.6308974748313
 30
0.0
 40
1.0
100
AcDbArc
 50
90.0
 51
164.4893800567526
  0
LINE
  5
12D
330
1F
100
AcDbEntity
  8
LAYER0001
  6
CONTINUOUS
 62
     7
100
AcDbLine
 10
-290.5751637724919
 20
302.1308974748313
 30
0.0
 11
-279.5387446757194
 21
341.8983144580903
 31
0.0
  0
LINE
  5
12E
330
1F
100
AcDbEntity
  8
LAYER0001
  6
CONTINUOUS
 62
     7
100
AcDbLine
 10
-286.5751637724919
 20
334.6308974748313
 30
0.0
 11
-286.5751637724919
 21
324.6308974748313
 31
0.0
  0
LINE
  5
12F
330
1F
100
AcDbEntity
  8
LAYER0001
  6
CONTINUOUS
 62
     7
100
AcDbLine
 10
-268.0751637724919
 20
335.6308974748313
 30
0.0
 11
-266.5751637724919
 21
335.6308974748313
 31
0.0
  0
LINE
  5
130
330
1F
100
AcDbEntity
  8
LAYER0001
  6
CONTINUOUS
 62
     7
100
AcDbLine
 10
-266.5751637724919
 20
335.6308974748313
 30
0.0
 11
-266.5751637724919
 21
323.6308974748313
 31
0.0
  0
LINE
  5
131
330
1F
100
AcDbEntity
  8
LAYER0001
  6
CONTINUOUS
 62
     7
100
AcDbLine
 10
-268.0751637724919
 20
323.6308974748313
 30
0.0
 11
-266.5751637724919
 21
323.6308974748313
 31
0.0
  0
LINE
  5
132
330
1F
100
AcDbEntity
  8
LAYER0001
  6
CONTINUOUS
 62
     7
100
AcDbLine
 10
-260.5751637724919
 20
334.6308974748313
 30
0.0
 11
-260.5751637724919
 21
324.6308974748313
 31
0.0
  0
LINE
  5
133
330
1F
100
AcDbEntity
  8
LAYER0001
  6
CONTINUOUS
 62
     7
100
AcDbLine
 10
-266.5751637724919
 20
334.6308974748313
 30
0.0
 11
-260.5751637724919
 21
334.6308974748313
 31
0.0
  0
LINE
  5
134
330
1F
100
AcDbEntity
  8
LAYER0001
  6
CONTINUOUS
 62
     7
100
AcDbLine
 10
-266.5751637724919
 20
324.6308974748313
 30
0.0
 11
-260.5751637724919
 21
324.6308974748313
 31
0.0
  0
LINE
  5
135
330
1F
100
AcDbEntity
  8
LAYER0001
  6
CONTINUOUS
 62
     7
100
AcDbLine
 10
-268.0751637724919
 20
310.8805351552292
 30
0.0
 11
-272.5751637724919
 21
310.8805351552292
 31
0.0
  0
LINE
  5
136
330
1F
100
AcDbEntity
  8
LAYER0001
  6
CONTINUOUS
 62
     7
100
AcDbLine
 10
-268.0751637724919
 20
148.3812597944323
 30
0.0
 11
-272.5751637724919
 21
148.3812597944323
 31
0.0
  0
LINE
  5
137
330
1F
100
AcDbEntity
  8
LAYER0001
  6
CONTINUOUS
 62
     7
100
AcDbLine
 10
-268.0751637724919
 20
148.3812597944323
 30
0.0
 11
-268.0751637724919
 21
116.6308974748313
 31
0.0
  0
LINE
  5
138
330
1F
100
AcDbEntity
  8
LAYER0001
  6
CONTINUOUS
 62
     7
100
AcDbLine
 10
-266.5751637724919
 20
123.6308974748304
 30
0.0
 11
-266.5751637724919
 21
135.6308974748304
 31
0.0
  0
LINE
  5
139
330
1F
100
AcDbEntity
  8
LAYER0001
  6
CONTINUOUS
 62
     7
100
AcDbLine
 10
-260.5751637724919
 20
124.6308974748304
 30
0.0
 11
-260.5751637724919
 21
134.6308974748304
 31
0.0
  0
LINE
  5
13A
330
1F
100
AcDbEntity
  8
LAYER0001
  6
CONTINUOUS
 62
     7
100
AcDbLine
 10
-266.5751637724919
 20
134.6308974748304
 30
0.0
 11
-260.5751637724919
 21
134.6308974748304
 31
0.0
  0
LINE
  5
13B
330
1F
100
AcDbEntity
  8
LAYER0001
  6
CONTINUOUS
 62
     7
100
AcDbLine
 10
-266.5751637724919
 20
124.6308974748304
 30
0.0
 11
-260.5751637724919
 21
124.6308974748304
 31
0.0
  0
LINE
  5
13C
330
1F
100
AcDbEntity
  8
LAYER0001
  6
CONTINUOUS
 62
     7
100
AcDbLine
 10
-268.0751637724919
 20
123.6308974748304
 30
0.0
 11
-266.5751637724919
 21
123.6308974748304
 31
0.0
  0
LINE
  5
13D
330
1F
100
AcDbEntity
  8
LAYER0001
  6
CONTINUOUS
 62
     7
100
AcDbLine
 10
-268.0751637724919
 20
135.6308974748304
 30
0.0
 11
-266.5751637724919
 21
135.6308974748304
 31
0.0
  0
LINE
  5
13E
330
1F
100
AcDbEntity
  8
LAYER0001
  6
CONTINUOUS
 62
     7
100
AcDbLine
 10
-275.5751637724919
 20
337.6308974748313
 30
0.0
 11
-272.5751637724919
 21
337.6308974748313
 31
0.0
  0
LINE
  5
13F
330
1F
100
AcDbEntity
  8
LAYER0001
  6
CONTINUOUS
 62
     7
100
AcDbLine
 10
-275.5751637724919
 20
121.6308974748313
 30
0.0
 11
-272.5751637724919
 21
121.6308974748313
 31
0.0
  0
LINE
  5
140
330
1F
100
AcDbEntity
  8
LAYER0001
  6
CONTINUOUS
 62
     7
100
AcDbLine
 10
-279.5751637724919
 20
311.8744382546393
 30
0.0
 11
-279.5751637724919
 21
116.6308974748313
 31
0.0
  0
LINE
  5
141
330
1F
100
AcDbEntity
  8
LAYER0001
  6
CONTINUOUS
 62
     7
100
AcDbLine
 10
-347.5751637724919
 20
120.6308974748313
 30
0.0
 11
-351.0751637724919
 21
120.6308974748313
 31
0.0
  0
LINE
  5
142
330
1F
100
AcDbEntity
  8
LAYER0001
  6
CONTINUOUS
 62
     7
100
AcDbLine
 10
-347.5751637724919
 20
187.6308974748313
 30
0.0
 11
-347.5751637724919
 21
120.6308974748313
 31
0.0
  0
LINE
  5
143
330
1F
100
AcDbEntity
  8
LAYER0001
  6
CONTINUOUS
 62
     7
100
AcDbLine
 10
-339.5751637724919
 20
240.6639731248043
 30
0.0
 11
-339.5751637724919
 21
187.6308974748313
 31
0.0
  0
CIRCLE
  5
144
330
1F
100
AcDbEntity
  8
LAYER0001
  6
CONTINUOUS
 62
     7
100
AcDbCircle
 10
-384.5751637724919
 20
264.6308974748313
 30
0.0
 40
3.2
  0
CIRCLE
  5
145
330
1F
100
AcDbEntity
  8
LAYER0001
  6
CONTINUOUS
 62
     7
100
AcDbCircle
 10
-384.5751637724919
 20
224.6308974748313
 30
0.0
 40
3.2
  0
CIRCLE
  5
146
330
1F
100
AcDbEntity
  8
LAYER0001
  6
CONTINUOUS
 62
     7
100
AcDbCircle
 10
-313.5751637724919
 20
214.6308974748313
 30
0.0
 40
15.14446051857567
  0
CIRCLE
  5
147
330
1F
100
AcDbEntity
  8
LAYER0001
  6
CONTINUOUS
 62
     7
100
AcDbCircle
 10
-313.5751637724919
 20
154.6308974748313
 30
0.0
 40
15.14446051857567
  0
LINE
  5
148
330
1F
100
AcDbEntity
  8
LAYER0001
  6
CONTINUOUS
 62
     7
100
AcDbLine
 10
-295.0751637724919
 20
109.6308974748313
 30
0.0
 11
-351.0751637724919
 21
109.6308974748313
 31
0.0
  0
LINE
  5
149
330
1F
100
AcDbEntity
  8
LAYER0001
  6
CONTINUOUS
 62
     7
100
AcDbLine
 10
-351.0751637724919
 20
120.6308974748313
 30
0.0
 11
-351.0751637724919
 21
109.6308974748313
 31
0.0
  0
LINE
  5
14A
330
1F
100
AcDbEntity
  8
LAYER0001
  6
CONTINUOUS
 62
     7
100
AcDbLine
 10
-296.0751637724919
 20
120.6308974748313
 30
0.0
 11
-296.0751637724919
 21
109.6308974748313
 31
0.0
  0
LINE
  5
14B
330
1F
100
AcDbEntity
  8
LAYER0001
  6
CONTINUOUS
 62
     7
100
AcDbLine
 10
-295.0751637724919
 20
120.6308974748313
 30
0.0
 11
-295.0751637724919
 21
98.63089747483133
 31
0.0
  0
LINE
  5
14C
330
1F
100
AcDbEntity
  8
LAYER0001
  6
CONTINUOUS
 62
     7
100
AcDbLine
 10
-280.0751637724919
 20
120.6308974748313
 30
0.0
 11
-280.0751637724919
 21
98.63089747483133
 31
0.0
  0
LINE
  5
14D
330
1F
100
AcDbEntity
  8
LAYER0001
  6
CONTINUOUS
 62
     7
100
AcDbLine
 10
-280.0751637724919
 20
98.63089747483133
 30
0.0
 11
-295.0751637724919
 21
98.63089747483133
 31
0.0
  0
LINE
  5
14E
330
1F
100
AcDbEntity
  8
LAYER0001
  6
CONTINUOUS
 62
     7
100
AcDbLine
 10
-300.0751637724919
 20
103.6308974748313
 30
0.0
 11
-295.0751637724919
 21
103.6308974748313
 31
0.0
  0
LINE
  5
14F
330
1F
100
AcDbEntity
  8
LAYER0001
  6
CONTINUOUS
 62
     7
100
AcDbLine
 10
-278.0751637724921
 20
113.1308974748313
 30
0.0
 11
-278.0751637724919
 21
100.1308974748313
 31
0.0
  0
LINE
  5
150
330
1F
100
AcDbEntity
  8
LAYER0001
  6
CONTINUOUS
 62
     7
100
AcDbLine
 10
-280.0751637724919
 20
114.1308974748313
 30
0.0
 11
-279.0751637724921
 21
114.1308974748313
 31
0.0
  0
LINE
  5
151
330
1F
100
AcDbEntity
  8
LAYER0001
  6
CONTINUOUS
 62
     7
100
AcDbLine
 10
-280.0751637724919
 20
99.13089747483133
 30
0.0
 11
-279.0751637724921
 21
99.13089747483133
 31
0.0
  0
LINE
  5
152
330
1F
100
AcDbEntity
  8
LAYER0001
  6
CONTINUOUS
 62
     7
100
AcDbLine
 10
-262.0751637724919
 20
108.6308974748313
 30
0.0
 11
-262.0751637724919
 21
104.6308974748313
 31
0.0
  0
LINE
  5
153
330
1F
100
AcDbEntity
  8
LAYER0001
  6
CONTINUOUS
 62
     7
100
AcDbLine
 10
-278.0751637724919
 20
109.6308974748313
 30
0.0
 11
-263.0751637724919
 21
109.6308974748313
 31
0.0
  0
LINE
  5
154
330
1F
100
AcDbEntity
  8
LAYER0001
  6
CONTINUOUS
 62
     7
100
AcDbLine
 10
-278.0751637724919
 20
103.6308974748313
 30
0.0
 11
-263.0751637724919
 21
103.6308974748313
 31
0.0
  0
LINE
  5
155
330
1F
100
AcDbEntity
  8
LAYER0001
  6
CONTINUOUS
 62
     7
100
AcDbLine
 10
-263.0751637724919
 20
103.6308974748313
 30
0.0
 11
-262.0751637724919
 21
104.6308974748313
 31
0.0
  0
LINE
  5
156
330
1F
100
AcDbEntity
  8
LAYER0001
  6
CONTINUOUS
 62
     7
100
AcDbLine
 10
-263.0751637724919
 20
109.6308974748313
 30
0.0
 11
-262.0751637724919
 21
108.6308974748313
 31
0.0
  0
LINE
  5
157
330
1F
100
AcDbEntity
  8
LAYER0001
  6
CONTINUOUS
 62
     7
100
AcDbLine
 10
-273.5751637724919
 20
84.13089747483099
 30
0.0
 11
-373.5751637724919
 21
84.13089747483099
 31
0.0
  0
LINE
  5
158
330
1F
100
AcDbEntity
  8
LAYER0001
  6
CONTINUOUS
 62
     7
100
AcDbLine
 10
-373.5751637724919
 20
84.13089747483099
 30
0.0
 11
-373.5751637724919
 21
76.79900589898506
 31
0.0
  0
LINE
  5
159
330
1F
100
AcDbEntity
  8
LAYER0001
  6
CONTINUOUS
 62
     7
100
AcDbLine
 10
-273.5751637724919
 20
84.13089747483099
 30
0.0
 11
-273.5751637724919
 21
76.79900589898506
 31
0.0
  0
ARC
  5
15A
330
1F
100
AcDbEntity
  8
LAYER0001
  6
CONTINUOUS
 62
     7
100
AcDbCircle
 10
-323.5751637724919
 20
317.6308974748313
 30
0.0
 40
250.0
100
AcDbArc
 50
259.4161974034926
 51
280.5838025965073
  0
ARC
  5
15B
330
1F
100
AcDbEntity
  8
LAYER0001
  6
CONTINUOUS
 62
     7
100
AcDbCircle
 10
-368.5751637724919
 20
76.79900589898506
 30
0.0
 40
5.0
100
AcDbArc
 50
180.0
 51
259.4161974034925
  0
ARC
  5
15C
330
1F
100
AcDbEntity
  8
LAYER0001
  6
CONTINUOUS
 62
     7
100
AcDbCircle
 10
-278.5751637724919
 20
76.79900589898506
 30
0.0
 40
5.0
100
AcDbArc
 50
280.5838025965068
 51
0.0
  0
LINE
  5
15D
330
1F
100
AcDbEntity
  8
LAYER0001
  6
CONTINUOUS
 62
     7
100
AcDbLine
 10
-347.0751637724919
 20
109.6308974748313
 30
0.0
 11
-347.0751637724919
 21
84.13089747483099
 31
0.0
  0
LINE
  5
15E
330
1F
100
AcDbEntity
  8
LAYER0001
  6
CONTINUOUS
 62
     7
100
AcDbLine
 10
-300.0751637724919
 20
109.6308974748313
 30
0.0
 11
-300.0751637724919
 21
84.13089747483099
 31
0.0
  0
LINE
  5
15F
330
1F
100
AcDbEntity
  8
LAYER0001
  6
CONTINUOUS
 62
     7
100
AcDbLine
 10
223.2981898225997
 20
98.63089747483133
 30
0.0
 11
213.2981898225985
 21
98.63089747483133
 31
0.0
  0
LINE
  5
160
330
1F
100
AcDbEntity
  8
LAYER0001
  6
CONTINUOUS
 62
     7
100
AcDbLine
 10
268.2981898225987
 20
84.13089747483099
 30
0.0
 11
168.2981898225989
 21
84.13089747483099
 31
0.0
  0
LINE
  5
161
330
1F
100
AcDbEntity
  8
LAYER0001
  6
CONTINUOUS
 62
     7
100
AcDbLine
 10
245.7981898225987
 20
109.6308974748313
 30
0.0
 11
234.2981898225987
 21
109.6308974748313
 31
0.0
  0
LINE
  5
162
330
1F
100
AcDbEntity
  8
LAYER0001
  6
CONTINUOUS
 62
     7
100
AcDbLine
 10
194.7981898225989
 20
109.6308974748313
 30
0.0
 11
194.7981898225989
 21
84.13089747483099
 31
0.0
  0
LINE
  5
163
330
1F
100
AcDbEntity
  8
LAYER0001
  6
CONTINUOUS
 62
     7
100
AcDbLine
 10
168.2981898225989
 20
84.13089747483099
 30
0.0
 11
168.2981898225989
 21
76.79900589898506
 31
0.0
  0
LINE
  5
164
330
1F
100
AcDbEntity
  8
LAYER0001
  6
CONTINUOUS
 62
     7
100
AcDbLine
 10
190.7981898225989
 20
116.6308974748304
 30
0.0
 11
190.7981898225989
 21
109.6308974748313
 31
0.0
  0
LINE
  5
165
330
1F
100
AcDbEntity
  8
LAYER0001
  6
CONTINUOUS
 62
     7
100
AcDbLine
 10
245.7981898225987
 20
116.6308974748304
 30
0.0
 11
245.7981898225987
 21
109.6308974748313
 31
0.0
  0
LINE
  5
166
330
1F
100
AcDbEntity
  8
LAYER0001
  6
CONTINUOUS
 62
     7
100
AcDbLine
 10
268.2981898225987
 20
84.13089747483099
 30
0.0
 11
268.2981898225987
 21
76.79900589898506
 31
0.0
  0
ARC
  5
167
330
1F
100
AcDbEntity
  8
LAYER0001
  6
CONTINUOUS
 62
     7
100
AcDbCircle
 10
218.2981898225987
 20
317.6308974748313
 30
0.0
 40
250.0
100
AcDbArc
 50
259.4161974034926
 51
280.5838025965073
  0
ARC
  5
168
330
1F
100
AcDbEntity
  8
LAYER0001
  6
CONTINUOUS
 62
     7
100
AcDbCircle
 10
263.2981898225987
 20
76.79900589898506
 30
0.0
 40
5.0
100
AcDbArc
 50
280.5838025965081
 51
0.0
  0
ARC
  5
169
330
1F
100
AcDbEntity
  8
LAYER0001
  6
CONTINUOUS
 62
     7
100
AcDbCircle
 10
173.2981898225989
 20
76.79900589898506
 30
0.0
 40
5.0
100
AcDbArc
 50
180.0
 51
259.4161974034918
  0
LINE
  5
16A
330
1F
100
AcDbEntity
  8
LAYER0001
  6
CONTINUOUS
 62
     7
100
AcDbLine
 10
241.7981898225987
 20
109.6308974748313
 30
0.0
 11
241.7981898225987
 21
84.13089747483099
 31
0.0
  0
CIRCLE
  5
16B
330
1F
100
AcDbEntity
  8
LAYER0001
  6
CONTINUOUS
 62
     7
100
AcDbCircle
 10
218.2981898225987
 20
106.6308974748313
 30
0.0
 40
3.0
  0
CIRCLE
  5
16C
330
1F
100
AcDbEntity
  8
LAYER0001
  6
CONTINUOUS
 62
     7
100
AcDbCircle
 10
218.2981898225987
 20
106.6308974748313
 30
0.0
 40
2.0
  0
LINE
  5
16D
330
1F
100
AcDbEntity
  8
LAYER0001
  6
CONTINUOUS
 62
     7
100
AcDbLine
 10
199.2981898225989
 20
116.6308974748304
 30
0.0
 11
199.2981898225989
 21
112.6308974748313
 31
0.0
  0
LINE
  5
16E
330
1F
100
AcDbEntity
  8
LAYER0001
  6
CONTINUOUS
 62
     7
100
AcDbLine
 10
237.2981898225987
 20
116.6308974748304
 30
0.0
 11
237.2981898225987
 21
112.6308974748313
 31
0.0
  0
LINE
  5
16F
330
1F
100
AcDbEntity
  8
LAYER0001
  6
CONTINUOUS
 62
     7
100
AcDbLine
 10
202.2981898225989
 20
109.6308974748313
 30
0.0
 11
190.7981898225989
 21
109.6308974748313
 31
0.0
  0
LINE
  5
170
330
1F
100
AcDbEntity
  8
LAYER0001
  6
CONTINUOUS
 62
     7
100
AcDbLine
 10
115.7981898225989
 20
-342.5117799820006
 30
0.0
 11
115.7981898225989
 21
-331.5117799820006
 31
0.0
  0
LINE
  5
171
330
1F
100
AcDbEntity
  8
LAYER0001
  6
CONTINUOUS
 62
     7
100
AcDbLine
 10
165.2981898225989
 20
-350.0117799820006
 30
0.0
 11
165.2981898225989
 21
-345.0117799820006
 31
0.0
  0
LINE
  5
172
330
1F
100
AcDbEntity
  8
LAYER0001
  6
CONTINUOUS
 62
     7
100
AcDbLine
 10
143.2981898225989
 20
-345.0117799820006
 30
0.0
 11
143.2981898225989
 21
-342.5117799820006
 31
0.0
  0
LINE
  5
173
330
1F
100
AcDbEntity
  8
LAYER0001
  6
CONTINUOUS
 62
     7
100
AcDbLine
 10
168.2981898225989
 20
-385.0117799820006
 30
0.0
 11
188.2981898225989
 21
-385.0117799820006
 31
0.0
  0
LINE
  5
174
330
1F
100
AcDbEntity
  8
LAYER0001
  6
CONTINUOUS
 62
     7
100
AcDbLine
 10
167.2981898225989
 20
-384.0117799820006
 30
0.0
 11
168.2981898225989
 21
-385.0117799820006
 31
0.0
  0
LINE
  5
175
330
1F
100
AcDbEntity
  8
LAYER0001
  6
CONTINUOUS
 62
     7
100
AcDbLine
 10
165.2981898225989
 20
-350.0117799820006
 30
0.0
 11
191.2981898225989
 21
-350.0117799820006
 31
0.0
  0
LINE
  5
176
330
1F
100
AcDbEntity
  8
LAYER0001
  6
CONTINUOUS
 62
     7
100
AcDbLine
 10
167.2981898225989
 20
-355.0117799820006
 30
0.0
 11
189.2981898225989
 21
-355.0117799820006
 31
0.0
  0
LINE
  5
177
330
1F
100
AcDbEntity
  8
LAYER0001
  6
CONTINUOUS
 62
     7
100
AcDbLine
 10
143.2981898225989
 20
-345.0117799820006
 30
0.0
 11
213.2981898225989
 21
-345.0117799820006
 31
0.0
  0
LINE
  5
178
330
1F
100
AcDbEntity
  8
LAYER0001
  6
CONTINUOUS
 62
     7
100
AcDbLine
 10
115.7981898225989
 20
-342.5117799820006
 30
0.0
 11
240.7981898225989
 21
-342.5117799820006
 31
0.0
  0
LINE
  5
179
330
1F
100
AcDbEntity
  8
LAYER0001
  6
CONTINUOUS
 62
     7
100
AcDbLine
 10
115.7981898225989
 20
-331.5117799820006
 30
0.0
 11
240.7981898225989
 21
-331.5117799820006
 31
0.0
  0
LINE
  5
17A
330
1F
100
AcDbEntity
  8
LAYER0001
  6
CONTINUOUS
 62
     7
100
AcDbLine
 10
167.2981898225989
 20
-384.0117799820006
 30
0.0
 11
167.2981898225989
 21
-350.0117799820006
 31
0.0
  0
LINE
  5
17B
330
1F
100
AcDbEntity
  8
LAYER0001
  6
CONTINUOUS
 62
     7
100
AcDbLine
 10
189.2981898225989
 20
-384.0117799820006
 30
0.0
 11
189.2981898225989
 21
-350.0117799820006
 31
0.0
  0
LINE
  5
17C
330
1F
100
AcDbEntity
  8
LAYER0001
  6
CONTINUOUS
 62
     7
100
AcDbLine
 10
191.2981898225989
 20
-350.0117799820006
 30
0.0
 11
191.2981898225989
 21
-345.0117799820006
 31
0.0
  0
LINE
  5
17D
330
1F
100
AcDbEntity
  8
LAYER0001
  6
CONTINUOUS
 62
     7
100
AcDbLine
 10
213.2981898225989
 20
-345.0117799820006
 30
0.0
 11
213.2981898225989
 21
-342.5117799820006
 31
0.0
  0
LINE
  5
17E
330
1F
100
AcDbEntity
  8
LAYER0001
  6
CONTINUOUS
 62
     7
100
AcDbLine
 10
240.7981898225989
 20
-342.5117799820006
 30
0.0
 11
240.7981898225989
 21
-331.5117799820006
 31
0.0
  0
LINE
  5
17F
330
1F
100
AcDbEntity
  8
LAYER0001
  6
CONTINUOUS
 62
     7
100
AcDbLine
 10
189.2981898225989
 20
-384.0117799820006
 30
0.0
 11
188.2981898225989
 21
-385.0117799820006
 31
0.0
  0
LINE
  5
180
330
1F
100
AcDbEntity
  8
LAYER0001
  6
CONTINUOUS
 62
     7
100
AcDbLine
 10
189.2981898225989
 20
-384.0117799820006
 30
0.0
 11
167.2981898225989
 21
-384.0117799820006
 31
0.0
  0
LINE
  5
181
330
1F
100
AcDbEntity
  8
LAYER0001
  6
CONTINUOUS
 62
     7
100
AcDbLine
 10
139.2981898225989
 20
-331.5117799820006
 30
0.0
 11
139.2981898225989
 21
-283.5117799820006
 31
0.0
  0
LINE
  5
182
330
1F
100
AcDbEntity
  8
LAYER0001
  6
CONTINUOUS
 62
     7
100
AcDbLine
 10
217.2981898225989
 20
-331.5117799820006
 30
0.0
 11
217.2981898225989
 21
-283.5117799820006
 31
0.0
  0
LINE
  5
183
330
1F
100
AcDbEntity
  8
LAYER0001
  6
CONTINUOUS
 62
     7
100
AcDbLine
 10
115.7981898225989
 20
-283.5117799820006
 30
0.0
 11
240.7981898225989
 21
-283.5117799820006
 31
0.0
  0
LINE
  5
184
330
1F
100
AcDbEntity
  8
LAYER0001
  6
CONTINUOUS
 62
     7
100
AcDbLine
 10
113.2981898225989
 20
-273.5117799820006
 30
0.0
 11
243.2981898225989
 21
-273.5117799820006
 31
0.0
  0
LINE
  5
185
330
1F
100
AcDbEntity
  8
LAYER0001
  6
CONTINUOUS
 62
     7
100
AcDbLine
 10
115.7981898225989
 20
-283.5117799820006
 30
0.0
 11
115.7981898225989
 21
-273.5117799820006
 31
0.0
  0
LINE
  5
186
330
1F
100
AcDbEntity
  8
LAYER0001
  6
CONTINUOUS
 62
     7
100
AcDbLine
 10
240.7981898225989
 20
-283.5117799820006
 30
0.0
 11
240.7981898225989
 21
-273.5117799820006
 31
0.0
  0
LINE
  5
187
330
1F
100
AcDbEntity
  8
LAYER0001
  6
CONTINUOUS
 62
     7
100
AcDbLine
 10
-452.5751637724919
 20
205.6308974748313
 30
0.0
 11
-404.5751637724919
 21
205.6308974748313
 31
0.0
  0
LINE
  5
188
330
1F
100
AcDbEntity
  8
LAYER0001
  6
CONTINUOUS
 62
     7
100
AcDbLine
 10
-452.5751637724919
 20
283.6308974748313
 30
0.0
 11
-404.5751637724919
 21
283.6308974748313
 31
0.0
  0
LINE
  5
189
330
1F
100
AcDbEntity
  8
LAYER0001
  6
CONTINUOUS
 62
     7
100
AcDbLine
 10
120.7981898225989
 20
-331.5117799820006
 30
0.0
 11
120.7981898225989
 21
-292.4117799820006
 31
0.0
  0
LINE
  5
18A
330
1F
100
AcDbEntity
  8
LAYER0001
  6
CONTINUOUS
 62
     7
100
AcDbLine
 10
235.7981898225989
 20
-331.5117799820006
 30
0.0
 11
235.7981898225989
 21
-292.4117799820006
 31
0.0
  0
LINE
  5
18B
330
1F
100
AcDbEntity
  8
LAYER0001
  6
CONTINUOUS
 62
     7
100
AcDbLine
 10
99.40293350887569
 20
-158.5117799820006
 30
0.0
 11
205.2981898225989
 21
-158.5117799820006
 31
0.0
  0
LINE
  5
18C
330
1F
100
AcDbEntity
  8
LAYER0001
  6
CONTINUOUS
 62
     7
100
AcDbLine
 10
205.2981898225989
 20
-156.5879299691803
 30
0.0
 11
205.2981898225989
 21
-159.4304615249236
 31
0.0
  0
LINE
  5
18D
330
1F
100
AcDbEntity
  8
LAYER0001
  6
CONTINUOUS
 62
     7
100
AcDbLine
 10
185.0269690719106
 20
-168.2915247263929
 30
0.0
 11
187.4886736102227
 21
-169.7127905042527
 31
0.0
  0
LINE
  5
18E
330
1F
100
AcDbEntity
  8
LAYER0001
  6
CONTINUOUS
 62
     7
100
AcDbLine
 10
172.0269690719097
 20
-190.8081852247885
 30
0.0
 11
174.4886736102358
 21
-192.229451002656
 31
0.0
  0
ARC
  5
18F
330
1F
100
AcDbEntity
  8
LAYER0001
  6
CONTINUOUS
 62
     7
100
AcDbCircle
 10
168.2940260710316
 20
-202.5117799820006
 30
0.0
 40
12.00416375156731
100
AcDbArc
 50
301.0671005857232
 51
58.93289941427675
  0
ARC
  5
190
330
1F
100
AcDbEntity
  8
LAYER0001
  6
CONTINUOUS
 62
     7
100
AcDbCircle
 10
193.2961079468155
 20
-159.2069038781462
 30
0.0
 40
12.00416375156731
100
AcDbArc
 50
241.0671005857351
 51
358.9328994142753
  0
ARC
  5
191
330
1F
100
AcDbEntity
  8
LAYER0001
  6
CONTINUOUS
 62
     7
100
AcDbCircle
 10
173.5269690719101
 20
-188.2101090134353
 30
0.0
 40
3.0
100
AcDbArc
 50
162.2844938563473
 51
240.0000000000005
  0
ARC
  5
192
330
1F
100
AcDbEntity
  8
LAYER0001
  6
CONTINUOUS
 62
     7
100
AcDbCircle
 10
218.2981898225989
 20
-202.5117799820006
 30
0.0
 40
50.0
100
AcDbArc
 50
137.7155061436455
 51
162.2844938563476
  0
ARC
  5
193
330
1F
100
AcDbEntity
  8
LAYER0001
  6
CONTINUOUS
 62
     7
100
AcDbCircle
 10
183.5269690719106
 20
-170.8896009377459
 30
0.0
 40
3.0
100
AcDbArc
 50
59.99999999999946
 51
137.7155061436448
  0
ARC
  5
194
330
1F
100
AcDbEntity
  8
LAYER0001
  6
CONTINUOUS
 62
     7
100
AcDbCircle
 10
208.2981898225989
 20
-156.5879299691803
 30
0.0
 40
3.0
100
AcDbArc
 50
102.2844938563393
 51
180.0
  0
LINE
  5
195
330
1F
100
AcDbEntity
  8
LAYER0001
  6
CONTINUOUS
 62
     7
100
AcDbLine
 10
231.2981898225989
 20
-156.5879299691803
 30
0.0
 11
231.2981898225989
 21
-159.4304615249236
 31
0.0
  0
ARC
  5
196
330
1F
100
AcDbEntity
  8
LAYER0001
  6
CONTINUOUS
 62
     7
100
AcDbCircle
 10
228.2981898225989
 20
-156.5879299691803
 30
0.0
 40
3.0
100
AcDbArc
 50
0.0
 51
77.71550614363382
  0
ARC
  5
197
330
1F
100
AcDbEntity
  8
LAYER0001
  6
CONTINUOUS
 62
     7
100
AcDbCircle
 10
218.2981898225989
 20
-202.5117799820006
 30
0.0
 40
50.0
100
AcDbArc
 50
17.71550614365228
 51
42.28449385635449
  0
ARC
  5
198
330
1F
100
AcDbEntity
  8
LAYER0001
  6
CONTINUOUS
 62
     7
100
AcDbCircle
 10
253.0694105732873
 20
-170.8896009377459
 30
0.0
 40
3.0
100
AcDbArc
 50
42.2844938563552
 51
119.9999999999995
  0
ARC
  5
199
330
1F
100
AcDbEntity
  8
LAYER0001
  6
CONTINUOUS
 62
     7
100
AcDbCircle
 10
263.0694105732879
 20
-188.2101090134353
 30
0.0
 40
3.0
100
AcDbArc
 50
299.9999999999994
 51
17.71550614365269
  0
LINE
  5
19A
330
1F
100
AcDbEntity
  8
LAYER0001
  6
CONTINUOUS
 62
     7
100
AcDbLine
 10
251.5694105732873
 20
-168.2915247263929
 30
0.0
 11
249.1077060349753
 21
-169.7127905042527
 31
0.0
  0
LINE
  5
19B
330
1F
100
AcDbEntity
  8
LAYER0001
  6
CONTINUOUS
 62
     7
100
AcDbLine
 10
264.5694105732882
 20
-190.8081852247885
 30
0.0
 11
262.1077060349621
 21
-192.229451002656
 31
0.0
  0
ARC
  5
19C
330
1F
100
AcDbEntity
  8
LAYER0001
  6
CONTINUOUS
 62
     7
100
AcDbCircle
 10
243.3002716983824
 20
-159.2069038781462
 30
0.0
 40
12.00416375156731
100
AcDbArc
 50
181.0671005857247
 51
298.9328994142649
  0
ARC
  5
19D
330
1F
100
AcDbEntity
  8
LAYER0001
  6
CONTINUOUS
 62
     7
100
AcDbCircle
 10
218.2981898225989
 20
-202.5117799820006
 30
0.0
 40
50.0
100
AcDbArc
 50
77.71550614366065
 51
102.2844938563394
  0
LINE
  5
19E
330
1F
100
AcDbEntity
  8
LAYER0001
  6
CONTINUOUS
 62
     7
100
AcDbLine
 10
205.2981898225989
 20
-248.435629994821
 30
0.0
 11
205.2981898225989
 21
-245.5930984390777
 31
0.0
  0
ARC
  5
19F
330
1F
100
AcDbEntity
  8
LAYER0001
  6
CONTINUOUS
 62
     7
100
AcDbCircle
 10
218.2981898225989
 20
-202.5117799820006
 30
0.0
 40
50.0
100
AcDbArc
 50
257.7155061436607
 51
282.2844938563393
  0
ARC
  5
1A0
330
1F
100
AcDbEntity
  8
LAYER0001
  6
CONTINUOUS
 62
     7
100
AcDbCircle
 10
208.2981898225989
 20
-248.435629994821
 30
0.0
 40
3.0
100
AcDbArc
 50
180.0
 51
257.7155061436607
  0
ARC
  5
1A1
330
1F
100
AcDbEntity
  8
LAYER0001
  6
CONTINUOUS
 62
     7
100
AcDbCircle
 10
218.2981898225989
 20
-202.5117799820006
 30
0.0
 40
50.0
100
AcDbArc
 50
197.7155061436524
 51
222.2844938563546
  0
ARC
  5
1A2
330
1F
100
AcDbEntity
  8
LAYER0001
  6
CONTINUOUS
 62
     7
100
AcDbCircle
 10
183.5269690719106
 20
-234.1339590262552
 30
0.0
 40
3.0
100
AcDbArc
 50
222.2844938563552
 51
299.9999999999994
  0
ARC
  5
1A3
330
1F
100
AcDbEntity
  8
LAYER0001
  6
CONTINUOUS
 62
     7
100
AcDbCircle
 10
173.5269690719101
 20
-216.8134509505659
 30
0.0
 40
3.0
100
AcDbArc
 50
119.9999999999995
 51
197.7155061436527
  0
LINE
  5
1A4
330
1F
100
AcDbEntity
  8
LAYER0001
  6
CONTINUOUS
 62
     7
100
AcDbLine
 10
185.0269690719106
 20
-236.7320352376084
 30
0.0
 11
187.4886736102227
 21
-235.3107694597485
 31
0.0
  0
LINE
  5
1A5
330
1F
100
AcDbEntity
  8
LAYER0001
  6
CONTINUOUS
 62
     7
100
AcDbLine
 10
172.0269690719097
 20
-214.2153747392128
 30
0.0
 11
174.4886736102358
 21
-212.7941089613451
 31
0.0
  0
ARC
  5
1A6
330
1F
100
AcDbEntity
  8
LAYER0001
  6
CONTINUOUS
 62
     7
100
AcDbCircle
 10
193.2961079468155
 20
-245.816656085855
 30
0.0
 40
12.00416375156731
100
AcDbArc
 50
1.067100585724455
 51
118.932899414265
  0
LINE
  5
1A7
330
1F
100
AcDbEntity
  8
LAYER0001
  6
CONTINUOUS
 62
     7
100
AcDbLine
 10
231.2981898225989
 20
-248.435629994821
 30
0.0
 11
231.2981898225989
 21
-245.5930984390777
 31
0.0
  0
ARC
  5
1A8
330
1F
100
AcDbEntity
  8
LAYER0001
  6
CONTINUOUS
 62
     7
100
AcDbCircle
 10
228.2981898225989
 20
-248.435629994821
 30
0.0
 40
3.0
100
AcDbArc
 50
282.2844938563659
 51
0.0
  0
ARC
  5
1A9
330
1F
100
AcDbEntity
  8
LAYER0001
  6
CONTINUOUS
 62
     7
100
AcDbCircle
 10
218.2981898225989
 20
-202.5117799820006
 30
0.0
 40
50.0
100
AcDbArc
 50
317.7155061436454
 51
342.2844938563476
  0
ARC
  5
1AA
330
1F
100
AcDbEntity
  8
LAYER0001
  6
CONTINUOUS
 62
     7
100
AcDbCircle
 10
253.0694105732873
 20
-234.1339590262552
 30
0.0
 40
3.0
100
AcDbArc
 50
240.0000000000005
 51
317.7155061436448
  0
ARC
  5
1AB
330
1F
100
AcDbEntity
  8
LAYER0001
  6
CONTINUOUS
 62
     7
100
AcDbCircle
 10
263.0694105732879
 20
-216.8134509505659
 30
0.0
 40
3.0
100
AcDbArc
 50
342.2844938563473
 51
59.99999999999947
  0
LINE
  5
1AC
330
1F
100
AcDbEntity
  8
LAYER0001
  6
CONTINUOUS
 62
     7
100
AcDbLine
 10
251.5694105732873
 20
-236.7320352376084
 30
0.0
 11
249.1077060349753
 21
-235.3107694597485
 31
0.0
  0
LINE
  5
1AD
330
1F
100
AcDbEntity
  8
LAYER0001
  6
CONTINUOUS
 62
     7
100
AcDbLine
 10
264.5694105732882
 20
-214.2153747392128
 30
0.0
 11
262.1077060349621
 21
-212.7941089613451
 31
0.0
  0
ARC
  5
1AE
330
1F
100
AcDbEntity
  8
LAYER0001
  6
CONTINUOUS
 62
     7
100
AcDbCircle
 10
243.3002716983824
 20
-245.816656085855
 30
0.0
 40
12.00416375156731
100
AcDbArc
 50
61.06710058573496
 51
178.9328994142756
  0
ARC
  5
1AF
330
1F
100
AcDbEntity
  8
LAYER0001
  6
CONTINUOUS
 62
     7
100
AcDbCircle
 10
268.3023535741663
 20
-202.5117799820006
 30
0.0
 40
12.00416375156731
100
AcDbArc
 50
121.0671005857537
 51
238.9328994142464
  0
LINE
  5
1B0
330
1F
100
AcDbEntity
  8
LAYER0001
  6
CONTINUOUS
 62
     7
100
AcDbLine
 10
112.8880270364333
 20
-226.5117799820006
 30
0.0
 11
123.2981898225989
 21
-226.5117799820006
 31
0.0
  0
LINE
  5
1B1
330
1F
100
AcDbEntity
  8
LAYER0001
  6
CONTINUOUS
 62
     7
100
AcDbLine
 10
216.2981898225989
 20
-141.0117799820006
 30
0.0
 11
220.2981898225989
 21
-141.0117799820006
 31
0.0
  0
LINE
  5
1B2
330
1F
100
AcDbEntity
  8
LAYER0001
  6
CONTINUOUS
 62
     7
100
AcDbLine
 10
215.2981898225989
 20
-142.0117799820006
 30
0.0
 11
216.2981898225989
 21
-141.0117799820006
 31
0.0
  0
LINE
  5
1B3
330
1F
100
AcDbEntity
  8
LAYER0001
  6
CONTINUOUS
 62
     7
100
AcDbLine
 10
221.2981898225989
 20
-142.0117799820006
 30
0.0
 11
220.2981898225989
 21
-141.0117799820006
 31
0.0
  0
LINE
  5
1B4
330
1F
100
AcDbEntity
  8
LAYER0001
  6
CONTINUOUS
 62
     7
100
AcDbLine
 10
221.2981898225989
 20
-152.6018611281294
 30
0.0
 11
221.2981898225989
 21
-142.0117799820006
 31
0.0
  0
LINE
  5
1B5
330
1F
100
AcDbEntity
  8
LAYER0001
  6
CONTINUOUS
 62
     7
100
AcDbLine
 10
215.2981898225989
 20
-152.6018611281294
 30
0.0
 11
215.2981898225989
 21
-142.0117799820006
 31
0.0
  0
LINE
  5
1B6
330
1F
100
AcDbEntity
  8
LAYER0001
  6
CONTINUOUS
 62
     7
100
AcDbLine
 10
215.2981898225989
 20
-142.0117799820006
 30
0.0
 11
221.2981898225989
 21
-142.0117799820006
 31
0.0
  0
LINE
  5
1B7
330
1F
100
AcDbEntity
  8
LAYER0001
  6
CONTINUOUS
 62
     7
100
AcDbLine
 10
231.2981898225989
 20
-158.5117799820006
 30
0.0
 11
315.2981898225989
 21
-158.5117799820007
 31
0.0
  0
LINE
  5
1B8
330
1F
100
AcDbEntity
  8
LAYER0001
  6
CONTINUOUS
 62
     7
100
AcDbLine
 10
137.2981898225989
 20
-158.5117799820006
 30
0.0
 11
137.2981898225989
 21
-147.0117799820006
 31
0.0
  0
LINE
  5
1B9
330
1F
100
AcDbEntity
  8
LAYER0001
  6
CONTINUOUS
 62
     7
100
AcDbLine
 10
277.2981898225989
 20
-158.5117799820007
 30
0.0
 11
277.2981898225989
 21
-147.0117799820007
 31
0.0
  0
LINE
  5
1BA
330
1F
100
AcDbEntity
  8
LAYER0001
  6
CONTINUOUS
 62
     7
100
AcDbLine
 10
277.2981898225989
 20
-147.0117799820007
 30
0.0
 11
221.2981898225989
 21
-147.0117799820006
 31
0.0
  0
LINE
  5
1BB
330
1F
100
AcDbEntity
  8
LAYER0001
  6
CONTINUOUS
 62
     7
100
AcDbLine
 10
137.2981898225989
 20
-151.5117799820006
 30
0.0
 11
215.2981898225989
 21
-151.5117799820006
 31
0.0
  0
LINE
  5
1BC
330
1F
100
AcDbEntity
  8
LAYER0001
  6
CONTINUOUS
 62
     7
100
AcDbLine
 10
152.2981898225989
 20
-154.5117799820006
 30
0.0
 11
152.2981898225989
 21
-151.5117799820006
 31
0.0
  0
LINE
  5
1BD
330
1F
100
AcDbEntity
  8
LAYER0001
  6
CONTINUOUS
 62
     7
100
AcDbLine
 10
262.2981898225989
 20
-154.5117799820006
 30
0.0
 11
262.2981898225989
 21
-151.5117799820007
 31
0.0
  0
LINE
  5
1BE
330
1F
100
AcDbEntity
  8
LAYER0001
  6
CONTINUOUS
 62
     7
100
AcDbLine
 10
215.2981898225989
 20
-147.0117799820006
 30
0.0
 11
137.2981898225989
 21
-147.0117799820006
 31
0.0
  0
LINE
  5
1BF
330
1F
100
AcDbEntity
  8
LAYER0001
  6
CONTINUOUS
 62
     7
100
AcDbLine
 10
221.2981898225989
 20
-151.5117799820006
 30
0.0
 11
277.2981898225989
 21
-151.5117799820007
 31
0.0
  0
LINE
  5
1C0
330
1F
100
AcDbEntity
  8
LAYER0001
  6
CONTINUOUS
 62
     7
100
AcDbLine
 10
104.2981898225989
 20
-149.5117799820006
 30
0.0
 11
137.2981898225989
 21
-149.5117799820006
 31
0.0
  0
LINE
  5
1C1
330
1F
100
AcDbEntity
  8
LAYER0001
  6
CONTINUOUS
 62
     7
100
AcDbLine
 10
277.2981898225989
 20
-149.5117799820007
 30
0.0
 11
310.2981898225989
 21
-149.5117799820007
 31
0.0
  0
LINE
  5
1C2
330
1F
100
AcDbEntity
  8
LAYER0001
  6
CONTINUOUS
 62
     7
100
AcDbLine
 10
315.2981898225989
 20
-152.8117799820006
 30
0.0
 11
315.2981898225989
 21
-151.5117799820007
 31
0.0
  0
LINE
  5
1C3
330
1F
100
AcDbEntity
  8
LAYER0001
  6
CONTINUOUS
 62
     7
100
AcDbLine
 10
99.29818982259894
 20
-151.5117799820006
 30
0.0
 11
99.29818982259894
 21
-152.8117799820006
 31
0.0
  0
LINE
  5
1C4
330
1F
100
AcDbEntity
  8
LAYER0001
  6
CONTINUOUS
 62
     7
100
AcDbLine
 10
99.29818982259894
 20
-151.5117799820006
 30
0.0
 11
137.2981898225989
 21
-151.5117799820006
 31
0.0
  0
LINE
  5
1C5
330
1F
100
AcDbEntity
  8
LAYER0001
  6
CONTINUOUS
 62
     7
100
AcDbLine
 10
277.2981898225989
 20
-151.5117799820007
 30
0.0
 11
315.2981898225989
 21
-151.5117799820007
 31
0.0
  0
LINE
  5
1C6
330
1F
100
AcDbEntity
  8
LAYER0001
  6
CONTINUOUS
 62
     7
100
AcDbLine
 10
153.2981898225989
 20
-145.5117799820006
 30
0.0
 11
141.2981898225989
 21
-145.5117799820006
 31
0.0
  0
LINE
  5
1C7
330
1F
100
AcDbEntity
  8
LAYER0001
  6
CONTINUOUS
 62
     7
100
AcDbLine
 10
152.2981898225989
 20
-139.5117799820006
 30
0.0
 11
142.2981898225989
 21
-139.5117799820006
 31
0.0
  0
LINE
  5
1C8
330
1F
100
AcDbEntity
  8
LAYER0001
  6
CONTINUOUS
 62
     7
100
AcDbLine
 10
142.2981898225989
 20
-145.5117799820006
 30
0.0
 11
142.2981898225989
 21
-139.5117799820006
 31
0.0
  0
LINE
  5
1C9
330
1F
100
AcDbEntity
  8
LAYER0001
  6
CONTINUOUS
 62
     7
100
AcDbLine
 10
152.2981898225989
 20
-145.5117799820006
 30
0.0
 11
152.2981898225989
 21
-139.5117799820006
 31
0.0
  0
LINE
  5
1CA
330
1F
100
AcDbEntity
  8
LAYER0001
  6
CONTINUOUS
 62
     7
100
AcDbLine
 10
153.2981898225989
 20
-147.0117799820006
 30
0.0
 11
153.2981898225989
 21
-145.5117799820006
 31
0.0
  0
LINE
  5
1CB
330
1F
100
AcDbEntity
  8
LAYER0001
  6
CONTINUOUS
 62
     7
100
AcDbLine
 10
141.2981898225989
 20
-147.0117799820006
 30
0.0
 11
141.2981898225989
 21
-145.5117799820006
 31
0.0
  0
LINE
  5
1CC
330
1F
100
AcDbEntity
  8
LAYER0001
  6
CONTINUOUS
 62
     7
100
AcDbLine
 10
261.2981898225989
 20
-145.5117799820007
 30
0.0
 11
273.2981898225989
 21
-145.5117799820007
 31
0.0
  0
LINE
  5
1CD
330
1F
100
AcDbEntity
  8
LAYER0001
  6
CONTINUOUS
 62
     7
100
AcDbLine
 10
262.2981898225989
 20
-139.5117799820007
 30
0.0
 11
272.2981898225989
 21
-139.5117799820007
 31
0.0
  0
LINE
  5
1CE
330
1F
100
AcDbEntity
  8
LAYER0001
  6
CONTINUOUS
 62
     7
100
AcDbLine
 10
272.2981898225989
 20
-145.5117799820007
 30
0.0
 11
272.2981898225989
 21
-139.5117799820007
 31
0.0
  0
LINE
  5
1CF
330
1F
100
AcDbEntity
  8
LAYER0001
  6
CONTINUOUS
 62
     7
100
AcDbLine
 10
262.2981898225989
 20
-145.5117799820007
 30
0.0
 11
262.2981898225989
 21
-139.5117799820007
 31
0.0
  0
LINE
  5
1D0
330
1F
100
AcDbEntity
  8
LAYER0001
  6
CONTINUOUS
 62
     7
100
AcDbLine
 10
261.2981898225989
 20
-147.0117799820007
 30
0.0
 11
261.2981898225989
 21
-145.5117799820007
 31
0.0
  0
LINE
  5
1D1
330
1F
100
AcDbEntity
  8
LAYER0001
  6
CONTINUOUS
 62
     7
100
AcDbLine
 10
273.2981898225989
 20
-147.0117799820007
 30
0.0
 11
273.2981898225989
 21
-145.5117799820007
 31
0.0
  0
LINE
  5
1D2
330
1F
100
AcDbEntity
  8
LAYER0001
  6
CONTINUOUS
 62
     7
100
AcDbLine
 10
99.29818982259894
 20
-151.5117799820006
 30
0.0
 11
104.2981898225989
 21
-149.5117799820006
 31
0.0
  0
LINE
  5
1D3
330
1F
100
AcDbEntity
  8
LAYER0001
  6
CONTINUOUS
 62
     7
100
AcDbLine
 10
315.2981898225989
 20
-151.5117799820007
 30
0.0
 11
310.2981898225989
 21
-149.5117799820007
 31
0.0
  0
LINE
  5
1D4
330
1F
100
AcDbEntity
  8
LAYER0001
  6
CONTINUOUS
 62
     7
100
AcDbLine
 10
112.9379598599836
 20
-6.51177998200076
 30
0.0
 11
301.6828186835968
 21
-6.51177998200076
 31
0.0
  0
ARC
  5
1D5
330
1F
100
AcDbEntity
  8
LAYER0001
  6
CONTINUOUS
 62
     7
100
AcDbCircle
 10
229.2981898225989
 20
-277.1390009375108
 30
0.0
 40
15.27277904448975
100
AcDbArc
 50
252.387526014482
 51
287.6124739855176
  0
ARC
  5
1D6
330
1F
100
AcDbEntity
  8
LAYER0001
  6
CONTINUOUS
 62
     7
100
AcDbCircle
 10
222.3675908993573
 20
-288.3289823687184
 30
0.0
 40
4.082797613282263
100
AcDbArc
 50
244.4468723822588
 51
304.4468723822604
  0
ARC
  5
1D7
330
1F
100
AcDbEntity
  8
LAYER0001
  6
CONTINUOUS
 62
     7
100
AcDbCircle
 10
236.2287887458406
 20
-288.3289823687184
 30
0.0
 40
4.082797613282263
100
AcDbArc
 50
235.5531276177396
 51
295.5531276177412
  0
LINE
  5
1D8
330
1F
100
AcDbEntity
  8
LAYER0001
  6
CONTINUOUS
 62
     7
100
AcDbLine
 10
238.538189822599
 20
-286.0117799820006
 30
0.0
 11
238.538189822599
 21
-291.6958656482055
 31
0.0
  0
LINE
  5
1D9
330
1F
100
AcDbEntity
  8
LAYER0001
  6
CONTINUOUS
 62
     7
100
AcDbLine
 10
238.538189822599
 20
-291.6958656482055
 30
0.0
 11
237.2981898225989
 21
-292.4117799820006
 31
0.0
  0
LINE
  5
1DA
330
1F
100
AcDbEntity
  8
LAYER0001
  6
CONTINUOUS
 62
     7
100
AcDbLine
 10
237.2981898225989
 20
-292.4117799820006
 30
0.0
 11
221.2981898225989
 21
-292.4117799820006
 31
0.0
  0
LINE
  5
1DB
330
1F
100
AcDbEntity
  8
LAYER0001
  6
CONTINUOUS
 62
     7
100
AcDbLine
 10
221.2981898225989
 20
-292.4117799820006
 30
0.0
 11
220.0581898225989
 21
-291.6958656482055
 31
0.0
  0
LINE
  5
1DC
330
1F
100
AcDbEntity
  8
LAYER0001
  6
CONTINUOUS
 62
     7
100
AcDbLine
 10
220.0581898225989
 20
-291.6958656482055
 30
0.0
 11
220.0581898225989
 21
-286.0117799820006
 31
0.0
  0
LINE
  5
1DD
330
1F
100
AcDbEntity
  8
LAYER0001
  6
CONTINUOUS
 62
     7
100
AcDbLine
 10
233.919387669082
 20
-291.6958656482055
 30
0.0
 11
233.919387669082
 21
-286.0117799820006
 31
0.0
  0
LINE
  5
1DE
330
1F
100
AcDbEntity
  8
LAYER0001
  6
CONTINUOUS
 62
     7
100
AcDbLine
 10
224.6769919761159
 20
-291.6958656482055
 30
0.0
 11
224.6769919761159
 21
-286.0117799820006
 31
0.0
  0
LINE
  5
1DF
330
1F
100
AcDbEntity
  8
LAYER0001
  6
CONTINUOUS
 62
     7
100
AcDbLine
 10
238.498189822599
 20
-286.0117799820006
 30
0.0
 11
238.498189822599
 21
-283.5117799820006
 31
0.0
  0
LINE
  5
1E0
330
1F
100
AcDbEntity
  8
LAYER0001
  6
CONTINUOUS
 62
     7
100
AcDbLine
 10
228.7981898225989
 20
-283.5117799820006
 30
0.0
 11
231.7081154082643
 21
-286.0117799820006
 31
0.0
  0
LINE
  5
1E1
330
1F
100
AcDbEntity
  8
LAYER0001
  6
CONTINUOUS
 62
     7
100
AcDbLine
 10
227.2981898225989
 20
-283.5117799820006
 30
0.0
 11
230.2081154082643
 21
-286.0117799820006
 31
0.0
  0
LINE
  5
1E2
330
1F
100
AcDbEntity
  8
LAYER0001
  6
CONTINUOUS
 62
     7
100
AcDbLine
 10
220.0581898225989
 20
-286.0117799820006
 30
0.0
 11
238.498189822599
 21
-286.0117799820006
 31
0.0
  0
LINE
  5
1E3
330
1F
100
AcDbEntity
  8
LAYER0001
  6
CONTINUOUS
 62
     7
100
AcDbLine
 10
220.0981898225989
 20
-283.5117799820006
 30
0.0
 11
220.0981898225989
 21
-286.0117799820006
 31
0.0
  0
LINE
  5
1E4
330
1F
100
AcDbEntity
  8
LAYER0001
  6
CONTINUOUS
 62
     7
100
AcDbLine
 10
136.4981898225989
 20
-286.0117799820006
 30
0.0
 11
136.4981898225989
 21
-283.5117799820006
 31
0.0
  0
LINE
  5
1E5
330
1F
100
AcDbEntity
  8
LAYER0001
  6
CONTINUOUS
 62
     7
100
AcDbLine
 10
126.7981898225989
 20
-283.5117799820006
 30
0.0
 11
129.7081154082643
 21
-286.0117799820006
 31
0.0
  0
LINE
  5
1E6
330
1F
100
AcDbEntity
  8
LAYER0001
  6
CONTINUOUS
 62
     7
100
AcDbLine
 10
125.2981898225989
 20
-283.5117799820006
 30
0.0
 11
128.2081154082643
 21
-286.0117799820006
 31
0.0
  0
LINE
  5
1E7
330
1F
100
AcDbEntity
  8
LAYER0001
  6
CONTINUOUS
 62
     7
100
AcDbLine
 10
118.0581898225989
 20
-286.0117799820006
 30
0.0
 11
136.4981898225989
 21
-286.0117799820006
 31
0.0
  0
LINE
  5
1E8
330
1F
100
AcDbEntity
  8
LAYER0001
  6
CONTINUOUS
 62
     7
100
AcDbLine
 10
118.0981898225989
 20
-283.5117799820006
 30
0.0
 11
118.0981898225989
 21
-286.0117799820006
 31
0.0
  0
ARC
  5
1E9
330
1F
100
AcDbEntity
  8
LAYER0001
  6
CONTINUOUS
 62
     7
100
AcDbCircle
 10
127.2981898225989
 20
-277.1390009375108
 30
0.0
 40
15.27277904448975
100
AcDbArc
 50
252.387526014482
 51
287.6124739855176
  0
ARC
  5
1EA
330
1F
100
AcDbEntity
  8
LAYER0001
  6
CONTINUOUS
 62
     7
100
AcDbCircle
 10
120.3675908993573
 20
-288.3289823687184
 30
0.0
 40
4.082797613282263
100
AcDbArc
 50
244.4468723822588
 51
304.4468723822604
  0
ARC
  5
1EB
330
1F
100
AcDbEntity
  8
LAYER0001
  6
CONTINUOUS
 62
     7
100
AcDbCircle
 10
134.2287887458407
 20
-288.3289823687184
 30
0.0
 40
4.082797613282263
100
AcDbArc
 50
235.5531276177396
 51
295.5531276177412
  0
LINE
  5
1EC
330
1F
100
AcDbEntity
  8
LAYER0001
  6
CONTINUOUS
 62
     7
100
AcDbLine
 10
136.538189822599
 20
-286.0117799820006
 30
0.0
 11
136.538189822599
 21
-291.6958656482055
 31
0.0
  0
LINE
  5
1ED
330
1F
100
AcDbEntity
  8
LAYER0001
  6
CONTINUOUS
 62
     7
100
AcDbLine
 10
136.538189822599
 20
-291.6958656482055
 30
0.0
 11
135.2981898225989
 21
-292.4117799820006
 31
0.0
  0
LINE
  5
1EE
330
1F
100
AcDbEntity
  8
LAYER0001
  6
CONTINUOUS
 62
     7
100
AcDbLine
 10
135.2981898225989
 20
-292.4117799820006
 30
0.0
 11
119.2981898225989
 21
-292.4117799820006
 31
0.0
  0
LINE
  5
1EF
330
1F
100
AcDbEntity
  8
LAYER0001
  6
CONTINUOUS
 62
     7
100
AcDbLine
 10
119.2981898225989
 20
-292.4117799820006
 30
0.0
 11
118.0581898225989
 21
-291.6958656482055
 31
0.0
  0
LINE
  5
1F0
330
1F
100
AcDbEntity
  8
LAYER0001
  6
CONTINUOUS
 62
     7
100
AcDbLine
 10
118.0581898225989
 20
-291.6958656482055
 30
0.0
 11
118.0581898225989
 21
-286.0117799820006
 31
0.0
  0
LINE
  5
1F1
330
1F
100
AcDbEntity
  8
LAYER0001
  6
CONTINUOUS
 62
     7
100
AcDbLine
 10
131.9193876690819
 20
-291.6958656482055
 30
0.0
 11
131.9193876690819
 21
-286.0117799820006
 31
0.0
  0
LINE
  5
1F2
330
1F
100
AcDbEntity
  8
LAYER0001
  6
CONTINUOUS
 62
     7
100
AcDbLine
 10
122.6769919761159
 20
-291.6958656482055
 30
0.0
 11
122.6769919761159
 21
-286.0117799820006
 31
0.0
  0
LINE
  5
1F3
330
1F
100
AcDbEntity
  8
LAYER0001
  6
CONTINUOUS
 62
     7
100
AcDbLine
 10
-407.0751637724919
 20
286.4308974748313
 30
0.0
 11
-404.5751637724919
 21
286.4308974748313
 31
0.0
  0
LINE
  5
1F4
330
1F
100
AcDbEntity
  8
LAYER0001
  6
CONTINUOUS
 62
     7
100
AcDbLine
 10
-404.5751637724919
 20
296.1308974748313
 30
0.0
 11
-407.0751637724919
 21
293.2209718891655
 31
0.0
  0
LINE
  5
1F5
330
1F
100
AcDbEntity
  8
LAYER0001
  6
CONTINUOUS
 62
     7
100
AcDbLine
 10
-404.5751637724919
 20
297.6308974748313
 30
0.0
 11
-407.0751637724919
 21
294.7209718891655
 31
0.0
  0
LINE
  5
1F6
330
1F
100
AcDbEntity
  8
LAYER0001
  6
CONTINUOUS
 62
     7
100
AcDbLine
 10
-407.0751637724919
 20
304.8708974748313
 30
0.0
 11
-407.0751637724919
 21
286.4308974748313
 31
0.0
  0
LINE
  5
1F7
330
1F
100
AcDbEntity
  8
LAYER0001
  6
CONTINUOUS
 62
     7
100
AcDbLine
 10
-404.5751637724919
 20
304.8308974748314
 30
0.0
 11
-407.0751637724919
 21
304.8308974748314
 31
0.0
  0
ARC
  5
1F8
330
1F
100
AcDbEntity
  8
LAYER0001
  6
CONTINUOUS
 62
     7
100
AcDbCircle
 10
-398.2023847280021
 20
295.6308974748313
 30
0.0
 40
15.27277904448975
100
AcDbArc
 50
162.387526014482
 51
197.612473985518
  0
ARC
  5
1F9
330
1F
100
AcDbEntity
  8
LAYER0001
  6
CONTINUOUS
 62
     7
100
AcDbCircle
 10
-409.3923661592097
 20
302.5614963980723
 30
0.0
 40
4.082797613282263
100
AcDbArc
 50
154.4468723822589
 51
214.4468723822604
  0
ARC
  5
1FA
330
1F
100
AcDbEntity
  8
LAYER0001
  6
CONTINUOUS
 62
     7
100
AcDbCircle
 10
-409.3923661592097
 20
288.7002985515892
 30
0.0
 40
4.082797613282263
100
AcDbArc
 50
145.5531276177395
 51
205.5531276177411
  0
LINE
  5
1FB
330
1F
100
AcDbEntity
  8
LAYER0001
  6
CONTINUOUS
 62
     7
100
AcDbLine
 10
-407.0751637724919
 20
286.3908974748313
 30
0.0
 11
-412.7592494386968
 21
286.3908974748313
 31
0.0
  0
LINE
  5
1FC
330
1F
100
AcDbEntity
  8
LAYER0001
  6
CONTINUOUS
 62
     7
100
AcDbLine
 10
-412.7592494386968
 20
286.3908974748313
 30
0.0
 11
-413.4751637724919
 21
287.6308974748313
 31
0.0
  0
LINE
  5
1FD
330
1F
100
AcDbEntity
  8
LAYER0001
  6
CONTINUOUS
 62
     7
100
AcDbLine
 10
-413.4751637724919
 20
287.6308974748313
 30
0.0
 11
-413.4751637724919
 21
303.6308974748313
 31
0.0
  0
LINE
  5
1FE
330
1F
100
AcDbEntity
  8
LAYER0001
  6
CONTINUOUS
 62
     7
100
AcDbLine
 10
-413.4751637724919
 20
303.6308974748313
 30
0.0
 11
-412.7592494386968
 21
304.8708974748313
 31
0.0
  0
LINE
  5
1FF
330
1F
100
AcDbEntity
  8
LAYER0001
  6
CONTINUOUS
 62
     7
100
AcDbLine
 10
-412.7592494386968
 20
304.8708974748313
 30
0.0
 11
-407.0751637724919
 21
304.8708974748313
 31
0.0
  0
LINE
  5
200
330
1F
100
AcDbEntity
  8
LAYER0001
  6
CONTINUOUS
 62
     7
100
AcDbLine
 10
-412.7592494386968
 20
291.0096996283483
 30
0.0
 11
-407.0751637724919
 21
291.0096996283483
 31
0.0
  0
LINE
  5
201
330
1F
100
AcDbEntity
  8
LAYER0001
  6
CONTINUOUS
 62
     7
100
AcDbLine
 10
-412.7592494386968
 20
300.2520953213144
 30
0.0
 11
-407.0751637724919
 21
300.2520953213144
 31
0.0
  0
LINE
  5
202
330
1F
100
AcDbEntity
  8
LAYER0001
  6
CONTINUOUS
 62
     7
100
AcDbLine
 10
-407.0751637724919
 20
184.4308974748313
 30
0.0
 11
-404.5751637724919
 21
184.4308974748313
 31
0.0
  0
LINE
  5
203
330
1F
100
AcDbEntity
  8
LAYER0001
  6
CONTINUOUS
 62
     7
100
AcDbLine
 10
-404.5751637724919
 20
194.1308974748313
 30
0.0
 11
-407.0751637724919
 21
191.2209718891655
 31
0.0
  0
LINE
  5
204
330
1F
100
AcDbEntity
  8
LAYER0001
  6
CONTINUOUS
 62
     7
100
AcDbLine
 10
-404.5751637724919
 20
195.6308974748313
 30
0.0
 11
-407.0751637724919
 21
192.7209718891655
 31
0.0
  0
LINE
  5
205
330
1F
100
AcDbEntity
  8
LAYER0001
  6
CONTINUOUS
 62
     7
100
AcDbLine
 10
-407.0751637724919
 20
202.8708974748313
 30
0.0
 11
-407.0751637724919
 21
184.4308974748313
 31
0.0
  0
LINE
  5
206
330
1F
100
AcDbEntity
  8
LAYER0001
  6
CONTINUOUS
 62
     7
100
AcDbLine
 10
-404.5751637724919
 20
202.8308974748314
 30
0.0
 11
-407.0751637724919
 21
202.8308974748314
 31
0.0
  0
ARC
  5
207
330
1F
100
AcDbEntity
  8
LAYER0001
  6
CONTINUOUS
 62
     7
100
AcDbCircle
 10
-398.2023847280021
 20
193.6308974748313
 30
0.0
 40
15.27277904448975
100
AcDbArc
 50
162.387526014482
 51
197.612473985518
  0
ARC
  5
208
330
1F
100
AcDbEntity
  8
LAYER0001
  6
CONTINUOUS
 62
     7
100
AcDbCircle
 10
-409.3923661592097
 20
200.5614963980723
 30
0.0
 40
4.082797613282263
100
AcDbArc
 50
154.4468723822589
 51
214.4468723822604
  0
ARC
  5
209
330
1F
100
AcDbEntity
  8
LAYER0001
  6
CONTINUOUS
 62
     7
100
AcDbCircle
 10
-409.3923661592097
 20
186.7002985515892
 30
0.0
 40
4.082797613282263
100
AcDbArc
 50
145.5531276177395
 51
205.5531276177411
  0
LINE
  5
20A
330
1F
100
AcDbEntity
  8
LAYER0001
  6
CONTINUOUS
 62
     7
100
AcDbLine
 10
-407.0751637724919
 20
184.3908974748313
 30
0.0
 11
-412.7592494386968
 21
184.3908974748313
 31
0.0
  0
LINE
  5
20B
330
1F
100
AcDbEntity
  8
LAYER0001
  6
CONTINUOUS
 62
     7
100
AcDbLine
 10
-412.7592494386968
 20
184.3908974748313
 30
0.0
 11
-413.4751637724919
 21
185.6308974748313
 31
0.0
  0
LINE
  5
20C
330
1F
100
AcDbEntity
  8
LAYER0001
  6
CONTINUOUS
 62
     7
100
AcDbLine
 10
-413.4751637724919
 20
185.6308974748313
 30
0.0
 11
-413.4751637724919
 21
201.6308974748313
 31
0.0
  0
LINE
  5
20D
330
1F
100
AcDbEntity
  8
LAYER0001
  6
CONTINUOUS
 62
     7
100
AcDbLine
 10
-413.4751637724919
 20
201.6308974748313
 30
0.0
 11
-412.7592494386968
 21
202.8708974748313
 31
0.0
  0
LINE
  5
20E
330
1F
100
AcDbEntity
  8
LAYER0001
  6
CONTINUOUS
 62
     7
100
AcDbLine
 10
-412.7592494386968
 20
202.8708974748313
 30
0.0
 11
-407.0751637724919
 21
202.8708974748313
 31
0.0
  0
LINE
  5
20F
330
1F
100
AcDbEntity
  8
LAYER0001
  6
CONTINUOUS
 62
     7
100
AcDbLine
 10
-412.7592494386968
 20
189.0096996283483
 30
0.0
 11
-407.0751637724919
 21
189.0096996283483
 31
0.0
  0
LINE
  5
210
330
1F
100
AcDbEntity
  8
LAYER0001
  6
CONTINUOUS
 62
     7
100
AcDbLine
 10
-412.7592494386968
 20
198.2520953213144
 30
0.0
 11
-407.0751637724919
 21
198.2520953213144
 31
0.0
  0
LINE
  5
211
330
1F
100
AcDbEntity
  8
LAYER0001
  6
CONTINUOUS
 62
     7
100
AcDbLine
 10
112.2946000266616
 20
-158.5117799820006
 30
0.0
 11
113.2981898225989
 21
-273.5117799820006
 31
0.0
  0
LINE
  5
212
330
1F
100
AcDbEntity
  8
LAYER0001
  6
CONTINUOUS
 62
     7
100
AcDbLine
 10
244.3017796185363
 20
-158.5117799820006
 30
0.0
 11
244.1912435649514
 21
-171.1779571529181
 31
0.0
  0
LINE
  5
213
330
1F
100
AcDbEntity
  8
LAYER0001
  6
CONTINUOUS
 62
     7
100
AcDbLine
 10
-288.9316832523762
 20
308.0528341622863
 30
0.0
 11
-394.5751637724919
 21
307.1308974748313
 31
0.0
  0
LINE
  5
214
330
1F
100
AcDbEntity
  8
LAYER0001
  6
CONTINUOUS
 62
     7
100
AcDbLine
 10
-347.5751637724919
 20
181.7207346886653
 30
0.0
 11
-394.5751637724919
 21
182.1308974748313
 31
0.0
  0
LINE
  5
215
330
1F
100
AcDbEntity
  8
LAYER0001
  6
CONTINUOUS
 62
     7
100
AcDbLine
 10
123.0587465377801
 20
-226.5117799820006
 30
0.0
 11
123.4689093239458
 21
-273.5117799820006
 31
0.0
  0
LINE
  5
216
330
1F
100
AcDbEntity
  8
LAYER0001
  6
CONTINUOUS
 62
     7
100
AcDbLine
 10
234.1310601171895
 20
-158.5117799820006
 30
0.0
 11
234.1266966832941
 21
-159.0117799820006
 31
0.0
  0
LINE
  5
217
330
1F
100
AcDbEntity
  8
LAYER0001
  6
CONTINUOUS
 62
     7
100
AcDbLine
 10
123.2981898225989
 20
-226.5117799820006
 30
0.0
 11
123.2981898225989
 21
-158.5117799820006
 31
0.0
  0
LINE
  5
218
330
1F
100
AcDbEntity
  8
LAYER0001
  6
CONTINUOUS
 62
     7
100
AcDbLine
 10
123.2981898225989
 20
-214.5117799820006
 30
0.0
 11
171.6028301079932
 21
-214.5117799820006
 31
0.0
  0
LINE
  5
219
330
1F
100
AcDbEntity
  8
LAYER0001
  6
CONTINUOUS
 62
     7
100
AcDbLine
 10
123.2981898225989
 20
-170.5117799820006
 30
0.0
 11
137.2981898225989
 21
-170.5117799820006
 31
0.0
  0
LINE
  5
21A
330
1F
100
AcDbEntity
  8
LAYER0001
  6
CONTINUOUS
 62
     7
100
AcDbLine
 10
137.2981898225989
 20
-158.5117799820006
 30
0.0
 11
137.2981898225989
 21
-192.5117799820006
 31
0.0
  0
LINE
  5
21B
330
1F
100
AcDbEntity
  8
LAYER0001
  6
CONTINUOUS
 62
     7
100
AcDbLine
 10
233.4287693809778
 20
-238.9863274428162
 30
0.0
 11
233.1274703212522
 21
-273.5117799820006
 31
0.0
  0
LINE
  5
21C
330
1F
100
AcDbEntity
  8
LAYER0001
  6
CONTINUOUS
 62
     7
100
AcDbLine
 10
243.6445971526396
 20
-233.8174316377504
 30
0.0
 11
243.2981898225989
 21
-273.5117799820006
 31
0.0
  0
LINE
  5
21D
330
1F
100
AcDbEntity
  8
LAYER0001
  6
CONTINUOUS
 62
     7
100
AcDbLine
 10
-339.5751637724919
 20
214.1509197463393
 30
0.0
 11
-394.5751637724919
 21
214.6308974748313
 31
0.0
  0
LINE
  5
21E
330
1F
100
AcDbEntity
  8
LAYER0001
  6
CONTINUOUS
 62
     7
100
AcDbLine
 10
-279.5751637724919
 20
275.6344872707685
 30
0.0
 11
-394.5751637724919
 21
274.6308974748313
 31
0.0
  0
LINE
  5
21F
330
1F
100
AcDbEntity
  8
LAYER0001
  6
CONTINUOUS
 62
     7
100
AcDbLine
 10
-279.5751637724919
 20
240.6639731248043
 30
0.0
 11
-339.5751637724919
 21
240.6639731248043
 31
0.0
  0
LINE
  5
220
330
1F
100
AcDbEntity
  8
LAYER0001
  6
CONTINUOUS
 62
     7
100
AcDbLine
 10
-279.5751637724919
 20
311.8744382546393
 30
0.0
 11
-275.5751637724919
 21
311.8744382546393
 31
0.0
  0
LINE
  5
221
330
1F
100
AcDbEntity
  8
LAYER0001
  6
CONTINUOUS
 62
     7
100
AcDbLine
 10
-286.5751637724919
 20
324.6308974748313
 30
0.0
 11
-284.3308701141455
 21
324.6308974748313
 31
0.0
  0
LINE
  5
222
330
1F
100
AcDbEntity
  8
LAYER0001
  6
CONTINUOUS
 62
     7
100
AcDbLine
 10
-286.5751637724919
 20
334.6308974748313
 30
0.0
 11
-281.5556284882136
 21
334.6308974748313
 31
0.0
  0
LINE
  5
223
330
1F
100
AcDbEntity
  8
LAYER0001
  6
CONTINUOUS
 62
     7
100
AcDbLine
 10
-275.5751637724919
 20
337.6308974748313
 30
0.0
 11
-275.5751637724919
 21
121.6308974748313
 31
0.0
  0
LINE
  5
224
330
1F
100
AcDbEntity
  8
LAYER0001
  6
CONTINUOUS
 62
     7
100
AcDbLine
 10
99.29818982259894
 20
-154.5117799820006
 30
0.0
 11
137.2981898225989
 21
-154.5117799820006
 31
0.0
  0
LINE
  5
225
330
1F
100
AcDbEntity
  8
LAYER0001
  6
CONTINUOUS
 62
     7
100
AcDbLine
 10
277.2981898225989
 20
-154.5117799820007
 30
0.0
 11
315.2981898225989
 21
-154.5117799820007
 31
0.0
  0
LINE
  5
226
330
1F
100
AcDbEntity
  8
LAYER0001
  6
CONTINUOUS
 62
     7
100
AcDbLine
 10
315.2981898225989
 20
-154.5117799820007
 30
0.0
 11
315.2981898225989
 21
-158.5117799820007
 31
0.0
  0
LINE
  5
227
330
1F
100
AcDbEntity
  8
LAYER0001
  6
CONTINUOUS
 62
     7
100
AcDbLine
 10
-331.5751637724919
 20
347.6308974748313
 30
0.0
 11
-331.5751637724919
 21
333.6308974748313
 31
0.0
  0
LINE
  5
228
330
1F
100
AcDbEntity
  8
LAYER0001
  6
CONTINUOUS
 62
     7
100
AcDbLine
 10
-295.5751637724919
 20
347.6308974748313
 30
0.0
 11
-295.5751637724919
 21
333.6308974748313
 31
0.0
  0
LINE
  5
229
330
1F
100
AcDbEntity
  8
LAYER0001
  6
CONTINUOUS
 62
     7
100
AcDbLine
 10
200.2981898225989
 20
347.6308974748313
 30
0.0
 11
200.2981898225989
 21
342.6308974748313
 31
0.0
  0
LINE
  5
22A
330
1F
100
AcDbEntity
  8
LAYER0001
  6
CONTINUOUS
 62
     7
100
AcDbLine
 10
236.2981898225987
 20
347.6308974748313
 30
0.0
 11
236.2981898225987
 21
342.6308974748313
 31
0.0
  0
LINE
  5
22B
330
1F
100
AcDbEntity
  8
LAYER0001
  6
CONTINUOUS
 62
     7
100
AcDbLine
 10
-279.0751637724921
 20
114.1308974748313
 30
0.0
 11
-278.0751637724921
 21
113.1308974748313
 31
0.0
  0
LINE
  5
22C
330
1F
100
AcDbEntity
  8
LAYER0001
  6
CONTINUOUS
 62
     7
100
AcDbLine
 10
-279.0751637724921
 20
99.13089747483133
 30
0.0
 11
-278.0751637724921
 21
100.1308974748313
 31
0.0
  0
LINE
  5
22D
330
1F
100
AcDbEntity
  8
LAYER0001
  6
CONTINUOUS
 62
     7
100
AcDbLine
 10
-295.0751637724919
 20
112.6308974748313
 30
0.0
 11
-280.0751637724919
 21
112.6308974748313
 31
0.0
  0
CIRCLE
  5
22E
330
1F
100
AcDbEntity
  8
LAYER0001
  6
CONTINUOUS
 62
     7
100
AcDbCircle
 10
218.2981898225987
 20
106.6308974748313
 30
0.0
 40
7.5
  0
LINE
  5
22F
330
1F
100
AcDbEntity
  8
LAYER0001
  6
CONTINUOUS
 62
     7
100
AcDbLine
 10
-279.5751637724919
 20
147.3873566950224
 30
0.0
 11
-275.5751637724919
 21
147.3873566950224
 31
0.0
  0
LINE
  5
230
330
1F
100
AcDbEntity
  8
LAYER0001
  6
CONTINUOUS
 62
     7
100
AcDbLine
 10
-279.5751637724919
 20
116.6308974748313
 30
0.0
 11
-268.0751637724919
 21
116.6308974748313
 31
0.0
  0
LINE
  5
231
330
1F
100
AcDbEntity
  8
LAYER0001
  6
CONTINUOUS
 62
     7
100
AcDbLine
 10
230.4637385361434
 20
-154.5117799820006
 30
0.0
 11
262.2981898225989
 21
-154.5117799820006
 31
0.0
  0
LINE
  5
232
330
1F
100
AcDbEntity
  8
LAYER0001
  6
CONTINUOUS
 62
     7
100
AcDbLine
 10
206.1326411090545
 20
-154.5117799820006
 30
0.0
 11
152.2981898225989
 21
-154.5117799820006
 31
0.0
  0
LINE
  5
233
330
1F
100
AcDbEntity
  8
LAYER0001
  6
CONTINUOUS
 62
     7
100
AcDbLine
 10
-127.575163772492
 20
324.003326886638
 30
0.0
 11
-127.575163772492
 21
135.2584680630249
 31
0.0
  0
LINE
  5
234
330
1F
100
AcDbEntity
  8
LAYER0001
  6
CONTINUOUS
 62
     7
100
AcDbLine
 10
199.2981898225989
 20
-159.0117799820006
 30
0.0
 11
205.2981898225989
 21
-159.0117799820006
 31
0.0
  0
LINE
  5
235
330
1F
100
AcDbEntity
  8
LAYER0001
  6
CONTINUOUS
 62
     7
100
AcDbLine
 10
199.2981898225989
 20
-159.0117799820006
 30
0.0
 11
199.2981898225989
 21
-169.6028146381919
 31
0.0
  0
LINE
  5
236
330
1F
100
AcDbEntity
  8
LAYER0001
  6
CONTINUOUS
 62
     7
100
AcDbLine
 10
237.2981898225989
 20
-159.0117799820006
 30
0.0
 11
237.2981898225989
 21
-169.6028146381919
 31
0.0
  0
LINE
  5
237
330
1F
100
AcDbEntity
  8
LAYER0001
  6
CONTINUOUS
 62
     7
100
AcDbLine
 10
231.2981898225989
 20
-159.0117799820006
 30
0.0
 11
237.2981898225989
 21
-159.0117799820006
 31
0.0
  0
LINE
  5
238
330
1F
100
AcDbEntity
  8
LAYER0001
  6
CONTINUOUS
 62
     7
100
AcDbLine
 10
-347.5751637724919
 20
187.6308974748313
 30
0.0
 11
-339.5751637724919
 21
187.6308974748313
 31
0.0
  0
LINE
  5
239
330
1F
100
AcDbEntity
  8
LAYER0004
  6
CONTINUOUS
 62
     3
100
AcDbLine
 10
-505.8251637724919
 20
254.8808974748313
 30
0.0
 11
-476.0751637724919
 21
254.8808974748313
 31
0.0
  0
LINE
  5
23A
330
1F
100
AcDbEntity
  8
LAYER0004
  6
CONTINUOUS
 62
     3
100
AcDbLine
 10
-476.0751637724919
 20
254.8808974748313
 30
0.0
 11
-475.3251637724919
 21
255.6308974748313
 31
0.0
  0
LINE
  5
23B
330
1F
100
AcDbEntity
  8
LAYER0004
  6
CONTINUOUS
 62
     3
100
AcDbLine
 10
-505.8251637724919
 20
234.3808974748313
 30
0.0
 11
-476.0751637724919
 21
234.3808974748313
 31
0.0
  0
LINE
  5
23C
330
1F
100
AcDbEntity
  8
LAYER0004
  6
CONTINUOUS
 62
     3
100
AcDbLine
 10
-476.0751637724919
 20
234.3808974748313
 30
0.0
 11
-475.3251637724919
 21
233.6308974748313
 31
0.0
  0
CIRCLE
  5
23D
330
1F
100
AcDbEntity
  8
LAYER0004
  6
CONTINUOUS
 62
     3
100
AcDbCircle
 10
-264.4658420892951
 20
-185.6471903225685
 30
0.0
 40
10.25
  0
CIRCLE
  5
23E
330
1F
100
AcDbEntity
  8
LAYER0004
  6
CONTINUOUS
 62
     3
100
AcDbCircle
 10
-384.5751637724919
 20
264.6308974748313
 30
0.0
 40
4.0
  0
CIRCLE
  5
23F
330
1F
100
AcDbEntity
  8
LAYER0004
  6
CONTINUOUS
 62
     3
100
AcDbCircle
 10
-384.5751637724919
 20
224.6308974748313
 30
0.0
 40
4.0
  0
CIRCLE
  5
240
330
1F
100
AcDbEntity
  8
LAYER0004
  6
CONTINUOUS
 62
     3
100
AcDbCircle
 10
-313.5751637724919
 20
214.6308974748313
 30
0.0
 40
16.62491710633276
  0
CIRCLE
  5
241
330
1F
100
AcDbEntity
  8
LAYER0004
  6
CONTINUOUS
 62
     3
100
AcDbCircle
 10
-313.5751637724919
 20
154.6308974748313
 30
0.0
 40
16.62491710633276
  0
LINE
  5
242
330
1F
100
AcDbEntity
  8
LAYER0004
  6
CONTINUOUS
 62
     3
100
AcDbLine
 10
168.0481898225989
 20
-384.7617799820006
 30
0.0
 11
168.0481898225989
 21
-355.0117799820006
 31
0.0
  0
LINE
  5
243
330
1F
100
AcDbEntity
  8
LAYER0004
  6
CONTINUOUS
 62
     3
100
AcDbLine
 10
168.0481898225989
 20
-355.0117799820006
 30
0.0
 11
167.2981898225989
 21
-354.2617799820006
 31
0.0
  0
LINE
  5
244
330
1F
100
AcDbEntity
  8
LAYER0004
  6
CONTINUOUS
 62
     3
100
AcDbLine
 10
188.5481898225989
 20
-384.7617799820006
 30
0.0
 11
188.5481898225989
 21
-355.0117799820006
 31
0.0
  0
LINE
  5
245
330
1F
100
AcDbEntity
  8
LAYER0004
  6
CONTINUOUS
 62
     3
100
AcDbLine
 10
188.5481898225989
 20
-355.0117799820006
 30
0.0
 11
189.2981898225989
 21
-354.2617799820006
 31
0.0
  0
LINE
  5
246
330
1F
100
AcDbEntity
  8
0
  6
CENTER
 62
     4
100
AcDbLine
 10
336.5392803372479
 20
244.6308974748313
 30
0.0
 11
76.68437719562375
 21
244.6308974748313
 31
0.0
  0
LINE
  5
247
330
1F
100
AcDbEntity
  8
0
  6
CENTER
 62
     4
100
AcDbLine
 10
178.2981898225989
 20
303.3483539094652
 30
0.0
 11
178.2981898225989
 21
182.3348439225134
 31
0.0
  0
LINE
  5
248
330
1F
100
AcDbEntity
  8
0
  6
CONTINUOUS
 62
     7
100
AcDbLine
 10
-279.0751637724921
 20
114.1308974748313
 30
0.0
 11
-279.0751637724921
 21
99.13089747483133
 31
0.0
  0
LINE
  5
249
330
1F
100
AcDbEntity
  8
0
  6
CONTINUOUS
 62
     7
100
AcDbLine
 10
-263.0751637724919
 20
109.6308974748313
 30
0.0
 11
-263.0751637724919
 21
103.6308974748313
 31
0.0
  0
LINE
  5
24A
330
1F
100
AcDbEntity
  8
0
  6
CONTINUOUS
 62
     7
100
AcDbLine
 10
99.29818982259894
 20
-152.8117799820006
 30
0.0
 11
137.2981898225989
 21
-152.8117799820006
 31
0.0
  0
LINE
  5
24B
330
1F
100
AcDbEntity
  8
0
  6
CONTINUOUS
 62
     7
100
AcDbLine
 10
100.7981898225989
 20
-152.8117799820006
 30
0.0
 11
100.7981898225989
 21
-154.5117799820006
 31
0.0
  0
LINE
  5
24C
330
1F
100
AcDbEntity
  8
0
  6
CONTINUOUS
 62
     7
100
AcDbLine
 10
152.2981898225989
 20
-152.8117799820006
 30
0.0
 11
212.8291862570487
 21
-152.8117799820006
 31
0.0
  0
LINE
  5
24D
330
1F
100
AcDbEntity
  8
0
  6
CONTINUOUS
 62
     7
100
AcDbLine
 10
223.7671933881492
 20
-152.8117799820006
 30
0.0
 11
262.2981898225989
 21
-152.8117799820006
 31
0.0
  0
LINE
  5
24E
330
1F
100
AcDbEntity
  8
0
  6
CONTINUOUS
 62
     7
100
AcDbLine
 10
277.2981898225989
 20
-152.8117799820006
 30
0.0
 11
315.2981898225989
 21
-152.8117799820006
 31
0.0
  0
LINE
  5
24F
330
1F
100
AcDbEntity
  8
0
  6
CONTINUOUS
 62
     7
100
AcDbLine
 10
313.7981898225989
 20
-152.8117799820006
 30
0.0
 11
313.7981898225989
 21
-154.5117799820007
 31
0.0
  0
LINE
  5
250
330
1F
100
AcDbEntity
  8
0
  6
CONTINUOUS
 62
     7
100
AcDbLine
 10
310.2981898225989
 20
-149.5117799820007
 30
0.0
 11
306.6811053084746
 21
-11.3808952404614
 31
0.0
  0
LINE
  5
251
330
1F
100
AcDbEntity
  8
0
  6
CONTINUOUS
 62
     7
100
AcDbLine
 10
104.3225887209815
 20
-149.5117799820006
 30
0.0
 11
107.9396732351058
 21
-11.3808952404614
 31
0.0
  0
ARC
  5
252
330
1F
100
AcDbEntity
  8
0
  6
CONTINUOUS
 62
     7
100
AcDbCircle
 10
112.9379598599836
 20
-11.51177998200076
 30
0.0
 40
5.0
100
AcDbArc
 50
90.0
 51
178.5000000000001
  0
ARC
  5
253
330
1F
100
AcDbEntity
  8
0
  6
CONTINUOUS
 62
     7
100
AcDbCircle
 10
301.6828186835968
 20
-11.51177998200076
 30
0.0
 40
5.0
100
AcDbArc
 50
1.499999999999953
 51
90.0
  0
LINE
  5
254
330
1F
100
AcDbEntity
  8
0
  6
CONTINUOUS
 62
     7
100
AcDbLine
 10
99.29818982259894
 20
-154.5117799820006
 30
0.0
 11
99.40293350887569
 21
-158.5117799820006
 31
0.0
  0
LINE
  5
255
330
1F
100
AcDbEntity
  8
0
  6
CONTINUOUS
 62
     7
100
AcDbLine
 10
-260.5751637724919
 20
126.9049561397146
 30
0.0
 11
-132.4442790309527
 21
130.2601814381471
 31
0.0
  0
LINE
  5
256
330
1F
100
AcDbEntity
  8
0
  6
CONTINUOUS
 62
     7
100
AcDbLine
 10
-260.5751637724919
 20
332.3568388099483
 30
0.0
 11
-132.4442790309527
 21
329.0016135115158
 31
0.0
  0
ARC
  5
257
330
1F
100
AcDbEntity
  8
0
  6
CONTINUOUS
 62
     7
100
AcDbCircle
 10
-132.575163772492
 20
135.2584680630248
 30
0.0
 40
5.0
100
AcDbArc
 50
271.5
 51
0.0000000000003053
  0
ARC
  5
258
330
1F
100
AcDbEntity
  8
0
  6
CONTINUOUS
 62
     7
100
AcDbCircle
 10
-132.575163772492
 20
324.003326886638
 30
0.0
 40
5.0
100
AcDbArc
 50
0.0
 51
88.50000000000001
  0
LINE
  5
259
330
1F
100
AcDbEntity
  8
0
  6
DIVIDE
 62
     4
100
AcDbLine
 10
-50.60257777444735
 20
330.2626829453184
 30
0.0
 11
-2.444279030952686
 21
329.0016135115158
 31
0.0
  0
ARC
  5
25A
330
1F
100
AcDbEntity
  8
0
  6
DIVIDE
 62
     4
100
AcDbCircle
 10
-2.575163772492033
 20
324.003326886638
 30
0.0
 40
5.0
100
AcDbArc
 50
0.0
 51
88.50000000000001
  0
ARC
  5
25B
330
1F
100
AcDbEntity
  8
0
  6
DIVIDE
 62
     4
100
AcDbCircle
 10
-2.575163772492033
 20
135.2584680630248
 30
0.0
 40
5.0
100
AcDbArc
 50
271.5
 51
0.0000000000003053
  0
LINE
  5
25C
330
1F
100
AcDbEntity
  8
0
  6
DIVIDE
 62
     4
100
AcDbLine
 10
-50.60257777444735
 20
128.9991120043444
 30
0.0
 11
-2.444279030952686
 21
130.2601814381471
 31
0.0
  0
LINE
  5
25D
330
1F
100
AcDbEntity
  8
0
  6
DIVIDE
 62
     4
100
AcDbLine
 10
7.424836227507953
 20
269.6308974748313
 30
0.0
 11
7.424836227507953
 21
219.6308974748313
 31
0.0
  0
LINE
  5
25E
330
1F
100
AcDbEntity
  8
0
  6
DIVIDE
 62
     4
100
AcDbLine
 10
7.424836227507953
 20
269.6308974748313
 30
0.0
 11
2.424836227507953
 21
269.6308974748313
 31
0.0
  0
LINE
  5
25F
330
1F
100
AcDbEntity
  8
0
  6
DIVIDE
 62
     4
100
AcDbLine
 10
7.424836227507953
 20
219.6308974748313
 30
0.0
 11
2.424836227507953
 21
219.6308974748313
 31
0.0
  0
LINE
  5
260
330
1F
100
AcDbEntity
  8
LAYER0001
  6
DIVIDE
 62
     4
100
AcDbLine
 10
2.424836227507953
 20
324.003326886638
 30
0.0
 11
2.424836227507953
 21
135.2584680630249
 31
0.0
  0
ARC
  5
261
330
1F
100
AcDbEntity
  8
LAYER0001
  6
DIVIDE
 62
     4
100
AcDbCircle
 10
218.2981898225987
 20
305.6308974748313
 30
0.0
 40
250.0
100
AcDbArc
 50
259.4161974034926
 51
280.5838025965073
  0
ARC
  5
262
330
1F
100
AcDbEntity
  8
LAYER0001
  6
DIVIDE
 62
     4
100
AcDbCircle
 10
263.2981898225987
 20
64.79900589898506
 30
0.0
 40
5.0
100
AcDbArc
 50
280.5838025965081
 51
0.0
  0
LINE
  5
263
330
1F
100
AcDbEntity
  8
LAYER0001
  6
DIVIDE
 62
     4
100
AcDbLine
 10
268.2981898225987
 20
72.13089747483099
 30
0.0
 11
268.2981898225987
 21
64.79900589898506
 31
0.0
  0
ARC
  5
264
330
1F
100
AcDbEntity
  8
LAYER0001
  6
DIVIDE
 62
     4
100
AcDbCircle
 10
173.2981898225989
 20
64.79900589898506
 30
0.0
 40
5.0
100
AcDbArc
 50
180.0
 51
259.4161974034918
  0
LINE
  5
265
330
1F
100
AcDbEntity
  8
LAYER0001
  6
DIVIDE
 62
     4
100
AcDbLine
 10
168.2981898225989
 20
72.13089747483099
 30
0.0
 11
168.2981898225989
 21
64.79900589898506
 31
0.0
  0
CIRCLE
  5
266
330
1F
100
AcDbEntity
  8
0
  6
CONTINUOUS
 62
     7
100
AcDbCircle
 10
178.2981898225989
 20
244.6308974748313
 30
0.0
 40
25.0
  0
LINE
  5
267
330
1F
100
AcDbEntity
  8
0
  6
CONTINUOUS
 62
     7
100
AcDbLine
 10
-122.575163772492
 20
269.6308974748313
 30
0.0
 11
-122.575163772492
 21
219.6308974748313
 31
0.0
  0
LINE
  5
268
330
1F
100
AcDbEntity
  8
0
  6
CONTINUOUS
 62
     7
100
AcDbLine
 10
203.2981898225989
 20
-1.51177998200076
 30
0.0
 11
153.2981898225989
 21
-1.51177998200076
 31
0.0
  0
LINE
  5
269
330
1F
100
AcDbEntity
  8
0
  6
CONTINUOUS
 62
     7
100
AcDbLine
 10
203.2981898225989
 20
-1.51177998200076
 30
0.0
 11
203.2981898225989
 21
-6.51177998200076
 31
0.0
  0
LINE
  5
26A
330
1F
100
AcDbEntity
  8
0
  6
CONTINUOUS
 62
     7
100
AcDbLine
 10
153.2981898225989
 20
-1.51177998200076
 30
0.0
 11
153.2981898225989
 21
-6.51177998200076
 31
0.0
  0
LINE
  5
26B
330
1F
100
AcDbEntity
  8
0
  6
CONTINUOUS
 62
     7
100
AcDbLine
 10
-122.575163772492
 20
269.6308974748313
 30
0.0
 11
-127.575163772492
 21
269.6308974748313
 31
0.0
  0
LINE
  5
26C
330
1F
100
AcDbEntity
  8
0
  6
CONTINUOUS
 62
     7
100
AcDbLine
 10
-122.575163772492
 20
219.6308974748313
 30
0.0
 11
-127.575163772492
 21
219.6308974748313
 31
0.0
  0
TEXT
  5
26E
330
1F
100
AcDbEntity
  8
0
 62
     7
100
AcDbText
 10
496.5409938436091
 20
-400.1181560120188
 30
0.0
 40
15.0
  1
000
 41
0.7689423076923096
  7
DCSTYLE0
 72
     5
 11
519.0409938436092
 21
-400.1181560120188
 31
0.0
100
AcDbText
  0
VIEWPORT
  5
B4
330
1B
100
AcDbEntity
 67
     1
  8
0
100
AcDbViewport
 10
-8.612084964441351
 20
-20.74362926859374
 30
0.0
 40
3044.778472848303
 41
2276.247160460551
 68
     1
 69
     1
1001
ACAD
1000
MVIEW
1002
{
1070
    16
1010
0.0
1020
0.0
1030
0.0
1010
0.0
1020
0.0
1030
1.0
1040
0.0
1040
2276.247160460551
1040
-8.612084964441351
1040
-20.74362926859374
1040
50.0
1040
0.0
1040
0.0
1070
     0
1070
   100
1070
     0
1070
     3
1070
     0
1070
     0
1070
     0
1070
     0
1040
0.0
1040
0.0
1040
0.0
1040
0.5
1040
0.5
1040
0.0
1040
0.0
1070
     0
1002
{
1002
}
1002
}
  0
ENDSEC
  0
SECTION
  2
OBJECTS
  0
DICTIONARY
  5
C
330
0
100
AcDbDictionary
  3
ACAD_GROUP
350
D
  3
ACAD_LAYOUT
350
1A
  3
ACAD_MATERIAL
350
43
  3
ACAD_MLEADERSTYLE
350
6B
  3
ACAD_MLINESTYLE
350
17
  3
ACAD_PLOTSETTINGS
350
19
  3
ACAD_SCALELIST
350
47
  3
ACAD_VISUALSTYLE
350
2A
  3
ACDBHEADERROUNDTRIPXREC
350
26F
  3
ACDBVARIABLEDICTIONARY
350
290
  0
DICTIONARY
  5
297
330
8
100
AcDbDictionary
280
     1
  3
ACAD_XREC_ROUNDTRIP
360
298
  0
DICTIONARY
  5
D
102
{ACAD_REACTORS
330
C
102
}
330
C
100
AcDbDictionary
  0
DICTIONARY
  5
1A
102
{ACAD_REACTORS
330
C
102
}
330
C
100
AcDbDictionary
  0
DICTIONARY
  5
43
102
{ACAD_REACTORS
330
C
102
}
330
C
100
AcDbDictionary
  3
BYBLOCK
350
45
  3
BYLAYER
350
44
  3
GLOBAL
350
46
  0
DICTIONARY
  5
6B
102
{ACAD_REACTORS
330
C
102
}
330
C
100
AcDbDictionary
  3
STANDARD
350
6C
  0
DICTIONARY
  5
17
102
{ACAD_REACTORS
330
C
102
}
330
C
100
AcDbDictionary
  3
STANDARD
350
18
  0
DICTIONARY
  5
19
102
{ACAD_REACTORS
330
C
102
}
330
C
100
AcDbDictionary
  0
DICTIONARY
  5
47
102
{ACAD_REACTORS
330
C
102
}
330
C
100
AcDbDictionary
  3
A0
350
48
  3
A1
350
49
  3
A2
350
4A
  3
A3
350
4B
  3
A4
350
4C
  3
A5
350
4D
  3
A6
350
4E
  3
A7
350
4F
  3
A8
350
50
  3
A9
350
51
  3
B0
350
52
  3
B1
350
53
  3
B2
350
54
  3
B3
350
55
  3
B4
350
56
  3
B5
350
57
  3
B6
350
58
  3
B7
350
59
  3
B8
350
5A
  3
B9
350
5B
  3
C0
350
5C
  3
C1
350
5D
  3
C2
350
5E
  3
C3
350
5F
  3
C4
350
60
  3
C5
350
61
  3
C6
350
62
  3
C7
350
63
  3
C8
350
64
  3
C9
350
65
  3
D0
350
66
  3
D1
350
67
  3
D2
350
68
  0
DICTIONARY
  5
2A
102
{ACAD_REACTORS
330
C
102
}
330
C
100
AcDbDictionary
  3
2DWIREFRAME
350
2F
  3
BASIC
350
32
  3
BRIGHTEN
350
36
  3
COLORCHANGE
350
3A
  3
CONCEPTUAL
350
34
  3
DIM
350
35
  3
EDGECOLOROFF
350
3D
  3
FACEPATTERN
350
39
  3
FLAT
350
2B
  3
FLATWITHEDGES
350
2C
  3
GOURAUD
350
2D
  3
GOURAUDWITHEDGES
350
2E
  3
HIDDEN
350
31
  3
JITTEROFF
350
3B
  3
LINEPATTERN
350
38
  3
OVERHANGOFF
350
3C
  3
REALISTIC
350
33
  3
SHADED
350
42
  3
SHADED_WITH_EDGES
350
41
  3
SHADES_OF_GRAY
350
3E
  3
SKETCHY
350
3F
  3
THICKEN
350
37
  3
WIREFRAME
350
30
  3
X-RAY
350
40
  0
DICTIONARY
  5
26F
102
{ACAD_REACTORS
330
C
102
}
330
C
100
AcDbDictionary
  3
CEPSNID
350
279
  3
CEPSNTYPE
350
278
  3
DIMSTYLEDATA
350
28F
  3
FINGERPRINTGUID
350
27A
  3
HYPERLINKBASE
350
272
  3
INSUNITS
350
277
  3
LAYOUTDICT
350
274
  3
LWETCUNION
350
276
  3
PLOTSETDICT
350
275
  3
PSVPSCALE
350
27C
  3
PUCSBASE
350
27F
  3
PUCSORGBACK
350
285
  3
PUCSORGBOTTOM
350
281
  3
PUCSORGFRONT
350
284
  3
PUCSORGLEFT
350
282
  3
PUCSORGRIGHT
350
283
  3
PUCSORGTOP
350
280
  3
PUCSORTHOREF
350
27D
  3
PUCSORTHOVIEW
350
27E
  3
STYLESHEET
350
273
  3
TSTACKALIGN
350
270
  3
TSTACKSIZE
350
271
  3
UCSBASE
350
288
  3
UCSORGBACK
350
28E
  3
UCSORGBOTTOM
350
28A
  3
UCSORGFRONT
350
28D
  3
UCSORGLEFT
350
28B
  3
UCSORGRIGHT
350
28C
  3
UCSORGTOP
350
289
  3
UCSORTHOREF
350
286
  3
UCSORTHOVIEW
350
287
  3
VERSIONGUID
350
27B
  0
DICTIONARY
  5
290
102
{ACAD_REACTORS
330
C
102
}
330
C
100
AcDbDictionary
  3
CANNOSCALE
350
299
  3
CMLEADERSTYLE
350
292
  3
CTABLESTYLE
350
291
  3
DIMASSOC
350
295
  3
HIDETEXT
350
296
  3
MSLTSCALE
350
29A
  0
XRECORD
  5
298
102
{ACAD_REACTORS
330
297
102
}
330
297
100
AcDbXrecord
102
VTR_0.000_0.000_1.000_1.000_VISUALSTYLE
340
2F
102
VTR_0.000_0.000_1.000_1.000_GRIDDISPLAY
 70
     3
102
VTR_0.000_0.000_1.000_1.000_GRIDMAJOR
 70
     5
102
VTR_0.000_0.000_1.000_1.000_DEFAULTLIGHTING
280
     1
102
VTR_0.000_0.000_1.000_1.000_DEFAULTLIGHTINGTYPE
 70
     1
102
VTR_0.000_0.000_1.000_1.000_BRIGHTNESS
141
0.0
102
VTR_0.000_0.000_1.000_1.000_CONTRAST
142
0.0
  0
MATERIAL
  5
45
102
{ACAD_REACTORS
330
43
102
}
102
{ACAD_XDICTIONARY
360
29D
102
}
330
43
100
AcDbMaterial
  1
BYBLOCK
  0
MATERIAL
  5
44
102
{ACAD_REACTORS
330
43
102
}
102
{ACAD_XDICTIONARY
360
29B
102
}
330
43
100
AcDbMaterial
  1
BYLAYER
  0
MATERIAL
  5
46
102
{ACAD_REACTORS
330
43
102
}
102
{ACAD_XDICTIONARY
360
29F
102
}
330
43
100
AcDbMaterial
  1
GLOBAL
  0
ACAD_PROXY_OBJECT
  5
6C
102
{ACAD_REACTORS
330
6B
102
}
330
6B
100
AcDbProxyObject
 90
      499
 91
      505
 93
      610
310
40901902A4063FBFFFFFE056BD1B81E855B9FC0AD7A3703D0AD73F4214DD185B99185C9900AD7A3703D0AC73F90141901A02B5E8DC0F42B1CFC02B5E8DC0F42B1CFE5764000000000000300FC0
340
14
340
0
340
11
340
0
 94
        0
1001
ACAD_MLEADERVER
1070
     2
  0
MLINESTYLE
  5
18
102
{ACAD_REACTORS
330
17
102
}
330
17
100
AcDbMlineStyle
  2
Standard
 70
     0
  3

 62
   256
 51
90.0
 52
90.0
 71
     2
 49
0.5
 62
   256
  6
BYLAYER
 49
-0.5
 62
   256
  6
BYLAYER
  0
ACAD_PROXY_OBJECT
  5
48
102
{ACAD_REACTORS
330
47
102
}
330
47
100
AcDbProxyObject
 90
      499
 91
      503
 93
       41
310
903313A31580
  0
ACAD_PROXY_OBJECT
  5
49
102
{ACAD_REACTORS
330
47
102
}
330
47
100
AcDbProxyObject
 90
      499
 91
      503
 93
      105
310
903313A324000000000000004000
  0
ACAD_PROXY_OBJECT
  5
4A
102
{ACAD_REACTORS
330
47
102
}
330
47
100
AcDbProxyObject
 90
      499
 91
      503
 93
      105
310
903313A344000000000000104000
  0
ACAD_PROXY_OBJECT
  5
4B
102
{ACAD_REACTORS
330
47
102
}
330
47
100
AcDbProxyObject
 90
      499
 91
      503
 93
      105
310
903313A354000000000000144000
  0
ACAD_PROXY_OBJECT
  5
4C
102
{ACAD_REACTORS
330
47
102
}
330
47
100
AcDbProxyObject
 90
      499
 91
      503
 93
      105
310
903313A384000000000000204000
  0
ACAD_PROXY_OBJECT
  5
4D
102
{ACAD_REACTORS
330
47
102
}
330
47
100
AcDbProxyObject
 90
      499
 91
      503
 93
      113
310
904313A31304000000000000244000
  0
ACAD_PROXY_OBJECT
  5
4E
102
{ACAD_REACTORS
330
47
102
}
330
47
100
AcDbProxyObject
 90
      499
 91
      503
 93
      113
310
904313A31364000000000000304000
  0
ACAD_PROXY_OBJECT
  5
4F
102
{ACAD_REACTORS
330
47
102
}
330
47
100
AcDbProxyObject
 90
      499
 91
      503
 93
      113
310
904313A32304000000000000344000
  0
ACAD_PROXY_OBJECT
  5
50
102
{ACAD_REACTORS
330
47
102
}
330
47
100
AcDbProxyObject
 90
      499
 91
      503
 93
      113
310
904313A333040000000000003E4000
  0
ACAD_PROXY_OBJECT
  5
51
102
{ACAD_REACTORS
330
47
102
}
330
47
100
AcDbProxyObject
 90
      499
 91
      503
 93
      113
310
904313A34304000000000000444000
  0
ACAD_PROXY_OBJECT
  5
52
102
{ACAD_REACTORS
330
47
102
}
330
47
100
AcDbProxyObject
 90
      499
 91
      503
 93
      113
310
904313A35304000000000000494000
  0
ACAD_PROXY_OBJECT
  5
53
102
{ACAD_REACTORS
330
47
102
}
330
47
100
AcDbProxyObject
 90
      499
 91
      503
 93
      121
310
905313A3130304000000000000594000
  0
ACAD_PROXY_OBJECT
  5
54
102
{ACAD_REACTORS
330
47
102
}
330
47
100
AcDbProxyObject
 90
      499
 91
      503
 93
      105
310
903323A310000000000000010100
  0
ACAD_PROXY_OBJECT
  5
55
102
{ACAD_REACTORS
330
47
102
}
330
47
100
AcDbProxyObject
 90
      499
 91
      503
 93
      105
310
903343A310000000000000410100
  0
ACAD_PROXY_OBJECT
  5
56
102
{ACAD_REACTORS
330
47
102
}
330
47
100
AcDbProxyObject
 90
      499
 91
      503
 93
      105
310
903383A310000000000000810100
  0
ACAD_PROXY_OBJECT
  5
57
102
{ACAD_REACTORS
330
47
102
}
330
47
100
AcDbProxyObject
 90
      499
 91
      503
 93
      113
310
90431303A310000000000000910100
  0
ACAD_PROXY_OBJECT
  5
58
102
{ACAD_REACTORS
330
47
102
}
330
47
100
AcDbProxyObject
 90
      499
 91
      503
 93
      121
310
9053130303A310000000000001650100
  0
ACAD_PROXY_OBJECT
  5
59
102
{ACAD_REACTORS
330
47
102
}
330
47
100
AcDbProxyObject
 90
      499
 91
      503
 93
      257
310
90E312F31323822203D2031272D3022000000000000200FC000000000000284000
  0
ACAD_PROXY_OBJECT
  5
5A
102
{ACAD_REACTORS
330
47
102
}
330
47
100
AcDbProxyObject
 90
      499
 91
      503
 93
      249
310
90D312F363422203D2031272D3022000000000000240FC000000000000284000
  0
ACAD_PROXY_OBJECT
  5
5B
102
{ACAD_REACTORS
330
47
102
}
330
47
100
AcDbProxyObject
 90
      499
 91
      503
 93
      249
310
90D312F333222203D2031272D3022000000000000280FC000000000000284000
  0
ACAD_PROXY_OBJECT
  5
5C
102
{ACAD_REACTORS
330
47
102
}
330
47
100
AcDbProxyObject
 90
      499
 91
      503
 93
      249
310
90D312F313622203D2031272D30220000000000002C0FC000000000000284000
  0
ACAD_PROXY_OBJECT
  5
5D
102
{ACAD_REACTORS
330
47
102
}
330
47
100
AcDbProxyObject
 90
      499
 91
      503
 93
      249
310
90D332F333222203D2031272D30220000000000002E0FC000000000000284000
  0
ACAD_PROXY_OBJECT
  5
5E
102
{ACAD_REACTORS
330
47
102
}
330
47
100
AcDbProxyObject
 90
      499
 91
      503
 93
      241
310
90C312F3822203D2031272D3022000000000000300FC000000000000284000
  0
ACAD_PROXY_OBJECT
  5
5F
102
{ACAD_REACTORS
330
47
102
}
330
47
100
AcDbProxyObject
 90
      499
 91
      503
 93
      249
310
90D332F313622203D2031272D3022000000000000320FC000000000000284000
  0
ACAD_PROXY_OBJECT
  5
60
102
{ACAD_REACTORS
330
47
102
}
330
47
100
AcDbProxyObject
 90
      499
 91
      503
 93
      241
310
90C312F3422203D2031272D3022000000000000340FC000000000000284000
  0
ACAD_PROXY_OBJECT
  5
61
102
{ACAD_REACTORS
330
47
102
}
330
47
100
AcDbProxyObject
 90
      499
 91
      503
 93
      241
310
90C332F3822203D2031272D3022000000000000360FC000000000000284000
  0
ACAD_PROXY_OBJECT
  5
62
102
{ACAD_REACTORS
330
47
102
}
330
47
100
AcDbProxyObject
 90
      499
 91
      503
 93
      241
310
90C312F3222203D2031272D3022000000000000380FC000000000000284000
  0
ACAD_PROXY_OBJECT
  5
63
102
{ACAD_REACTORS
330
47
102
}
330
47
100
AcDbProxyObject
 90
      499
 91
      503
 93
      241
310
90C332F3422203D2031272D30220000000000003A0FC000000000000284000
  0
ACAD_PROXY_OBJECT
  5
64
102
{ACAD_REACTORS
330
47
102
}
330
47
100
AcDbProxyObject
 90
      499
 91
      503
 93
      161
310
90A3122203D2031272D30224000000000000284000
  0
ACAD_PROXY_OBJECT
  5
65
102
{ACAD_REACTORS
330
47
102
}
330
47
100
AcDbProxyObject
 90
      499
 91
      503
 93
      257
310
90E312D312F3222203D2031272D30220000000000003E0FC000000000000284000
  0
ACAD_PROXY_OBJECT
  5
66
102
{ACAD_REACTORS
330
47
102
}
330
47
100
AcDbProxyObject
 90
      499
 91
      503
 93
      225
310
90A3322203D2031272D302200000000000002100000000000000284000
  0
ACAD_PROXY_OBJECT
  5
67
102
{ACAD_REACTORS
330
47
102
}
330
47
100
AcDbProxyObject
 90
      499
 91
      503
 93
      225
310
90A3622203D2031272D302200000000000006100000000000000284000
  0
ACAD_PROXY_OBJECT
  5
68
102
{ACAD_REACTORS
330
47
102
}
330
47
100
AcDbProxyObject
 90
      499
 91
      503
 93
      249
310
90D31272D3022203D2031272D30220000000000000A100000000000000284000
  0
ACAD_PROXY_OBJECT
  5
2F
102
{ACAD_REACTORS
330
2A
102
}
330
2A
100
AcDbProxyObject
 90
      499
 91
      501
 93
      436
310
42CC9915DA5C99599C985B595049028333333333333E33F0000000000000F90107901411070040501600405405064090741402480A0340
1001
ACAD
1000
AcDbSavedByObjectVersion
1070
     0
  0
ACAD_PROXY_OBJECT
  5
32
102
{ACAD_REACTORS
330
2A
102
}
330
2A
100
AcDbProxyObject
 90
      499
 91
      501
 93
      388
310
4150985CDA58D07406404333333333333E33F0000000000000F90107A41107004050150841D405064090741402480A0350
1001
ACAD
1000
AcDbSavedByObjectVersion
1070
     0
  0
ACAD_PROXY_OBJECT
  5
36
102
{ACAD_REACTORS
330
2A
102
}
330
2A
100
AcDbProxyObject
 90
      499
 91
      501
 93
      428
310
42109C9A59DA1D195B90C409028333333333333E33F0000000000000F9010790141107004050150841D405064090741402480A029950
1001
ACAD
1000
AcDbSavedByObjectVersion
1070
     0
  0
ACAD_PROXY_OBJECT
  5
3A
102
{ACAD_REACTORS
330
2A
102
}
330
2A
100
AcDbProxyObject
 90
      499
 91
      501
 93
      452
310
42D0DBDB1BDC90DA185B99D95104090240C333333333333E33F0000000000000F90108901411070040501508421405064090741402480A0350
1001
ACAD
1000
AcDbSavedByObjectVersion
1070
     0
  0
ACAD_PROXY_OBJECT
  5
34
102
{ACAD_REACTORS
330
2A
102
}
330
2A
100
AcDbProxyObject
 90
      499
 91
      501
 93
      500
310
4290DBDB98D95C1D1D585B10940D028333333333333E33F0000000000000F90107902409070040501000000000018199010841D405064090740C02480A0340
1001
ACAD
1000
AcDbSavedByObjectVersion
1070
     0
  0
ACAD_PROXY_OBJECT
  5
35
102
{ACAD_REACTORS
330
2A
102
}
330
2A
100
AcDbProxyObject
 90
      499
 91
      501
 93
      412
310
40D11A5B50B409028333333333333E33F0000000000000F9010790141107004050150841D405064090741402480A02677FFFFFD0
1001
ACAD
1000
AcDbSavedByObjectVersion
1070
     0
  0
ACAD_PROXY_OBJECT
  5
3D
102
{ACAD_REACTORS
330
2A
102
}
330
2A
100
AcDbProxyObject
 90
      499
 91
      501
 93
      452
310
43115919D950DBDB1BDC93D999916409028333333333333E33F0000000000000F9010790141107004050150841D405064090741402480A0350
1001
ACAD
1000
AcDbSavedByObjectVersion
1070
     0
  0
ACAD_PROXY_OBJECT
  5
39
102
{ACAD_REACTORS
330
2A
102
}
330
2A
100
AcDbProxyObject
 90
      499
 91
      501
 93
      444
310
42D19858D95C185D1D195C9B90F409028333333333333E33F0000000000000F9010790141107004050150841D405064090741402480A0350
1001
ACAD
1000
AcDbSavedByObjectVersion
1070
     0
  0
ACAD_PROXY_OBJECT
  5
2B
102
{ACAD_REACTORS
330
2A
102
}
330
2A
100
AcDbProxyObject
 90
      499
 91
      501
 93
      380
310
41119B185D240901404333333333333E33F0000000000000F9010740A907004050150841D405064090741402480A1B50
1001
ACAD
1000
AcDbSavedByObjectVersion
1070
     0
  0
ACAD_PROXY_OBJECT
  5
2C
102
{ACAD_REACTORS
330
2A
102
}
330
2A
100
AcDbProxyObject
 90
      499
 91
      501
 93
      468
310
43519B185D15DA5D1A115919D95CD0140901404333333333333E33F0000000000000F90107409019070040501600405405064090741402480A1B50
1001
ACAD
1000
AcDbSavedByObjectVersion
1070
     0
  0
ACAD_PROXY_OBJECT
  5
2D
102
{ACAD_REACTORS
330
2A
102
}
330
2A
100
AcDbProxyObject
 90
      499
 91
      501
 93
      404
310
41D1DBDD5C985D5910240902404333333333333E33F0000000000000F9010740A9070040501641D405064090741402480A1B50
1001
ACAD
1000
AcDbSavedByObjectVersion
1070
     0
  0
ACAD_PROXY_OBJECT
  5
2E
102
{ACAD_REACTORS
330
2A
102
}
330
2A
100
AcDbProxyObject
 90
      499
 91
      501
 93
      492
310
4411DBDD5C985D5915DA5D1A115919D95CD0340902404333333333333E33F0000000000000F90107409019070040501600405405064090741402480A1B50
1001
ACAD
1000
AcDbSavedByObjectVersion
1070
     0
  0
ACAD_PROXY_OBJECT
  5
31
102
{ACAD_REACTORS
330
2A
102
}
330
2A
100
AcDbProxyObject
 90
      499
 91
      501
 93
      476
310
41921A5919195B90640502408333333333333E33F0000000000000F901079024090700405020000000000001110200405405064090740C02480A0340
1001
ACAD
1000
AcDbSavedByObjectVersion
1070
     0
  0
ACAD_PROXY_OBJECT
  5
3B
102
{ACAD_REACTORS
330
2A
102
}
330
2A
100
AcDbProxyObject
 90
      499
 91
      501
 93
      428
310
42529A5D1D195C93D999914409028333333333333E33F0000000000000F9010790141107004050150A41D405064090741402480A0350
1001
ACAD
1000
AcDbSavedByObjectVersion
1070
     0
  0
ACAD_PROXY_OBJECT
  5
38
102
{ACAD_REACTORS
330
2A
102
}
330
2A
100
AcDbProxyObject
 90
      499
 91
      501
 93
      444
310
42D31A5B995C185D1D195C9B90E409028333333333333E33F0000000000000F9010790141107004050750841D405064090741402483A0350
1001
ACAD
1000
AcDbSavedByObjectVersion
1070
     0
  0
ACAD_PROXY_OBJECT
  5
3C
102
{ACAD_REACTORS
330
2A
102
}
330
2A
100
AcDbProxyObject
 90
      499
 91
      501
 93
      444
310
42D3DD995C9A185B99D3D999915409028333333333333E33F0000000000000F9010790141107004050150941D405064090741402480A0350
1001
ACAD
1000
AcDbSavedByObjectVersion
1070
     0
  0
ACAD_PROXY_OBJECT
  5
33
102
{ACAD_REACTORS
330
2A
102
}
330
2A
100
AcDbProxyObject
 90
      499
 91
      501
 93
      428
310
425499585B1A5CDD1A58D08409038333333333333E33F0000000000000F9010740A907004050150800405405064090740C02480A1B40
1001
ACAD
1000
AcDbSavedByObjectVersion
1070
     0
  0
ACAD_PROXY_OBJECT
  5
42
102
{ACAD_REACTORS
330
2A
102
}
330
2A
100
AcDbProxyObject
 90
      499
 91
      501
 93
      420
310
4194DA1859195911B40902404333333333333E33F0000000000000F9010740A41107004050150800405405064090840C02480A0B40
1001
ACAD
1000
AcDbSavedByObjectVersion
1070
     0
  0
ACAD_PROXY_OBJECT
  5
41
102
{ACAD_REACTORS
330
2A
102
}
330
2A
100
AcDbProxyObject
 90
      499
 91
      501
 93
      516
310
4454DA18591959081DDA5D1A08195919D95CD1A40902404333333333333E33F0000000000000F901074090142907004050250800405405064090740C02480A0B40
1001
ACAD
1000
AcDbSavedByObjectVersion
1070
     0
  0
ACAD_PROXY_OBJECT
  5
3E
102
{ACAD_REACTORS
330
2A
102
}
330
2A
100
AcDbProxyObject
 90
      499
 91
      501
 93
      532
310
4394DA1859195CC81BD98811DC985E5174090240C333333333333E33F0000000000000F901079024090741D01000000000000111010841D405064090740C02480A0340
1001
ACAD
1000
AcDbSavedByObjectVersion
1070
     0
  0
ACAD_PROXY_OBJECT
  5
3F
102
{ACAD_REACTORS
330
2A
102
}
330
2A
100
AcDbProxyObject
 90
      499
 91
      501
 93
      476
310
41D4DAD95D18DA1E51840502408333333333333E33F0000000000000F901079024090741D01000000000000111010B41D405064090741802480A0340
1001
ACAD
1000
AcDbSavedByObjectVersion
1070
     0
  0
ACAD_PROXY_OBJECT
  5
37
102
{ACAD_REACTORS
330
2A
102
}
330
2A
100
AcDbProxyObject
 90
      499
 91
      501
 93
      412
310
41D51A1A58DAD95B90D409028333333333333E33F0000000000000F9010790141107004050150C41D405064090741402480A0350
1001
ACAD
1000
AcDbSavedByObjectVersion
1070
     0
  0
ACAD_PROXY_OBJECT
  5
30
102
{ACAD_REACTORS
330
2A
102
}
330
2A
100
AcDbProxyObject
 90
      499
 91
      501
 93
      420
310
4255DA5C99599C985B595059028333333333333E33F0000000000000F90107901411070040501600405405064090740C02480A0340
1001
ACAD
1000
AcDbSavedByObjectVersion
1070
     0
  0
ACAD_PROXY_OBJECT
  5
40
102
{ACAD_REACTORS
330
2A
102
}
330
2A
100
AcDbProxyObject
 90
      499
 91
      501
 93
      404
310
41560B54985E51940902404000000000000E03F0000000000000F9010740501907004050150841D405064090740C02480A1B40
1001
ACAD
1000
AcDbSavedByObjectVersion
1070
     0
  0
XRECORD
  5
279
102
{ACAD_REACTORS
330
26F
102
}
330
26F
100
AcDbXrecord
340
0
  0
XRECORD
  5
278
102
{ACAD_REACTORS
330
26F
102
}
330
26F
100
AcDbXrecord
 90
        0
  0
XRECORD
  5
28F
102
{ACAD_REACTORS
330
26F
102
}
330
26F
100
AcDbXrecord
1000
DSTYLE
1002
{
1070
   179
 70
     3
1070
   171
 70
     2
1070
   143
 40
0.0393700787401575
1070
    41
 40
2.000107526779175
1070
    79
 70
     2
1070
   141
 40
0.0
1070
   271
 70
     3
1070
    43
 40
10.0
1070
   278
 70
    46
1070
    44
 40
1.0
1070
    42
 40
1.0
1070
   147
 40
0.09
1070
   272
 70
     3
1070
   146
 40
0.65
1070
   172
 70
     0
1070
   340
340
11
1070
   140
 40
3.5
1070
   284
 70
     0
1070
    90
 70
     1
1002
}
  0
XRECORD
  5
27A
102
{ACAD_REACTORS
330
26F
102
}
330
26F
100
AcDbXrecord
  1
{273ee686-70a9-4c8e-97e9-d75a2fafe08e}
  0
XRECORD
  5
272
102
{ACAD_REACTORS
330
26F
102
}
330
26F
100
AcDbXrecord
  1

  0
XRECORD
  5
277
102
{ACAD_REACTORS
330
26F
102
}
330
26F
100
AcDbXrecord
 90
        4
  0
XRECORD
  5
274
102
{ACAD_REACTORS
330
26F
102
}
330
26F
100
AcDbXrecord
340
1A
  0
XRECORD
  5
276
102
{ACAD_REACTORS
330
26F
102
}
330
26F
100
AcDbXrecord
 90
    10781
  0
XRECORD
  5
275
102
{ACAD_REACTORS
330
26F
102
}
330
26F
100
AcDbXrecord
340
19
  0
XRECORD
  5
27C
102
{ACAD_REACTORS
330
26F
102
}
330
26F
100
AcDbXrecord
 40
0.0
  0
XRECORD
  5
27F
102
{ACAD_REACTORS
330
26F
102
}
330
26F
100
AcDbXrecord
340
0
  0
XRECORD
  5
285
102
{ACAD_REACTORS
330
26F
102
}
330
26F
100
AcDbXrecord
 10
0.0
 20
0.0
 30
0.0
  0
XRECORD
  5
281
102
{ACAD_REACTORS
330
26F
102
}
330
26F
100
AcDbXrecord
 10
0.0
 20
0.0
 30
0.0
  0
XRECORD
  5
284
102
{ACAD_REACTORS
330
26F
102
}
330
26F
100
AcDbXrecord
 10
0.0
 20
0.0
 30
0.0
  0
XRECORD
  5
282
102
{ACAD_REACTORS
330
26F
102
}
330
26F
100
AcDbXrecord
 10
0.0
 20
0.0
 30
0.0
  0
XRECORD
  5
283
102
{ACAD_REACTORS
330
26F
102
}
330
26F
100
AcDbXrecord
 10
0.0
 20
0.0
 30
0.0
  0
XRECORD
  5
280
102
{ACAD_REACTORS
330
26F
102
}
330
26F
100
AcDbXrecord
 10
0.0
 20
0.0
 30
0.0
  0
XRECORD
  5
27D
102
{ACAD_REACTORS
330
26F
102
}
330
26F
100
AcDbXrecord
340
0
  0
XRECORD
  5
27E
102
{ACAD_REACTORS
330
26F
102
}
330
26F
100
AcDbXrecord
 70
     0
  0
XRECORD
  5
273
102
{ACAD_REACTORS
330
26F
102
}
330
26F
100
AcDbXrecord
  1

  0
XRECORD
  5
270
102
{ACAD_REACTORS
330
26F
102
}
330
26F
100
AcDbXrecord
 90
        1
  0
XRECORD
  5
271
102
{ACAD_REACTORS
330
26F
102
}
330
26F
100
AcDbXrecord
 90
       70
  0
XRECORD
  5
288
102
{ACAD_REACTORS
330
26F
102
}
330
26F
100
AcDbXrecord
340
0
  0
XRECORD
  5
28E
102
{ACAD_REACTORS
330
26F
102
}
330
26F
100
AcDbXrecord
 10
0.0
 20
0.0
 30
0.0
  0
XRECORD
  5
28A
102
{ACAD_REACTORS
330
26F
102
}
330
26F
100
AcDbXrecord
 10
0.0
 20
0.0
 30
0.0
  0
XRECORD
  5
28D
102
{ACAD_REACTORS
330
26F
102
}
330
26F
100
AcDbXrecord
 10
0.0
 20
0.0
 30
0.0
  0
XRECORD
  5
28B
102
{ACAD_REACTORS
330
26F
102
}
330
26F
100
AcDbXrecord
 10
0.0
 20
0.0
 30
0.0
  0
XRECORD
  5
28C
102
{ACAD_REACTORS
330
26F
102
}
330
26F
100
AcDbXrecord
 10
0.0
 20
0.0
 30
0.0
  0
XRECORD
  5
289
102
{ACAD_REACTORS
330
26F
102
}
330
26F
100
AcDbXrecord
 10
0.0
 20
0.0
 30
0.0
  0
XRECORD
  5
286
102
{ACAD_REACTORS
330
26F
102
}
330
26F
100
AcDbXrecord
340
0
  0
XRECORD
  5
287
102
{ACAD_REACTORS
330
26F
102
}
330
26F
100
AcDbXrecord
 70
     0
  0
XRECORD
  5
27B
102
{ACAD_REACTORS
330
26F
102
}
330
26F
100
AcDbXrecord
  1
{FAEB1C32-E019-11D5-929B-00C0DF256EC4}
  0
DICTIONARYVAR
  5
299
102
{ACAD_REACTORS
330
290
102
}
330
290
100
DictionaryVariables
280
     0
  1
1:1
  0
DICTIONARYVAR
  5
292
102
{ACAD_REACTORS
330
290
102
}
330
290
100
DictionaryVariables
280
     0
  1
Standard
  0
DICTIONARYVAR
  5
291
102
{ACAD_REACTORS
330
290
102
}
330
290
100
DictionaryVariables
280
     0
  1
Standard
  0
DICTIONARYVAR
  5
295
102
{ACAD_REACTORS
330
290
102
}
330
290
100
DictionaryVariables
280
     0
  1
2
  0
DICTIONARYVAR
  5
296
102
{ACAD_REACTORS
330
290
102
}
330
290
100
DictionaryVariables
280
     0
  1
1
  0
DICTIONARYVAR
  5
29A
102
{ACAD_REACTORS
330
290
102
}
330
290
100
DictionaryVariables
280
     0
  1
1
  0
DICTIONARY
  5
29D
330
45
100
AcDbDictionary
280
     1
  3
ACAD_XREC_ROUNDTRIP
360
29E
  0
DICTIONARY
  5
29B
330
44
100
AcDbDictionary
280
     1
  3
ACAD_XREC_ROUNDTRIP
360
29C
  0
DICTIONARY
  5
29F
330
46
100
AcDbDictionary
280
     1
  3
ACAD_XREC_ROUNDTRIP
360
2A0
  0
XRECORD
  5
29E
102
{ACAD_REACTORS
330
29D
102
}
330
29D
100
AcDbXrecord
102
MATERIAL
148
0.0
149
0.0
149
0.0
 93
        0
 94
      127
282
     0
 72
     1
 77
     1
171
     1
175
     1
179
     1
273
     0
  0
XRECORD
  5
29C
102
{ACAD_REACTORS
330
29B
102
}
330
29B
100
AcDbXrecord
102
MATERIAL
148
0.0
149
0.0
149
0.0
 93
        0
 94
      127
282
     0
 72
     1
 77
     1
171
     1
175
     1
179
     1
273
     0
  0
XRECORD
  5
2A0
102
{ACAD_REACTORS
330
29F
102
}
330
29F
100
AcDbXrecord
102
MATERIAL
148
0.0
149
0.0
149
0.0
 93
        0
 94
      127
282
     0
 72
     1
 77
     1
171
     1
175
     1
179
     1
273
     0
  0
ENDSEC
  0
EOF
