  0
SECTION
  2
HEADER
  9
$ACADVER
  1
AC1014
  9
$ACADMAINTVER
 70
       0
  9
$DWGCODEPAGE
  3
ANSI_932
  9
$INSBASE
 10
0.0
 20
0.0
 30
0.0
  9
$EXTMIN
 10
-95.80867791
 20
-64.87110709
 30
0.0
  9
$EXTMAX
 10
95.80867791
 20
63.12110709
 30
0.0
  9
$LIMMIN
 10
-101.79672028
 20
-68.87086378
  9
$LIMMAX
 10
101.79672028
 20
67.12086378
  9
$ORTHOMODE
 70
       0
  9
$REGENMODE
 70
       1
  9
$FILLMODE
 70
       1
  9
$QTEXTMODE
 70
       0
  9
$MIRRTEXT
 70
       1
  9
$DRAGMODE
 70
       2
  9
$LTSCALE
 40
1.0
  9
$OSMODE
 70
       0
  9
$ATTMODE
 70
       1
  9
$TEXTSIZE
 40
0.2
  9
$TRACEWID
 40
0.05
  9
$TEXTSTYLE
  7
STANDARD
  9
$CLAYER
  8
0
  9
$CELTYPE
  6
CONTINUOUS
  9
$CECOLOR
 62
     256
  9
$CELTSCALE
 40
1.0
  9
$DELOBJ
 70
       1
  9
$DISPSILH
 70
       0
  9
$DIMSCALE
 40
1.0
  9
$DIMASZ
 40
0.18
  9
$DIMEXO
 40
0.0625
  9
$DIMDLI
 40
0.38
  9
$DIMRND
 40
0.0
  9
$DIMDLE
 40
0.0
  9
$DIMEXE
 40
0.18
  9
$DIMTP
 40
0.0
  9
$DIMTM
 40
0.0
  9
$DIMTXT
 40
0.18
  9
$DIMCEN
 40
0.09
  9
$DIMTSZ
 40
0.0
  9
$DIMTOL
 70
       0
  9
$DIMLIM
 70
       0
  9
$DIMTIH
 70
       1
  9
$DIMTOH
 70
       1
  9
$DIMSE1
 70
       0
  9
$DIMSE2
 70
       0
  9
$DIMTAD
 70
       0
  9
$DIMZIN
 70
       0
  9
$DIMBLK
  1

  9
$DIMASO
 70
       1
  9
$DIMSHO
 70
       1
  9
$DIMPOST
  1

  9
$DIMAPOST
  1

  9
$DIMALT
 70
       0
  9
$DIMALTD
 70
       2
  9
$DIMALTF
 40
25.4
  9
$DIMLFAC
 40
1.0
  9
$DIMTOFL
 70
       0
  9
$DIMTVP
 40
0.0
  9
$DIMTIX
 70
       0
  9
$DIMSOXD
 70
       0
  9
$DIMSAH
 70
       0
  9
$DIMBLK1
  1

  9
$DIMBLK2
  1

  9
$DIMSTYLE
  2
STANDARD
  9
$DIMCLRD
 70
       0
  9
$DIMCLRE
 70
       0
  9
$DIMCLRT
 70
       0
  9
$DIMTFAC
 40
1.0
  9
$DIMGAP
 40
0.09
  9
$DIMJUST
 70
       0
  9
$DIMSD1
 70
       0
  9
$DIMSD2
 70
       0
  9
$DIMTOLJ
 70
       1
  9
$DIMTZIN
 70
       0
  9
$DIMALTZ
 70
       0
  9
$DIMALTTZ
 70
       0
  9
$DIMFIT
 70
       3
  9
$DIMUPT
 70
       0
  9
$DIMUNIT
 70
       2
  9
$DIMDEC
 70
       4
  9
$DIMTDEC
 70
       4
  9
$DIMALTU
 70
       2
  9
$DIMALTTD
 70
       2
  9
$DIMTXSTY
  7
STANDARD
  9
$DIMAUNIT
 70
       0
  9
$LUNITS
 70
       2
  9
$LUPREC
 70
       4
  9
$SKETCHINC
 40
0.1
  9
$FILLETRAD
 40
0.0
  9
$AUNITS
 70
       0
  9
$AUPREC
 70
       0
  9
$MENU
  1
acad
  9
$ELEVATION
 40
0.0
  9
$PELEVATION
 40
0.0
  9
$THICKNESS
 40
0.0
  9
$LIMCHECK
 70
       0
  9
$BLIPMODE
 70
       1
  9
$CHAMFERA
 40
0.0
  9
$CHAMFERB
 40
0.0
  9
$CHAMFERC
 40
0.0
  9
$CHAMFERD
 40
0.0
  9
$SKPOLY
 70
       0
  9
$TDCREATE
 40
0.000000000
  9
$TDUPDATE
 40
0.000000000
  9
$TDINDWG
 40
0.0000000000
  9
$TDUSRTIMER
 40
0.0000000000
  9
$USRTIMER
 70
       1
  9
$ANGBASE
 50
0.0
  9
$ANGDIR
 70
       0
  9
$PDMODE
 70
       0
  9
$PDSIZE
 40
1.0
  9
$PLINEWID
 40
0.0
  9
$COORDS
 70
       1
  9
$SPLFRAME
 70
       0
  9
$SPLINETYPE
 70
       6
  9
$SPLINESEGS
 70
       8
  9
$ATTDIA
 70
       0
  9
$ATTREQ
 70
       1
  9
$HANDLING
 70
       1
  9
$HANDSEED
  5
CF
  9
$SURFTAB1
 70
       6
  9
$SURFTAB2
 70
       6
  9
$SURFTYPE
 70
       6
  9
$SURFU
 70
       6
  9
$SURFV
 70
       6
  9
$UCSNAME
  2

  9
$UCSORG
 10
0.0
 20
0.0
 30
0.0
  9
$UCSXDIR
 10
1.0
 20
0.0
 30
0.0
  9
$UCSYDIR
 10
0.0
 20
1.0
 30
0.0
  9
$PUCSNAME
  2

  9
$PUCSORG
 10
0.0
 20
0.0
 30
0.0
  9
$PUCSXDIR
 10
1.0
 20
0.0
 30
0.0
  9
$PUCSYDIR
 10
0.0
 20
1.0
 30
0.0
  9
$USERI1
 70
       0
  9
$USERI2
 70
       0
  9
$USERI3
 70
       0
  9
$USERI4
 70
       0
  9
$USERI5
 70
       0
  9
$USERR1
 40
0.0
  9
$USERR2
 40
0.0
  9
$USERR3
 40
0.0
  9
$USERR4
 40
0.0
  9
$USERR5
 40
0.0
  9
$WORLDVIEW
 70
       1
  9
$SHADEDGE
 70
       3
  9
$SHADEDIF
 70
      70
  9
$TILEMODE
 70
       1
  9
$MAXACTVP
 70
      16
  9
$PINSBASE
 10
0.0
 20
0.0
 30
0.0
  9
$PLIMCHECK
 70
       0
  9
$PEXTMIN
 10
1.00000000E+20
 20
1.00000000E+20
 30
1.00000000E+20
  9
$PEXTMAX
 10
-1.00000000E+20
 20
-1.00000000E+20
 30
-1.00000000E+20
  9
$PLIMMIN
 10
0.0
 20
0.0
  9
$PLIMMAX
 10
12.0
 20
9.0
  9
$UNITMODE
 70
       0
  9
$VISRETAIN
 70
       0
  9
$PLINEGEN
 70
       1
  9
$PSLTSCALE
 70
       0
  9
$TREEDEPTH
 70
    3020
  9
$PICKSTYLE
 70
       1
  9
$CMLSTYLE
  2
STANDARD
  9
$CMLJUST
 70
       0
  9
$CMLSCALE
 40
1.0
  9
$PROXYGRAPHICS
 70
       0
  9
$MEASUREMENT
 70
       0
  0
ENDSEC
  0
SECTION
  2
CLASSES
  0
CLASS
  1
LWPOLYLINE
  2
AcDbPolyline
  3
"AutoCAD"
 90
        0
280
       0
281
       1
  0
CLASS
  1
IMAGE
  2
AcDbRasterImage
  3
ISM
 90
      127
280
       0
281
       1
  0
CLASS
  1
OLE2FRAME
  2
AcDbOle2Frame
  3
""
 90
        0
280
       0
281
       1
  0
CLASS
  1
HATCH
  2
AcDbHatch
  3
"ACAD_SEDONA"
 90
        0
280
       0
281
       1
  0
CLASS
  1
DICTIONARYVAR
  2
AcDbDictionaryVar
  3
"AutoCAD"
 90
        0
280
       0
281
       0
  0
CLASS
  1
RASTERVARIABLES
  2
AcDbRasterVariables
  3
ISM
 90
        0
280
       0
281
       0
  0
CLASS
  1
IMAGEDEF
  2
AcDbRasterImageDef
  3
ISM
 90
        0
280
       0
281
       0
  0
CLASS
  1
IMAGEDEF_REACTOR
  2
AcDbRasterImageDefReactor
  3
ISM
 90
        1
280
       0
281
       0
  0
CLASS
  1
IDBUFFER
  2
AcDbIdBuffer
  3
"Acad"
 90
        0
280
       0
281
       0
  0
CLASS
  1
SPATIAL_FILTER
  2
AcDbSpatialFilter
  3
"Acad"
 90
        0
280
       0
281
       0
  0
CLASS
  1
XRECORD
  2
AcDbXrecord
  3
"<Built In>"
 90
        0
280
       0
281
       0
  0
CLASS
  1
SORTENTSTABLE
  2
AcDbSortentsTable
  3
"AutoCAD"
 90
        0
280
       0
281
       0
  0
CLASS
  1
LAYER_INDEX
  2
AcDbLayerIndex
  3
"Acad"
 90
        0
280
       0
281
       0
  0
CLASS
  1
SPATIAL_INDEX
  2
AcDbSpatialIndex
  3
"Acad"
 90
        0
280
       0
281
       0
  0
CLASS
  1
OBJECT_PTR
  2
CAseDLPNTableRecord
  3
"ASE-LPNTableRecord"
 90
        1
280
       0
281
       0
  0
CLASS
  1
LAYOUT
  2
AcDbLayout
  3
"AutoCAD 2000"
 90
        1
280
       0
281
       0
  0
CLASS
  1
PLOTSETTINGS
  2
AcDbPlotSettings
  3
"AutoCAD 2000"
 90
        1
280
       0
281
       0
  0
CLASS
  1
ACDBDICTIONARYWDFLT
  2
AcDbDictionaryWithDefault
  3
"AutoCAD 2000"
 90
        1
280
       0
281
       0
  0
CLASS
  1
ACDBPLACEHOLDER
  2
AcDbPlaceHolder
  3
"AutoCAD 2000"
 90
        1
280
       0
281
       0
  0
CLASS
  1
VBA_PROJECT
  2
AcDbVbaProject
  3
"acadvba"
 90
        1
280
       0
281
       0
  0
CLASS
  1
WIPEOUT
  2
AcDbWipeout
  3
WipeOut|AutoCAD Express Tool|expresstools@autodesk.com
 90
      127
280
       0
281
       1
  0
CLASS
  1
WIPEOUTVARIABLES
  2
AcDbWipeoutVariables
  3
WipeOut|AutoCAD Express Tool|expresstools@autodesk.com
 90
        0
280
       0
281
       0
  0
CLASS
  1
RTEXT
  2
RText
  3
RText|AutoCAD Express Tool|expresstools@autodesk.com
 90
        0
280
       0
281
       1
  0
CLASS
  1
ARCALIGNEDTEXT
  2
AcDbArcAlignedText
  3
ATEXT|AutoCAD Express Tool|expresstools@autodesk.com
 90
        0
280
       0
281
       1
  0
ENDSEC
  0
SECTION
  2
TABLES
  0
TABLE
  2
VPORT
  5
7
100
AcDbSymbolTable
 70
       1
  0
VPORT
  5
15
100
AcDbSymbolTableRecord
100
AcDbViewportTableRecord
  2
*ACTIVE
 70
       0
 10
0.0
 20
0.0
 11
1.0
 21
1.0
 12
0.0
 22
-0.875
 13
0.0
 23
0.0
 14
1.0
 24
1.0
 15
0.0
 25
0.0
 16
0.0
 26
0.0
 36
1.0
 17
0.0
 27
0.0
 37
0.0
 40
135.99172757
 41
1.49710166
 42
50.0
 43
0.0
 44
0.0
 50
0.0
 51
0.0
 71
       0
 72
     100
 73
       1
 74
       1
 75
       0
 76
       0
 77
       0
 78
       0
  0
ENDTAB
  0
TABLE
  2
LTYPE
  5
4
100
AcDbSymbolTable
 70
      30
  0
LTYPE
  5
11
100
AcDbSymbolTableRecord
100
AcDbLinetypeTableRecord
  2
BYBLOCK
 70
      64
  3

 72
      65
 73
       0
 40
0.0
  0
LTYPE
  5
12
100
AcDbSymbolTableRecord
100
AcDbLinetypeTableRecord
  2
BYLAYER
 70
      64
  3

 72
      65
 73
       0
 40
0.0
  0
LTYPE
  5
13
100
AcDbSymbolTableRecord
100
AcDbLinetypeTableRecord
  2
CONTINUOUS
 70
      64
  3
Solid line
 72
      65
 73
       0
 40
0.0
  0
LTYPE
  5
1D
100
AcDbSymbolTableRecord
100
AcDbLinetypeTableRecord
  2
HIDDENX2
 70
      64
  3
CADPAC LINETYPE
 72
      65
 73
       2
 40
7.66469423
 49
5.74852067
 74
       0
 49
-1.91617356
 74
       0
  0
LTYPE
  5
1E
100
AcDbSymbolTableRecord
100
AcDbLinetypeTableRecord
  2
HIDDEN
 70
      64
  3
CADPAC LINETYPE
 72
      65
 73
       2
 40
5.74852067
 49
3.83234712
 74
       0
 49
-1.91617356
 74
       0
  0
LTYPE
  5
1F
100
AcDbSymbolTableRecord
100
AcDbLinetypeTableRecord
  2
HIDDEN2
 70
      64
  3
CADPAC LINETYPE
 72
      65
 73
       2
 40
4.7904339
 49
2.87426034
 74
       0
 49
-1.91617356
 74
       0
  0
LTYPE
  5
20
100
AcDbSymbolTableRecord
100
AcDbLinetypeTableRecord
  2
DASHED
 70
      64
  3
CADPAC LINETYPE
 72
      65
 73
       2
 40
5.74852067
 49
3.83234712
 74
       0
 49
-1.91617356
 74
       0
  0
LTYPE
  5
21
100
AcDbSymbolTableRecord
100
AcDbLinetypeTableRecord
  2
DASHED2
 70
      64
  3
CADPAC LINETYPE
 72
      65
 73
       2
 40
4.31139051
 49
2.87426034
 74
       0
 49
-1.43713017
 74
       0
  0
LTYPE
  5
22
100
AcDbSymbolTableRecord
100
AcDbLinetypeTableRecord
  2
DASHEDX2
 70
      64
  3
CADPAC LINETYPE
 72
      65
 73
       2
 40
8.62278101
 49
5.74852067
 74
       0
 49
-2.87426034
 74
       0
  0
LTYPE
  5
23
100
AcDbSymbolTableRecord
100
AcDbLinetypeTableRecord
  2
DOTX2
 70
      64
  3
CADPAC LINETYPE
 72
      65
 73
       2
 40
2.39521695
 49
0.0
 74
       0
 49
-2.39521695
 74
       0
  0
LTYPE
  5
24
100
AcDbSymbolTableRecord
100
AcDbLinetypeTableRecord
  2
DOT
 70
      64
  3
CADPAC LINETYPE
 72
      65
 73
       2
 40
1.91617356
 49
0.0
 74
       0
 49
-1.91617356
 74
       0
  0
LTYPE
  5
25
100
AcDbSymbolTableRecord
100
AcDbLinetypeTableRecord
  2
DOT2
 70
      64
  3
CADPAC LINETYPE
 72
      65
 73
       2
 40
1.43713017
 49
0.0
 74
       0
 49
-1.43713017
 74
       0
  0
LTYPE
  5
26
100
AcDbSymbolTableRecord
100
AcDbLinetypeTableRecord
  2
CENTERX2
 70
      64
  3
CADPAC LINETYPE
 72
      65
 73
       4
 40
11.49704135
 49
4.7904339
 74
       0
 49
-2.39521695
 74
       0
 49
1.91617356
 74
       0
 49
-2.39521695
 74
       0
  0
LTYPE
  5
27
100
AcDbSymbolTableRecord
100
AcDbLinetypeTableRecord
  2
CENTER
 70
      64
  3
CADPAC LINETYPE
 72
      65
 73
       4
 40
8.81439837
 49
3.83234712
 74
       0
 49
-1.91617356
 74
       0
 49
1.14970413
 74
       0
 49
-1.91617356
 74
       0
  0
LTYPE
  5
28
100
AcDbSymbolTableRecord
100
AcDbLinetypeTableRecord
  2
CENTER2
 70
      64
  3
CADPAC LINETYPE
 72
      65
 73
       4
 40
6.13175539
 49
2.87426034
 74
       0
 49
-1.43713017
 74
       0
 49
0.38323471
 74
       0
 49
-1.43713017
 74
       0
  0
LTYPE
  5
29
100
AcDbSymbolTableRecord
100
AcDbLinetypeTableRecord
  2
DASHDOTX2
 70
      64
  3
CADPAC LINETYPE
 72
      65
 73
       4
 40
9.58086779
 49
4.7904339
 74
       0
 49
-2.39521695
 74
       0
 49
0.0
 74
       0
 49
-2.39521695
 74
       0
  0
LTYPE
  5
2A
100
AcDbSymbolTableRecord
100
AcDbLinetypeTableRecord
  2
DASHDOT
 70
      64
  3
CADPAC LINETYPE
 72
      65
 73
       4
 40
7.66469423
 49
3.83234712
 74
       0
 49
-1.91617356
 74
       0
 49
0.0
 74
       0
 49
-1.91617356
 74
       0
  0
LTYPE
  5
2B
100
AcDbSymbolTableRecord
100
AcDbLinetypeTableRecord
  2
DASHDOT2
 70
      64
  3
CADPAC LINETYPE
 72
      65
 73
       4
 40
5.74852067
 49
2.87426034
 74
       0
 49
-1.43713017
 74
       0
 49
0.0
 74
       0
 49
-1.43713017
 74
       0
  0
LTYPE
  5
2C
100
AcDbSymbolTableRecord
100
AcDbLinetypeTableRecord
  2
DIVIDEX2
 70
      64
  3
CADPAC LINETYPE
 72
      65
 73
       6
 40
11.97608474
 49
4.7904339
 74
       0
 49
-2.39521695
 74
       0
 49
0.0
 74
       0
 49
-2.39521695
 74
       0
 49
0.0
 74
       0
 49
-2.39521695
 74
       0
  0
LTYPE
  5
2D
100
AcDbSymbolTableRecord
100
AcDbLinetypeTableRecord
  2
DIVIDE
 70
      64
  3
CADPAC LINETYPE
 72
      65
 73
       6
 40
9.58086779
 49
3.83234712
 74
       0
 49
-1.91617356
 74
       0
 49
0.0
 74
       0
 49
-1.91617356
 74
       0
 49
0.0
 74
       0
 49
-1.91617356
 74
       0
  0
LTYPE
  5
2E
100
AcDbSymbolTableRecord
100
AcDbLinetypeTableRecord
  2
DIVIDE2
 70
      64
  3
CADPAC LINETYPE
 72
      65
 73
       6
 40
7.18565084
 49
2.87426034
 74
       0
 49
-1.43713017
 74
       0
 49
0.0
 74
       0
 49
-1.43713017
 74
       0
 49
0.0
 74
       0
 49
-1.43713017
 74
       0
  0
LTYPE
  5
2F
100
AcDbSymbolTableRecord
100
AcDbLinetypeTableRecord
  2
BORDERX2
 70
      64
  3
CADPAC LINETYPE
 72
      65
 73
       6
 40
16.76651863
 49
4.7904339
 74
       0
 49
-2.39521695
 74
       0
 49
4.7904339
 74
       0
 49
-2.39521695
 74
       0
 49
0.0
 74
       0
 49
-2.39521695
 74
       0
  0
LTYPE
  5
30
100
AcDbSymbolTableRecord
100
AcDbLinetypeTableRecord
  2
BORDER
 70
      64
  3
CADPAC LINETYPE
 72
      65
 73
       6
 40
13.41321491
 49
3.83234712
 74
       0
 49
-1.91617356
 74
       0
 49
3.83234712
 74
       0
 49
-1.91617356
 74
       0
 49
0.0
 74
       0
 49
-1.91617356
 74
       0
  0
LTYPE
  5
31
100
AcDbSymbolTableRecord
100
AcDbLinetypeTableRecord
  2
BORDER2
 70
      64
  3
CADPAC LINETYPE
 72
      65
 73
       6
 40
10.05991118
 49
2.87426034
 74
       0
 49
-1.43713017
 74
       0
 49
2.87426034
 74
       0
 49
-1.43713017
 74
       0
 49
0.0
 74
       0
 49
-1.43713017
 74
       0
  0
LTYPE
  5
32
100
AcDbSymbolTableRecord
100
AcDbLinetypeTableRecord
  2
PHANTOMX2
 70
      64
  3
CADPAC LINETYPE
 72
      65
 73
       6
 40
14.37130169
 49
4.7904339
 74
       0
 49
-1.91617356
 74
       0
 49
1.91617356
 74
       0
 49
-1.91617356
 74
       0
 49
1.91617356
 74
       0
 49
-1.91617356
 74
       0
  0
LTYPE
  5
33
100
AcDbSymbolTableRecord
100
AcDbLinetypeTableRecord
  2
PHANTOM
 70
      64
  3
CADPAC LINETYPE
 72
      65
 73
       6
 40
11.88027606
 49
3.83234712
 74
       0
 49
-1.91617356
 74
       0
 49
1.14970413
 74
       0
 49
-1.91617356
 74
       0
 49
1.14970413
 74
       0
 49
-1.91617356
 74
       0
  0
LTYPE
  5
34
100
AcDbSymbolTableRecord
100
AcDbLinetypeTableRecord
  2
PHANTOM2
 70
      64
  3
CADPAC LINETYPE
 72
      65
 73
       6
 40
10.15571986
 49
2.87426034
 74
       0
 49
-1.91617356
 74
       0
 49
0.76646942
 74
       0
 49
-1.91617356
 74
       0
 49
0.76646942
 74
       0
 49
-1.91617356
 74
       0
  0
LTYPE
  5
35
100
AcDbSymbolTableRecord
100
AcDbLinetypeTableRecord
  2
ACAD_ISO06W100
 70
      64
  3
CADPAC LINETYPE
 72
      65
 73
       8
 40
12.93417152
 49
4.7904339
 74
       0
 49
-2.39521695
 74
       0
 49
0.0
 74
       0
 49
-1.91617356
 74
       0
 49
0.0
 74
       0
 49
-1.91617356
 74
       0
 49
0.0
 74
       0
 49
-1.91617356
 74
       0
  0
LTYPE
  5
36
100
AcDbSymbolTableRecord
100
AcDbLinetypeTableRecord
  2
ACAD_ISO13W100
 70
      64
  3
CADPAC LINETYPE
 72
      65
 73
       8
 40
15.32938847
 49
3.83234712
 74
       0
 49
-1.91617356
 74
       0
 49
3.83234712
 74
       0
 49
-1.91617356
 74
       0
 49
0.0
 74
       0
 49
-1.91617356
 74
       0
 49
0.0
 74
       0
 49
-1.91617356
 74
       0
  0
LTYPE
  5
37
100
AcDbSymbolTableRecord
100
AcDbLinetypeTableRecord
  2
ACAD_ISO14W100
 70
      64
  3
CADPAC LINETYPE
 72
      65
 73
       8
 40
11.49704135
 49
3.83234712
 74
       0
 49
-1.91617356
 74
       0
 49
0.0
 74
       0
 49
-1.91617356
 74
       0
 49
0.0
 74
       0
 49
-1.91617356
 74
       0
 49
0.0
 74
       0
 49
-1.91617356
 74
       0
  0
ENDTAB
  0
TABLE
  2
LAYER
  5
2
100
AcDbSymbolTable
 70
       3
  0
LAYER
  5
14
100
AcDbSymbolTableRecord
100
AcDbLayerTableRecord
  2
0
 70
       0
 62
       7
  6
CONTINUOUS
  0
LAYER
  5
38
100
AcDbSymbolTableRecord
100
AcDbLayerTableRecord
  2
LAYER0001
 70
       0
 62
       7
  6
CONTINUOUS
  0
LAYER
  5
39
100
AcDbSymbolTableRecord
100
AcDbLayerTableRecord
  2
LAYER0002
 70
       0
 62
       7
  6
CONTINUOUS
  0
ENDTAB
  0
TABLE
  2
STYLE
  5
3
100
AcDbSymbolTable
 70
       1
  0
STYLE
  5
17
100
AcDbSymbolTableRecord
100
AcDbTextStyleTableRecord
  2
STANDARD
 70
       0
 40
0.0
 41
1.0
 50
0.0
 71
       0
 42
3.5
  3
txt.shx
  4
bigfont.shx
  0
ENDTAB
  0
TABLE
  2
VIEW
  5
5
100
AcDbSymbolTable
 70
       1
  0
VIEW
  5
3A
100
AcDbSymbolTableRecord
100
AcDbViewTableRecord
  2
QQQQ
 70
       0
 40
135.99172757
 10
0.0
 20
-0.875
 41
203.59344056
 11
0.0
 21
0.0
 31
1.0
 12
100.0
 22
100.0
 32
0.0
 42
50.0
 43
0.0
 44
0.0
 50
0.0
 71
       0
  0
ENDTAB
  0
TABLE
  2
UCS
  5
6
100
AcDbSymbolTable
 70
       0
  0
ENDTAB
  0
TABLE
  2
APPID
  5
8
100
AcDbSymbolTable
 70
       1
  0
APPID
  5
16
100
AcDbSymbolTableRecord
100
AcDbRegAppTableRecord
  2
ACAD
 70
       0
  0
ENDTAB
  0
TABLE
  2
DIMSTYLE
  5
9
100
AcDbSymbolTable
 70
       1
  0
DIMSTYLE
105
18
100
AcDbSymbolTableRecord
100
AcDbDimStyleTableRecord
  2
STANDARD
 70
       0
  3

  4

  5

  6

  7

 40
1.0
 41
0.18
 42
0.0625
 43
0.38
 44
0.18
 45
0.0
 46
0.0
 47
0.0
 48
0.0
 71
       0
 72
       0
 73
       1
 74
       1
 75
       0
 76
       0
 77
       0
 78
       0
140
0.18
141
0.09
142
0.0
143
25.4
144
1.0
145
0.0
146
1.0
147
0.09
170
       0
171
       2
172
       0
173
       0
174
       0
175
       0
176
       0
177
       0
178
       0
270
       2
271
       4
272
       4
273
       2
274
       2
275
       0
280
       0
281
       0
282
       0
283
       1
284
       0
285
       0
286
       0
287
       0
288
       0
340
17
  0
ENDTAB
  0
TABLE
  2
BLOCK_RECORD
  5
1
100
AcDbSymbolTable
 70
       0
  0
BLOCK_RECORD
  5
A
100
AcDbSymbolTableRecord
100
AcDbBlockTableRecord
  2
*MODEL_SPACE
  0
BLOCK_RECORD
  5
B
100
AcDbSymbolTableRecord
100
AcDbBlockTableRecord
  2
*PAPER_SPACE
  0
ENDTAB
  0
ENDSEC
  0
SECTION
  2
BLOCKS
  0
BLOCK
  5
D
100
AcDbEntity
  8
0
100
AcDbBlockBegin
  2
*MODEL_SPACE
 70
       0
 10
0.0
 20
0.0
 30
0.0
  3
*MODEL_SPACE
  1

  0
ENDBLK
  5
E
100
AcDbEntity
  8
0
100
AcDbBlockEnd
  0
BLOCK
  5
F
100
AcDbEntity
 67
       1
  8
0
100
AcDbBlockBegin
  2
*PAPER_SPACE
 70
       0
 10
0.0
 20
0.0
 30
0.0
  3
*PAPER_SPACE
  1

  0
ENDBLK
  5
10
100
AcDbEntity
 67
       1
  8
0
100
AcDbBlockEnd
  0
ENDSEC
  0
SECTION
  2
ENTITIES
  0
LINE
  5
3B
100
AcDbEntity
  8
LAYER0001
  6
CONTINUOUS
 62
       7
100
AcDbLine
 10
-78.62372876
 20
53.65971836
 30
0.0
 11
-90.92372876
 21
53.65971836
 31
0.0
  0
LINE
  5
3C
100
AcDbEntity
  8
LAYER0001
  6
CONTINUOUS
 62
       7
100
AcDbLine
 10
-78.62372876
 20
32.65971836
 30
0.0
 11
-90.92372876
 21
32.65971836
 31
0.0
  0
LINE
  5
3D
100
AcDbEntity
  8
LAYER0001
  6
CONTINUOUS
 62
       7
100
AcDbLine
 10
-92.12372876
 20
52.45971836
 30
0.0
 11
-90.92372876
 21
53.65971836
 31
0.0
  0
LINE
  5
3E
100
AcDbEntity
  8
LAYER0001
  6
CONTINUOUS
 62
       7
100
AcDbLine
 10
-90.92372876
 20
32.65971836
 30
0.0
 11
-92.12372876
 21
33.85971836
 31
0.0
  0
LINE
  5
3F
100
AcDbEntity
  8
LAYER0001
  6
CONTINUOUS
 62
       7
100
AcDbLine
 10
-92.12372876
 20
33.85971836
 30
0.0
 11
-92.12372876
 21
52.45971836
 31
0.0
  0
LINE
  5
40
100
AcDbEntity
  8
LAYER0001
  6
CONTINUOUS
 62
       7
100
AcDbLine
 10
-77.62372876
 20
32.1963934
 30
0.0
 11
-77.62372876
 21
54.12304332
 31
0.0
  0
LINE
  5
41
100
AcDbEntity
  8
LAYER0001
  6
CONTINUOUS
 62
       7
100
AcDbLine
 10
-78.62372876
 20
-22.24067968
 30
0.0
 11
-90.92372876
 21
-22.24067968
 31
0.0
  0
LINE
  5
42
100
AcDbEntity
  8
LAYER0001
  6
CONTINUOUS
 62
       7
100
AcDbLine
 10
-78.62372876
 20
-43.24067968
 30
0.0
 11
-90.92372876
 21
-43.24067968
 31
0.0
  0
LINE
  5
43
100
AcDbEntity
  8
LAYER0001
  6
CONTINUOUS
 62
       7
100
AcDbLine
 10
-92.12372876
 20
-23.44067968
 30
0.0
 11
-90.92372876
 21
-22.24067968
 31
0.0
  0
LINE
  5
44
100
AcDbEntity
  8
LAYER0001
  6
CONTINUOUS
 62
       7
100
AcDbLine
 10
-90.92372876
 20
-43.24067968
 30
0.0
 11
-92.12372876
 21
-42.04067968
 31
0.0
  0
LINE
  5
45
100
AcDbEntity
  8
LAYER0001
  6
CONTINUOUS
 62
       7
100
AcDbLine
 10
-92.12372876
 20
-42.04067968
 30
0.0
 11
-92.12372876
 21
-23.44067968
 31
0.0
  0
LINE
  5
46
100
AcDbEntity
  8
LAYER0001
  6
CONTINUOUS
 62
       7
100
AcDbLine
 10
-77.62372876
 20
-43.70400464
 30
0.0
 11
-77.62372876
 21
-21.77735472
 31
0.0
  0
ARC
  5
47
100
AcDbEntity
  8
LAYER0001
  6
CONTINUOUS
 62
       7
100
AcDbCircle
 10
-76.62372876
 20
53.45971836
 30
0.0
 40
1.2
100
AcDbArc
 50
33.55730976
 51
146.44269016
  0
ARC
  5
48
100
AcDbEntity
  8
LAYER0001
  6
CONTINUOUS
 62
       7
100
AcDbCircle
 10
-76.62372876
 20
32.85971836
 30
0.0
 40
1.2
100
AcDbArc
 50
213.55730984
 51
326.44269024
  0
ARC
  5
49
100
AcDbEntity
  8
LAYER0001
  6
CONTINUOUS
 62
       7
100
AcDbCircle
 10
-76.62372876
 20
-22.44067968
 30
0.0
 40
1.2
100
AcDbArc
 50
33.55730976
 51
146.44269016
  0
ARC
  5
4A
100
AcDbEntity
  8
LAYER0001
  6
CONTINUOUS
 62
       7
100
AcDbCircle
 10
-76.62372876
 20
-43.04067968
 30
0.0
 40
1.2
100
AcDbArc
 50
213.55730984
 51
326.44269024
  0
LINE
  5
4B
100
AcDbEntity
  8
LAYER0002
  6
CONTINUOUS
 62
       7
100
AcDbLine
 10
73.3987195
 20
-13.24067968
 30
0.0
 11
58.34873802
 21
-21.92979054
 31
0.0
  0
LINE
  5
4C
100
AcDbEntity
  8
LAYER0002
  6
CONTINUOUS
 62
       7
100
AcDbLine
 10
57.12372876
 20
-24.05156882
 30
0.0
 11
57.12372876
 21
-41.42979054
 31
0.0
  0
LINE
  5
4D
100
AcDbEntity
  8
LAYER0002
  6
CONTINUOUS
 62
       7
100
AcDbLine
 10
58.34873802
 20
-43.55156882
 30
0.0
 11
73.3987195
 21
-52.24067968
 31
0.0
  0
LINE
  5
4E
100
AcDbEntity
  8
LAYER0002
  6
CONTINUOUS
 62
       7
100
AcDbLine
 10
75.84873802
 20
-52.24067968
 30
0.0
 11
90.8987195
 21
-43.55156882
 31
0.0
  0
LINE
  5
4F
100
AcDbEntity
  8
LAYER0002
  6
CONTINUOUS
 62
       7
100
AcDbLine
 10
92.12372876
 20
-41.42979054
 30
0.0
 11
92.12372876
 21
-24.05156882
 31
0.0
  0
LINE
  5
50
100
AcDbEntity
  8
LAYER0002
  6
CONTINUOUS
 62
       7
100
AcDbLine
 10
90.8987195
 20
-21.92979054
 30
0.0
 11
75.84873802
 21
-13.24067968
 31
0.0
  0
LINE
  5
51
100
AcDbEntity
  8
LAYER0002
  6
CONTINUOUS
 62
       7
100
AcDbLine
 10
73.3987195
 20
-13.24067968
 30
0.0
 11
75.84873802
 21
-13.24067968
 31
0.0
  0
LINE
  5
52
100
AcDbEntity
  8
LAYER0002
  6
CONTINUOUS
 62
       7
100
AcDbLine
 10
90.8987195
 20
-21.92979054
 30
0.0
 11
92.12372876
 21
-24.05156882
 31
0.0
  0
LINE
  5
53
100
AcDbEntity
  8
LAYER0002
  6
CONTINUOUS
 62
       7
100
AcDbLine
 10
92.12372876
 20
-41.42979054
 30
0.0
 11
90.8987195
 21
-43.55156882
 31
0.0
  0
LINE
  5
54
100
AcDbEntity
  8
LAYER0002
  6
CONTINUOUS
 62
       7
100
AcDbLine
 10
75.84873802
 20
-52.24067968
 30
0.0
 11
73.3987195
 21
-52.24067968
 31
0.0
  0
LINE
  5
55
100
AcDbEntity
  8
LAYER0002
  6
CONTINUOUS
 62
       7
100
AcDbLine
 10
58.34873802
 20
-43.55156882
 30
0.0
 11
57.12372876
 21
-41.42979054
 31
0.0
  0
LINE
  5
56
100
AcDbEntity
  8
LAYER0002
  6
CONTINUOUS
 62
       7
100
AcDbLine
 10
57.12372876
 20
-24.05156882
 30
0.0
 11
58.34873802
 21
-21.92979054
 31
0.0
  0
LINE
  5
57
100
AcDbEntity
  8
LAYER0002
  6
CONTINUOUS
 62
       7
100
AcDbLine
 10
86.12372876
 20
-39.81174749
 30
0.0
 11
86.12372876
 21
-25.66961187
 31
0.0
  0
LINE
  5
58
100
AcDbEntity
  8
LAYER0002
  6
CONTINUOUS
 62
       7
100
AcDbLine
 10
63.12372876
 20
-39.81174749
 30
0.0
 11
63.12372876
 21
-25.66961187
 31
0.0
  0
LINE
  5
59
100
AcDbEntity
  8
LAYER0002
  6
CONTINUOUS
 62
       7
100
AcDbLine
 10
2.37627124
 20
-45.24067968
 30
0.0
 11
2.37627124
 21
-20.24067968
 31
0.0
  0
LINE
  5
5A
100
AcDbEntity
  8
LAYER0002
  6
CONTINUOUS
 62
       7
100
AcDbLine
 10
-69.62372876
 20
-15.24067968
 30
0.0
 11
-69.62372876
 21
-50.24067968
 31
0.0
  0
LINE
  5
5B
100
AcDbEntity
  8
LAYER0002
  6
CONTINUOUS
 62
       7
100
AcDbLine
 10
-69.62372876
 20
-15.24067968
 30
0.0
 11
-70.7784293
 21
-13.24067968
 31
0.0
  0
LINE
  5
5C
100
AcDbEntity
  8
LAYER0002
  6
CONTINUOUS
 62
       7
100
AcDbLine
 10
-74.46902822
 20
-13.24067968
 30
0.0
 11
-70.7784293
 21
-13.24067968
 31
0.0
  0
LINE
  5
5D
100
AcDbEntity
  8
LAYER0002
  6
CONTINUOUS
 62
       7
100
AcDbLine
 10
-75.62372876
 20
-15.24067968
 30
0.0
 11
-74.46902822
 21
-13.24067968
 31
0.0
  0
LINE
  5
5E
100
AcDbEntity
  8
LAYER0002
  6
CONTINUOUS
 62
       7
100
AcDbLine
 10
-74.52444715
 20
-21.88639775
 30
0.0
 11
-70.72301037
 21
-21.88639775
 31
0.0
  0
LINE
  5
5F
100
AcDbEntity
  8
LAYER0002
  6
CONTINUOUS
 62
       7
100
AcDbLine
 10
-74.52444715
 20
-24.13835441
 30
0.0
 11
-70.72301037
 21
-24.13835441
 31
0.0
  0
LINE
  5
60
100
AcDbEntity
  8
LAYER0002
  6
CONTINUOUS
 62
       7
100
AcDbLine
 10
-74.52444715
 20
-21.88639775
 30
0.0
 11
-74.52444715
 21
-24.13835441
 31
0.0
  0
LINE
  5
61
100
AcDbEntity
  8
LAYER0002
  6
CONTINUOUS
 62
       7
100
AcDbLine
 10
-70.72301037
 20
-21.88639775
 30
0.0
 11
-70.72301037
 21
-24.13835441
 31
0.0
  0
LINE
  5
62
100
AcDbEntity
  8
LAYER0002
  6
CONTINUOUS
 62
       7
100
AcDbLine
 10
-69.62372876
 20
-50.24067968
 30
0.0
 11
-70.7784293
 21
-52.24067968
 31
0.0
  0
LINE
  5
63
100
AcDbEntity
  8
LAYER0002
  6
CONTINUOUS
 62
       7
100
AcDbLine
 10
-74.46902822
 20
-52.24067968
 30
0.0
 11
-70.7784293
 21
-52.24067968
 31
0.0
  0
LINE
  5
64
100
AcDbEntity
  8
LAYER0002
  6
CONTINUOUS
 62
       7
100
AcDbLine
 10
-75.62372876
 20
-50.24067968
 30
0.0
 11
-74.46902822
 21
-52.24067968
 31
0.0
  0
LINE
  5
65
100
AcDbEntity
  8
LAYER0002
  6
CONTINUOUS
 62
       7
100
AcDbLine
 10
-74.52444715
 20
-43.59496161
 30
0.0
 11
-70.72301037
 21
-43.59496161
 31
0.0
  0
LINE
  5
66
100
AcDbEntity
  8
LAYER0002
  6
CONTINUOUS
 62
       7
100
AcDbLine
 10
-74.52444715
 20
-41.34300495
 30
0.0
 11
-70.72301037
 21
-41.34300495
 31
0.0
  0
LINE
  5
67
100
AcDbEntity
  8
LAYER0002
  6
CONTINUOUS
 62
       7
100
AcDbLine
 10
-74.52444715
 20
-43.59496161
 30
0.0
 11
-74.52444715
 21
-41.34300495
 31
0.0
  0
LINE
  5
68
100
AcDbEntity
  8
LAYER0002
  6
CONTINUOUS
 62
       7
100
AcDbLine
 10
-70.72301037
 20
-43.59496161
 30
0.0
 11
-70.72301037
 21
-41.34300495
 31
0.0
  0
LINE
  5
69
100
AcDbEntity
  8
LAYER0002
  6
CONTINUOUS
 62
       7
100
AcDbLine
 10
-69.62372876
 20
-16.74067968
 30
0.0
 11
-63.62372876
 21
-16.74067968
 31
0.0
  0
LINE
  5
6A
100
AcDbEntity
  8
LAYER0002
  6
CONTINUOUS
 62
       7
100
AcDbLine
 10
-69.62372876
 20
-48.74067968
 30
0.0
 11
-63.62372876
 21
-48.74067968
 31
0.0
  0
LINE
  5
6B
100
AcDbEntity
  8
LAYER0002
  6
CONTINUOUS
 62
       7
100
AcDbLine
 10
-12.62372876
 20
-16.24067968
 30
0.0
 11
-12.62372876
 21
-49.24067968
 31
0.0
  0
LINE
  5
6C
100
AcDbEntity
  8
LAYER0002
  6
CONTINUOUS
 62
       7
100
AcDbLine
 10
-63.62372876
 20
-15.24067968
 30
0.0
 11
-63.62372876
 21
-50.24067968
 31
0.0
  0
LINE
  5
6D
100
AcDbEntity
  8
LAYER0002
  6
CONTINUOUS
 62
       7
100
AcDbLine
 10
-63.62372876
 20
-15.24067968
 30
0.0
 11
-62.46902822
 21
-13.24067968
 31
0.0
  0
LINE
  5
6E
100
AcDbEntity
  8
LAYER0002
  6
CONTINUOUS
 62
       7
100
AcDbLine
 10
-62.52444716
 20
-21.88639775
 30
0.0
 11
-62.52444716
 21
-24.13835441
 31
0.0
  0
LINE
  5
6F
100
AcDbEntity
  8
LAYER0002
  6
CONTINUOUS
 62
       7
100
AcDbLine
 10
-63.62372876
 20
-50.24067968
 30
0.0
 11
-62.46902822
 21
-52.24067968
 31
0.0
  0
LINE
  5
70
100
AcDbEntity
  8
LAYER0002
  6
CONTINUOUS
 62
       7
100
AcDbLine
 10
-62.52444716
 20
-43.59496161
 30
0.0
 11
-62.52444716
 21
-41.34300495
 31
0.0
  0
LINE
  5
71
100
AcDbEntity
  8
LAYER0002
  6
CONTINUOUS
 62
       7
100
AcDbLine
 10
-35.62372876
 20
-15.24067968
 30
0.0
 11
-35.62372876
 21
-50.24067968
 31
0.0
  0
LINE
  5
72
100
AcDbEntity
  8
LAYER0002
  6
CONTINUOUS
 62
       7
100
AcDbLine
 10
-35.62372876
 20
-15.24067968
 30
0.0
 11
-36.7784293
 21
-13.24067968
 31
0.0
  0
LINE
  5
73
100
AcDbEntity
  8
LAYER0002
  6
CONTINUOUS
 62
       7
100
AcDbLine
 10
-36.72301038
 20
-21.88639775
 30
0.0
 11
-36.72301038
 21
-24.13835441
 31
0.0
  0
LINE
  5
74
100
AcDbEntity
  8
LAYER0002
  6
CONTINUOUS
 62
       7
100
AcDbLine
 10
-35.62372876
 20
-50.24067968
 30
0.0
 11
-36.7784293
 21
-52.24067968
 31
0.0
  0
LINE
  5
75
100
AcDbEntity
  8
LAYER0002
  6
CONTINUOUS
 62
       7
100
AcDbLine
 10
-36.72301038
 20
-43.59496161
 30
0.0
 11
-36.72301038
 21
-41.34300495
 31
0.0
  0
LINE
  5
76
100
AcDbEntity
  8
LAYER0002
  6
CONTINUOUS
 62
       7
100
AcDbLine
 10
-62.46902822
 20
-13.24067968
 30
0.0
 11
-36.7784293
 21
-13.24067968
 31
0.0
  0
LINE
  5
77
100
AcDbEntity
  8
LAYER0002
  6
CONTINUOUS
 62
       7
100
AcDbLine
 10
-62.52444716
 20
-21.88639775
 30
0.0
 11
-36.72301038
 21
-21.88639775
 31
0.0
  0
LINE
  5
78
100
AcDbEntity
  8
LAYER0002
  6
CONTINUOUS
 62
       7
100
AcDbLine
 10
-36.72301038
 20
-24.13835441
 30
0.0
 11
-62.52444716
 21
-24.13835441
 31
0.0
  0
LINE
  5
79
100
AcDbEntity
  8
LAYER0002
  6
CONTINUOUS
 62
       7
100
AcDbLine
 10
-62.52444716
 20
-41.34300495
 30
0.0
 11
-36.72301038
 21
-41.34300495
 31
0.0
  0
LINE
  5
7A
100
AcDbEntity
  8
LAYER0002
  6
CONTINUOUS
 62
       7
100
AcDbLine
 10
-36.72301038
 20
-43.59496161
 30
0.0
 11
-62.52444716
 21
-43.59496161
 31
0.0
  0
LINE
  5
7B
100
AcDbEntity
  8
LAYER0002
  6
CONTINUOUS
 62
       7
100
AcDbLine
 10
-62.46902822
 20
-52.24067968
 30
0.0
 11
-36.7784293
 21
-52.24067968
 31
0.0
  0
LINE
  5
7C
100
AcDbEntity
  8
LAYER0002
  6
CONTINUOUS
 62
       7
100
AcDbLine
 10
-35.62372876
 20
-15.24067968
 30
0.0
 11
-13.62372876
 21
-15.24067968
 31
0.0
  0
LINE
  5
7D
100
AcDbEntity
  8
LAYER0002
  6
CONTINUOUS
 62
       7
100
AcDbLine
 10
-35.62372876
 20
-50.24067968
 30
0.0
 11
-13.62372876
 21
-50.24067968
 31
0.0
  0
LINE
  5
7E
100
AcDbEntity
  8
LAYER0002
  6
CONTINUOUS
 62
       7
100
AcDbLine
 10
-12.62372876
 20
-19.24067968
 30
0.0
 11
1.37627124
 21
-19.24067968
 31
0.0
  0
LINE
  5
7F
100
AcDbEntity
  8
LAYER0002
  6
CONTINUOUS
 62
       7
100
AcDbLine
 10
1.37627124
 20
-46.24067968
 30
0.0
 11
-12.62372876
 21
-46.24067968
 31
0.0
  0
LINE
  5
80
100
AcDbEntity
  8
LAYER0002
  6
CONTINUOUS
 62
       7
100
AcDbLine
 10
-9.12372876
 20
-25.66961187
 30
0.0
 11
-9.12372876
 21
-39.81174749
 31
0.0
  0
LINE
  5
81
100
AcDbEntity
  8
LAYER0002
  6
CONTINUOUS
 62
       7
100
AcDbLine
 10
-9.12372876
 20
-25.66961187
 30
0.0
 11
2.37627124
 21
-25.66961187
 31
0.0
  0
LINE
  5
82
100
AcDbEntity
  8
LAYER0002
  6
CONTINUOUS
 62
       7
100
AcDbLine
 10
-9.12372876
 20
-39.81174749
 30
0.0
 11
2.37627124
 21
-39.81174749
 31
0.0
  0
LINE
  5
83
100
AcDbEntity
  8
LAYER0002
  6
CONTINUOUS
 62
       7
100
AcDbLine
 10
-75.62372876
 20
-15.24067968
 30
0.0
 11
-75.62372876
 21
-50.24067968
 31
0.0
  0
LINE
  5
84
100
AcDbEntity
  8
LAYER0002
  6
CONTINUOUS
 62
       7
100
AcDbLine
 10
3.37627124
 20
54.65971836
 30
0.0
 11
3.37627124
 21
31.65971836
 31
0.0
  0
LINE
  5
85
100
AcDbEntity
  8
LAYER0002
  6
CONTINUOUS
 62
       7
100
AcDbLine
 10
-75.62372876
 20
25.65971836
 30
0.0
 11
-75.62372876
 21
60.65971836
 31
0.0
  0
LINE
  5
86
100
AcDbEntity
  8
LAYER0002
  6
CONTINUOUS
 62
       7
100
AcDbLine
 10
-69.62372876
 20
25.65971836
 30
0.0
 11
-69.62372876
 21
60.65971836
 31
0.0
  0
LINE
  5
87
100
AcDbEntity
  8
LAYER0002
  6
CONTINUOUS
 62
       7
100
AcDbLine
 10
-69.62372876
 20
27.15971836
 30
0.0
 11
-63.62372876
 21
27.15971836
 31
0.0
  0
LINE
  5
88
100
AcDbEntity
  8
LAYER0002
  6
CONTINUOUS
 62
       7
100
AcDbLine
 10
-69.62372876
 20
59.15971836
 30
0.0
 11
-63.62372876
 21
59.15971836
 31
0.0
  0
LINE
  5
89
100
AcDbEntity
  8
LAYER0002
  6
CONTINUOUS
 62
       7
100
AcDbLine
 10
-12.62372876
 20
26.65971836
 30
0.0
 11
-12.62372876
 21
59.65971836
 31
0.0
  0
LINE
  5
8A
100
AcDbEntity
  8
LAYER0002
  6
CONTINUOUS
 62
       7
100
AcDbLine
 10
-63.62372876
 20
25.65971836
 30
0.0
 11
-63.62372876
 21
60.65971836
 31
0.0
  0
LINE
  5
8B
100
AcDbEntity
  8
LAYER0002
  6
CONTINUOUS
 62
       7
100
AcDbLine
 10
-62.52444715
 20
25.65971836
 30
0.0
 11
-62.52444715
 21
26.95988615
 31
0.0
  0
LINE
  5
8C
100
AcDbEntity
  8
LAYER0002
  6
CONTINUOUS
 62
       7
100
AcDbLine
 10
-35.62372876
 20
25.65971836
 30
0.0
 11
-35.62372876
 21
60.65971836
 31
0.0
  0
LINE
  5
8D
100
AcDbEntity
  8
LAYER0002
  6
CONTINUOUS
 62
       7
100
AcDbLine
 10
-12.62372876
 20
29.65971836
 30
0.0
 11
-8.12372876
 21
29.65971836
 31
0.0
  0
LINE
  5
8E
100
AcDbEntity
  8
LAYER0002
  6
CONTINUOUS
 62
       7
100
AcDbLine
 10
-8.12372876
 20
56.65971836
 30
0.0
 11
-12.62372876
 21
56.65971836
 31
0.0
  0
LINE
  5
8F
100
AcDbEntity
  8
LAYER0002
  6
CONTINUOUS
 62
       7
100
AcDbLine
 10
-8.12372876
 20
31.65971836
 30
0.0
 11
3.37627124
 21
31.65971836
 31
0.0
  0
LINE
  5
90
100
AcDbEntity
  8
LAYER0002
  6
CONTINUOUS
 62
       7
100
AcDbLine
 10
-8.12372876
 20
54.65971836
 30
0.0
 11
3.37627124
 21
54.65971836
 31
0.0
  0
LINE
  5
91
100
AcDbEntity
  8
LAYER0002
  6
CONTINUOUS
 62
       7
100
AcDbLine
 10
-8.12372876
 20
29.65971836
 30
0.0
 11
-8.12372876
 21
31.65971836
 31
0.0
  0
LINE
  5
92
100
AcDbEntity
  8
LAYER0002
  6
CONTINUOUS
 62
       7
100
AcDbLine
 10
-8.12372876
 20
54.65971836
 30
0.0
 11
-8.12372876
 21
56.65971836
 31
0.0
  0
LINE
  5
93
100
AcDbEntity
  8
LAYER0002
  6
CONTINUOUS
 62
       7
100
AcDbLine
 10
-75.62372876
 20
25.65971836
 30
0.0
 11
-69.62372876
 21
25.65971836
 31
0.0
  0
LINE
  5
94
100
AcDbEntity
  8
LAYER0002
  6
CONTINUOUS
 62
       7
100
AcDbLine
 10
-75.62372876
 20
60.65971836
 30
0.0
 11
-69.62372876
 21
60.65971836
 31
0.0
  0
LINE
  5
95
100
AcDbEntity
  8
LAYER0002
  6
CONTINUOUS
 62
       7
100
AcDbLine
 10
-62.52444715
 20
41.85955057
 30
0.0
 11
-62.52444715
 21
44.45988615
 31
0.0
  0
LINE
  5
96
100
AcDbEntity
  8
LAYER0002
  6
CONTINUOUS
 62
       7
100
AcDbLine
 10
-62.52444715
 20
59.35955057
 30
0.0
 11
-62.52444715
 21
60.65971836
 31
0.0
  0
LINE
  5
97
100
AcDbEntity
  8
LAYER0002
  6
CONTINUOUS
 62
       7
100
AcDbLine
 10
-36.72301037
 20
41.85955057
 30
0.0
 11
-36.72301037
 21
44.45988615
 31
0.0
  0
LINE
  5
98
100
AcDbEntity
  8
LAYER0002
  6
CONTINUOUS
 62
       7
100
AcDbLine
 10
-36.72301037
 20
59.35955057
 30
0.0
 11
-36.72301037
 21
60.65971836
 31
0.0
  0
LINE
  5
99
100
AcDbEntity
  8
LAYER0002
  6
CONTINUOUS
 62
       7
100
AcDbLine
 10
-36.72301037
 20
25.65971836
 30
0.0
 11
-36.72301037
 21
26.95988615
 31
0.0
  0
LINE
  5
9A
100
AcDbEntity
  8
LAYER0002
  6
CONTINUOUS
 62
       7
100
AcDbLine
 10
-36.72301037
 20
41.85955057
 30
0.0
 11
-62.52444715
 21
41.85955057
 31
0.0
  0
LINE
  5
9B
100
AcDbEntity
  8
LAYER0002
  6
CONTINUOUS
 62
       7
100
AcDbLine
 10
-70.7784293
 20
41.85955058
 30
0.0
 11
-74.46902822
 21
41.85955058
 31
0.0
  0
LINE
  5
9C
100
AcDbEntity
  8
LAYER0002
  6
CONTINUOUS
 62
       7
100
AcDbLine
 10
-36.72301037
 20
44.45988615
 30
0.0
 11
-62.52444715
 21
44.45988615
 31
0.0
  0
LINE
  5
9D
100
AcDbEntity
  8
LAYER0002
  6
CONTINUOUS
 62
       7
100
AcDbLine
 10
-70.7784293
 20
44.45988615
 30
0.0
 11
-74.46902822
 21
44.45988615
 31
0.0
  0
LINE
  5
9E
100
AcDbEntity
  8
LAYER0002
  6
CONTINUOUS
 62
       7
100
AcDbLine
 10
-63.62372876
 20
25.65971836
 30
0.0
 11
-13.62372876
 21
25.65971836
 31
0.0
  0
LINE
  5
9F
100
AcDbEntity
  8
LAYER0002
  6
CONTINUOUS
 62
       7
100
AcDbLine
 10
-63.62372876
 20
60.65971836
 30
0.0
 11
-13.62372876
 21
60.65971836
 31
0.0
  0
LINE
  5
A0
100
AcDbEntity
  8
LAYER0002
  6
CONTINUOUS
 62
       7
100
AcDbLine
 10
-36.72301037
 20
26.95988615
 30
0.0
 11
-62.52444715
 21
26.95988615
 31
0.0
  0
LINE
  5
A1
100
AcDbEntity
  8
LAYER0002
  6
CONTINUOUS
 62
       7
100
AcDbLine
 10
-70.7784293
 20
26.95988615
 30
0.0
 11
-74.46902822
 21
26.95988615
 31
0.0
  0
LINE
  5
A2
100
AcDbEntity
  8
LAYER0002
  6
CONTINUOUS
 62
       7
100
AcDbLine
 10
-36.72301037
 20
59.35955057
 30
0.0
 11
-62.52444715
 21
59.35955057
 31
0.0
  0
LINE
  5
A3
100
AcDbEntity
  8
LAYER0002
  6
CONTINUOUS
 62
       7
100
AcDbLine
 10
-70.77842931
 20
59.35955058
 30
0.0
 11
-74.46902823
 21
59.35955058
 31
0.0
  0
LINE
  5
A4
100
AcDbEntity
  8
LAYER0002
  6
CONTINUOUS
 62
       7
100
AcDbLine
 10
-70.7784293
 20
26.95988615
 30
0.0
 11
-70.7784293
 21
25.65971836
 31
0.0
  0
LINE
  5
A5
100
AcDbEntity
  8
LAYER0002
  6
CONTINUOUS
 62
       7
100
AcDbLine
 10
-70.77842931
 20
60.65971836
 30
0.0
 11
-70.77842931
 21
59.35955058
 31
0.0
  0
LINE
  5
A6
100
AcDbEntity
  8
LAYER0002
  6
CONTINUOUS
 62
       7
100
AcDbLine
 10
-70.7784293
 20
44.45988615
 30
0.0
 11
-70.7784293
 21
41.85955058
 31
0.0
  0
LINE
  5
A7
100
AcDbEntity
  8
LAYER0002
  6
CONTINUOUS
 62
       7
100
AcDbLine
 10
-74.46902822
 20
26.95988615
 30
0.0
 11
-74.46902822
 21
25.65971836
 31
0.0
  0
LINE
  5
A8
100
AcDbEntity
  8
LAYER0002
  6
CONTINUOUS
 62
       7
100
AcDbLine
 10
-74.46902823
 20
60.65971836
 30
0.0
 11
-74.46902823
 21
59.35955058
 31
0.0
  0
LINE
  5
A9
100
AcDbEntity
  8
LAYER0002
  6
CONTINUOUS
 62
       7
100
AcDbLine
 10
-74.46902822
 20
44.45988615
 30
0.0
 11
-74.46902822
 21
41.85955058
 31
0.0
  0
CIRCLE
  5
AA
100
AcDbEntity
  8
LAYER0002
  6
CONTINUOUS
 62
       7
100
AcDbCircle
 10
74.62372876
 20
-32.74067968
 30
0.0
 40
6.0
  0
CIRCLE
  5
AB
100
AcDbEntity
  8
LAYER0002
  6
CONTINUOUS
 62
       7
100
AcDbCircle
 10
74.62372876
 20
-32.74067968
 30
0.0
 40
9.3
  0
CIRCLE
  5
AC
100
AcDbEntity
  8
LAYER0002
  6
CONTINUOUS
 62
       7
100
AcDbCircle
 10
74.62372876
 20
-32.74067968
 30
0.0
 40
10.5
  0
ARC
  5
AD
100
AcDbEntity
  8
LAYER0002
  6
CONTINUOUS
 62
       7
100
AcDbCircle
 10
-78.47936287
 20
-17.61307921
 30
0.0
 40
8.85563411
100
AcDbArc
 50
331.14768199
 51
389.58683825
  0
ARC
  5
AE
100
AcDbEntity
  8
LAYER0002
  6
CONTINUOUS
 62
       7
100
AcDbCircle
 10
-66.76809465
 20
-17.61307921
 30
0.0
 40
8.85563411
100
AcDbArc
 50
150.41316179
 51
208.85231804
  0
ARC
  5
AF
100
AcDbEntity
  8
LAYER0002
  6
CONTINUOUS
 62
       7
100
AcDbCircle
 10
-78.47936287
 20
-47.86828015
 30
0.0
 40
8.85563411
100
AcDbArc
 50
330.41316176
 51
388.852318
  0
ARC
  5
B0
100
AcDbEntity
  8
LAYER0002
  6
CONTINUOUS
 62
       7
100
AcDbCircle
 10
-66.76809465
 20
-47.86828016
 30
0.0
 40
8.85563411
100
AcDbArc
 50
151.14768196
 51
209.58683821
  0
ARC
  5
B1
100
AcDbEntity
  8
LAYER0002
  6
CONTINUOUS
 62
       7
100
AcDbCircle
 10
-103.8317149
 20
-32.74067968
 30
0.0
 40
34.20798614
100
AcDbArc
 50
345.43540932
 51
374.56459068
  0
ARC
  5
B2
100
AcDbEntity
  8
LAYER0002
  6
CONTINUOUS
 62
       7
100
AcDbCircle
 10
-41.41574262
 20
-32.74067968
 30
0.0
 40
34.20798614
100
AcDbArc
 50
165.43540932
 51
194.56459068
  0
ARC
  5
B3
100
AcDbEntity
  8
LAYER0002
  6
CONTINUOUS
 62
       7
100
AcDbCircle
 10
-54.76809465
 20
-17.61307921
 30
0.0
 40
8.85563411
100
AcDbArc
 50
150.41316176
 51
208.852318
  0
ARC
  5
B4
100
AcDbEntity
  8
LAYER0002
  6
CONTINUOUS
 62
       7
100
AcDbCircle
 10
-54.76809465
 20
-47.86828015
 30
0.0
 40
8.85563411
100
AcDbArc
 50
151.147682
 51
209.58683824
  0
ARC
  5
B5
100
AcDbEntity
  8
LAYER0002
  6
CONTINUOUS
 62
       7
100
AcDbCircle
 10
-29.41574263
 20
-32.74067968
 30
0.0
 40
34.20798614
100
AcDbArc
 50
165.43540932
 51
194.56459068
  0
ARC
  5
B6
100
AcDbEntity
  8
LAYER0002
  6
CONTINUOUS
 62
       7
100
AcDbCircle
 10
-44.47936287
 20
-17.61307921
 30
0.0
 40
8.85563411
100
AcDbArc
 50
331.14768196
 51
389.58683821
  0
ARC
  5
B7
100
AcDbEntity
  8
LAYER0002
  6
CONTINUOUS
 62
       7
100
AcDbCircle
 10
-44.47936287
 20
-47.86828016
 30
0.0
 40
8.85563411
100
AcDbArc
 50
330.41316179
 51
388.85231804
  0
ARC
  5
B8
100
AcDbEntity
  8
LAYER0002
  6
CONTINUOUS
 62
       7
100
AcDbCircle
 10
-69.83171491
 20
-32.74067968
 30
0.0
 40
34.20798614
100
AcDbArc
 50
345.43540932
 51
374.56459068
  0
ARC
  5
B9
100
AcDbEntity
  8
LAYER0002
  6
CONTINUOUS
 62
       7
100
AcDbCircle
 10
-13.62372876
 20
-16.24067968
 30
0.0
 40
1.0
100
AcDbArc
 50
0.0
 51
90.0
  0
ARC
  5
BA
100
AcDbEntity
  8
LAYER0002
  6
CONTINUOUS
 62
       7
100
AcDbCircle
 10
-13.62372876
 20
-49.24067968
 30
0.0
 40
1.0
100
AcDbArc
 50
270.0
 51
360.0
  0
ARC
  5
BB
100
AcDbEntity
  8
LAYER0002
  6
CONTINUOUS
 62
       7
100
AcDbCircle
 10
1.37627124
 20
-45.24067968
 30
0.0
 40
1.0
100
AcDbArc
 50
270.0
 51
360.0
  0
ARC
  5
BC
100
AcDbEntity
  8
LAYER0002
  6
CONTINUOUS
 62
       7
100
AcDbCircle
 10
1.37627124
 20
-20.24067968
 30
0.0
 40
1.0
100
AcDbArc
 50
0.0
 51
90.0
  0
ARC
  5
BD
100
AcDbEntity
  8
LAYER0002
  6
CONTINUOUS
 62
       7
100
AcDbCircle
 10
-13.62372876
 20
26.65971836
 30
0.0
 40
1.0
100
AcDbArc
 50
270.0
 51
360.0
  0
ARC
  5
BE
100
AcDbEntity
  8
LAYER0002
  6
CONTINUOUS
 62
       7
100
AcDbCircle
 10
-13.62372876
 20
59.65971836
 30
0.0
 40
1.0
100
AcDbArc
 50
0.0
 51
90.0
  0
ARC
  5
BF
100
AcDbEntity
  8
LAYER0002
  6
CONTINUOUS
 62
       7
100
AcDbCircle
 10
-61.41712857
 20
34.40971836
 30
0.0
 40
25.79339981
100
AcDbArc
 50
343.21225228
 51
376.78774772
  0
ARC
  5
C0
100
AcDbEntity
  8
LAYER0002
  6
CONTINUOUS
 62
       7
100
AcDbCircle
 10
-61.41712857
 20
51.90971836
 30
0.0
 40
25.79339981
100
AcDbArc
 50
343.21225228
 51
376.78774772
  0
ARC
  5
C1
100
AcDbEntity
  8
LAYER0002
  6
CONTINUOUS
 62
       7
100
AcDbCircle
 10
-37.83032895
 20
34.40971836
 30
0.0
 40
25.79339981
100
AcDbArc
 50
163.21225228
 51
196.78774772
  0
ARC
  5
C2
100
AcDbEntity
  8
LAYER0002
  6
CONTINUOUS
 62
       7
100
AcDbCircle
 10
-37.83032895
 20
51.90971836
 30
0.0
 40
25.79339981
100
AcDbArc
 50
163.21225228
 51
196.78774772
  0
ARC
  5
C3
100
AcDbEntity
  8
LAYER0002
  6
CONTINUOUS
 62
       7
100
AcDbCircle
 10
-94.23328398
 20
34.40971836
 30
0.0
 40
24.60955522
100
AcDbArc
 50
342.37888634
 51
377.62111368
  0
ARC
  5
C4
100
AcDbEntity
  8
LAYER0002
  6
CONTINUOUS
 62
       7
100
AcDbCircle
 10
-94.23328398
 20
51.90971836
 30
0.0
 40
24.60955521
100
AcDbArc
 50
342.37888634
 51
377.62111369
  0
ARC
  5
C5
100
AcDbEntity
  8
LAYER0002
  6
CONTINUOUS
 62
       7
100
AcDbCircle
 10
-51.01417354
 20
51.90971837
 30
0.0
 40
24.60955522
100
AcDbArc
 50
162.37888635
 51
197.62111368
  0
ARC
  5
C6
100
AcDbEntity
  8
LAYER0002
  6
CONTINUOUS
 62
       7
100
AcDbCircle
 10
-51.01417354
 20
34.40971837
 30
0.0
 40
24.60955522
100
AcDbArc
 50
162.37888634
 51
197.62111368
  0
CIRCLE
  5
C7
100
AcDbEntity
  8
LAYER0002
  6
CONTINUOUS
 62
       7
100
AcDbCircle
 10
74.62372876
 20
-32.74067968
 30
0.0
 40
13.5
  0
LINE
  5
C8
100
AcDbEntity
  8
LAYER0002
  6
CONTINUOUS
 62
       7
100
AcDbLine
 10
-78.62372876
 20
32.65971836
 30
0.0
 11
-78.62372876
 21
53.65971836
 31
0.0
  0
LINE
  5
C9
100
AcDbEntity
  8
LAYER0002
  6
CONTINUOUS
 62
       7
100
AcDbLine
 10
-77.62372876
 20
52.45971836
 30
0.0
 11
-78.62372876
 21
52.45971836
 31
0.0
  0
LINE
  5
CA
100
AcDbEntity
  8
LAYER0002
  6
CONTINUOUS
 62
       7
100
AcDbLine
 10
-77.62372876
 20
33.85971836
 30
0.0
 11
-78.62372876
 21
33.85971836
 31
0.0
  0
LINE
  5
CB
100
AcDbEntity
  8
0
  6
CONTINUOUS
 62
       7
100
AcDbLine
 10
-77.62372876
 20
-42.04067968
 30
0.0
 11
-78.62372876
 21
-42.04067968
 31
0.0
  0
LINE
  5
CC
100
AcDbEntity
  8
0
  6
CONTINUOUS
 62
       7
100
AcDbLine
 10
-77.62372876
 20
-23.44067968
 30
0.0
 11
-78.62372876
 21
-23.44067968
 31
0.0
  0
LINE
  5
CD
100
AcDbEntity
  8
0
  6
CONTINUOUS
 62
       7
100
AcDbLine
 10
-78.62372876
 20
-43.24067968
 30
0.0
 11
-78.62372876
 21
-22.24067968
 31
0.0
  0
TEXT
  5
CE
100
AcDbEntity
  8
LAYER0002
 62
       7
100
AcDbText
 10
79.61655342
 20
-62.40971836
 30
0.0
 40
3.5
  1
000
 72
       5
 11
90.11655342
 21
-62.40971836
 31
0.0
100
AcDbText
  0
ENDSEC
  0
SECTION
  2
OBJECTS
  0
DICTIONARY
  5
19
100
AcDbDictionary
  3
ACAD_GROUP
350
1A
  3
ACAD_MLINESTYLE
350
1B
  0
DICTIONARY
  5
1A
102
{ACAD_REACTORS
330
19
102
}
100
AcDbDictionary
  0
DICTIONARY
  5
1B
102
{ACAD_REACTORS
330
19
102
}
100
AcDbDictionary
  3
STANDARD
350
1C
  0
MLINESTYLE
  5
1C
102
{ACAD_REACTORS
330
1B
102
}
100
AcDbMlineStyle
  2
STANDARD
 70
       0
  3

 62
       0
 51
90.0
 52
90.0
 71
       2
 49
0.5
 62
     256
  6
BYLAYER
 49
-0.5
 62
     256
  6
BYLAYER
  0
ENDSEC
  0
EOF
