  0
SECTION
  2
HEADER
  9
$ACADVER
  1
AC1014
  9
$ACADMAINTVER
 70
       0
  9
$DWGCODEPAGE
  3
ANSI_932
  9
$INSBASE
 10
0.0
 20
0.0
 30
0.0
  9
$EXTMIN
 10
-207.13693367
 20
-143.63692308
 30
0.0
  9
$EXTMAX
 10
207.13693367
 20
58.89484163
 30
0.0
  9
$LIMMIN
 10
-220.08299203
 20
-149.96604072
  9
$LIMMAX
 10
220.08299203
 20
65.22395928
  9
$ORTHOMODE
 70
       0
  9
$REGENMODE
 70
       1
  9
$FILLMODE
 70
       1
  9
$QTEXTMODE
 70
       0
  9
$MIRRTEXT
 70
       1
  9
$DRAGMODE
 70
       2
  9
$LTSCALE
 40
1.0
  9
$OSMODE
 70
       0
  9
$ATTMODE
 70
       1
  9
$TEXTSIZE
 40
0.2
  9
$TRACEWID
 40
0.05
  9
$TEXTSTYLE
  7
STANDARD
  9
$CLAYER
  8
0
  9
$CELTYPE
  6
CONTINUOUS
  9
$CECOLOR
 62
     256
  9
$CELTSCALE
 40
1.0
  9
$DELOBJ
 70
       1
  9
$DISPSILH
 70
       0
  9
$DIMSCALE
 40
1.0
  9
$DIMASZ
 40
0.18
  9
$DIMEXO
 40
0.0625
  9
$DIMDLI
 40
0.38
  9
$DIMRND
 40
0.0
  9
$DIMDLE
 40
0.0
  9
$DIMEXE
 40
0.18
  9
$DIMTP
 40
0.0
  9
$DIMTM
 40
0.0
  9
$DIMTXT
 40
0.18
  9
$DIMCEN
 40
0.09
  9
$DIMTSZ
 40
0.0
  9
$DIMTOL
 70
       0
  9
$DIMLIM
 70
       0
  9
$DIMTIH
 70
       1
  9
$DIMTOH
 70
       1
  9
$DIMSE1
 70
       0
  9
$DIMSE2
 70
       0
  9
$DIMTAD
 70
       0
  9
$DIMZIN
 70
       0
  9
$DIMBLK
  1

  9
$DIMASO
 70
       1
  9
$DIMSHO
 70
       1
  9
$DIMPOST
  1

  9
$DIMAPOST
  1

  9
$DIMALT
 70
       0
  9
$DIMALTD
 70
       2
  9
$DIMALTF
 40
25.4
  9
$DIMLFAC
 40
1.0
  9
$DIMTOFL
 70
       0
  9
$DIMTVP
 40
0.0
  9
$DIMTIX
 70
       0
  9
$DIMSOXD
 70
       0
  9
$DIMSAH
 70
       0
  9
$DIMBLK1
  1

  9
$DIMBLK2
  1

  9
$DIMSTYLE
  2
STANDARD
  9
$DIMCLRD
 70
       0
  9
$DIMCLRE
 70
       0
  9
$DIMCLRT
 70
       0
  9
$DIMTFAC
 40
1.0
  9
$DIMGAP
 40
0.09
  9
$DIMJUST
 70
       0
  9
$DIMSD1
 70
       0
  9
$DIMSD2
 70
       0
  9
$DIMTOLJ
 70
       1
  9
$DIMTZIN
 70
       0
  9
$DIMALTZ
 70
       0
  9
$DIMALTTZ
 70
       0
  9
$DIMFIT
 70
       3
  9
$DIMUPT
 70
       0
  9
$DIMUNIT
 70
       2
  9
$DIMDEC
 70
       4
  9
$DIMTDEC
 70
       4
  9
$DIMALTU
 70
       2
  9
$DIMALTTD
 70
       2
  9
$DIMTXSTY
  7
STANDARD
  9
$DIMAUNIT
 70
       0
  9
$LUNITS
 70
       2
  9
$LUPREC
 70
       4
  9
$SKETCHINC
 40
0.1
  9
$FILLETRAD
 40
0.0
  9
$AUNITS
 70
       0
  9
$AUPREC
 70
       0
  9
$MENU
  1
acad
  9
$ELEVATION
 40
0.0
  9
$PELEVATION
 40
0.0
  9
$THICKNESS
 40
0.0
  9
$LIMCHECK
 70
       0
  9
$BLIPMODE
 70
       1
  9
$CHAMFERA
 40
0.0
  9
$CHAMFERB
 40
0.0
  9
$CHAMFERC
 40
0.0
  9
$CHAMFERD
 40
0.0
  9
$SKPOLY
 70
       0
  9
$TDCREATE
 40
0.000000000
  9
$TDUPDATE
 40
0.000000000
  9
$TDINDWG
 40
0.0000000000
  9
$TDUSRTIMER
 40
0.0000000000
  9
$USRTIMER
 70
       1
  9
$ANGBASE
 50
0.0
  9
$ANGDIR
 70
       0
  9
$PDMODE
 70
       0
  9
$PDSIZE
 40
1.0
  9
$PLINEWID
 40
0.0
  9
$COORDS
 70
       1
  9
$SPLFRAME
 70
       0
  9
$SPLINETYPE
 70
       6
  9
$SPLINESEGS
 70
       8
  9
$ATTDIA
 70
       0
  9
$ATTREQ
 70
       1
  9
$HANDLING
 70
       1
  9
$HANDSEED
  5
4D1
  9
$SURFTAB1
 70
       6
  9
$SURFTAB2
 70
       6
  9
$SURFTYPE
 70
       6
  9
$SURFU
 70
       6
  9
$SURFV
 70
       6
  9
$UCSNAME
  2

  9
$UCSORG
 10
0.0
 20
0.0
 30
0.0
  9
$UCSXDIR
 10
1.0
 20
0.0
 30
0.0
  9
$UCSYDIR
 10
0.0
 20
1.0
 30
0.0
  9
$PUCSNAME
  2

  9
$PUCSORG
 10
0.0
 20
0.0
 30
0.0
  9
$PUCSXDIR
 10
1.0
 20
0.0
 30
0.0
  9
$PUCSYDIR
 10
0.0
 20
1.0
 30
0.0
  9
$USERI1
 70
       0
  9
$USERI2
 70
       0
  9
$USERI3
 70
       0
  9
$USERI4
 70
       0
  9
$USERI5
 70
       0
  9
$USERR1
 40
0.0
  9
$USERR2
 40
0.0
  9
$USERR3
 40
0.0
  9
$USERR4
 40
0.0
  9
$USERR5
 40
0.0
  9
$WORLDVIEW
 70
       1
  9
$SHADEDGE
 70
       3
  9
$SHADEDIF
 70
      70
  9
$TILEMODE
 70
       1
  9
$MAXACTVP
 70
      16
  9
$PINSBASE
 10
0.0
 20
0.0
 30
0.0
  9
$PLIMCHECK
 70
       0
  9
$PEXTMIN
 10
1.00000000E+20
 20
1.00000000E+20
 30
1.00000000E+20
  9
$PEXTMAX
 10
-1.00000000E+20
 20
-1.00000000E+20
 30
-1.00000000E+20
  9
$PLIMMIN
 10
0.0
 20
0.0
  9
$PLIMMAX
 10
12.0
 20
9.0
  9
$UNITMODE
 70
       0
  9
$VISRETAIN
 70
       0
  9
$PLINEGEN
 70
       1
  9
$PSLTSCALE
 70
       0
  9
$TREEDEPTH
 70
    3020
  9
$PICKSTYLE
 70
       1
  9
$CMLSTYLE
  2
STANDARD
  9
$CMLJUST
 70
       0
  9
$CMLSCALE
 40
1.0
  9
$PROXYGRAPHICS
 70
       0
  9
$MEASUREMENT
 70
       0
  0
ENDSEC
  0
SECTION
  2
CLASSES
  0
CLASS
  1
LWPOLYLINE
  2
AcDbPolyline
  3
"AutoCAD"
 90
        0
280
       0
281
       1
  0
CLASS
  1
IMAGE
  2
AcDbRasterImage
  3
ISM
 90
      127
280
       0
281
       1
  0
CLASS
  1
OLE2FRAME
  2
AcDbOle2Frame
  3
""
 90
        0
280
       0
281
       1
  0
CLASS
  1
HATCH
  2
AcDbHatch
  3
"ACAD_SEDONA"
 90
        0
280
       0
281
       1
  0
CLASS
  1
DICTIONARYVAR
  2
AcDbDictionaryVar
  3
"AutoCAD"
 90
        0
280
       0
281
       0
  0
CLASS
  1
RASTERVARIABLES
  2
AcDbRasterVariables
  3
ISM
 90
        0
280
       0
281
       0
  0
CLASS
  1
IMAGEDEF
  2
AcDbRasterImageDef
  3
ISM
 90
        0
280
       0
281
       0
  0
CLASS
  1
IMAGEDEF_REACTOR
  2
AcDbRasterImageDefReactor
  3
ISM
 90
        1
280
       0
281
       0
  0
CLASS
  1
IDBUFFER
  2
AcDbIdBuffer
  3
"Acad"
 90
        0
280
       0
281
       0
  0
CLASS
  1
SPATIAL_FILTER
  2
AcDbSpatialFilter
  3
"Acad"
 90
        0
280
       0
281
       0
  0
CLASS
  1
XRECORD
  2
AcDbXrecord
  3
"<Built In>"
 90
        0
280
       0
281
       0
  0
CLASS
  1
SORTENTSTABLE
  2
AcDbSortentsTable
  3
"AutoCAD"
 90
        0
280
       0
281
       0
  0
CLASS
  1
LAYER_INDEX
  2
AcDbLayerIndex
  3
"Acad"
 90
        0
280
       0
281
       0
  0
CLASS
  1
SPATIAL_INDEX
  2
AcDbSpatialIndex
  3
"Acad"
 90
        0
280
       0
281
       0
  0
CLASS
  1
OBJECT_PTR
  2
CAseDLPNTableRecord
  3
"ASE-LPNTableRecord"
 90
        1
280
       0
281
       0
  0
CLASS
  1
LAYOUT
  2
AcDbLayout
  3
"AutoCAD 2000"
 90
        1
280
       0
281
       0
  0
CLASS
  1
PLOTSETTINGS
  2
AcDbPlotSettings
  3
"AutoCAD 2000"
 90
        1
280
       0
281
       0
  0
CLASS
  1
ACDBDICTIONARYWDFLT
  2
AcDbDictionaryWithDefault
  3
"AutoCAD 2000"
 90
        1
280
       0
281
       0
  0
CLASS
  1
ACDBPLACEHOLDER
  2
AcDbPlaceHolder
  3
"AutoCAD 2000"
 90
        1
280
       0
281
       0
  0
CLASS
  1
VBA_PROJECT
  2
AcDbVbaProject
  3
"acadvba"
 90
        1
280
       0
281
       0
  0
CLASS
  1
WIPEOUT
  2
AcDbWipeout
  3
WipeOut|AutoCAD Express Tool|expresstools@autodesk.com
 90
      127
280
       0
281
       1
  0
CLASS
  1
WIPEOUTVARIABLES
  2
AcDbWipeoutVariables
  3
WipeOut|AutoCAD Express Tool|expresstools@autodesk.com
 90
        0
280
       0
281
       0
  0
CLASS
  1
RTEXT
  2
RText
  3
RText|AutoCAD Express Tool|expresstools@autodesk.com
 90
        0
280
       0
281
       1
  0
CLASS
  1
ARCALIGNEDTEXT
  2
AcDbArcAlignedText
  3
ATEXT|AutoCAD Express Tool|expresstools@autodesk.com
 90
        0
280
       0
281
       1
  0
ENDSEC
  0
SECTION
  2
TABLES
  0
TABLE
  2
VPORT
  5
7
100
AcDbSymbolTable
 70
       1
  0
VPORT
  5
15
100
AcDbSymbolTableRecord
100
AcDbViewportTableRecord
  2
*ACTIVE
 70
       0
 10
0.0
 20
0.0
 11
1.0
 21
1.0
 12
0.0
 22
-42.37104072
 13
0.0
 23
0.0
 14
1.0
 24
1.0
 15
0.0
 25
0.0
 16
0.0
 26
0.0
 36
1.0
 17
0.0
 27
0.0
 37
0.0
 40
215.19
 41
2.04547602
 42
50.0
 43
0.0
 44
0.0
 50
0.0
 51
0.0
 71
       0
 72
     100
 73
       1
 74
       1
 75
       0
 76
       0
 77
       0
 78
       0
  0
ENDTAB
  0
TABLE
  2
LTYPE
  5
4
100
AcDbSymbolTable
 70
      30
  0
LTYPE
  5
11
100
AcDbSymbolTableRecord
100
AcDbLinetypeTableRecord
  2
BYBLOCK
 70
      64
  3

 72
      65
 73
       0
 40
0.0
  0
LTYPE
  5
12
100
AcDbSymbolTableRecord
100
AcDbLinetypeTableRecord
  2
BYLAYER
 70
      64
  3

 72
      65
 73
       0
 40
0.0
  0
LTYPE
  5
13
100
AcDbSymbolTableRecord
100
AcDbLinetypeTableRecord
  2
CONTINUOUS
 70
      64
  3
Solid line
 72
      65
 73
       0
 40
0.0
  0
LTYPE
  5
1D
100
AcDbSymbolTableRecord
100
AcDbLinetypeTableRecord
  2
HIDDENX2
 70
      64
  3
CADPAC LINETYPE
 72
      65
 73
       2
 40
16.8
 49
12.6
 74
       0
 49
-4.2
 74
       0
  0
LTYPE
  5
1E
100
AcDbSymbolTableRecord
100
AcDbLinetypeTableRecord
  2
HIDDEN
 70
      64
  3
CADPAC LINETYPE
 72
      65
 73
       2
 40
12.6
 49
8.4
 74
       0
 49
-4.2
 74
       0
  0
LTYPE
  5
1F
100
AcDbSymbolTableRecord
100
AcDbLinetypeTableRecord
  2
HIDDEN2
 70
      64
  3
CADPAC LINETYPE
 72
      65
 73
       2
 40
10.5
 49
6.3
 74
       0
 49
-4.2
 74
       0
  0
LTYPE
  5
20
100
AcDbSymbolTableRecord
100
AcDbLinetypeTableRecord
  2
DASHED
 70
      64
  3
CADPAC LINETYPE
 72
      65
 73
       2
 40
12.6
 49
8.4
 74
       0
 49
-4.2
 74
       0
  0
LTYPE
  5
21
100
AcDbSymbolTableRecord
100
AcDbLinetypeTableRecord
  2
DASHED2
 70
      64
  3
CADPAC LINETYPE
 72
      65
 73
       2
 40
9.45
 49
6.3
 74
       0
 49
-3.15
 74
       0
  0
LTYPE
  5
22
100
AcDbSymbolTableRecord
100
AcDbLinetypeTableRecord
  2
DASHEDX2
 70
      64
  3
CADPAC LINETYPE
 72
      65
 73
       2
 40
18.9
 49
12.6
 74
       0
 49
-6.3
 74
       0
  0
LTYPE
  5
23
100
AcDbSymbolTableRecord
100
AcDbLinetypeTableRecord
  2
DOTX2
 70
      64
  3
CADPAC LINETYPE
 72
      65
 73
       2
 40
5.25
 49
0.0
 74
       0
 49
-5.25
 74
       0
  0
LTYPE
  5
24
100
AcDbSymbolTableRecord
100
AcDbLinetypeTableRecord
  2
DOT
 70
      64
  3
CADPAC LINETYPE
 72
      65
 73
       2
 40
4.2
 49
0.0
 74
       0
 49
-4.2
 74
       0
  0
LTYPE
  5
25
100
AcDbSymbolTableRecord
100
AcDbLinetypeTableRecord
  2
DOT2
 70
      64
  3
CADPAC LINETYPE
 72
      65
 73
       2
 40
3.15
 49
0.0
 74
       0
 49
-3.15
 74
       0
  0
LTYPE
  5
26
100
AcDbSymbolTableRecord
100
AcDbLinetypeTableRecord
  2
CENTERX2
 70
      64
  3
CADPAC LINETYPE
 72
      65
 73
       4
 40
25.2
 49
10.5
 74
       0
 49
-5.25
 74
       0
 49
4.2
 74
       0
 49
-5.25
 74
       0
  0
LTYPE
  5
27
100
AcDbSymbolTableRecord
100
AcDbLinetypeTableRecord
  2
CENTER
 70
      64
  3
CADPAC LINETYPE
 72
      65
 73
       4
 40
19.32
 49
8.4
 74
       0
 49
-4.2
 74
       0
 49
2.52
 74
       0
 49
-4.2
 74
       0
  0
LTYPE
  5
28
100
AcDbSymbolTableRecord
100
AcDbLinetypeTableRecord
  2
CENTER2
 70
      64
  3
CADPAC LINETYPE
 72
      65
 73
       4
 40
13.44
 49
6.3
 74
       0
 49
-3.15
 74
       0
 49
0.84
 74
       0
 49
-3.15
 74
       0
  0
LTYPE
  5
29
100
AcDbSymbolTableRecord
100
AcDbLinetypeTableRecord
  2
DASHDOTX2
 70
      64
  3
CADPAC LINETYPE
 72
      65
 73
       4
 40
21.0
 49
10.5
 74
       0
 49
-5.25
 74
       0
 49
0.0
 74
       0
 49
-5.25
 74
       0
  0
LTYPE
  5
2A
100
AcDbSymbolTableRecord
100
AcDbLinetypeTableRecord
  2
DASHDOT
 70
      64
  3
CADPAC LINETYPE
 72
      65
 73
       4
 40
16.8
 49
8.4
 74
       0
 49
-4.2
 74
       0
 49
0.0
 74
       0
 49
-4.2
 74
       0
  0
LTYPE
  5
2B
100
AcDbSymbolTableRecord
100
AcDbLinetypeTableRecord
  2
DASHDOT2
 70
      64
  3
CADPAC LINETYPE
 72
      65
 73
       4
 40
12.6
 49
6.3
 74
       0
 49
-3.15
 74
       0
 49
0.0
 74
       0
 49
-3.15
 74
       0
  0
LTYPE
  5
2C
100
AcDbSymbolTableRecord
100
AcDbLinetypeTableRecord
  2
DIVIDEX2
 70
      64
  3
CADPAC LINETYPE
 72
      65
 73
       6
 40
26.25
 49
10.5
 74
       0
 49
-5.25
 74
       0
 49
0.0
 74
       0
 49
-5.25
 74
       0
 49
0.0
 74
       0
 49
-5.25
 74
       0
  0
LTYPE
  5
2D
100
AcDbSymbolTableRecord
100
AcDbLinetypeTableRecord
  2
DIVIDE
 70
      64
  3
CADPAC LINETYPE
 72
      65
 73
       6
 40
21.0
 49
8.4
 74
       0
 49
-4.2
 74
       0
 49
0.0
 74
       0
 49
-4.2
 74
       0
 49
0.0
 74
       0
 49
-4.2
 74
       0
  0
LTYPE
  5
2E
100
AcDbSymbolTableRecord
100
AcDbLinetypeTableRecord
  2
DIVIDE2
 70
      64
  3
CADPAC LINETYPE
 72
      65
 73
       6
 40
15.75
 49
6.3
 74
       0
 49
-3.15
 74
       0
 49
0.0
 74
       0
 49
-3.15
 74
       0
 49
0.0
 74
       0
 49
-3.15
 74
       0
  0
LTYPE
  5
2F
100
AcDbSymbolTableRecord
100
AcDbLinetypeTableRecord
  2
BORDERX2
 70
      64
  3
CADPAC LINETYPE
 72
      65
 73
       6
 40
36.75
 49
10.5
 74
       0
 49
-5.25
 74
       0
 49
10.5
 74
       0
 49
-5.25
 74
       0
 49
0.0
 74
       0
 49
-5.25
 74
       0
  0
LTYPE
  5
30
100
AcDbSymbolTableRecord
100
AcDbLinetypeTableRecord
  2
BORDER
 70
      64
  3
CADPAC LINETYPE
 72
      65
 73
       6
 40
29.4
 49
8.4
 74
       0
 49
-4.2
 74
       0
 49
8.4
 74
       0
 49
-4.2
 74
       0
 49
0.0
 74
       0
 49
-4.2
 74
       0
  0
LTYPE
  5
31
100
AcDbSymbolTableRecord
100
AcDbLinetypeTableRecord
  2
BORDER2
 70
      64
  3
CADPAC LINETYPE
 72
      65
 73
       6
 40
22.05
 49
6.3
 74
       0
 49
-3.15
 74
       0
 49
6.3
 74
       0
 49
-3.15
 74
       0
 49
0.0
 74
       0
 49
-3.15
 74
       0
  0
LTYPE
  5
32
100
AcDbSymbolTableRecord
100
AcDbLinetypeTableRecord
  2
PHANTOMX2
 70
      64
  3
CADPAC LINETYPE
 72
      65
 73
       6
 40
31.5
 49
10.5
 74
       0
 49
-4.2
 74
       0
 49
4.2
 74
       0
 49
-4.2
 74
       0
 49
4.2
 74
       0
 49
-4.2
 74
       0
  0
LTYPE
  5
33
100
AcDbSymbolTableRecord
100
AcDbLinetypeTableRecord
  2
PHANTOM
 70
      64
  3
CADPAC LINETYPE
 72
      65
 73
       6
 40
26.04
 49
8.4
 74
       0
 49
-4.2
 74
       0
 49
2.52
 74
       0
 49
-4.2
 74
       0
 49
2.52
 74
       0
 49
-4.2
 74
       0
  0
LTYPE
  5
34
100
AcDbSymbolTableRecord
100
AcDbLinetypeTableRecord
  2
PHANTOM2
 70
      64
  3
CADPAC LINETYPE
 72
      65
 73
       6
 40
22.26
 49
6.3
 74
       0
 49
-4.2
 74
       0
 49
1.68
 74
       0
 49
-4.2
 74
       0
 49
1.68
 74
       0
 49
-4.2
 74
       0
  0
LTYPE
  5
35
100
AcDbSymbolTableRecord
100
AcDbLinetypeTableRecord
  2
ACAD_ISO06W100
 70
      64
  3
CADPAC LINETYPE
 72
      65
 73
       8
 40
28.35
 49
10.5
 74
       0
 49
-5.25
 74
       0
 49
0.0
 74
       0
 49
-4.2
 74
       0
 49
0.0
 74
       0
 49
-4.2
 74
       0
 49
0.0
 74
       0
 49
-4.2
 74
       0
  0
LTYPE
  5
36
100
AcDbSymbolTableRecord
100
AcDbLinetypeTableRecord
  2
ACAD_ISO13W100
 70
      64
  3
CADPAC LINETYPE
 72
      65
 73
       8
 40
33.6
 49
8.4
 74
       0
 49
-4.2
 74
       0
 49
8.4
 74
       0
 49
-4.2
 74
       0
 49
0.0
 74
       0
 49
-4.2
 74
       0
 49
0.0
 74
       0
 49
-4.2
 74
       0
  0
LTYPE
  5
37
100
AcDbSymbolTableRecord
100
AcDbLinetypeTableRecord
  2
ACAD_ISO14W100
 70
      64
  3
CADPAC LINETYPE
 72
      65
 73
       8
 40
25.2
 49
8.4
 74
       0
 49
-4.2
 74
       0
 49
0.0
 74
       0
 49
-4.2
 74
       0
 49
0.0
 74
       0
 49
-4.2
 74
       0
 49
0.0
 74
       0
 49
-4.2
 74
       0
  0
ENDTAB
  0
TABLE
  2
LAYER
  5
2
100
AcDbSymbolTable
 70
       4
  0
LAYER
  5
14
100
AcDbSymbolTableRecord
100
AcDbLayerTableRecord
  2
0
 70
       0
 62
       7
  6
CONTINUOUS
  0
LAYER
  5
38
100
AcDbSymbolTableRecord
100
AcDbLayerTableRecord
  2
SLD-0
 70
       0
 62
       7
  6
CONTINUOUS
  0
LAYER
  5
39
100
AcDbSymbolTableRecord
100
AcDbLayerTableRecord
  2
SLD-0_0
 70
       0
 62
       7
  6
CONTINUOUS
  0
LAYER
  5
3A
100
AcDbSymbolTableRecord
100
AcDbLayerTableRecord
  2
レイヤー_1
 70
       0
 62
       7
  6
CONTINUOUS
  0
ENDTAB
  0
TABLE
  2
STYLE
  5
3
100
AcDbSymbolTable
 70
       1
  0
STYLE
  5
17
100
AcDbSymbolTableRecord
100
AcDbTextStyleTableRecord
  2
STANDARD
 70
       0
 40
0.0
 41
0.8
 50
0.0
 71
       0
 42
5.0
  3
txt.shx
  4
bigfont.shx
  0
ENDTAB
  0
TABLE
  2
VIEW
  5
5
100
AcDbSymbolTable
 70
       1
  0
VIEW
  5
3B
100
AcDbSymbolTableRecord
100
AcDbViewTableRecord
  2
QQQQ
 70
       0
 40
215.19
 10
0.0
 20
-42.37104072
 41
440.16598405
 11
0.0
 21
0.0
 31
1.0
 12
100.0
 22
100.0
 32
0.0
 42
50.0
 43
0.0
 44
0.0
 50
0.0
 71
       0
  0
ENDTAB
  0
TABLE
  2
UCS
  5
6
100
AcDbSymbolTable
 70
       0
  0
ENDTAB
  0
TABLE
  2
APPID
  5
8
100
AcDbSymbolTable
 70
       1
  0
APPID
  5
16
100
AcDbSymbolTableRecord
100
AcDbRegAppTableRecord
  2
ACAD
 70
       0
  0
ENDTAB
  0
TABLE
  2
DIMSTYLE
  5
9
100
AcDbSymbolTable
 70
       1
  0
DIMSTYLE
105
18
100
AcDbSymbolTableRecord
100
AcDbDimStyleTableRecord
  2
STANDARD
 70
       0
  3

  4

  5

  6

  7

 40
1.0
 41
0.18
 42
0.0625
 43
0.38
 44
0.18
 45
0.0
 46
0.0
 47
0.0
 48
0.0
 71
       0
 72
       0
 73
       1
 74
       1
 75
       0
 76
       0
 77
       0
 78
       0
140
0.18
141
0.09
142
0.0
143
25.4
144
1.0
145
0.0
146
1.0
147
0.09
170
       0
171
       2
172
       0
173
       0
174
       0
175
       0
176
       0
177
       0
178
       0
270
       2
271
       4
272
       4
273
       2
274
       2
275
       0
280
       0
281
       0
282
       0
283
       1
284
       0
285
       0
286
       0
287
       0
288
       0
340
17
  0
ENDTAB
  0
TABLE
  2
BLOCK_RECORD
  5
1
100
AcDbSymbolTable
 70
       0
  0
BLOCK_RECORD
  5
A
100
AcDbSymbolTableRecord
100
AcDbBlockTableRecord
  2
*MODEL_SPACE
  0
BLOCK_RECORD
  5
B
100
AcDbSymbolTableRecord
100
AcDbBlockTableRecord
  2
*PAPER_SPACE
  0
ENDTAB
  0
ENDSEC
  0
SECTION
  2
BLOCKS
  0
BLOCK
  5
D
100
AcDbEntity
  8
0
100
AcDbBlockBegin
  2
*MODEL_SPACE
 70
       0
 10
0.0
 20
0.0
 30
0.0
  3
*MODEL_SPACE
  1

  0
ENDBLK
  5
E
100
AcDbEntity
  8
0
100
AcDbBlockEnd
  0
BLOCK
  5
F
100
AcDbEntity
 67
       1
  8
0
100
AcDbBlockBegin
  2
*PAPER_SPACE
 70
       0
 10
0.0
 20
0.0
 30
0.0
  3
*PAPER_SPACE
  1

  0
ENDBLK
  5
10
100
AcDbEntity
 67
       1
  8
0
100
AcDbBlockEnd
  0
ENDSEC
  0
SECTION
  2
ENTITIES
  0
LINE
  5
3C
100
AcDbEntity
  8
レイヤー_1
  6
CONTINUOUS
 62
       3
100
AcDbLine
 10
-175.24918954
 20
-49.06526141
 30
0.0
 11
-176.62036546
 21
-49.02939056
 31
0.0
  0
LINE
  5
3D
100
AcDbEntity
  8
レイヤー_1
  6
CONTINUOUS
 62
       3
100
AcDbLine
 10
-176.62036546
 20
-49.02939056
 30
0.0
 11
-177.92535711
 21
-48.92278847
 31
0.0
  0
LINE
  5
3E
100
AcDbEntity
  8
レイヤー_1
  6
CONTINUOUS
 62
       3
100
AcDbLine
 10
-177.92535711
 20
-48.92278847
 30
0.0
 11
-179.16062796
 21
-48.74596034
 31
0.0
  0
LINE
  5
3F
100
AcDbEntity
  8
レイヤー_1
  6
CONTINUOUS
 62
       3
100
AcDbLine
 10
-179.16062796
 20
-48.74596034
 30
0.0
 11
-180.32769368
 21
-48.4973905
 31
0.0
  0
LINE
  5
40
100
AcDbEntity
  8
レイヤー_1
  6
CONTINUOUS
 62
       3
100
AcDbLine
 10
-180.32769368
 20
-48.4973905
 30
0.0
 11
-181.01681819
 21
-48.30894222
 31
0.0
  0
LINE
  5
41
100
AcDbEntity
  8
レイヤー_1
  6
CONTINUOUS
 62
       3
100
AcDbLine
 10
-181.01681819
 20
-48.30894222
 30
0.0
 11
-181.64582115
 21
-48.09775889
 31
0.0
  0
LINE
  5
42
100
AcDbEntity
  8
レイヤー_1
  6
CONTINUOUS
 62
       3
100
AcDbLine
 10
-181.64582115
 20
-48.09775889
 30
0.0
 11
-182.21369207
 21
-47.86535618
 31
0.0
  0
LINE
  5
43
100
AcDbEntity
  8
レイヤー_1
  6
CONTINUOUS
 62
       3
100
AcDbLine
 10
-182.21369207
 20
-47.86535618
 30
0.0
 11
-182.72194669
 21
-47.61173413
 31
0.0
  0
LINE
  5
44
100
AcDbEntity
  8
レイヤー_1
  6
CONTINUOUS
 62
       3
100
AcDbLine
 10
-182.72194669
 20
-47.61173413
 30
0.0
 11
-183.38732569
 21
-47.17522123
 31
0.0
  0
LINE
  5
45
100
AcDbEntity
  8
レイヤー_1
  6
CONTINUOUS
 62
       3
100
AcDbLine
 10
-183.38732569
 20
-47.17522123
 30
0.0
 11
-183.86223555
 21
-46.70637405
 31
0.0
  0
LINE
  5
46
100
AcDbEntity
  8
レイヤー_1
  6
CONTINUOUS
 62
       3
100
AcDbLine
 10
-183.86223555
 20
-46.70637405
 30
0.0
 11
-184.1476867
 21
-46.20569781
 31
0.0
  0
LINE
  5
47
100
AcDbEntity
  8
レイヤー_1
  6
CONTINUOUS
 62
       3
100
AcDbLine
 10
-184.1476867
 20
-46.20569781
 30
0.0
 11
-184.24418433
 21
-45.67167685
 31
0.0
  0
LINE
  5
48
100
AcDbEntity
  8
レイヤー_1
  6
CONTINUOUS
 62
       3
100
AcDbLine
 10
-184.24418433
 20
-45.67167685
 30
0.0
 11
-184.14970759
 21
-45.13664541
 31
0.0
  0
LINE
  5
49
100
AcDbEntity
  8
レイヤー_1
  6
CONTINUOUS
 62
       3
100
AcDbLine
 10
-184.14970759
 20
-45.13664541
 30
0.0
 11
-183.86526689
 21
-44.63293783
 31
0.0
  0
LINE
  5
4A
100
AcDbEntity
  8
レイヤー_1
  6
CONTINUOUS
 62
       3
100
AcDbLine
 10
-183.86526689
 20
-44.63293783
 30
0.0
 11
-183.39035703
 21
-44.1630802
 31
0.0
  0
LINE
  5
4B
100
AcDbEntity
  8
レイヤー_1
  6
CONTINUOUS
 62
       3
100
AcDbLine
 10
-183.39035703
 20
-44.1630802
 30
0.0
 11
-183.08217085
 21
-43.93977153
 31
0.0
  0
LINE
  5
4C
100
AcDbEntity
  8
レイヤー_1
  6
CONTINUOUS
 62
       3
100
AcDbLine
 10
-183.08217085
 20
-43.93977153
 30
0.0
 11
-182.724978
 21
-43.7265673
 31
0.0
  0
LINE
  5
4D
100
AcDbEntity
  8
レイヤー_1
  6
CONTINUOUS
 62
       3
100
AcDbLine
 10
-182.724978
 20
-43.7265673
 30
0.0
 11
-182.0318117
 21
-43.39109906
 31
0.0
  0
LINE
  5
4E
100
AcDbEntity
  8
レイヤー_1
  6
CONTINUOUS
 62
       3
100
AcDbLine
 10
-182.0318117
 20
-43.39109906
 30
0.0
 11
-181.22699107
 21
-43.09200691
 31
0.0
  0
LINE
  5
4F
100
AcDbEntity
  8
レイヤー_1
  6
CONTINUOUS
 62
       3
100
AcDbLine
 10
-181.22699107
 20
-43.09200691
 30
0.0
 11
-180.3130422
 21
-42.83232214
 31
0.0
  0
LINE
  5
50
100
AcDbEntity
  8
レイヤー_1
  6
CONTINUOUS
 62
       3
100
AcDbLine
 10
-180.3130422
 20
-42.83232214
 30
0.0
 11
-177.91373698
 21
-42.41248164
 31
0.0
  0
LINE
  5
51
100
AcDbEntity
  8
レイヤー_1
  6
CONTINUOUS
 62
       3
100
AcDbLine
 10
-177.91373698
 20
-42.41248164
 30
0.0
 11
-175.24918954
 21
-42.26950346
 31
0.0
  0
LINE
  5
52
100
AcDbEntity
  8
レイヤー_1
  6
CONTINUOUS
 62
       3
100
AcDbLine
 10
-175.24918954
 20
-42.26950346
 30
0.0
 11
-112.88796777
 21
-42.26950346
 31
0.0
  0
LINE
  5
53
100
AcDbEntity
  8
レイヤー_1
  6
CONTINUOUS
 62
       3
100
AcDbLine
 10
-112.88796777
 20
-42.26950346
 30
0.0
 11
-111.51729709
 21
-42.30587953
 31
0.0
  0
LINE
  5
54
100
AcDbEntity
  8
レイヤー_1
  6
CONTINUOUS
 62
       3
100
AcDbLine
 10
-111.51729709
 20
-42.30587953
 30
0.0
 11
-110.21331585
 21
-42.41248164
 31
0.0
  0
LINE
  5
55
100
AcDbEntity
  8
レイヤー_1
  6
CONTINUOUS
 62
       3
100
AcDbLine
 10
-110.21331585
 20
-42.41248164
 30
0.0
 11
-108.97804501
 21
-42.59032022
 31
0.0
  0
LINE
  5
56
100
AcDbEntity
  8
レイヤー_1
  6
CONTINUOUS
 62
       3
100
AcDbLine
 10
-108.97804501
 20
-42.59032022
 30
0.0
 11
-107.81097929
 21
-42.83636393
 31
0.0
  0
LINE
  5
57
100
AcDbEntity
  8
レイヤー_1
  6
CONTINUOUS
 62
       3
100
AcDbLine
 10
-107.81097929
 20
-42.83636393
 30
0.0
 11
-107.11983388
 21
-43.02582265
 31
0.0
  0
LINE
  5
58
100
AcDbEntity
  8
レイヤー_1
  6
CONTINUOUS
 62
       3
100
AcDbLine
 10
-107.11983388
 20
-43.02582265
 30
0.0
 11
-106.49184139
 21
-43.23801643
 31
0.0
  0
LINE
  5
59
100
AcDbEntity
  8
レイヤー_1
  6
CONTINUOUS
 62
       3
100
AcDbLine
 10
-106.49184139
 20
-43.23801643
 30
0.0
 11
-105.92346521
 21
-43.4699139
 31
0.0
  0
LINE
  5
5A
100
AcDbEntity
  8
レイヤー_1
  6
CONTINUOUS
 62
       3
100
AcDbLine
 10
-105.92346521
 20
-43.4699139
 30
0.0
 11
-105.41571586
 21
-43.72353598
 31
0.0
  0
LINE
  5
5B
100
AcDbEntity
  8
レイヤー_1
  6
CONTINUOUS
 62
       3
100
AcDbLine
 10
-105.41571586
 20
-43.72353598
 30
0.0
 11
-104.75033683
 21
-44.16105931
 31
0.0
  0
LINE
  5
5C
100
AcDbEntity
  8
レイヤー_1
  6
CONTINUOUS
 62
       3
100
AcDbLine
 10
-104.75033683
 20
-44.16105931
 30
0.0
 11
-104.27542697
 21
-44.62990649
 31
0.0
  0
LINE
  5
5D
100
AcDbEntity
  8
レイヤー_1
  6
CONTINUOUS
 62
       3
100
AcDbLine
 10
-104.27542697
 20
-44.62990649
 30
0.0
 11
-103.98997582
 21
-45.12957228
 31
0.0
  0
LINE
  5
5E
100
AcDbEntity
  8
レイヤー_1
  6
CONTINUOUS
 62
       3
100
AcDbLine
 10
-103.98997582
 20
-45.12957228
 30
0.0
 11
-103.89347818
 21
-45.66359327
 31
0.0
  0
LINE
  5
5F
100
AcDbEntity
  8
レイヤー_1
  6
CONTINUOUS
 62
       3
100
AcDbLine
 10
-103.89347818
 20
-45.66359327
 30
0.0
 11
-103.98694448
 21
-46.19912991
 31
0.0
  0
LINE
  5
60
100
AcDbEntity
  8
レイヤー_1
  6
CONTINUOUS
 62
       3
100
AcDbLine
 10
-103.98694448
 20
-46.19912991
 30
0.0
 11
-104.27239562
 21
-46.70132181
 31
0.0
  0
LINE
  5
61
100
AcDbEntity
  8
レイヤー_1
  6
CONTINUOUS
 62
       3
100
AcDbLine
 10
-104.27239562
 20
-46.70132181
 30
0.0
 11
-104.74730549
 21
-47.17117946
 31
0.0
  0
LINE
  5
62
100
AcDbEntity
  8
レイヤー_1
  6
CONTINUOUS
 62
       3
100
AcDbLine
 10
-104.74730549
 20
-47.17117946
 30
0.0
 11
-105.05549166
 21
-47.39448814
 31
0.0
  0
LINE
  5
63
100
AcDbEntity
  8
レイヤー_1
  6
CONTINUOUS
 62
       3
100
AcDbLine
 10
-105.05549166
 20
-47.39448814
 30
0.0
 11
-105.41268452
 21
-47.60971324
 31
0.0
  0
LINE
  5
64
100
AcDbEntity
  8
レイヤー_1
  6
CONTINUOUS
 62
       3
100
AcDbLine
 10
-105.41268452
 20
-47.60971324
 30
0.0
 11
-106.10686127
 21
-47.94568668
 31
0.0
  0
LINE
  5
65
100
AcDbEntity
  8
レイヤー_1
  6
CONTINUOUS
 62
       3
100
AcDbLine
 10
-106.10686127
 20
-47.94568668
 30
0.0
 11
-106.91067145
 21
-48.24174752
 31
0.0
  0
LINE
  5
66
100
AcDbEntity
  8
レイヤー_1
  6
CONTINUOUS
 62
       3
100
AcDbLine
 10
-106.91067145
 20
-48.24174752
 30
0.0
 11
-107.82462032
 21
-48.50143229
 31
0.0
  0
LINE
  5
67
100
AcDbEntity
  8
レイヤー_1
  6
CONTINUOUS
 62
       3
100
AcDbLine
 10
-107.82462032
 20
-48.50143229
 30
0.0
 11
-110.22291509
 21
-48.92379892
 31
0.0
  0
LINE
  5
68
100
AcDbEntity
  8
レイヤー_1
  6
CONTINUOUS
 62
       3
100
AcDbLine
 10
-110.22291509
 20
-48.92379892
 30
0.0
 11
-112.88796777
 21
-49.06526141
 31
0.0
  0
LINE
  5
69
100
AcDbEntity
  8
レイヤー_1
  6
CONTINUOUS
 62
       3
100
AcDbLine
 10
-119.68423096
 20
-42.28617581
 30
0.0
 11
-119.68423096
 21
-48.96724812
 31
0.0
  0
LINE
  5
6A
100
AcDbEntity
  8
レイヤー_1
  6
CONTINUOUS
 62
       3
100
AcDbLine
 10
-117.2844205
 20
-42.28617581
 30
0.0
 11
-117.2844205
 21
-48.96724812
 31
0.0
  0
LINE
  5
6B
100
AcDbEntity
  8
レイヤー_1
  6
CONTINUOUS
 62
       3
100
AcDbLine
 10
-170.85273678
 20
-42.28617581
 30
0.0
 11
-170.85273678
 21
-48.96724812
 31
0.0
  0
LINE
  5
6C
100
AcDbEntity
  8
レイヤー_1
  6
CONTINUOUS
 62
       3
100
AcDbLine
 10
-168.45444201
 20
-42.28617581
 30
0.0
 11
-168.45444201
 21
-48.96724812
 31
0.0
  0
LINE
  5
6D
100
AcDbEntity
  8
レイヤー_1
  6
CONTINUOUS
 62
       3
100
AcDbLine
 10
-145.26823128
 20
-42.28617581
 30
0.0
 11
-145.26823128
 21
-48.96724812
 31
0.0
  0
LINE
  5
6E
100
AcDbEntity
  8
レイヤー_1
  6
CONTINUOUS
 62
       3
100
AcDbLine
 10
-142.86943127
 20
-42.28617581
 30
0.0
 11
-142.86943127
 21
-48.96724812
 31
0.0
  0
LINE
  5
6F
100
AcDbEntity
  8
レイヤー_1
  6
CONTINUOUS
 62
       3
100
AcDbLine
 10
-132.4759785
 20
-42.28617581
 30
0.0
 11
-132.4759785
 21
-48.96724812
 31
0.0
  0
LINE
  5
70
100
AcDbEntity
  8
レイヤー_1
  6
CONTINUOUS
 62
       3
100
AcDbLine
 10
-130.07667328
 20
-42.28617581
 30
0.0
 11
-130.07667328
 21
-48.96724812
 31
0.0
  0
LINE
  5
71
100
AcDbEntity
  8
レイヤー_1
  6
CONTINUOUS
 62
       3
100
AcDbLine
 10
-158.05997879
 20
-42.28617581
 30
0.0
 11
-158.05997879
 21
-48.96724812
 31
0.0
  0
LINE
  5
72
100
AcDbEntity
  8
レイヤー_1
  6
CONTINUOUS
 62
       3
100
AcDbLine
 10
-155.66269447
 20
-42.28617581
 30
0.0
 11
-155.66269447
 21
-48.96724812
 31
0.0
  0
LINE
  5
73
100
AcDbEntity
  8
レイヤー_1
  6
CONTINUOUS
 62
       3
100
AcDbLine
 10
-196.28668579
 20
-29.02760199
 30
0.0
 11
-196.22178988
 21
-30.28306504
 31
0.0
  0
LINE
  5
74
100
AcDbEntity
  8
レイヤー_1
  6
CONTINUOUS
 62
       3
100
AcDbLine
 10
-196.22178988
 20
-30.28306504
 30
0.0
 11
-196.03141609
 21
-31.50114844
 31
0.0
  0
LINE
  5
75
100
AcDbEntity
  8
レイヤー_1
  6
CONTINUOUS
 62
       3
100
AcDbLine
 10
-196.03141609
 20
-31.50114844
 30
0.0
 11
-195.72203519
 21
-32.6753894
 31
0.0
  0
LINE
  5
76
100
AcDbEntity
  8
レイヤー_1
  6
CONTINUOUS
 62
       3
100
AcDbLine
 10
-195.72203519
 20
-32.6753894
 30
0.0
 11
-195.30011798
 21
-33.79932497
 31
0.0
  0
LINE
  5
77
100
AcDbEntity
  8
レイヤー_1
  6
CONTINUOUS
 62
       3
100
AcDbLine
 10
-195.30011798
 20
-33.79932497
 30
0.0
 11
-194.7721353
 21
-34.86649233
 31
0.0
  0
LINE
  5
78
100
AcDbEntity
  8
レイヤー_1
  6
CONTINUOUS
 62
       3
100
AcDbLine
 10
-194.7721353
 20
-34.86649233
 30
0.0
 11
-194.14455798
 21
-35.87042857
 31
0.0
  0
LINE
  5
79
100
AcDbEntity
  8
レイヤー_1
  6
CONTINUOUS
 62
       3
100
AcDbLine
 10
-194.14455798
 20
-35.87042857
 30
0.0
 11
-193.42385682
 21
-36.80467087
 31
0.0
  0
LINE
  5
7A
100
AcDbEntity
  8
レイヤー_1
  6
CONTINUOUS
 62
       3
100
AcDbLine
 10
-193.42385682
 20
-36.80467087
 30
0.0
 11
-192.61650264
 21
-37.66275633
 31
0.0
  0
LINE
  5
7B
100
AcDbEntity
  8
レイヤー_1
  6
CONTINUOUS
 62
       3
100
AcDbLine
 10
-192.61650264
 20
-37.66275633
 30
0.0
 11
-191.72896622
 21
-38.43822212
 31
0.0
  0
LINE
  5
7C
100
AcDbEntity
  8
レイヤー_1
  6
CONTINUOUS
 62
       3
100
AcDbLine
 10
-191.72896622
 20
-38.43822212
 30
0.0
 11
-190.76771841
 21
-39.12460533
 31
0.0
  0
LINE
  5
7D
100
AcDbEntity
  8
レイヤー_1
  6
CONTINUOUS
 62
       3
100
AcDbLine
 10
-190.76771841
 20
-39.12460533
 30
0.0
 11
-189.73923002
 21
-39.7154431
 31
0.0
  0
LINE
  5
7E
100
AcDbEntity
  8
レイヤー_1
  6
CONTINUOUS
 62
       3
100
AcDbLine
 10
-189.73923002
 20
-39.7154431
 30
0.0
 11
-188.64997186
 21
-40.2042726
 31
0.0
  0
LINE
  5
7F
100
AcDbEntity
  8
レイヤー_1
  6
CONTINUOUS
 62
       3
100
AcDbLine
 10
-188.64997186
 20
-40.2042726
 30
0.0
 11
-187.50641473
 21
-40.58463091
 31
0.0
  0
LINE
  5
80
100
AcDbEntity
  8
レイヤー_1
  6
CONTINUOUS
 62
       3
100
AcDbLine
 10
-187.50641473
 20
-40.58463091
 30
0.0
 11
-186.31502948
 21
-40.85005518
 31
0.0
  0
LINE
  5
81
100
AcDbEntity
  8
レイヤー_1
  6
CONTINUOUS
 62
       3
100
AcDbLine
 10
-186.31502948
 20
-40.85005518
 30
0.0
 11
-185.08228688
 21
-40.99408255
 31
0.0
  0
LINE
  5
82
100
AcDbEntity
  8
レイヤー_1
  6
CONTINUOUS
 62
       3
100
AcDbLine
 10
-185.08228688
 20
-40.99408255
 30
0.0
 11
-184.15690336
 21
-41.01958111
 31
0.0
  0
LINE
  5
83
100
AcDbEntity
  8
レイヤー_1
  6
CONTINUOUS
 62
       3
100
AcDbLine
 10
-184.15690336
 20
-41.01958111
 30
0.0
 11
-182.53433658
 21
-41.01958111
 31
0.0
  0
LINE
  5
84
100
AcDbEntity
  8
レイヤー_1
  6
CONTINUOUS
 62
       3
100
AcDbLine
 10
-182.53433658
 20
-41.01958111
 30
0.0
 11
-179.28261254
 21
-41.01958111
 31
0.0
  0
LINE
  5
85
100
AcDbEntity
  8
レイヤー_1
  6
CONTINUOUS
 62
       3
100
AcDbLine
 10
-179.28261254
 20
-41.01958111
 30
0.0
 11
-174.65480427
 21
-41.01958111
 31
0.0
  0
LINE
  5
86
100
AcDbEntity
  8
レイヤー_1
  6
CONTINUOUS
 62
       3
100
AcDbLine
 10
-174.65480427
 20
-41.01958111
 30
0.0
 11
-168.90398468
 21
-41.01958111
 31
0.0
  0
LINE
  5
87
100
AcDbEntity
  8
レイヤー_1
  6
CONTINUOUS
 62
       3
100
AcDbLine
 10
-168.90398468
 20
-41.01958111
 30
0.0
 11
-162.28322678
 21
-41.01958111
 31
0.0
  0
LINE
  5
88
100
AcDbEntity
  8
レイヤー_1
  6
CONTINUOUS
 62
       3
100
AcDbLine
 10
-162.28322678
 20
-41.01958111
 30
0.0
 11
-155.0456035
 21
-41.01958111
 31
0.0
  0
LINE
  5
89
100
AcDbEntity
  8
レイヤー_1
  6
CONTINUOUS
 62
       3
100
AcDbLine
 10
-155.0456035
 20
-41.01958111
 30
0.0
 11
-147.44418784
 21
-41.01958111
 31
0.0
  0
LINE
  5
8A
100
AcDbEntity
  8
レイヤー_1
  6
CONTINUOUS
 62
       3
100
AcDbLine
 10
-147.44418784
 20
-41.01958111
 30
0.0
 11
-139.73205276
 21
-41.01958111
 31
0.0
  0
LINE
  5
8B
100
AcDbEntity
  8
レイヤー_1
  6
CONTINUOUS
 62
       3
100
AcDbLine
 10
-139.73205276
 20
-41.01958111
 30
0.0
 11
-132.16227124
 21
-41.01958111
 31
0.0
  0
LINE
  5
8C
100
AcDbEntity
  8
レイヤー_1
  6
CONTINUOUS
 62
       3
100
AcDbLine
 10
-132.16227124
 20
-41.01958111
 30
0.0
 11
-124.98791623
 21
-41.01958111
 31
0.0
  0
LINE
  5
8D
100
AcDbEntity
  8
レイヤー_1
  6
CONTINUOUS
 62
       3
100
AcDbLine
 10
-124.98791623
 20
-41.01958111
 30
0.0
 11
-118.46206068
 21
-41.01958111
 31
0.0
  0
LINE
  5
8E
100
AcDbEntity
  8
レイヤー_1
  6
CONTINUOUS
 62
       3
100
AcDbLine
 10
-118.46206068
 20
-41.01958111
 30
0.0
 11
-112.83777757
 21
-41.01958111
 31
0.0
  0
LINE
  5
8F
100
AcDbEntity
  8
レイヤー_1
  6
CONTINUOUS
 62
       3
100
AcDbLine
 10
-112.83777757
 20
-41.01958111
 30
0.0
 11
-108.36813989
 21
-41.01958111
 31
0.0
  0
LINE
  5
90
100
AcDbEntity
  8
レイヤー_1
  6
CONTINUOUS
 62
       3
100
AcDbLine
 10
-108.36813989
 20
-41.01958111
 30
0.0
 11
-105.30622061
 21
-41.01958111
 31
0.0
  0
LINE
  5
91
100
AcDbEntity
  8
レイヤー_1
  6
CONTINUOUS
 62
       3
100
AcDbLine
 10
-105.30622061
 20
-41.01958111
 30
0.0
 11
-103.90509266
 21
-41.01958111
 31
0.0
  0
LINE
  5
92
100
AcDbEntity
  8
レイヤー_1
  6
CONTINUOUS
 62
       3
100
AcDbLine
 10
-103.90509266
 20
-41.01958111
 30
0.0
 11
-102.89938089
 21
-40.98293894
 31
0.0
  0
LINE
  5
93
100
AcDbEntity
  8
レイヤー_1
  6
CONTINUOUS
 62
       3
100
AcDbLine
 10
-102.89938089
 20
-40.98293894
 30
0.0
 11
-101.67161835
 21
-40.8233835
 31
0.0
  0
LINE
  5
94
100
AcDbEntity
  8
レイヤー_1
  6
CONTINUOUS
 62
       3
100
AcDbLine
 10
-101.67161835
 20
-40.8233835
 30
0.0
 11
-100.48599997
 21
-40.54323903
 31
0.0
  0
LINE
  5
95
100
AcDbEntity
  8
レイヤー_1
  6
CONTINUOUS
 62
       3
100
AcDbLine
 10
-100.48599997
 20
-40.54323903
 30
0.0
 11
-99.34899809
 21
-40.1489684
 31
0.0
  0
LINE
  5
96
100
AcDbEntity
  8
レイヤー_1
  6
CONTINUOUS
 62
       3
100
AcDbLine
 10
-99.34899809
 20
-40.1489684
 30
0.0
 11
-98.26708516
 21
-39.64703443
 31
0.0
  0
LINE
  5
97
100
AcDbEntity
  8
レイヤー_1
  6
CONTINUOUS
 62
       3
100
AcDbLine
 10
-98.26708516
 20
-39.64703443
 30
0.0
 11
-97.24673359
 21
-39.04390002
 31
0.0
  0
LINE
  5
98
100
AcDbEntity
  8
レイヤー_1
  6
CONTINUOUS
 62
       3
100
AcDbLine
 10
-97.24673359
 20
-39.04390002
 30
0.0
 11
-96.29441574
 21
-38.34602807
 31
0.0
  0
LINE
  5
99
100
AcDbEntity
  8
レイヤー_1
  6
CONTINUOUS
 62
       3
100
AcDbLine
 10
-96.29441574
 20
-38.34602807
 30
0.0
 11
-95.41660403
 21
-37.55988139
 31
0.0
  0
LINE
  5
9A
100
AcDbEntity
  8
レイヤー_1
  6
CONTINUOUS
 62
       3
100
AcDbLine
 10
-95.41660403
 20
-37.55988139
 30
0.0
 11
-94.61977087
 21
-36.69192286
 31
0.0
  0
LINE
  5
9B
100
AcDbEntity
  8
レイヤー_1
  6
CONTINUOUS
 62
       3
100
AcDbLine
 10
-94.61977087
 20
-36.69192286
 30
0.0
 11
-93.91038869
 21
-35.74861539
 31
0.0
  0
LINE
  5
9C
100
AcDbEntity
  8
レイヤー_1
  6
CONTINUOUS
 62
       3
100
AcDbLine
 10
-93.91038869
 20
-35.74861539
 30
0.0
 11
-93.29492985
 21
-34.73642181
 31
0.0
  0
LINE
  5
9D
100
AcDbEntity
  8
レイヤー_1
  6
CONTINUOUS
 62
       3
100
AcDbLine
 10
-93.29492985
 20
-34.73642181
 30
0.0
 11
-92.77986677
 21
-33.66180499
 31
0.0
  0
LINE
  5
9E
100
AcDbEntity
  8
レイヤー_1
  6
CONTINUOUS
 62
       3
100
AcDbLine
 10
-92.77986677
 20
-33.66180499
 30
0.0
 11
-92.37167186
 21
-32.53122781
 31
0.0
  0
LINE
  5
9F
100
AcDbEntity
  8
レイヤー_1
  6
CONTINUOUS
 62
       3
100
AcDbLine
 10
-92.37167186
 20
-32.53122781
 30
0.0
 11
-92.07681752
 21
-31.35115312
 31
0.0
  0
LINE
  5
A0
100
AcDbEntity
  8
レイヤー_1
  6
CONTINUOUS
 62
       3
100
AcDbLine
 10
-92.07681752
 20
-31.35115312
 30
0.0
 11
-91.90177614
 21
-30.12804382
 31
0.0
  0
LINE
  5
A1
100
AcDbEntity
  8
レイヤー_1
  6
CONTINUOUS
 62
       3
100
AcDbLine
 10
-91.90177614
 20
-30.12804382
 30
0.0
 11
-91.85198717
 21
-29.01439545
 31
0.0
  0
LINE
  5
A2
100
AcDbEntity
  8
レイヤー_1
  6
CONTINUOUS
 62
       3
100
AcDbLine
 10
-91.85198717
 20
-29.01439545
 30
0.0
 11
-91.85198717
 21
-28.00375788
 31
0.0
  0
LINE
  5
A3
100
AcDbEntity
  8
レイヤー_1
  6
CONTINUOUS
 62
       3
100
AcDbLine
 10
-91.85198717
 20
-28.00375788
 30
0.0
 11
-91.85198717
 21
-25.5383461
 31
0.0
  0
LINE
  5
A4
100
AcDbEntity
  8
レイヤー_1
  6
CONTINUOUS
 62
       3
100
AcDbLine
 10
-91.85198717
 20
-25.5383461
 30
0.0
 11
-91.85198717
 21
-21.83569645
 31
0.0
  0
LINE
  5
A5
100
AcDbEntity
  8
レイヤー_1
  6
CONTINUOUS
 62
       3
100
AcDbLine
 10
-91.85198717
 20
-21.83569645
 30
0.0
 11
-91.85198717
 21
-17.11334522
 31
0.0
  0
LINE
  5
A6
100
AcDbEntity
  8
レイヤー_1
  6
CONTINUOUS
 62
       3
100
AcDbLine
 10
-91.85198717
 20
-17.11334522
 30
0.0
 11
-91.85198717
 21
-11.58882875
 31
0.0
  0
LINE
  5
A7
100
AcDbEntity
  8
レイヤー_1
  6
CONTINUOUS
 62
       3
100
AcDbLine
 10
-91.85198717
 20
-11.58882875
 30
0.0
 11
-91.85198717
 21
-5.4796834
 31
0.0
  0
LINE
  5
A8
100
AcDbEntity
  8
レイヤー_1
  6
CONTINUOUS
 62
       3
100
AcDbLine
 10
-91.85198717
 20
-5.4796834
 30
0.0
 11
-91.85198717
 21
0.99655453
 31
0.0
  0
LINE
  5
A9
100
AcDbEntity
  8
レイヤー_1
  6
CONTINUOUS
 62
       3
100
AcDbLine
 10
-91.85198717
 20
0.99655453
 30
0.0
 11
-91.85198717
 21
7.62234868
 31
0.0
  0
LINE
  5
AA
100
AcDbEntity
  8
レイヤー_1
  6
CONTINUOUS
 62
       3
100
AcDbLine
 10
-91.85198717
 20
7.62234868
 30
0.0
 11
-91.85198717
 21
14.18016272
 31
0.0
  0
LINE
  5
AB
100
AcDbEntity
  8
レイヤー_1
  6
CONTINUOUS
 62
       3
100
AcDbLine
 10
-91.85198717
 20
14.18016272
 30
0.0
 11
-91.85198717
 21
20.45246033
 31
0.0
  0
LINE
  5
AC
100
AcDbEntity
  8
レイヤー_1
  6
CONTINUOUS
 62
       3
100
AcDbLine
 10
-91.85198717
 20
20.45246033
 30
0.0
 11
-91.85198717
 21
26.22170517
 31
0.0
  0
LINE
  5
AD
100
AcDbEntity
  8
レイヤー_1
  6
CONTINUOUS
 62
       3
100
AcDbLine
 10
-91.85198717
 20
26.22170517
 30
0.0
 11
-91.85198717
 21
31.2703609
 31
0.0
  0
LINE
  5
AE
100
AcDbEntity
  8
レイヤー_1
  6
CONTINUOUS
 62
       3
100
AcDbLine
 10
-91.85198717
 20
31.2703609
 30
0.0
 11
-91.85198717
 21
35.38089121
 31
0.0
  0
LINE
  5
AF
100
AcDbEntity
  8
レイヤー_1
  6
CONTINUOUS
 62
       3
100
AcDbLine
 10
-91.85198717
 20
35.38089121
 30
0.0
 11
-91.85198717
 21
38.33575975
 31
0.0
  0
LINE
  5
B0
100
AcDbEntity
  8
レイヤー_1
  6
CONTINUOUS
 62
       3
100
AcDbLine
 10
-91.85198717
 20
38.33575975
 30
0.0
 11
-91.85198717
 21
39.91743015
 31
0.0
  0
LINE
  5
B1
100
AcDbEntity
  8
レイヤー_1
  6
CONTINUOUS
 62
       3
100
AcDbLine
 10
-91.85198717
 20
39.91743015
 30
0.0
 11
-91.86834592
 21
40.75719967
 31
0.0
  0
LINE
  5
B2
100
AcDbEntity
  8
レイヤー_1
  6
CONTINUOUS
 62
       3
100
AcDbLine
 10
-91.86834592
 20
40.75719967
 30
0.0
 11
-91.99678877
 21
41.9945604
 31
0.0
  0
LINE
  5
B3
100
AcDbEntity
  8
レイヤー_1
  6
CONTINUOUS
 62
       3
100
AcDbLine
 10
-91.99678877
 20
41.9945604
 30
0.0
 11
-92.24747175
 21
43.1913738
 31
0.0
  0
LINE
  5
B4
100
AcDbEntity
  8
レイヤー_1
  6
CONTINUOUS
 62
       3
100
AcDbLine
 10
-92.24747175
 20
43.1913738
 30
0.0
 11
-92.61392241
 21
44.34116993
 31
0.0
  0
LINE
  5
B5
100
AcDbEntity
  8
レイヤー_1
  6
CONTINUOUS
 62
       3
100
AcDbLine
 10
-92.61392241
 20
44.34116993
 30
0.0
 11
-93.08966842
 21
45.43747873
 31
0.0
  0
LINE
  5
B6
100
AcDbEntity
  8
レイヤー_1
  6
CONTINUOUS
 62
       3
100
AcDbLine
 10
-93.08966842
 20
45.43747873
 30
0.0
 11
-93.66823733
 21
46.47383017
 31
0.0
  0
LINE
  5
B7
100
AcDbEntity
  8
レイヤー_1
  6
CONTINUOUS
 62
       3
100
AcDbLine
 10
-93.66823733
 20
46.47383017
 30
0.0
 11
-94.34315677
 21
47.44375426
 31
0.0
  0
LINE
  5
B8
100
AcDbEntity
  8
レイヤー_1
  6
CONTINUOUS
 62
       3
100
AcDbLine
 10
-94.34315677
 20
47.44375426
 30
0.0
 11
-95.10795429
 21
48.34078096
 31
0.0
  0
LINE
  5
B9
100
AcDbEntity
  8
レイヤー_1
  6
CONTINUOUS
 62
       3
100
AcDbLine
 10
-95.10795429
 20
48.34078096
 30
0.0
 11
-95.95615751
 21
49.15844026
 31
0.0
  0
LINE
  5
BA
100
AcDbEntity
  8
レイヤー_1
  6
CONTINUOUS
 62
       3
100
AcDbLine
 10
-95.95615751
 20
49.15844026
 30
0.0
 11
-96.88129405
 21
49.89026216
 31
0.0
  0
LINE
  5
BB
100
AcDbEntity
  8
レイヤー_1
  6
CONTINUOUS
 62
       3
100
AcDbLine
 10
-96.88129405
 20
49.89026216
 30
0.0
 11
-97.87689145
 21
50.52977658
 31
0.0
  0
LINE
  5
BC
100
AcDbEntity
  8
レイヤー_1
  6
CONTINUOUS
 62
       3
100
AcDbLine
 10
-97.87689145
 20
50.52977658
 30
0.0
 11
-98.93647739
 21
51.07051356
 31
0.0
  0
LINE
  5
BD
100
AcDbEntity
  8
レイヤー_1
  6
CONTINUOUS
 62
       3
100
AcDbLine
 10
-98.93647739
 20
51.07051356
 30
0.0
 11
-100.05357939
 21
51.50600305
 31
0.0
  0
LINE
  5
BE
100
AcDbEntity
  8
レイヤー_1
  6
CONTINUOUS
 62
       3
100
AcDbLine
 10
-100.05357939
 20
51.50600305
 30
0.0
 11
-101.22172507
 21
51.82977504
 31
0.0
  0
LINE
  5
BF
100
AcDbEntity
  8
レイヤー_1
  6
CONTINUOUS
 62
       3
100
AcDbLine
 10
-101.22172507
 20
51.82977504
 30
0.0
 11
-102.43444202
 21
52.03535951
 31
0.0
  0
LINE
  5
C0
100
AcDbEntity
  8
レイヤー_1
  6
CONTINUOUS
 62
       3
100
AcDbLine
 10
-102.43444202
 20
52.03535951
 30
0.0
 11
-103.68525786
 21
52.11628647
 31
0.0
  0
LINE
  5
C1
100
AcDbEntity
  8
レイヤー_1
  6
CONTINUOUS
 62
       3
100
AcDbLine
 10
-103.68525786
 20
52.11628647
 30
0.0
 11
-104.57258084
 21
52.1173151
 31
0.0
  0
LINE
  5
C2
100
AcDbEntity
  8
レイヤー_1
  6
CONTINUOUS
 62
       3
100
AcDbLine
 10
-104.57258084
 20
52.1173151
 30
0.0
 11
-107.04136038
 21
52.1173151
 31
0.0
  0
LINE
  5
C3
100
AcDbEntity
  8
レイヤー_1
  6
CONTINUOUS
 62
       3
100
AcDbLine
 10
-107.04136038
 20
52.1173151
 30
0.0
 11
-111.01276064
 21
52.1173151
 31
0.0
  0
LINE
  5
C4
100
AcDbEntity
  8
レイヤー_1
  6
CONTINUOUS
 62
       3
100
AcDbLine
 10
-111.01276064
 20
52.1173151
 30
0.0
 11
-116.23370871
 21
52.1173151
 31
0.0
  0
LINE
  5
C5
100
AcDbEntity
  8
レイヤー_1
  6
CONTINUOUS
 62
       3
100
AcDbLine
 10
-116.23370871
 20
52.1173151
 30
0.0
 11
-122.45113156
 21
52.1173151
 31
0.0
  0
LINE
  5
C6
100
AcDbEntity
  8
レイヤー_1
  6
CONTINUOUS
 62
       3
100
AcDbLine
 10
-122.45113156
 20
52.1173151
 30
0.0
 11
-129.41195628
 21
52.1173151
 31
0.0
  0
LINE
  5
C7
100
AcDbEntity
  8
レイヤー_1
  6
CONTINUOUS
 62
       3
100
AcDbLine
 10
-129.41195628
 20
52.1173151
 30
0.0
 11
-136.86310986
 21
52.1173151
 31
0.0
  0
LINE
  5
C8
100
AcDbEntity
  8
レイヤー_1
  6
CONTINUOUS
 62
       3
100
AcDbLine
 10
-136.86310986
 20
52.1173151
 30
0.0
 11
-144.55151935
 21
52.1173151
 31
0.0
  0
LINE
  5
C9
100
AcDbEntity
  8
レイヤー_1
  6
CONTINUOUS
 62
       3
100
AcDbLine
 10
-144.55151935
 20
52.1173151
 30
0.0
 11
-152.22411176
 21
52.1173151
 31
0.0
  0
LINE
  5
CA
100
AcDbEntity
  8
レイヤー_1
  6
CONTINUOUS
 62
       3
100
AcDbLine
 10
-152.22411176
 20
52.1173151
 30
0.0
 11
-159.62781418
 21
52.1173151
 31
0.0
  0
LINE
  5
CB
100
AcDbEntity
  8
レイヤー_1
  6
CONTINUOUS
 62
       3
100
AcDbLine
 10
-159.62781418
 20
52.1173151
 30
0.0
 11
-166.50955358
 21
52.1173151
 31
0.0
  0
LINE
  5
CC
100
AcDbEntity
  8
レイヤー_1
  6
CONTINUOUS
 62
       3
100
AcDbLine
 10
-166.50955358
 20
52.1173151
 30
0.0
 11
-172.61625703
 21
52.1173151
 31
0.0
  0
LINE
  5
CD
100
AcDbEntity
  8
レイヤー_1
  6
CONTINUOUS
 62
       3
100
AcDbLine
 10
-172.61625703
 20
52.1173151
 30
0.0
 11
-177.69485153
 21
52.1173151
 31
0.0
  0
LINE
  5
CE
100
AcDbEntity
  8
レイヤー_1
  6
CONTINUOUS
 62
       3
100
AcDbLine
 10
-177.69485153
 20
52.1173151
 30
0.0
 11
-181.49226414
 21
52.1173151
 31
0.0
  0
LINE
  5
CF
100
AcDbEntity
  8
レイヤー_1
  6
CONTINUOUS
 62
       3
100
AcDbLine
 10
-181.49226414
 20
52.1173151
 30
0.0
 11
-183.75542188
 21
52.1173151
 31
0.0
  0
LINE
  5
D0
100
AcDbEntity
  8
レイヤー_1
  6
CONTINUOUS
 62
       3
100
AcDbLine
 10
-183.75542188
 20
52.1173151
 30
0.0
 11
-184.61066667
 21
52.11320896
 31
0.0
  0
LINE
  5
D1
100
AcDbEntity
  8
レイヤー_1
  6
CONTINUOUS
 62
       3
100
AcDbLine
 10
-184.61066667
 20
52.11320896
 30
0.0
 11
-185.85725001
 21
52.01634599
 31
0.0
  0
LINE
  5
D2
100
AcDbEntity
  8
レイヤー_1
  6
CONTINUOUS
 62
       3
100
AcDbLine
 10
-185.85725001
 20
52.01634599
 30
0.0
 11
-187.06490258
 21
51.79563425
 31
0.0
  0
LINE
  5
D3
100
AcDbEntity
  8
レイヤー_1
  6
CONTINUOUS
 62
       3
100
AcDbLine
 10
-187.06490258
 20
51.79563425
 30
0.0
 11
-188.22715354
 21
51.45754373
 31
0.0
  0
LINE
  5
D4
100
AcDbEntity
  8
レイヤー_1
  6
CONTINUOUS
 62
       3
100
AcDbLine
 10
-188.22715354
 20
51.45754373
 30
0.0
 11
-189.33753212
 21
51.00854446
 31
0.0
  0
LINE
  5
D5
100
AcDbEntity
  8
レイヤー_1
  6
CONTINUOUS
 62
       3
100
AcDbLine
 10
-189.33753212
 20
51.00854446
 30
0.0
 11
-190.38956748
 21
50.45510648
 31
0.0
  0
LINE
  5
D6
100
AcDbEntity
  8
レイヤー_1
  6
CONTINUOUS
 62
       3
100
AcDbLine
 10
-190.38956748
 20
50.45510648
 30
0.0
 11
-191.3767888
 21
49.80369979
 31
0.0
  0
LINE
  5
D7
100
AcDbEntity
  8
レイヤー_1
  6
CONTINUOUS
 62
       3
100
AcDbLine
 10
-191.3767888
 20
49.80369979
 30
0.0
 11
-192.29272528
 21
49.06079439
 31
0.0
  0
LINE
  5
D8
100
AcDbEntity
  8
レイヤー_1
  6
CONTINUOUS
 62
       3
100
AcDbLine
 10
-192.29272528
 20
49.06079439
 30
0.0
 11
-193.13090611
 21
48.23286034
 31
0.0
  0
LINE
  5
D9
100
AcDbEntity
  8
レイヤー_1
  6
CONTINUOUS
 62
       3
100
AcDbLine
 10
-193.13090611
 20
48.23286034
 30
0.0
 11
-193.88486045
 21
47.32636762
 31
0.0
  0
LINE
  5
DA
100
AcDbEntity
  8
レイヤー_1
  6
CONTINUOUS
 62
       3
100
AcDbLine
 10
-193.88486045
 20
47.32636762
 30
0.0
 11
-194.54811751
 21
46.34778631
 31
0.0
  0
LINE
  5
DB
100
AcDbEntity
  8
レイヤー_1
  6
CONTINUOUS
 62
       3
100
AcDbLine
 10
-194.54811751
 20
46.34778631
 30
0.0
 11
-195.11420649
 21
45.30358634
 31
0.0
  0
LINE
  5
DC
100
AcDbEntity
  8
レイヤー_1
  6
CONTINUOUS
 62
       3
100
AcDbLine
 10
-195.11420649
 20
45.30358634
 30
0.0
 11
-195.57665653
 21
44.20023781
 31
0.0
  0
LINE
  5
DD
100
AcDbEntity
  8
レイヤー_1
  6
CONTINUOUS
 62
       3
100
AcDbLine
 10
-195.57665653
 20
44.20023781
 30
0.0
 11
-195.92899685
 21
43.04421071
 31
0.0
  0
LINE
  5
DE
100
AcDbEntity
  8
レイヤー_1
  6
CONTINUOUS
 62
       3
100
AcDbLine
 10
-195.92899685
 20
43.04421071
 30
0.0
 11
-196.16475661
 21
41.84197503
 31
0.0
  0
LINE
  5
DF
100
AcDbEntity
  8
レイヤー_1
  6
CONTINUOUS
 62
       3
100
AcDbLine
 10
-196.16475661
 20
41.84197503
 30
0.0
 11
-196.27746502
 21
40.60000085
 31
0.0
  0
LINE
  5
E0
100
AcDbEntity
  8
レイヤー_1
  6
CONTINUOUS
 62
       3
100
AcDbLine
 10
-196.27746502
 20
40.60000085
 30
0.0
 11
-196.28668579
 21
39.80225344
 31
0.0
  0
LINE
  5
E1
100
AcDbEntity
  8
レイヤー_1
  6
CONTINUOUS
 62
       3
100
AcDbLine
 10
-196.28668579
 20
39.80225344
 30
0.0
 11
-196.28668579
 21
38.03703675
 31
0.0
  0
LINE
  5
E2
100
AcDbEntity
  8
レイヤー_1
  6
CONTINUOUS
 62
       3
100
AcDbLine
 10
-196.28668579
 20
38.03703675
 30
0.0
 11
-196.28668579
 21
34.92581397
 31
0.0
  0
LINE
  5
E3
100
AcDbEntity
  8
レイヤー_1
  6
CONTINUOUS
 62
       3
100
AcDbLine
 10
-196.28668579
 20
34.92581397
 30
0.0
 11
-196.28668579
 21
30.6861215
 31
0.0
  0
LINE
  5
E4
100
AcDbEntity
  8
レイヤー_1
  6
CONTINUOUS
 62
       3
100
AcDbLine
 10
-196.28668579
 20
30.6861215
 30
0.0
 11
-196.28668579
 21
25.5354956
 31
0.0
  0
LINE
  5
E5
100
AcDbEntity
  8
レイヤー_1
  6
CONTINUOUS
 62
       3
100
AcDbLine
 10
-196.28668579
 20
25.5354956
 30
0.0
 11
-196.28668579
 21
19.69147265
 31
0.0
  0
LINE
  5
E6
100
AcDbEntity
  8
レイヤー_1
  6
CONTINUOUS
 62
       3
100
AcDbLine
 10
-196.28668579
 20
19.69147265
 30
0.0
 11
-196.28668579
 21
13.37158897
 31
0.0
  0
LINE
  5
E7
100
AcDbEntity
  8
レイヤー_1
  6
CONTINUOUS
 62
       3
100
AcDbLine
 10
-196.28668579
 20
13.37158897
 30
0.0
 11
-196.28668579
 21
6.7933809
 31
0.0
  0
LINE
  5
E8
100
AcDbEntity
  8
レイヤー_1
  6
CONTINUOUS
 62
       3
100
AcDbLine
 10
-196.28668579
 20
6.7933809
 30
0.0
 11
-196.28668579
 21
0.17438474
 31
0.0
  0
LINE
  5
E9
100
AcDbEntity
  8
レイヤー_1
  6
CONTINUOUS
 62
       3
100
AcDbLine
 10
-196.28668579
 20
0.17438474
 30
0.0
 11
-196.28668579
 21
-6.26786312
 31
0.0
  0
LINE
  5
EA
100
AcDbEntity
  8
レイヤー_1
  6
CONTINUOUS
 62
       3
100
AcDbLine
 10
-196.28668579
 20
-6.26786312
 30
0.0
 11
-196.28668579
 21
-12.31582638
 31
0.0
  0
LINE
  5
EB
100
AcDbEntity
  8
レイヤー_1
  6
CONTINUOUS
 62
       3
100
AcDbLine
 10
-196.28668579
 20
-12.31582638
 30
0.0
 11
-196.28668579
 21
-17.75196872
 31
0.0
  0
LINE
  5
EC
100
AcDbEntity
  8
レイヤー_1
  6
CONTINUOUS
 62
       3
100
AcDbLine
 10
-196.28668579
 20
-17.75196872
 30
0.0
 11
-196.28668579
 21
-22.35875377
 31
0.0
  0
LINE
  5
ED
100
AcDbEntity
  8
レイヤー_1
  6
CONTINUOUS
 62
       3
100
AcDbLine
 10
-196.28668579
 20
-22.35875377
 30
0.0
 11
-196.28668579
 21
-25.91864521
 31
0.0
  0
LINE
  5
EE
100
AcDbEntity
  8
レイヤー_1
  6
CONTINUOUS
 62
       3
100
AcDbLine
 10
-196.28668579
 20
-25.91864521
 30
0.0
 11
-196.28668579
 21
-28.21410675
 31
0.0
  0
LINE
  5
EF
100
AcDbEntity
  8
レイヤー_1
  6
CONTINUOUS
 62
       3
100
AcDbLine
 10
-196.28668579
 20
-28.21410675
 30
0.0
 11
-196.28668579
 21
-29.02760199
 31
0.0
  0
LINE
  5
F0
100
AcDbEntity
  8
レイヤー_1
  6
CONTINUOUS
 62
       3
100
AcDbLine
 10
-125.18055473
 20
-35.10139594
 30
0.0
 11
-125.31352345
 21
-35.10784323
 31
0.0
  0
LINE
  5
F1
100
AcDbEntity
  8
レイヤー_1
  6
CONTINUOUS
 62
       3
100
AcDbLine
 10
-125.31352345
 20
-35.10784323
 30
0.0
 11
-125.44284514
 21
-35.12678352
 31
0.0
  0
LINE
  5
F2
100
AcDbEntity
  8
レイヤー_1
  6
CONTINUOUS
 62
       3
100
AcDbLine
 10
-125.44284514
 20
-35.12678352
 30
0.0
 11
-125.56791736
 21
-35.15761443
 31
0.0
  0
LINE
  5
F3
100
AcDbEntity
  8
レイヤー_1
  6
CONTINUOUS
 62
       3
100
AcDbLine
 10
-125.56791736
 20
-35.15761443
 30
0.0
 11
-125.68813774
 21
-35.19973357
 31
0.0
  0
LINE
  5
F4
100
AcDbEntity
  8
レイヤー_1
  6
CONTINUOUS
 62
       3
100
AcDbLine
 10
-125.68813774
 20
-35.19973357
 30
0.0
 11
-125.80290389
 21
-35.25253854
 31
0.0
  0
LINE
  5
F5
100
AcDbEntity
  8
レイヤー_1
  6
CONTINUOUS
 62
       3
100
AcDbLine
 10
-125.80290389
 20
-35.25253854
 30
0.0
 11
-125.91161342
 21
-35.31542693
 31
0.0
  0
LINE
  5
F6
100
AcDbEntity
  8
レイヤー_1
  6
CONTINUOUS
 62
       3
100
AcDbLine
 10
-125.91161342
 20
-35.31542693
 30
0.0
 11
-126.01366396
 21
-35.38779641
 31
0.0
  0
LINE
  5
F7
100
AcDbEntity
  8
レイヤー_1
  6
CONTINUOUS
 62
       3
100
AcDbLine
 10
-126.01366396
 20
-35.38779641
 30
0.0
 11
-126.1084531
 21
-35.46904456
 31
0.0
  0
LINE
  5
F8
100
AcDbEntity
  8
レイヤー_1
  6
CONTINUOUS
 62
       3
100
AcDbLine
 10
-126.1084531
 20
-35.46904456
 30
0.0
 11
-126.19537845
 21
-35.55856899
 31
0.0
  0
LINE
  5
F9
100
AcDbEntity
  8
レイヤー_1
  6
CONTINUOUS
 62
       3
100
AcDbLine
 10
-126.19537845
 20
-35.55856899
 30
0.0
 11
-126.27383763
 21
-35.65576732
 31
0.0
  0
LINE
  5
FA
100
AcDbEntity
  8
レイヤー_1
  6
CONTINUOUS
 62
       3
100
AcDbLine
 10
-126.27383763
 20
-35.65576732
 30
0.0
 11
-126.34322828
 21
-35.76003714
 31
0.0
  0
LINE
  5
FB
100
AcDbEntity
  8
レイヤー_1
  6
CONTINUOUS
 62
       3
100
AcDbLine
 10
-126.34322828
 20
-35.76003714
 30
0.0
 11
-126.40294797
 21
-35.8707761
 31
0.0
  0
LINE
  5
FC
100
AcDbEntity
  8
レイヤー_1
  6
CONTINUOUS
 62
       3
100
AcDbLine
 10
-126.40294797
 20
-35.8707761
 30
0.0
 11
-126.45239433
 21
-35.98738177
 31
0.0
  0
LINE
  5
FD
100
AcDbEntity
  8
レイヤー_1
  6
CONTINUOUS
 62
       3
100
AcDbLine
 10
-126.45239433
 20
-35.98738177
 30
0.0
 11
-126.49096498
 21
-36.10925182
 31
0.0
  0
LINE
  5
FE
100
AcDbEntity
  8
レイヤー_1
  6
CONTINUOUS
 62
       3
100
AcDbLine
 10
-126.49096498
 20
-36.10925182
 30
0.0
 11
-126.51805752
 21
-36.23578382
 31
0.0
  0
LINE
  5
FF
100
AcDbEntity
  8
レイヤー_1
  6
CONTINUOUS
 62
       3
100
AcDbLine
 10
-126.51805752
 20
-36.23578382
 30
0.0
 11
-126.53306955
 21
-36.36637538
 31
0.0
  0
LINE
  5
100
100
AcDbEntity
  8
レイヤー_1
  6
CONTINUOUS
 62
       3
100
AcDbLine
 10
-126.53306955
 20
-36.36637538
 30
0.0
 11
-126.53540554
 21
-36.50005609
 31
0.0
  0
LINE
  5
101
100
AcDbEntity
  8
レイヤー_1
  6
CONTINUOUS
 62
       3
100
AcDbLine
 10
-126.53540554
 20
-36.50005609
 30
0.0
 11
-126.52490809
 21
-36.63180308
 31
0.0
  0
LINE
  5
102
100
AcDbEntity
  8
レイヤー_1
  6
CONTINUOUS
 62
       3
100
AcDbLine
 10
-126.52490809
 20
-36.63180308
 30
0.0
 11
-126.50211581
 21
-36.75972315
 31
0.0
  0
LINE
  5
103
100
AcDbEntity
  8
レイヤー_1
  6
CONTINUOUS
 62
       3
100
AcDbLine
 10
-126.50211581
 20
-36.75972315
 30
0.0
 11
-126.46762916
 21
-36.88321327
 31
0.0
  0
LINE
  5
104
100
AcDbEntity
  8
レイヤー_1
  6
CONTINUOUS
 62
       3
100
AcDbLine
 10
-126.46762916
 20
-36.88321327
 30
0.0
 11
-126.42204852
 21
-37.00167039
 31
0.0
  0
LINE
  5
105
100
AcDbEntity
  8
レイヤー_1
  6
CONTINUOUS
 62
       3
100
AcDbLine
 10
-126.42204852
 20
-37.00167039
 30
0.0
 11
-126.36597431
 21
-37.11449147
 31
0.0
  0
LINE
  5
106
100
AcDbEntity
  8
レイヤー_1
  6
CONTINUOUS
 62
       3
100
AcDbLine
 10
-126.36597431
 20
-37.11449147
 30
0.0
 11
-126.300007
 21
-37.22107349
 31
0.0
  0
LINE
  5
107
100
AcDbEntity
  8
レイヤー_1
  6
CONTINUOUS
 62
       3
100
AcDbLine
 10
-126.300007
 20
-37.22107349
 30
0.0
 11
-126.22474699
 21
-37.32081335
 31
0.0
  0
LINE
  5
108
100
AcDbEntity
  8
レイヤー_1
  6
CONTINUOUS
 62
       3
100
AcDbLine
 10
-126.22474699
 20
-37.32081335
 30
0.0
 11
-126.14079467
 21
-37.41310809
 31
0.0
  0
LINE
  5
109
100
AcDbEntity
  8
レイヤー_1
  6
CONTINUOUS
 62
       3
100
AcDbLine
 10
-126.14079467
 20
-37.41310809
 30
0.0
 11
-126.0487505
 21
-37.49735461
 31
0.0
  0
LINE
  5
10A
100
AcDbEntity
  8
レイヤー_1
  6
CONTINUOUS
 62
       3
100
AcDbLine
 10
-126.0487505
 20
-37.49735461
 30
0.0
 11
-125.94921492
 21
-37.57294987
 31
0.0
  0
LINE
  5
10B
100
AcDbEntity
  8
レイヤー_1
  6
CONTINUOUS
 62
       3
100
AcDbLine
 10
-125.94921492
 20
-37.57294987
 30
0.0
 11
-125.84278829
 21
-37.63929084
 31
0.0
  0
LINE
  5
10C
100
AcDbEntity
  8
レイヤー_1
  6
CONTINUOUS
 62
       3
100
AcDbLine
 10
-125.84278829
 20
-37.63929084
 30
0.0
 11
-125.73007111
 21
-37.69577449
 31
0.0
  0
LINE
  5
10D
100
AcDbEntity
  8
レイヤー_1
  6
CONTINUOUS
 62
       3
100
AcDbLine
 10
-125.73007111
 20
-37.69577449
 30
0.0
 11
-125.61166376
 21
-37.74179775
 31
0.0
  0
LINE
  5
10E
100
AcDbEntity
  8
レイヤー_1
  6
CONTINUOUS
 62
       3
100
AcDbLine
 10
-125.61166376
 20
-37.74179775
 30
0.0
 11
-125.48816665
 21
-37.77675759
 31
0.0
  0
LINE
  5
10F
100
AcDbEntity
  8
レイヤー_1
  6
CONTINUOUS
 62
       3
100
AcDbLine
 10
-125.48816665
 20
-37.77675759
 30
0.0
 11
-125.36018024
 21
-37.80005097
 31
0.0
  0
LINE
  5
110
100
AcDbEntity
  8
レイヤー_1
  6
CONTINUOUS
 62
       3
100
AcDbLine
 10
-125.36018024
 20
-37.80005097
 30
0.0
 11
-125.22830493
 21
-37.81107486
 31
0.0
  0
LINE
  5
111
100
AcDbEntity
  8
レイヤー_1
  6
CONTINUOUS
 62
       3
100
AcDbLine
 10
-125.22830493
 20
-37.81107486
 30
0.0
 11
-125.18346482
 21
-37.81191868
 31
0.0
  0
LINE
  5
112
100
AcDbEntity
  8
レイヤー_1
  6
CONTINUOUS
 62
       3
100
AcDbLine
 10
-125.18346482
 20
-37.81191868
 30
0.0
 11
-125.18328294
 21
-37.81191868
 31
0.0
  0
LINE
  5
113
100
AcDbEntity
  8
レイヤー_1
  6
CONTINUOUS
 62
       3
100
AcDbLine
 10
-125.18328294
 20
-37.81191868
 30
0.0
 11
-125.18310104
 21
-37.81191868
 31
0.0
  0
LINE
  5
114
100
AcDbEntity
  8
レイヤー_1
  6
CONTINUOUS
 62
       3
100
AcDbLine
 10
-125.18310104
 20
-37.81191868
 30
0.0
 11
-125.18291916
 21
-37.81191868
 31
0.0
  0
LINE
  5
115
100
AcDbEntity
  8
レイヤー_1
  6
CONTINUOUS
 62
       3
100
AcDbLine
 10
-125.18291916
 20
-37.81191868
 30
0.0
 11
-125.18273729
 21
-37.81191868
 31
0.0
  0
LINE
  5
116
100
AcDbEntity
  8
レイヤー_1
  6
CONTINUOUS
 62
       3
100
AcDbLine
 10
-125.18273729
 20
-37.81191868
 30
0.0
 11
-125.18255541
 21
-37.81191868
 31
0.0
  0
LINE
  5
117
100
AcDbEntity
  8
レイヤー_1
  6
CONTINUOUS
 62
       3
100
AcDbLine
 10
-125.18255541
 20
-37.81191868
 30
0.0
 11
-125.18237354
 21
-37.81191868
 31
0.0
  0
LINE
  5
118
100
AcDbEntity
  8
レイヤー_1
  6
CONTINUOUS
 62
       3
100
AcDbLine
 10
-125.18237354
 20
-37.81191868
 30
0.0
 11
-125.18219166
 21
-37.81191868
 31
0.0
  0
LINE
  5
119
100
AcDbEntity
  8
レイヤー_1
  6
CONTINUOUS
 62
       3
100
AcDbLine
 10
-125.18219166
 20
-37.81191868
 30
0.0
 11
-125.18200976
 21
-37.81191868
 31
0.0
  0
LINE
  5
11A
100
AcDbEntity
  8
レイヤー_1
  6
CONTINUOUS
 62
       3
100
AcDbLine
 10
-125.18200976
 20
-37.81191868
 30
0.0
 11
-125.18182788
 21
-37.81191868
 31
0.0
  0
LINE
  5
11B
100
AcDbEntity
  8
レイヤー_1
  6
CONTINUOUS
 62
       3
100
AcDbLine
 10
-125.18182788
 20
-37.81191868
 30
0.0
 11
-125.18164601
 21
-37.81191868
 31
0.0
  0
LINE
  5
11C
100
AcDbEntity
  8
レイヤー_1
  6
CONTINUOUS
 62
       3
100
AcDbLine
 10
-125.18164601
 20
-37.81191868
 30
0.0
 11
-125.18146413
 21
-37.81191868
 31
0.0
  0
LINE
  5
11D
100
AcDbEntity
  8
レイヤー_1
  6
CONTINUOUS
 62
       3
100
AcDbLine
 10
-125.18146413
 20
-37.81191868
 30
0.0
 11
-125.18128226
 21
-37.81191868
 31
0.0
  0
LINE
  5
11E
100
AcDbEntity
  8
レイヤー_1
  6
CONTINUOUS
 62
       3
100
AcDbLine
 10
-125.18128226
 20
-37.81191868
 30
0.0
 11
-125.18110038
 21
-37.81191868
 31
0.0
  0
LINE
  5
11F
100
AcDbEntity
  8
レイヤー_1
  6
CONTINUOUS
 62
       3
100
AcDbLine
 10
-125.18110038
 20
-37.81191868
 30
0.0
 11
-125.18091848
 21
-37.81191868
 31
0.0
  0
LINE
  5
120
100
AcDbEntity
  8
レイヤー_1
  6
CONTINUOUS
 62
       3
100
AcDbLine
 10
-125.18091848
 20
-37.81191868
 30
0.0
 11
-125.1807366
 21
-37.81191868
 31
0.0
  0
LINE
  5
121
100
AcDbEntity
  8
レイヤー_1
  6
CONTINUOUS
 62
       3
100
AcDbLine
 10
-125.1807366
 20
-37.81191868
 30
0.0
 11
-125.18055473
 21
-37.81191868
 31
0.0
  0
LINE
  5
122
100
AcDbEntity
  8
レイヤー_1
  6
CONTINUOUS
 62
       3
100
AcDbLine
 10
-125.18055473
 20
-35.10139594
 30
0.0
 11
-119.98332313
 21
-35.10139594
 31
0.0
  0
LINE
  5
123
100
AcDbEntity
  8
レイヤー_1
  6
CONTINUOUS
 62
       3
100
AcDbLine
 10
-119.98332313
 20
-37.81191868
 30
0.0
 11
-119.85043474
 21
-37.80548154
 31
0.0
  0
LINE
  5
124
100
AcDbEntity
  8
レイヤー_1
  6
CONTINUOUS
 62
       3
100
AcDbLine
 10
-119.85043474
 20
-37.80548154
 30
0.0
 11
-119.72117356
 21
-37.78656865
 31
0.0
  0
LINE
  5
125
100
AcDbEntity
  8
レイヤー_1
  6
CONTINUOUS
 62
       3
100
AcDbLine
 10
-119.72117356
 20
-37.78656865
 30
0.0
 11
-119.59614393
 21
-37.75577778
 31
0.0
  0
LINE
  5
126
100
AcDbEntity
  8
レイヤー_1
  6
CONTINUOUS
 62
       3
100
AcDbLine
 10
-119.59614393
 20
-37.75577778
 30
0.0
 11
-119.47595024
 21
-37.71370677
 31
0.0
  0
LINE
  5
127
100
AcDbEntity
  8
レイヤー_1
  6
CONTINUOUS
 62
       3
100
AcDbLine
 10
-119.47595024
 20
-37.71370677
 30
0.0
 11
-119.36119676
 21
-37.66095342
 31
0.0
  0
LINE
  5
128
100
AcDbEntity
  8
レイヤー_1
  6
CONTINUOUS
 62
       3
100
AcDbLine
 10
-119.36119676
 20
-37.66095342
 30
0.0
 11
-119.25248793
 21
-37.59811554
 31
0.0
  0
LINE
  5
129
100
AcDbEntity
  8
レイヤー_1
  6
CONTINUOUS
 62
       3
100
AcDbLine
 10
-119.25248793
 20
-37.59811554
 30
0.0
 11
-119.15042804
 21
-37.52579092
 31
0.0
  0
LINE
  5
12A
100
AcDbEntity
  8
レイヤー_1
  6
CONTINUOUS
 62
       3
100
AcDbLine
 10
-119.15042804
 20
-37.52579092
 30
0.0
 11
-119.05562148
 21
-37.44457739
 31
0.0
  0
LINE
  5
12B
100
AcDbEntity
  8
レイヤー_1
  6
CONTINUOUS
 62
       3
100
AcDbLine
 10
-119.05562148
 20
-37.44457739
 30
0.0
 11
-118.96867261
 21
-37.3550727
 31
0.0
  0
LINE
  5
12C
100
AcDbEntity
  8
レイヤー_1
  6
CONTINUOUS
 62
       3
100
AcDbLine
 10
-118.96867261
 20
-37.3550727
 30
0.0
 11
-118.89018573
 21
-37.25787469
 31
0.0
  0
LINE
  5
12D
100
AcDbEntity
  8
レイヤー_1
  6
CONTINUOUS
 62
       3
100
AcDbLine
 10
-118.89018573
 20
-37.25787469
 30
0.0
 11
-118.82076523
 21
-37.1535812
 31
0.0
  0
LINE
  5
12E
100
AcDbEntity
  8
レイヤー_1
  6
CONTINUOUS
 62
       3
100
AcDbLine
 10
-118.82076523
 20
-37.1535812
 30
0.0
 11
-118.76101544
 21
-37.04278997
 31
0.0
  0
LINE
  5
12F
100
AcDbEntity
  8
レイヤー_1
  6
CONTINUOUS
 62
       3
100
AcDbLine
 10
-118.76101544
 20
-37.04278997
 30
0.0
 11
-118.71154075
 21
-36.92609883
 31
0.0
  0
LINE
  5
130
100
AcDbEntity
  8
レイヤー_1
  6
CONTINUOUS
 62
       3
100
AcDbLine
 10
-118.71154075
 20
-36.92609883
 30
0.0
 11
-118.67294549
 21
-36.8041056
 31
0.0
  0
LINE
  5
131
100
AcDbEntity
  8
レイヤー_1
  6
CONTINUOUS
 62
       3
100
AcDbLine
 10
-118.67294549
 20
-36.8041056
 30
0.0
 11
-118.64583398
 21
-36.67740803
 31
0.0
  0
LINE
  5
132
100
AcDbEntity
  8
レイヤー_1
  6
CONTINUOUS
 62
       3
100
AcDbLine
 10
-118.64583398
 20
-36.67740803
 30
0.0
 11
-118.63081063
 21
-36.54660401
 31
0.0
  0
LINE
  5
133
100
AcDbEntity
  8
レイヤー_1
  6
CONTINUOUS
 62
       3
100
AcDbLine
 10
-118.63081063
 20
-36.54660401
 30
0.0
 11
-118.62847232
 21
-36.41266657
 31
0.0
  0
LINE
  5
134
100
AcDbEntity
  8
レイヤー_1
  6
CONTINUOUS
 62
       3
100
AcDbLine
 10
-118.62847232
 20
-36.41266657
 30
0.0
 11
-118.6389695
 21
-36.28070761
 31
0.0
  0
LINE
  5
135
100
AcDbEntity
  8
レイヤー_1
  6
CONTINUOUS
 62
       3
100
AcDbLine
 10
-118.6389695
 20
-36.28070761
 30
0.0
 11
-118.66176064
 21
-36.15264236
 31
0.0
  0
LINE
  5
136
100
AcDbEntity
  8
レイヤー_1
  6
CONTINUOUS
 62
       3
100
AcDbLine
 10
-118.66176064
 20
-36.15264236
 30
0.0
 11
-118.69624466
 21
-36.02906665
 31
0.0
  0
LINE
  5
137
100
AcDbEntity
  8
レイヤー_1
  6
CONTINUOUS
 62
       3
100
AcDbLine
 10
-118.69624466
 20
-36.02906665
 30
0.0
 11
-118.74182045
 21
-35.91057633
 31
0.0
  0
LINE
  5
138
100
AcDbEntity
  8
レイヤー_1
  6
CONTINUOUS
 62
       3
100
AcDbLine
 10
-118.74182045
 20
-35.91057633
 30
0.0
 11
-118.79788698
 21
-35.79776722
 31
0.0
  0
LINE
  5
139
100
AcDbEntity
  8
レイヤー_1
  6
CONTINUOUS
 62
       3
100
AcDbLine
 10
-118.79788698
 20
-35.79776722
 30
0.0
 11
-118.86384314
 21
-35.69123515
 31
0.0
  0
LINE
  5
13A
100
AcDbEntity
  8
レイヤー_1
  6
CONTINUOUS
 62
       3
100
AcDbLine
 10
-118.86384314
 20
-35.69123515
 30
0.0
 11
-118.93908785
 21
-35.59157597
 31
0.0
  0
LINE
  5
13B
100
AcDbEntity
  8
レイヤー_1
  6
CONTINUOUS
 62
       3
100
AcDbLine
 10
-118.93908785
 20
-35.59157597
 30
0.0
 11
-119.02302004
 21
-35.49938557
 31
0.0
  0
LINE
  5
13C
100
AcDbEntity
  8
レイヤー_1
  6
CONTINUOUS
 62
       3
100
AcDbLine
 10
-119.02302004
 20
-35.49938557
 30
0.0
 11
-119.1150386
 21
-35.4152597
 31
0.0
  0
LINE
  5
13D
100
AcDbEntity
  8
レイヤー_1
  6
CONTINUOUS
 62
       3
100
AcDbLine
 10
-119.1150386
 20
-35.4152597
 30
0.0
 11
-119.21454254
 21
-35.33979426
 31
0.0
  0
LINE
  5
13E
100
AcDbEntity
  8
レイヤー_1
  6
CONTINUOUS
 62
       3
100
AcDbLine
 10
-119.21454254
 20
-35.33979426
 30
0.0
 11
-119.32093069
 21
-35.27358507
 31
0.0
  0
LINE
  5
13F
100
AcDbEntity
  8
レイヤー_1
  6
CONTINUOUS
 62
       3
100
AcDbLine
 10
-119.32093069
 20
-35.27358507
 30
0.0
 11
-119.43360203
 21
-35.21722797
 31
0.0
  0
LINE
  5
140
100
AcDbEntity
  8
レイヤー_1
  6
CONTINUOUS
 62
       3
100
AcDbLine
 10
-119.43360203
 20
-35.21722797
 30
0.0
 11
-119.55195544
 21
-35.17131884
 31
0.0
  0
LINE
  5
141
100
AcDbEntity
  8
レイヤー_1
  6
CONTINUOUS
 62
       3
100
AcDbLine
 10
-119.55195544
 20
-35.17131884
 30
0.0
 11
-119.67538984
 21
-35.13645345
 31
0.0
  0
LINE
  5
142
100
AcDbEntity
  8
レイヤー_1
  6
CONTINUOUS
 62
       3
100
AcDbLine
 10
-119.67538984
 20
-35.13645345
 30
0.0
 11
-119.80330422
 21
-35.11322769
 31
0.0
  0
LINE
  5
143
100
AcDbEntity
  8
レイヤー_1
  6
CONTINUOUS
 62
       3
100
AcDbLine
 10
-119.80330422
 20
-35.11322769
 30
0.0
 11
-119.93509743
 21
-35.10223739
 31
0.0
  0
LINE
  5
144
100
AcDbEntity
  8
レイヤー_1
  6
CONTINUOUS
 62
       3
100
AcDbLine
 10
-119.93509743
 20
-35.10223739
 30
0.0
 11
-119.97991018
 21
-35.10139594
 31
0.0
  0
LINE
  5
145
100
AcDbEntity
  8
レイヤー_1
  6
CONTINUOUS
 62
       3
100
AcDbLine
 10
-119.97991018
 20
-35.10139594
 30
0.0
 11
-119.98010384
 21
-35.10139594
 31
0.0
  0
LINE
  5
146
100
AcDbEntity
  8
レイヤー_1
  6
CONTINUOUS
 62
       3
100
AcDbLine
 10
-119.98010384
 20
-35.10139594
 30
0.0
 11
-119.98030625
 21
-35.10139594
 31
0.0
  0
LINE
  5
147
100
AcDbEntity
  8
レイヤー_1
  6
CONTINUOUS
 62
       3
100
AcDbLine
 10
-119.98030625
 20
-35.10139594
 30
0.0
 11
-119.98051605
 21
-35.10139594
 31
0.0
  0
LINE
  5
148
100
AcDbEntity
  8
レイヤー_1
  6
CONTINUOUS
 62
       3
100
AcDbLine
 10
-119.98051605
 20
-35.10139594
 30
0.0
 11
-119.98073197
 21
-35.10139594
 31
0.0
  0
LINE
  5
149
100
AcDbEntity
  8
レイヤー_1
  6
CONTINUOUS
 62
       3
100
AcDbLine
 10
-119.98073197
 20
-35.10139594
 30
0.0
 11
-119.98095271
 21
-35.10139594
 31
0.0
  0
LINE
  5
14A
100
AcDbEntity
  8
レイヤー_1
  6
CONTINUOUS
 62
       3
100
AcDbLine
 10
-119.98095271
 20
-35.10139594
 30
0.0
 11
-119.98117694
 21
-35.10139594
 31
0.0
  0
LINE
  5
14B
100
AcDbEntity
  8
レイヤー_1
  6
CONTINUOUS
 62
       3
100
AcDbLine
 10
-119.98117694
 20
-35.10139594
 30
0.0
 11
-119.98140334
 21
-35.10139594
 31
0.0
  0
LINE
  5
14C
100
AcDbEntity
  8
レイヤー_1
  6
CONTINUOUS
 62
       3
100
AcDbLine
 10
-119.98140334
 20
-35.10139594
 30
0.0
 11
-119.98163062
 21
-35.10139594
 31
0.0
  0
LINE
  5
14D
100
AcDbEntity
  8
レイヤー_1
  6
CONTINUOUS
 62
       3
100
AcDbLine
 10
-119.98163062
 20
-35.10139594
 30
0.0
 11
-119.98185745
 21
-35.10139594
 31
0.0
  0
LINE
  5
14E
100
AcDbEntity
  8
レイヤー_1
  6
CONTINUOUS
 62
       3
100
AcDbLine
 10
-119.98185745
 20
-35.10139594
 30
0.0
 11
-119.98208256
 21
-35.10139594
 31
0.0
  0
LINE
  5
14F
100
AcDbEntity
  8
レイヤー_1
  6
CONTINUOUS
 62
       3
100
AcDbLine
 10
-119.98208256
 20
-35.10139594
 30
0.0
 11
-119.98230459
 21
-35.10139594
 31
0.0
  0
LINE
  5
150
100
AcDbEntity
  8
レイヤー_1
  6
CONTINUOUS
 62
       3
100
AcDbLine
 10
-119.98230459
 20
-35.10139594
 30
0.0
 11
-119.98252228
 21
-35.10139594
 31
0.0
  0
LINE
  5
151
100
AcDbEntity
  8
レイヤー_1
  6
CONTINUOUS
 62
       3
100
AcDbLine
 10
-119.98252228
 20
-35.10139594
 30
0.0
 11
-119.98273427
 21
-35.10139594
 31
0.0
  0
LINE
  5
152
100
AcDbEntity
  8
レイヤー_1
  6
CONTINUOUS
 62
       3
100
AcDbLine
 10
-119.98273427
 20
-35.10139594
 30
0.0
 11
-119.98293929
 21
-35.10139594
 31
0.0
  0
LINE
  5
153
100
AcDbEntity
  8
レイヤー_1
  6
CONTINUOUS
 62
       3
100
AcDbLine
 10
-119.98293929
 20
-35.10139594
 30
0.0
 11
-119.98313601
 21
-35.10139594
 31
0.0
  0
LINE
  5
154
100
AcDbEntity
  8
レイヤー_1
  6
CONTINUOUS
 62
       3
100
AcDbLine
 10
-119.98313601
 20
-35.10139594
 30
0.0
 11
-119.98332313
 21
-35.10139594
 31
0.0
  0
LINE
  5
155
100
AcDbEntity
  8
レイヤー_1
  6
CONTINUOUS
 62
       3
100
AcDbLine
 10
-119.98332313
 20
-37.81191868
 30
0.0
 11
-125.18055473
 21
-37.81191868
 31
0.0
  0
LINE
  5
156
100
AcDbEntity
  8
レイヤー_1
  6
CONTINUOUS
 62
       3
100
AcDbLine
 10
-168.15433938
 20
-35.10139594
 30
0.0
 11
-168.28738848
 21
-35.10784323
 31
0.0
  0
LINE
  5
157
100
AcDbEntity
  8
レイヤー_1
  6
CONTINUOUS
 62
       3
100
AcDbLine
 10
-168.28738848
 20
-35.10784323
 30
0.0
 11
-168.41677064
 21
-35.12678352
 31
0.0
  0
LINE
  5
158
100
AcDbEntity
  8
レイヤー_1
  6
CONTINUOUS
 62
       3
100
AcDbLine
 10
-168.41677064
 20
-35.12678352
 30
0.0
 11
-168.54188547
 21
-35.15761443
 31
0.0
  0
LINE
  5
159
100
AcDbEntity
  8
レイヤー_1
  6
CONTINUOUS
 62
       3
100
AcDbLine
 10
-168.54188547
 20
-35.15761443
 30
0.0
 11
-168.66213252
 21
-35.19973357
 31
0.0
  0
LINE
  5
15A
100
AcDbEntity
  8
レイヤー_1
  6
CONTINUOUS
 62
       3
100
AcDbLine
 10
-168.66213252
 20
-35.19973357
 30
0.0
 11
-168.77691137
 21
-35.25253854
 31
0.0
  0
LINE
  5
15B
100
AcDbEntity
  8
レイヤー_1
  6
CONTINUOUS
 62
       3
100
AcDbLine
 10
-168.77691137
 20
-35.25253854
 30
0.0
 11
-168.88562158
 21
-35.31542693
 31
0.0
  0
LINE
  5
15C
100
AcDbEntity
  8
レイヤー_1
  6
CONTINUOUS
 62
       3
100
AcDbLine
 10
-168.88562158
 20
-35.31542693
 30
0.0
 11
-168.98766276
 21
-35.38779641
 31
0.0
  0
LINE
  5
15D
100
AcDbEntity
  8
レイヤー_1
  6
CONTINUOUS
 62
       3
100
AcDbLine
 10
-168.98766276
 20
-35.38779641
 30
0.0
 11
-169.08243447
 21
-35.46904456
 31
0.0
  0
LINE
  5
15E
100
AcDbEntity
  8
レイヤー_1
  6
CONTINUOUS
 62
       3
100
AcDbLine
 10
-169.08243447
 20
-35.46904456
 30
0.0
 11
-169.1693363
 21
-35.55856899
 31
0.0
  0
LINE
  5
15F
100
AcDbEntity
  8
レイヤー_1
  6
CONTINUOUS
 62
       3
100
AcDbLine
 10
-169.1693363
 20
-35.55856899
 30
0.0
 11
-169.24776783
 21
-35.65576732
 31
0.0
  0
LINE
  5
160
100
AcDbEntity
  8
レイヤー_1
  6
CONTINUOUS
 62
       3
100
AcDbLine
 10
-169.24776783
 20
-35.65576732
 30
0.0
 11
-169.31712858
 21
-35.76003714
 31
0.0
  0
LINE
  5
161
100
AcDbEntity
  8
レイヤー_1
  6
CONTINUOUS
 62
       3
100
AcDbLine
 10
-169.31712858
 20
-35.76003714
 30
0.0
 11
-169.37681818
 21
-35.8707761
 31
0.0
  0
LINE
  5
162
100
AcDbEntity
  8
レイヤー_1
  6
CONTINUOUS
 62
       3
100
AcDbLine
 10
-169.37681818
 20
-35.8707761
 30
0.0
 11
-169.42623621
 21
-35.98738177
 31
0.0
  0
LINE
  5
163
100
AcDbEntity
  8
レイヤー_1
  6
CONTINUOUS
 62
       3
100
AcDbLine
 10
-169.42623621
 20
-35.98738177
 30
0.0
 11
-169.46478223
 21
-36.10925182
 31
0.0
  0
LINE
  5
164
100
AcDbEntity
  8
レイヤー_1
  6
CONTINUOUS
 62
       3
100
AcDbLine
 10
-169.46478223
 20
-36.10925182
 30
0.0
 11
-169.49185581
 21
-36.23578382
 31
0.0
  0
LINE
  5
165
100
AcDbEntity
  8
レイヤー_1
  6
CONTINUOUS
 62
       3
100
AcDbLine
 10
-169.49185581
 20
-36.23578382
 30
0.0
 11
-169.50685655
 21
-36.36637538
 31
0.0
  0
LINE
  5
166
100
AcDbEntity
  8
レイヤー_1
  6
CONTINUOUS
 62
       3
100
AcDbLine
 10
-169.50685655
 20
-36.36637538
 30
0.0
 11
-169.50918902
 21
-36.50005609
 31
0.0
  0
LINE
  5
167
100
AcDbEntity
  8
レイヤー_1
  6
CONTINUOUS
 62
       3
100
AcDbLine
 10
-169.50918902
 20
-36.50005609
 30
0.0
 11
-169.49867489
 21
-36.63180308
 31
0.0
  0
LINE
  5
168
100
AcDbEntity
  8
レイヤー_1
  6
CONTINUOUS
 62
       3
100
AcDbLine
 10
-169.49867489
 20
-36.63180308
 30
0.0
 11
-169.4758494
 21
-36.75972315
 31
0.0
  0
LINE
  5
169
100
AcDbEntity
  8
レイヤー_1
  6
CONTINUOUS
 62
       3
100
AcDbLine
 10
-169.4758494
 20
-36.75972315
 30
0.0
 11
-169.44131682
 21
-36.88321327
 31
0.0
  0
LINE
  5
16A
100
AcDbEntity
  8
レイヤー_1
  6
CONTINUOUS
 62
       3
100
AcDbLine
 10
-169.44131682
 20
-36.88321327
 30
0.0
 11
-169.39568154
 21
-37.00167039
 31
0.0
  0
LINE
  5
16B
100
AcDbEntity
  8
レイヤー_1
  6
CONTINUOUS
 62
       3
100
AcDbLine
 10
-169.39568154
 20
-37.00167039
 30
0.0
 11
-169.33954791
 21
-37.11449147
 31
0.0
  0
LINE
  5
16C
100
AcDbEntity
  8
レイヤー_1
  6
CONTINUOUS
 62
       3
100
AcDbLine
 10
-169.33954791
 20
-37.11449147
 30
0.0
 11
-169.27352027
 21
-37.22107349
 31
0.0
  0
LINE
  5
16D
100
AcDbEntity
  8
レイヤー_1
  6
CONTINUOUS
 62
       3
100
AcDbLine
 10
-169.27352027
 20
-37.22107349
 30
0.0
 11
-169.198203
 21
-37.32081335
 31
0.0
  0
LINE
  5
16E
100
AcDbEntity
  8
レイヤー_1
  6
CONTINUOUS
 62
       3
100
AcDbLine
 10
-169.198203
 20
-37.32081335
 30
0.0
 11
-169.11420041
 21
-37.41310809
 31
0.0
  0
LINE
  5
16F
100
AcDbEntity
  8
レイヤー_1
  6
CONTINUOUS
 62
       3
100
AcDbLine
 10
-169.11420041
 20
-37.41310809
 30
0.0
 11
-169.02211691
 21
-37.49735461
 31
0.0
  0
LINE
  5
170
100
AcDbEntity
  8
レイヤー_1
  6
CONTINUOUS
 62
       3
100
AcDbLine
 10
-169.02211691
 20
-37.49735461
 30
0.0
 11
-168.92255679
 21
-37.57294987
 31
0.0
  0
LINE
  5
171
100
AcDbEntity
  8
レイヤー_1
  6
CONTINUOUS
 62
       3
100
AcDbLine
 10
-168.92255679
 20
-37.57294987
 30
0.0
 11
-168.81612443
 21
-37.63929084
 31
0.0
  0
LINE
  5
172
100
AcDbEntity
  8
レイヤー_1
  6
CONTINUOUS
 62
       3
100
AcDbLine
 10
-168.81612443
 20
-37.63929084
 30
0.0
 11
-168.7034242
 21
-37.69577449
 31
0.0
  0
LINE
  5
173
100
AcDbEntity
  8
レイヤー_1
  6
CONTINUOUS
 62
       3
100
AcDbLine
 10
-168.7034242
 20
-37.69577449
 30
0.0
 11
-168.58506041
 21
-37.74179775
 31
0.0
  0
LINE
  5
174
100
AcDbEntity
  8
レイヤー_1
  6
CONTINUOUS
 62
       3
100
AcDbLine
 10
-168.58506041
 20
-37.74179775
 30
0.0
 11
-168.46163745
 21
-37.77675759
 31
0.0
  0
LINE
  5
175
100
AcDbEntity
  8
レイヤー_1
  6
CONTINUOUS
 62
       3
100
AcDbLine
 10
-168.46163745
 20
-37.77675759
 30
0.0
 11
-168.33375965
 21
-37.80005097
 31
0.0
  0
LINE
  5
176
100
AcDbEntity
  8
レイヤー_1
  6
CONTINUOUS
 62
       3
100
AcDbLine
 10
-168.33375965
 20
-37.80005097
 30
0.0
 11
-168.20203137
 21
-37.81107486
 31
0.0
  0
LINE
  5
177
100
AcDbEntity
  8
レイヤー_1
  6
CONTINUOUS
 62
       3
100
AcDbLine
 10
-168.20203137
 20
-37.81107486
 30
0.0
 11
-168.15724948
 21
-37.81191868
 31
0.0
  0
LINE
  5
178
100
AcDbEntity
  8
レイヤー_1
  6
CONTINUOUS
 62
       3
100
AcDbLine
 10
-168.15724948
 20
-37.81191868
 30
0.0
 11
-168.1570676
 21
-37.81191868
 31
0.0
  0
LINE
  5
179
100
AcDbEntity
  8
レイヤー_1
  6
CONTINUOUS
 62
       3
100
AcDbLine
 10
-168.1570676
 20
-37.81191868
 30
0.0
 11
-168.15688573
 21
-37.81191868
 31
0.0
  0
LINE
  5
17A
100
AcDbEntity
  8
レイヤー_1
  6
CONTINUOUS
 62
       3
100
AcDbLine
 10
-168.15688573
 20
-37.81191868
 30
0.0
 11
-168.15670385
 21
-37.81191868
 31
0.0
  0
LINE
  5
17B
100
AcDbEntity
  8
レイヤー_1
  6
CONTINUOUS
 62
       3
100
AcDbLine
 10
-168.15670385
 20
-37.81191868
 30
0.0
 11
-168.15652198
 21
-37.81191868
 31
0.0
  0
LINE
  5
17C
100
AcDbEntity
  8
レイヤー_1
  6
CONTINUOUS
 62
       3
100
AcDbLine
 10
-168.15652198
 20
-37.81191868
 30
0.0
 11
-168.15634007
 21
-37.81191868
 31
0.0
  0
LINE
  5
17D
100
AcDbEntity
  8
レイヤー_1
  6
CONTINUOUS
 62
       3
100
AcDbLine
 10
-168.15634007
 20
-37.81191868
 30
0.0
 11
-168.1561582
 21
-37.81191868
 31
0.0
  0
LINE
  5
17E
100
AcDbEntity
  8
レイヤー_1
  6
CONTINUOUS
 62
       3
100
AcDbLine
 10
-168.1561582
 20
-37.81191868
 30
0.0
 11
-168.15597632
 21
-37.81191868
 31
0.0
  0
LINE
  5
17F
100
AcDbEntity
  8
レイヤー_1
  6
CONTINUOUS
 62
       3
100
AcDbLine
 10
-168.15597632
 20
-37.81191868
 30
0.0
 11
-168.15579445
 21
-37.81191868
 31
0.0
  0
LINE
  5
180
100
AcDbEntity
  8
レイヤー_1
  6
CONTINUOUS
 62
       3
100
AcDbLine
 10
-168.15579445
 20
-37.81191868
 30
0.0
 11
-168.15561257
 21
-37.81191868
 31
0.0
  0
LINE
  5
181
100
AcDbEntity
  8
レイヤー_1
  6
CONTINUOUS
 62
       3
100
AcDbLine
 10
-168.15561257
 20
-37.81191868
 30
0.0
 11
-168.15543067
 21
-37.81191868
 31
0.0
  0
LINE
  5
182
100
AcDbEntity
  8
レイヤー_1
  6
CONTINUOUS
 62
       3
100
AcDbLine
 10
-168.15543067
 20
-37.81191868
 30
0.0
 11
-168.15524879
 21
-37.81191868
 31
0.0
  0
LINE
  5
183
100
AcDbEntity
  8
レイヤー_1
  6
CONTINUOUS
 62
       3
100
AcDbLine
 10
-168.15524879
 20
-37.81191868
 30
0.0
 11
-168.15506692
 21
-37.81191868
 31
0.0
  0
LINE
  5
184
100
AcDbEntity
  8
レイヤー_1
  6
CONTINUOUS
 62
       3
100
AcDbLine
 10
-168.15506692
 20
-37.81191868
 30
0.0
 11
-168.15488504
 21
-37.81191868
 31
0.0
  0
LINE
  5
185
100
AcDbEntity
  8
レイヤー_1
  6
CONTINUOUS
 62
       3
100
AcDbLine
 10
-168.15488504
 20
-37.81191868
 30
0.0
 11
-168.15470316
 21
-37.81191868
 31
0.0
  0
LINE
  5
186
100
AcDbEntity
  8
レイヤー_1
  6
CONTINUOUS
 62
       3
100
AcDbLine
 10
-168.15470316
 20
-37.81191868
 30
0.0
 11
-168.15452129
 21
-37.81191868
 31
0.0
  0
LINE
  5
187
100
AcDbEntity
  8
レイヤー_1
  6
CONTINUOUS
 62
       3
100
AcDbLine
 10
-168.15452129
 20
-37.81191868
 30
0.0
 11
-168.15433938
 21
-37.81191868
 31
0.0
  0
LINE
  5
188
100
AcDbEntity
  8
レイヤー_1
  6
CONTINUOUS
 62
       3
100
AcDbLine
 10
-168.15433938
 20
-35.10139594
 30
0.0
 11
-162.95710779
 21
-35.10139594
 31
0.0
  0
LINE
  5
189
100
AcDbEntity
  8
レイヤー_1
  6
CONTINUOUS
 62
       3
100
AcDbLine
 10
-162.95710779
 20
-37.81191868
 30
0.0
 11
-162.82420916
 21
-37.80548154
 31
0.0
  0
LINE
  5
18A
100
AcDbEntity
  8
レイヤー_1
  6
CONTINUOUS
 62
       3
100
AcDbLine
 10
-162.82420916
 20
-37.80548154
 30
0.0
 11
-162.69491982
 21
-37.78656865
 31
0.0
  0
LINE
  5
18B
100
AcDbEntity
  8
レイヤー_1
  6
CONTINUOUS
 62
       3
100
AcDbLine
 10
-162.69491982
 20
-37.78656865
 30
0.0
 11
-162.56984808
 21
-37.75577778
 31
0.0
  0
LINE
  5
18C
100
AcDbEntity
  8
レイヤー_1
  6
CONTINUOUS
 62
       3
100
AcDbLine
 10
-162.56984808
 20
-37.75577778
 30
0.0
 11
-162.44960221
 21
-37.71370677
 31
0.0
  0
LINE
  5
18D
100
AcDbEntity
  8
レイヤー_1
  6
CONTINUOUS
 62
       3
100
AcDbLine
 10
-162.44960221
 20
-37.71370677
 30
0.0
 11
-162.33479048
 21
-37.66095342
 31
0.0
  0
LINE
  5
18E
100
AcDbEntity
  8
レイヤー_1
  6
CONTINUOUS
 62
       3
100
AcDbLine
 10
-162.33479048
 20
-37.66095342
 30
0.0
 11
-162.22602117
 21
-37.59811554
 31
0.0
  0
LINE
  5
18F
100
AcDbEntity
  8
レイヤー_1
  6
CONTINUOUS
 62
       3
100
AcDbLine
 10
-162.22602117
 20
-37.59811554
 30
0.0
 11
-162.12390259
 21
-37.52579092
 31
0.0
  0
LINE
  5
190
100
AcDbEntity
  8
レイヤー_1
  6
CONTINUOUS
 62
       3
100
AcDbLine
 10
-162.12390259
 20
-37.52579092
 30
0.0
 11
-162.02904297
 21
-37.44457739
 31
0.0
  0
LINE
  5
191
100
AcDbEntity
  8
レイヤー_1
  6
CONTINUOUS
 62
       3
100
AcDbLine
 10
-162.02904297
 20
-37.44457739
 30
0.0
 11
-161.94205066
 21
-37.3550727
 31
0.0
  0
LINE
  5
192
100
AcDbEntity
  8
レイヤー_1
  6
CONTINUOUS
 62
       3
100
AcDbLine
 10
-161.94205066
 20
-37.3550727
 30
0.0
 11
-161.86353387
 21
-37.25787469
 31
0.0
  0
LINE
  5
193
100
AcDbEntity
  8
レイヤー_1
  6
CONTINUOUS
 62
       3
100
AcDbLine
 10
-161.86353387
 20
-37.25787469
 30
0.0
 11
-161.79410093
 21
-37.1535812
 31
0.0
  0
LINE
  5
194
100
AcDbEntity
  8
レイヤー_1
  6
CONTINUOUS
 62
       3
100
AcDbLine
 10
-161.79410093
 20
-37.1535812
 30
0.0
 11
-161.73436012
 21
-37.04278997
 31
0.0
  0
LINE
  5
195
100
AcDbEntity
  8
レイヤー_1
  6
CONTINUOUS
 62
       3
100
AcDbLine
 10
-161.73436012
 20
-37.04278997
 30
0.0
 11
-161.68491969
 21
-36.92609883
 31
0.0
  0
LINE
  5
196
100
AcDbEntity
  8
レイヤー_1
  6
CONTINUOUS
 62
       3
100
AcDbLine
 10
-161.68491969
 20
-36.92609883
 30
0.0
 11
-161.64638793
 21
-36.8041056
 31
0.0
  0
LINE
  5
197
100
AcDbEntity
  8
レイヤー_1
  6
CONTINUOUS
 62
       3
100
AcDbLine
 10
-161.64638793
 20
-36.8041056
 30
0.0
 11
-161.61937312
 21
-36.67740803
 31
0.0
  0
LINE
  5
198
100
AcDbEntity
  8
レイヤー_1
  6
CONTINUOUS
 62
       3
100
AcDbLine
 10
-161.61937312
 20
-36.67740803
 30
0.0
 11
-161.60448357
 21
-36.54660401
 31
0.0
  0
LINE
  5
199
100
AcDbEntity
  8
レイヤー_1
  6
CONTINUOUS
 62
       3
100
AcDbLine
 10
-161.60448357
 20
-36.54660401
 30
0.0
 11
-161.60225698
 21
-36.41266657
 31
0.0
  0
LINE
  5
19A
100
AcDbEntity
  8
レイヤー_1
  6
CONTINUOUS
 62
       3
100
AcDbLine
 10
-161.60225698
 20
-36.41266657
 30
0.0
 11
-161.61275445
 21
-36.28070761
 31
0.0
  0
LINE
  5
19B
100
AcDbEntity
  8
レイヤー_1
  6
CONTINUOUS
 62
       3
100
AcDbLine
 10
-161.61275445
 20
-36.28070761
 30
0.0
 11
-161.63554671
 21
-36.15264236
 31
0.0
  0
LINE
  5
19C
100
AcDbEntity
  8
レイヤー_1
  6
CONTINUOUS
 62
       3
100
AcDbLine
 10
-161.63554671
 20
-36.15264236
 30
0.0
 11
-161.67003336
 21
-36.02906665
 31
0.0
  0
LINE
  5
19D
100
AcDbEntity
  8
レイヤー_1
  6
CONTINUOUS
 62
       3
100
AcDbLine
 10
-161.67003336
 20
-36.02906665
 30
0.0
 11
-161.715614
 21
-35.91057633
 31
0.0
  0
LINE
  5
19E
100
AcDbEntity
  8
レイヤー_1
  6
CONTINUOUS
 62
       3
100
AcDbLine
 10
-161.715614
 20
-35.91057633
 30
0.0
 11
-161.77168821
 21
-35.79776722
 31
0.0
  0
LINE
  5
19F
100
AcDbEntity
  8
レイヤー_1
  6
CONTINUOUS
 62
       3
100
AcDbLine
 10
-161.77168821
 20
-35.79776722
 30
0.0
 11
-161.83765551
 21
-35.69123515
 31
0.0
  0
LINE
  5
1A0
100
AcDbEntity
  8
レイヤー_1
  6
CONTINUOUS
 62
       3
100
AcDbLine
 10
-161.83765551
 20
-35.69123515
 30
0.0
 11
-161.91291553
 21
-35.59157597
 31
0.0
  0
LINE
  5
1A1
100
AcDbEntity
  8
レイヤー_1
  6
CONTINUOUS
 62
       3
100
AcDbLine
 10
-161.91291553
 20
-35.59157597
 30
0.0
 11
-161.99686785
 21
-35.49938557
 31
0.0
  0
LINE
  5
1A2
100
AcDbEntity
  8
レイヤー_1
  6
CONTINUOUS
 62
       3
100
AcDbLine
 10
-161.99686785
 20
-35.49938557
 30
0.0
 11
-162.08891201
 21
-35.4152597
 31
0.0
  0
LINE
  5
1A3
100
AcDbEntity
  8
レイヤー_1
  6
CONTINUOUS
 62
       3
100
AcDbLine
 10
-162.08891201
 20
-35.4152597
 30
0.0
 11
-162.18844762
 21
-35.33979426
 31
0.0
  0
LINE
  5
1A4
100
AcDbEntity
  8
レイヤー_1
  6
CONTINUOUS
 62
       3
100
AcDbLine
 10
-162.18844762
 20
-35.33979426
 30
0.0
 11
-162.29487423
 21
-35.27358507
 31
0.0
  0
LINE
  5
1A5
100
AcDbEntity
  8
レイヤー_1
  6
CONTINUOUS
 62
       3
100
AcDbLine
 10
-162.29487423
 20
-35.27358507
 30
0.0
 11
-162.40759141
 21
-35.21722797
 31
0.0
  0
LINE
  5
1A6
100
AcDbEntity
  8
レイヤー_1
  6
CONTINUOUS
 62
       3
100
AcDbLine
 10
-162.40759141
 20
-35.21722797
 30
0.0
 11
-162.52599876
 21
-35.17131884
 31
0.0
  0
LINE
  5
1A7
100
AcDbEntity
  8
レイヤー_1
  6
CONTINUOUS
 62
       3
100
AcDbLine
 10
-162.52599876
 20
-35.17131884
 30
0.0
 11
-162.64949586
 21
-35.13645345
 31
0.0
  0
LINE
  5
1A8
100
AcDbEntity
  8
レイヤー_1
  6
CONTINUOUS
 62
       3
100
AcDbLine
 10
-162.64949586
 20
-35.13645345
 30
0.0
 11
-162.77748228
 21
-35.11322769
 31
0.0
  0
LINE
  5
1A9
100
AcDbEntity
  8
レイヤー_1
  6
CONTINUOUS
 62
       3
100
AcDbLine
 10
-162.77748228
 20
-35.11322769
 30
0.0
 11
-162.90935761
 21
-35.10223739
 31
0.0
  0
LINE
  5
1AA
100
AcDbEntity
  8
レイヤー_1
  6
CONTINUOUS
 62
       3
100
AcDbLine
 10
-162.90935761
 20
-35.10223739
 30
0.0
 11
-162.9541977
 21
-35.10139594
 31
0.0
  0
LINE
  5
1AB
100
AcDbEntity
  8
レイヤー_1
  6
CONTINUOUS
 62
       3
100
AcDbLine
 10
-162.9541977
 20
-35.10139594
 30
0.0
 11
-162.9543796
 21
-35.10139594
 31
0.0
  0
LINE
  5
1AC
100
AcDbEntity
  8
レイヤー_1
  6
CONTINUOUS
 62
       3
100
AcDbLine
 10
-162.9543796
 20
-35.10139594
 30
0.0
 11
-162.95456148
 21
-35.10139594
 31
0.0
  0
LINE
  5
1AD
100
AcDbEntity
  8
レイヤー_1
  6
CONTINUOUS
 62
       3
100
AcDbLine
 10
-162.95456148
 20
-35.10139594
 30
0.0
 11
-162.95474335
 21
-35.10139594
 31
0.0
  0
LINE
  5
1AE
100
AcDbEntity
  8
レイヤー_1
  6
CONTINUOUS
 62
       3
100
AcDbLine
 10
-162.95474335
 20
-35.10139594
 30
0.0
 11
-162.95492523
 21
-35.10139594
 31
0.0
  0
LINE
  5
1AF
100
AcDbEntity
  8
レイヤー_1
  6
CONTINUOUS
 62
       3
100
AcDbLine
 10
-162.95492523
 20
-35.10139594
 30
0.0
 11
-162.9551071
 21
-35.10139594
 31
0.0
  0
LINE
  5
1B0
100
AcDbEntity
  8
レイヤー_1
  6
CONTINUOUS
 62
       3
100
AcDbLine
 10
-162.9551071
 20
-35.10139594
 30
0.0
 11
-162.95528898
 21
-35.10139594
 31
0.0
  0
LINE
  5
1B1
100
AcDbEntity
  8
レイヤー_1
  6
CONTINUOUS
 62
       3
100
AcDbLine
 10
-162.95528898
 20
-35.10139594
 30
0.0
 11
-162.95547088
 21
-35.10139594
 31
0.0
  0
LINE
  5
1B2
100
AcDbEntity
  8
レイヤー_1
  6
CONTINUOUS
 62
       3
100
AcDbLine
 10
-162.95547088
 20
-35.10139594
 30
0.0
 11
-162.95565276
 21
-35.10139594
 31
0.0
  0
LINE
  5
1B3
100
AcDbEntity
  8
レイヤー_1
  6
CONTINUOUS
 62
       3
100
AcDbLine
 10
-162.95565276
 20
-35.10139594
 30
0.0
 11
-162.95583463
 21
-35.10139594
 31
0.0
  0
LINE
  5
1B4
100
AcDbEntity
  8
レイヤー_1
  6
CONTINUOUS
 62
       3
100
AcDbLine
 10
-162.95583463
 20
-35.10139594
 30
0.0
 11
-162.95601651
 21
-35.10139594
 31
0.0
  0
LINE
  5
1B5
100
AcDbEntity
  8
レイヤー_1
  6
CONTINUOUS
 62
       3
100
AcDbLine
 10
-162.95601651
 20
-35.10139594
 30
0.0
 11
-162.95619838
 21
-35.10139594
 31
0.0
  0
LINE
  5
1B6
100
AcDbEntity
  8
レイヤー_1
  6
CONTINUOUS
 62
       3
100
AcDbLine
 10
-162.95619838
 20
-35.10139594
 30
0.0
 11
-162.95638026
 21
-35.10139594
 31
0.0
  0
LINE
  5
1B7
100
AcDbEntity
  8
レイヤー_1
  6
CONTINUOUS
 62
       3
100
AcDbLine
 10
-162.95638026
 20
-35.10139594
 30
0.0
 11
-162.95656216
 21
-35.10139594
 31
0.0
  0
LINE
  5
1B8
100
AcDbEntity
  8
レイヤー_1
  6
CONTINUOUS
 62
       3
100
AcDbLine
 10
-162.95656216
 20
-35.10139594
 30
0.0
 11
-162.95674404
 21
-35.10139594
 31
0.0
  0
LINE
  5
1B9
100
AcDbEntity
  8
レイヤー_1
  6
CONTINUOUS
 62
       3
100
AcDbLine
 10
-162.95674404
 20
-35.10139594
 30
0.0
 11
-162.95692591
 21
-35.10139594
 31
0.0
  0
LINE
  5
1BA
100
AcDbEntity
  8
レイヤー_1
  6
CONTINUOUS
 62
       3
100
AcDbLine
 10
-162.95692591
 20
-35.10139594
 30
0.0
 11
-162.95710779
 21
-35.10139594
 31
0.0
  0
LINE
  5
1BB
100
AcDbEntity
  8
レイヤー_1
  6
CONTINUOUS
 62
       3
100
AcDbLine
 10
-162.95710779
 20
-37.81191868
 30
0.0
 11
-168.15433938
 21
-37.81191868
 31
0.0
  0
LINE
  5
1BC
100
AcDbEntity
  8
レイヤー_1
  6
CONTINUOUS
 62
       3
100
AcDbLine
 10
-188.1914936
 20
-29.02760199
 30
0.0
 11
-188.17040692
 21
-29.43565561
 31
0.0
  0
LINE
  5
1BD
100
AcDbEntity
  8
レイヤー_1
  6
CONTINUOUS
 62
       3
100
AcDbLine
 10
-188.17040692
 20
-29.43565561
 30
0.0
 11
-188.10854757
 21
-29.83156333
 31
0.0
  0
LINE
  5
1BE
100
AcDbEntity
  8
レイヤー_1
  6
CONTINUOUS
 62
       3
100
AcDbLine
 10
-188.10854757
 20
-29.83156333
 30
0.0
 11
-188.00801662
 21
-30.21322412
 31
0.0
  0
LINE
  5
1BF
100
AcDbEntity
  8
レイヤー_1
  6
CONTINUOUS
 62
       3
100
AcDbLine
 10
-188.00801662
 20
-30.21322412
 30
0.0
 11
-187.87091506
 21
-30.57853693
 31
0.0
  0
LINE
  5
1C0
100
AcDbEntity
  8
レイヤー_1
  6
CONTINUOUS
 62
       3
100
AcDbLine
 10
-187.87091506
 20
-30.57853693
 30
0.0
 11
-187.699344
 21
-30.92540069
 31
0.0
  0
LINE
  5
1C1
100
AcDbEntity
  8
レイヤー_1
  6
CONTINUOUS
 62
       3
100
AcDbLine
 10
-187.699344
 20
-30.92540069
 30
0.0
 11
-187.49540448
 21
-31.25171439
 31
0.0
  0
LINE
  5
1C2
100
AcDbEntity
  8
レイヤー_1
  6
CONTINUOUS
 62
       3
100
AcDbLine
 10
-187.49540448
 20
-31.25171439
 30
0.0
 11
-187.26119751
 21
-31.55537695
 31
0.0
  0
LINE
  5
1C3
100
AcDbEntity
  8
レイヤー_1
  6
CONTINUOUS
 62
       3
100
AcDbLine
 10
-187.26119751
 20
-31.55537695
 30
0.0
 11
-186.99882417
 21
-31.83428732
 31
0.0
  0
LINE
  5
1C4
100
AcDbEntity
  8
レイヤー_1
  6
CONTINUOUS
 62
       3
100
AcDbLine
 10
-186.99882417
 20
-31.83428732
 30
0.0
 11
-186.7103855
 21
-32.08634451
 31
0.0
  0
LINE
  5
1C5
100
AcDbEntity
  8
レイヤー_1
  6
CONTINUOUS
 62
       3
100
AcDbLine
 10
-186.7103855
 20
-32.08634451
 30
0.0
 11
-186.39798255
 21
-32.3094474
 31
0.0
  0
LINE
  5
1C6
100
AcDbEntity
  8
レイヤー_1
  6
CONTINUOUS
 62
       3
100
AcDbLine
 10
-186.39798255
 20
-32.3094474
 30
0.0
 11
-186.06371637
 21
-32.50149496
 31
0.0
  0
LINE
  5
1C7
100
AcDbEntity
  8
レイヤー_1
  6
CONTINUOUS
 62
       3
100
AcDbLine
 10
-186.06371637
 20
-32.50149496
 30
0.0
 11
-185.70968799
 21
-32.66038616
 31
0.0
  0
LINE
  5
1C8
100
AcDbEntity
  8
レイヤー_1
  6
CONTINUOUS
 62
       3
100
AcDbLine
 10
-185.70968799
 20
-32.66038616
 30
0.0
 11
-185.33799846
 21
-32.78401997
 31
0.0
  0
LINE
  5
1C9
100
AcDbEntity
  8
レイヤー_1
  6
CONTINUOUS
 62
       3
100
AcDbLine
 10
-185.33799846
 20
-32.78401997
 30
0.0
 11
-184.95074887
 21
-32.87029528
 31
0.0
  0
LINE
  5
1CA
100
AcDbEntity
  8
レイヤー_1
  6
CONTINUOUS
 62
       3
100
AcDbLine
 10
-184.95074887
 20
-32.87029528
 30
0.0
 11
-184.55004021
 21
-32.91711109
 31
0.0
  0
LINE
  5
1CB
100
AcDbEntity
  8
レイヤー_1
  6
CONTINUOUS
 62
       3
100
AcDbLine
 10
-184.55004021
 20
-32.91711109
 30
0.0
 11
-184.15690336
 21
-32.9253994
 31
0.0
  0
LINE
  5
1CC
100
AcDbEntity
  8
レイヤー_1
  6
CONTINUOUS
 62
       3
100
AcDbLine
 10
-184.15690336
 20
-32.9253994
 30
0.0
 11
-182.53433658
 21
-32.9253994
 31
0.0
  0
LINE
  5
1CD
100
AcDbEntity
  8
レイヤー_1
  6
CONTINUOUS
 62
       3
100
AcDbLine
 10
-182.53433658
 20
-32.9253994
 30
0.0
 11
-179.28261254
 21
-32.9253994
 31
0.0
  0
LINE
  5
1CE
100
AcDbEntity
  8
レイヤー_1
  6
CONTINUOUS
 62
       3
100
AcDbLine
 10
-179.28261254
 20
-32.9253994
 30
0.0
 11
-174.65480427
 21
-32.9253994
 31
0.0
  0
LINE
  5
1CF
100
AcDbEntity
  8
レイヤー_1
  6
CONTINUOUS
 62
       3
100
AcDbLine
 10
-174.65480427
 20
-32.9253994
 30
0.0
 11
-168.90398468
 21
-32.9253994
 31
0.0
  0
LINE
  5
1D0
100
AcDbEntity
  8
レイヤー_1
  6
CONTINUOUS
 62
       3
100
AcDbLine
 10
-168.90398468
 20
-32.9253994
 30
0.0
 11
-162.28322678
 21
-32.9253994
 31
0.0
  0
LINE
  5
1D1
100
AcDbEntity
  8
レイヤー_1
  6
CONTINUOUS
 62
       3
100
AcDbLine
 10
-162.28322678
 20
-32.9253994
 30
0.0
 11
-155.0456035
 21
-32.9253994
 31
0.0
  0
LINE
  5
1D2
100
AcDbEntity
  8
レイヤー_1
  6
CONTINUOUS
 62
       3
100
AcDbLine
 10
-155.0456035
 20
-32.9253994
 30
0.0
 11
-147.44418784
 21
-32.9253994
 31
0.0
  0
LINE
  5
1D3
100
AcDbEntity
  8
レイヤー_1
  6
CONTINUOUS
 62
       3
100
AcDbLine
 10
-147.44418784
 20
-32.9253994
 30
0.0
 11
-139.73205276
 21
-32.9253994
 31
0.0
  0
LINE
  5
1D4
100
AcDbEntity
  8
レイヤー_1
  6
CONTINUOUS
 62
       3
100
AcDbLine
 10
-139.73205276
 20
-32.9253994
 30
0.0
 11
-132.16227124
 21
-32.9253994
 31
0.0
  0
LINE
  5
1D5
100
AcDbEntity
  8
レイヤー_1
  6
CONTINUOUS
 62
       3
100
AcDbLine
 10
-132.16227124
 20
-32.9253994
 30
0.0
 11
-124.98791623
 21
-32.9253994
 31
0.0
  0
LINE
  5
1D6
100
AcDbEntity
  8
レイヤー_1
  6
CONTINUOUS
 62
       3
100
AcDbLine
 10
-124.98791623
 20
-32.9253994
 30
0.0
 11
-118.46206068
 21
-32.9253994
 31
0.0
  0
LINE
  5
1D7
100
AcDbEntity
  8
レイヤー_1
  6
CONTINUOUS
 62
       3
100
AcDbLine
 10
-118.46206068
 20
-32.9253994
 30
0.0
 11
-112.83777757
 21
-32.9253994
 31
0.0
  0
LINE
  5
1D8
100
AcDbEntity
  8
レイヤー_1
  6
CONTINUOUS
 62
       3
100
AcDbLine
 10
-112.83777757
 20
-32.9253994
 30
0.0
 11
-108.36813989
 21
-32.9253994
 31
0.0
  0
LINE
  5
1D9
100
AcDbEntity
  8
レイヤー_1
  6
CONTINUOUS
 62
       3
100
AcDbLine
 10
-108.36813989
 20
-32.9253994
 30
0.0
 11
-105.30622061
 21
-32.9253994
 31
0.0
  0
LINE
  5
1DA
100
AcDbEntity
  8
レイヤー_1
  6
CONTINUOUS
 62
       3
100
AcDbLine
 10
-105.30622061
 20
-32.9253994
 30
0.0
 11
-103.90509266
 21
-32.9253994
 31
0.0
  0
LINE
  5
1DB
100
AcDbEntity
  8
レイヤー_1
  6
CONTINUOUS
 62
       3
100
AcDbLine
 10
-103.90509266
 20
-32.9253994
 30
0.0
 11
-103.5368695
 21
-32.9134889
 31
0.0
  0
LINE
  5
1DC
100
AcDbEntity
  8
レイヤー_1
  6
CONTINUOUS
 62
       3
100
AcDbLine
 10
-103.5368695
 20
-32.9134889
 30
0.0
 11
-103.13772832
 21
-32.86162572
 31
0.0
  0
LINE
  5
1DD
100
AcDbEntity
  8
レイヤー_1
  6
CONTINUOUS
 62
       3
100
AcDbLine
 10
-103.13772832
 20
-32.86162572
 30
0.0
 11
-102.75230883
 21
-32.77056569
 31
0.0
  0
LINE
  5
1DE
100
AcDbEntity
  8
レイヤー_1
  6
CONTINUOUS
 62
       3
100
AcDbLine
 10
-102.75230883
 20
-32.77056569
 30
0.0
 11
-102.38271206
 21
-32.64240983
 31
0.0
  0
LINE
  5
1DF
100
AcDbEntity
  8
レイヤー_1
  6
CONTINUOUS
 62
       3
100
AcDbLine
 10
-102.38271206
 20
-32.64240983
 30
0.0
 11
-102.03103905
 21
-32.47925919
 31
0.0
  0
LINE
  5
1E0
100
AcDbEntity
  8
レイヤー_1
  6
CONTINUOUS
 62
       3
100
AcDbLine
 10
-102.03103905
 20
-32.47925919
 30
0.0
 11
-101.69939087
 21
-32.2832148
 31
0.0
  0
LINE
  5
1E1
100
AcDbEntity
  8
レイヤー_1
  6
CONTINUOUS
 62
       3
100
AcDbLine
 10
-101.69939087
 20
-32.2832148
 30
0.0
 11
-101.38986853
 21
-32.05637769
 31
0.0
  0
LINE
  5
1E2
100
AcDbEntity
  8
レイヤー_1
  6
CONTINUOUS
 62
       3
100
AcDbLine
 10
-101.38986853
 20
-32.05637769
 30
0.0
 11
-101.10457313
 21
-31.80084898
 31
0.0
  0
LINE
  5
1E3
100
AcDbEntity
  8
レイヤー_1
  6
CONTINUOUS
 62
       3
100
AcDbLine
 10
-101.10457313
 20
-31.80084898
 30
0.0
 11
-100.84560569
 21
-31.51872967
 31
0.0
  0
LINE
  5
1E4
100
AcDbEntity
  8
レイヤー_1
  6
CONTINUOUS
 62
       3
100
AcDbLine
 10
-100.84560569
 20
-31.51872967
 30
0.0
 11
-100.61506725
 21
-31.21212083
 31
0.0
  0
LINE
  5
1E5
100
AcDbEntity
  8
レイヤー_1
  6
CONTINUOUS
 62
       3
100
AcDbLine
 10
-100.61506725
 20
-31.21212083
 30
0.0
 11
-100.41505888
 21
-30.88312346
 31
0.0
  0
LINE
  5
1E6
100
AcDbEntity
  8
レイヤー_1
  6
CONTINUOUS
 62
       3
100
AcDbLine
 10
-100.41505888
 20
-30.88312346
 30
0.0
 11
-100.24768161
 21
-30.53383868
 31
0.0
  0
LINE
  5
1E7
100
AcDbEntity
  8
レイヤー_1
  6
CONTINUOUS
 62
       3
100
AcDbLine
 10
-100.24768161
 20
-30.53383868
 30
0.0
 11
-100.11503651
 21
-30.16636745
 31
0.0
  0
LINE
  5
1E8
100
AcDbEntity
  8
レイヤー_1
  6
CONTINUOUS
 62
       3
100
AcDbLine
 10
-100.11503651
 20
-30.16636745
 30
0.0
 11
-100.01922458
 21
-29.78281092
 31
0.0
  0
LINE
  5
1E9
100
AcDbEntity
  8
レイヤー_1
  6
CONTINUOUS
 62
       3
100
AcDbLine
 10
-100.01922458
 20
-29.78281092
 30
0.0
 11
-99.96234693
 21
-29.38527004
 31
0.0
  0
LINE
  5
1EA
100
AcDbEntity
  8
レイヤー_1
  6
CONTINUOUS
 62
       3
100
AcDbLine
 10
-99.96234693
 20
-29.38527004
 30
0.0
 11
-99.94616891
 21
-29.01439545
 31
0.0
  0
LINE
  5
1EB
100
AcDbEntity
  8
レイヤー_1
  6
CONTINUOUS
 62
       3
100
AcDbLine
 10
-99.94616891
 20
-29.01439545
 30
0.0
 11
-99.94616891
 21
-28.00375788
 31
0.0
  0
LINE
  5
1EC
100
AcDbEntity
  8
レイヤー_1
  6
CONTINUOUS
 62
       3
100
AcDbLine
 10
-99.94616891
 20
-28.00375788
 30
0.0
 11
-99.94616891
 21
-25.5383461
 31
0.0
  0
LINE
  5
1ED
100
AcDbEntity
  8
レイヤー_1
  6
CONTINUOUS
 62
       3
100
AcDbLine
 10
-99.94616891
 20
-25.5383461
 30
0.0
 11
-99.94616891
 21
-21.83569645
 31
0.0
  0
LINE
  5
1EE
100
AcDbEntity
  8
レイヤー_1
  6
CONTINUOUS
 62
       3
100
AcDbLine
 10
-99.94616891
 20
-21.83569645
 30
0.0
 11
-99.94616891
 21
-17.11334522
 31
0.0
  0
LINE
  5
1EF
100
AcDbEntity
  8
レイヤー_1
  6
CONTINUOUS
 62
       3
100
AcDbLine
 10
-99.94616891
 20
-17.11334522
 30
0.0
 11
-99.94616891
 21
-11.58882875
 31
0.0
  0
LINE
  5
1F0
100
AcDbEntity
  8
レイヤー_1
  6
CONTINUOUS
 62
       3
100
AcDbLine
 10
-99.94616891
 20
-11.58882875
 30
0.0
 11
-99.94616891
 21
-5.4796834
 31
0.0
  0
LINE
  5
1F1
100
AcDbEntity
  8
レイヤー_1
  6
CONTINUOUS
 62
       3
100
AcDbLine
 10
-99.94616891
 20
-5.4796834
 30
0.0
 11
-99.94616891
 21
0.99655453
 31
0.0
  0
LINE
  5
1F2
100
AcDbEntity
  8
レイヤー_1
  6
CONTINUOUS
 62
       3
100
AcDbLine
 10
-99.94616891
 20
0.99655453
 30
0.0
 11
-99.94616891
 21
7.62234868
 31
0.0
  0
LINE
  5
1F3
100
AcDbEntity
  8
レイヤー_1
  6
CONTINUOUS
 62
       3
100
AcDbLine
 10
-99.94616891
 20
7.62234868
 30
0.0
 11
-99.94616891
 21
14.18016272
 31
0.0
  0
LINE
  5
1F4
100
AcDbEntity
  8
レイヤー_1
  6
CONTINUOUS
 62
       3
100
AcDbLine
 10
-99.94616891
 20
14.18016272
 30
0.0
 11
-99.94616891
 21
20.45246033
 31
0.0
  0
LINE
  5
1F5
100
AcDbEntity
  8
レイヤー_1
  6
CONTINUOUS
 62
       3
100
AcDbLine
 10
-99.94616891
 20
20.45246033
 30
0.0
 11
-99.94616891
 21
26.22170517
 31
0.0
  0
LINE
  5
1F6
100
AcDbEntity
  8
レイヤー_1
  6
CONTINUOUS
 62
       3
100
AcDbLine
 10
-99.94616891
 20
26.22170517
 30
0.0
 11
-99.94616891
 21
31.2703609
 31
0.0
  0
LINE
  5
1F7
100
AcDbEntity
  8
レイヤー_1
  6
CONTINUOUS
 62
       3
100
AcDbLine
 10
-99.94616891
 20
31.2703609
 30
0.0
 11
-99.94616891
 21
35.38089121
 31
0.0
  0
LINE
  5
1F8
100
AcDbEntity
  8
レイヤー_1
  6
CONTINUOUS
 62
       3
100
AcDbLine
 10
-99.94616891
 20
35.38089121
 30
0.0
 11
-99.94616891
 21
38.33575975
 31
0.0
  0
LINE
  5
1F9
100
AcDbEntity
  8
レイヤー_1
  6
CONTINUOUS
 62
       3
100
AcDbLine
 10
-99.94616891
 20
38.33575975
 30
0.0
 11
-99.94616891
 21
39.91743015
 31
0.0
  0
LINE
  5
1FA
100
AcDbEntity
  8
レイヤー_1
  6
CONTINUOUS
 62
       3
100
AcDbLine
 10
-99.94616891
 20
39.91743015
 30
0.0
 11
-99.95148436
 21
40.33074666
 31
0.0
  0
LINE
  5
1FB
100
AcDbEntity
  8
レイヤー_1
  6
CONTINUOUS
 62
       3
100
AcDbLine
 10
-99.95148436
 20
40.33074666
 30
0.0
 11
-99.99322001
 21
40.73296685
 31
0.0
  0
LINE
  5
1FC
100
AcDbEntity
  8
レイヤー_1
  6
CONTINUOUS
 62
       3
100
AcDbLine
 10
-99.99322001
 20
40.73296685
 30
0.0
 11
-100.07467778
 21
41.12197058
 31
0.0
  0
LINE
  5
1FD
100
AcDbEntity
  8
レイヤー_1
  6
CONTINUOUS
 62
       3
100
AcDbLine
 10
-100.07467778
 20
41.12197058
 30
0.0
 11
-100.19375667
 21
41.49565994
 31
0.0
  0
LINE
  5
1FE
100
AcDbEntity
  8
レイヤー_1
  6
CONTINUOUS
 62
       3
100
AcDbLine
 10
-100.19375667
 20
41.49565994
 30
0.0
 11
-100.3483556
 21
41.85193708
 31
0.0
  0
LINE
  5
1FF
100
AcDbEntity
  8
レイヤー_1
  6
CONTINUOUS
 62
       3
100
AcDbLine
 10
-100.3483556
 20
41.85193708
 30
0.0
 11
-100.53637354
 21
42.18870414
 31
0.0
  0
LINE
  5
200
100
AcDbEntity
  8
レイヤー_1
  6
CONTINUOUS
 62
       3
100
AcDbLine
 10
-100.53637354
 20
42.18870414
 30
0.0
 11
-100.75570941
 21
42.50386326
 31
0.0
  0
LINE
  5
201
100
AcDbEntity
  8
レイヤー_1
  6
CONTINUOUS
 62
       3
100
AcDbLine
 10
-100.75570941
 20
42.50386326
 30
0.0
 11
-101.00426218
 21
42.79531653
 31
0.0
  0
LINE
  5
202
100
AcDbEntity
  8
レイヤー_1
  6
CONTINUOUS
 62
       3
100
AcDbLine
 10
-101.00426218
 20
42.79531653
 30
0.0
 11
-101.27993084
 21
43.06096614
 31
0.0
  0
LINE
  5
203
100
AcDbEntity
  8
レイヤー_1
  6
CONTINUOUS
 62
       3
100
AcDbLine
 10
-101.27993084
 20
43.06096614
 30
0.0
 11
-101.58061428
 21
43.29871415
 31
0.0
  0
LINE
  5
204
100
AcDbEntity
  8
レイヤー_1
  6
CONTINUOUS
 62
       3
100
AcDbLine
 10
-101.58061428
 20
43.29871415
 30
0.0
 11
-101.90421147
 21
43.50646277
 31
0.0
  0
LINE
  5
205
100
AcDbEntity
  8
レイヤー_1
  6
CONTINUOUS
 62
       3
100
AcDbLine
 10
-101.90421147
 20
43.50646277
 30
0.0
 11
-102.2486214
 21
43.68211407
 31
0.0
  0
LINE
  5
206
100
AcDbEntity
  8
レイヤー_1
  6
CONTINUOUS
 62
       3
100
AcDbLine
 10
-102.2486214
 20
43.68211407
 30
0.0
 11
-102.61174296
 21
43.82357019
 31
0.0
  0
LINE
  5
207
100
AcDbEntity
  8
レイヤー_1
  6
CONTINUOUS
 62
       3
100
AcDbLine
 10
-102.61174296
 20
43.82357019
 30
0.0
 11
-102.99147516
 21
43.92873326
 31
0.0
  0
LINE
  5
208
100
AcDbEntity
  8
レイヤー_1
  6
CONTINUOUS
 62
       3
100
AcDbLine
 10
-102.99147516
 20
43.92873326
 30
0.0
 11
-103.3857169
 21
43.99550544
 31
0.0
  0
LINE
  5
209
100
AcDbEntity
  8
レイヤー_1
  6
CONTINUOUS
 62
       3
100
AcDbLine
 10
-103.3857169
 20
43.99550544
 30
0.0
 11
-103.7923672
 21
44.02178884
 31
0.0
  0
LINE
  5
20A
100
AcDbEntity
  8
レイヤー_1
  6
CONTINUOUS
 62
       3
100
AcDbLine
 10
-103.7923672
 20
44.02178884
 30
0.0
 11
-104.57258084
 21
44.02212291
 31
0.0
  0
LINE
  5
20B
100
AcDbEntity
  8
レイヤー_1
  6
CONTINUOUS
 62
       3
100
AcDbLine
 10
-104.57258084
 20
44.02212291
 30
0.0
 11
-107.04136038
 21
44.02212291
 31
0.0
  0
LINE
  5
20C
100
AcDbEntity
  8
レイヤー_1
  6
CONTINUOUS
 62
       3
100
AcDbLine
 10
-107.04136038
 20
44.02212291
 30
0.0
 11
-111.01276064
 21
44.02212291
 31
0.0
  0
LINE
  5
20D
100
AcDbEntity
  8
レイヤー_1
  6
CONTINUOUS
 62
       3
100
AcDbLine
 10
-111.01276064
 20
44.02212291
 30
0.0
 11
-116.23370871
 21
44.02212291
 31
0.0
  0
LINE
  5
20E
100
AcDbEntity
  8
レイヤー_1
  6
CONTINUOUS
 62
       3
100
AcDbLine
 10
-116.23370871
 20
44.02212291
 30
0.0
 11
-122.45113156
 21
44.02212291
 31
0.0
  0
LINE
  5
20F
100
AcDbEntity
  8
レイヤー_1
  6
CONTINUOUS
 62
       3
100
AcDbLine
 10
-122.45113156
 20
44.02212291
 30
0.0
 11
-129.41195628
 21
44.02212291
 31
0.0
  0
LINE
  5
210
100
AcDbEntity
  8
レイヤー_1
  6
CONTINUOUS
 62
       3
100
AcDbLine
 10
-129.41195628
 20
44.02212291
 30
0.0
 11
-136.86310986
 21
44.02212291
 31
0.0
  0
LINE
  5
211
100
AcDbEntity
  8
レイヤー_1
  6
CONTINUOUS
 62
       3
100
AcDbLine
 10
-136.86310986
 20
44.02212291
 30
0.0
 11
-144.55151935
 21
44.02212291
 31
0.0
  0
LINE
  5
212
100
AcDbEntity
  8
レイヤー_1
  6
CONTINUOUS
 62
       3
100
AcDbLine
 10
-144.55151935
 20
44.02212291
 30
0.0
 11
-152.22411176
 21
44.02212291
 31
0.0
  0
LINE
  5
213
100
AcDbEntity
  8
レイヤー_1
  6
CONTINUOUS
 62
       3
100
AcDbLine
 10
-152.22411176
 20
44.02212291
 30
0.0
 11
-159.62781418
 21
44.02212291
 31
0.0
  0
LINE
  5
214
100
AcDbEntity
  8
レイヤー_1
  6
CONTINUOUS
 62
       3
100
AcDbLine
 10
-159.62781418
 20
44.02212291
 30
0.0
 11
-166.50955358
 21
44.02212291
 31
0.0
  0
LINE
  5
215
100
AcDbEntity
  8
レイヤー_1
  6
CONTINUOUS
 62
       3
100
AcDbLine
 10
-166.50955358
 20
44.02212291
 30
0.0
 11
-172.61625703
 21
44.02212291
 31
0.0
  0
LINE
  5
216
100
AcDbEntity
  8
レイヤー_1
  6
CONTINUOUS
 62
       3
100
AcDbLine
 10
-172.61625703
 20
44.02212291
 30
0.0
 11
-177.69485153
 21
44.02212291
 31
0.0
  0
LINE
  5
217
100
AcDbEntity
  8
レイヤー_1
  6
CONTINUOUS
 62
       3
100
AcDbLine
 10
-177.69485153
 20
44.02212291
 30
0.0
 11
-181.49226414
 21
44.02212291
 31
0.0
  0
LINE
  5
218
100
AcDbEntity
  8
レイヤー_1
  6
CONTINUOUS
 62
       3
100
AcDbLine
 10
-181.49226414
 20
44.02212291
 30
0.0
 11
-183.75542188
 21
44.02212291
 31
0.0
  0
LINE
  5
219
100
AcDbEntity
  8
レイヤー_1
  6
CONTINUOUS
 62
       3
100
AcDbLine
 10
-183.75542188
 20
44.02212291
 30
0.0
 11
-184.39673339
 21
44.02078937
 31
0.0
  0
LINE
  5
21A
100
AcDbEntity
  8
レイヤー_1
  6
CONTINUOUS
 62
       3
100
AcDbLine
 10
-184.39673339
 20
44.02078937
 30
0.0
 11
-184.80194752
 21
43.98933013
 31
0.0
  0
LINE
  5
21B
100
AcDbEntity
  8
レイヤー_1
  6
CONTINUOUS
 62
       3
100
AcDbLine
 10
-184.80194752
 20
43.98933013
 30
0.0
 11
-185.19449047
 21
43.91764438
 31
0.0
  0
LINE
  5
21C
100
AcDbEntity
  8
レイヤー_1
  6
CONTINUOUS
 62
       3
100
AcDbLine
 10
-185.19449047
 20
43.91764438
 30
0.0
 11
-185.57226125
 21
43.80782993
 31
0.0
  0
LINE
  5
21D
100
AcDbEntity
  8
レイヤー_1
  6
CONTINUOUS
 62
       3
100
AcDbLine
 10
-185.57226125
 20
43.80782993
 30
0.0
 11
-185.93315875
 21
43.66198468
 31
0.0
  0
LINE
  5
21E
100
AcDbEntity
  8
レイヤー_1
  6
CONTINUOUS
 62
       3
100
AcDbLine
 10
-185.93315875
 20
43.66198468
 30
0.0
 11
-186.27508199
 21
43.48220648
 31
0.0
  0
LINE
  5
21F
100
AcDbEntity
  8
レイヤー_1
  6
CONTINUOUS
 62
       3
100
AcDbLine
 10
-186.27508199
 20
43.48220648
 30
0.0
 11
-186.59592987
 21
43.27059322
 31
0.0
  0
LINE
  5
220
100
AcDbEntity
  8
レイヤー_1
  6
CONTINUOUS
 62
       3
100
AcDbLine
 10
-186.59592987
 20
43.27059322
 30
0.0
 11
-186.89360136
 21
43.02924278
 31
0.0
  0
LINE
  5
221
100
AcDbEntity
  8
レイヤー_1
  6
CONTINUOUS
 62
       3
100
AcDbLine
 10
-186.89360136
 20
43.02924278
 30
0.0
 11
-187.16599541
 21
42.76025298
 31
0.0
  0
LINE
  5
222
100
AcDbEntity
  8
レイヤー_1
  6
CONTINUOUS
 62
       3
100
AcDbLine
 10
-187.16599541
 20
42.76025298
 30
0.0
 11
-187.41101098
 21
42.46572177
 31
0.0
  0
LINE
  5
223
100
AcDbEntity
  8
レイヤー_1
  6
CONTINUOUS
 62
       3
100
AcDbLine
 10
-187.41101098
 20
42.46572177
 30
0.0
 11
-187.62654703
 21
42.14774694
 31
0.0
  0
LINE
  5
224
100
AcDbEntity
  8
レイヤー_1
  6
CONTINUOUS
 62
       3
100
AcDbLine
 10
-187.62654703
 20
42.14774694
 30
0.0
 11
-187.81050248
 21
41.80842638
 31
0.0
  0
LINE
  5
225
100
AcDbEntity
  8
レイヤー_1
  6
CONTINUOUS
 62
       3
100
AcDbLine
 10
-187.81050248
 20
41.80842638
 30
0.0
 11
-187.96077629
 21
41.44985798
 31
0.0
  0
LINE
  5
226
100
AcDbEntity
  8
レイヤー_1
  6
CONTINUOUS
 62
       3
100
AcDbLine
 10
-187.96077629
 20
41.44985798
 30
0.0
 11
-188.07526744
 21
41.07413959
 31
0.0
  0
LINE
  5
227
100
AcDbEntity
  8
レイヤー_1
  6
CONTINUOUS
 62
       3
100
AcDbLine
 10
-188.07526744
 20
41.07413959
 30
0.0
 11
-188.15187487
 21
40.68336908
 31
0.0
  0
LINE
  5
228
100
AcDbEntity
  8
レイヤー_1
  6
CONTINUOUS
 62
       3
100
AcDbLine
 10
-188.15187487
 20
40.68336908
 30
0.0
 11
-188.18849751
 21
40.27964433
 31
0.0
  0
LINE
  5
229
100
AcDbEntity
  8
レイヤー_1
  6
CONTINUOUS
 62
       3
100
AcDbLine
 10
-188.18849751
 20
40.27964433
 30
0.0
 11
-188.1914936
 21
39.80225344
 31
0.0
  0
LINE
  5
22A
100
AcDbEntity
  8
レイヤー_1
  6
CONTINUOUS
 62
       3
100
AcDbLine
 10
-188.1914936
 20
39.80225344
 30
0.0
 11
-188.1914936
 21
38.03703675
 31
0.0
  0
LINE
  5
22B
100
AcDbEntity
  8
レイヤー_1
  6
CONTINUOUS
 62
       3
100
AcDbLine
 10
-188.1914936
 20
38.03703675
 30
0.0
 11
-188.1914936
 21
34.92581397
 31
0.0
  0
LINE
  5
22C
100
AcDbEntity
  8
レイヤー_1
  6
CONTINUOUS
 62
       3
100
AcDbLine
 10
-188.1914936
 20
34.92581397
 30
0.0
 11
-188.1914936
 21
30.6861215
 31
0.0
  0
LINE
  5
22D
100
AcDbEntity
  8
レイヤー_1
  6
CONTINUOUS
 62
       3
100
AcDbLine
 10
-188.1914936
 20
30.6861215
 30
0.0
 11
-188.1914936
 21
25.5354956
 31
0.0
  0
LINE
  5
22E
100
AcDbEntity
  8
レイヤー_1
  6
CONTINUOUS
 62
       3
100
AcDbLine
 10
-188.1914936
 20
25.5354956
 30
0.0
 11
-188.1914936
 21
19.69147265
 31
0.0
  0
LINE
  5
22F
100
AcDbEntity
  8
レイヤー_1
  6
CONTINUOUS
 62
       3
100
AcDbLine
 10
-188.1914936
 20
19.69147265
 30
0.0
 11
-188.1914936
 21
13.37158897
 31
0.0
  0
LINE
  5
230
100
AcDbEntity
  8
レイヤー_1
  6
CONTINUOUS
 62
       3
100
AcDbLine
 10
-188.1914936
 20
13.37158897
 30
0.0
 11
-188.1914936
 21
6.7933809
 31
0.0
  0
LINE
  5
231
100
AcDbEntity
  8
レイヤー_1
  6
CONTINUOUS
 62
       3
100
AcDbLine
 10
-188.1914936
 20
6.7933809
 30
0.0
 11
-188.1914936
 21
0.17438474
 31
0.0
  0
LINE
  5
232
100
AcDbEntity
  8
レイヤー_1
  6
CONTINUOUS
 62
       3
100
AcDbLine
 10
-188.1914936
 20
0.17438474
 30
0.0
 11
-188.1914936
 21
-6.26786312
 31
0.0
  0
LINE
  5
233
100
AcDbEntity
  8
レイヤー_1
  6
CONTINUOUS
 62
       3
100
AcDbLine
 10
-188.1914936
 20
-6.26786312
 30
0.0
 11
-188.1914936
 21
-12.31582638
 31
0.0
  0
LINE
  5
234
100
AcDbEntity
  8
レイヤー_1
  6
CONTINUOUS
 62
       3
100
AcDbLine
 10
-188.1914936
 20
-12.31582638
 30
0.0
 11
-188.1914936
 21
-17.75196872
 31
0.0
  0
LINE
  5
235
100
AcDbEntity
  8
レイヤー_1
  6
CONTINUOUS
 62
       3
100
AcDbLine
 10
-188.1914936
 20
-17.75196872
 30
0.0
 11
-188.1914936
 21
-22.35875377
 31
0.0
  0
LINE
  5
236
100
AcDbEntity
  8
レイヤー_1
  6
CONTINUOUS
 62
       3
100
AcDbLine
 10
-188.1914936
 20
-22.35875377
 30
0.0
 11
-188.1914936
 21
-25.91864521
 31
0.0
  0
LINE
  5
237
100
AcDbEntity
  8
レイヤー_1
  6
CONTINUOUS
 62
       3
100
AcDbLine
 10
-188.1914936
 20
-25.91864521
 30
0.0
 11
-188.1914936
 21
-28.21410675
 31
0.0
  0
LINE
  5
238
100
AcDbEntity
  8
レイヤー_1
  6
CONTINUOUS
 62
       3
100
AcDbLine
 10
-188.1914936
 20
-28.21410675
 30
0.0
 11
-188.1914936
 21
-29.02760199
 31
0.0
  0
LINE
  5
239
100
AcDbEntity
  8
レイヤー_1
  6
CONTINUOUS
 62
       3
100
AcDbLine
 10
-34.03170078
 20
-45.88288539
 30
0.0
 11
-34.03170078
 21
45.62163451
 31
0.0
  0
LINE
  5
23A
100
AcDbEntity
  8
レイヤー_1
  6
CONTINUOUS
 62
       3
100
AcDbLine
 10
-112.88796777
 20
-49.06526141
 30
0.0
 11
-175.24918954
 21
-49.06526141
 31
0.0
  0
LINE
  5
23B
100
AcDbEntity
  8
レイヤー_1
  6
CONTINUOUS
 62
       3
100
AcDbLine
 10
-0.73851009
 20
-47.81634954
 30
0.0
 11
-2.23700226
 21
-47.81634954
 31
0.0
  0
LINE
  5
23C
100
AcDbEntity
  8
レイヤー_1
  6
CONTINUOUS
 62
       3
100
AcDbLine
 10
-0.73851009
 20
-47.81634954
 30
0.0
 11
24.74596125
 21
-47.81634954
 31
0.0
  0
LINE
  5
23D
100
AcDbEntity
  8
レイヤー_1
  6
CONTINUOUS
 62
       3
100
AcDbLine
 10
24.74596125
 20
-45.81768634
 30
0.0
 11
24.74596125
 21
-42.8201968
 31
0.0
  0
LINE
  5
23E
100
AcDbEntity
  8
レイヤー_1
  6
CONTINUOUS
 62
       3
100
AcDbLine
 10
24.74596125
 20
-42.8201968
 30
0.0
 11
-0.73851009
 21
-42.8201968
 31
0.0
  0
LINE
  5
23F
100
AcDbEntity
  8
レイヤー_1
  6
CONTINUOUS
 62
       3
100
AcDbLine
 10
-0.73851009
 20
-47.81634954
 30
0.0
 11
-0.73851009
 21
-42.8201968
 31
0.0
  0
LINE
  5
240
100
AcDbEntity
  8
レイヤー_1
  6
CONTINUOUS
 62
       3
100
AcDbLine
 10
-2.23700226
 20
-45.81768634
 30
0.0
 11
-12.23031818
 21
-45.81768634
 31
0.0
  0
LINE
  5
241
100
AcDbEntity
  8
レイヤー_1
  6
CONTINUOUS
 62
       3
100
AcDbLine
 10
-12.23031818
 20
-50.81535477
 30
0.0
 11
-12.23031818
 21
-45.81768634
 31
0.0
  0
LINE
  5
242
100
AcDbEntity
  8
レイヤー_1
  6
CONTINUOUS
 62
       3
100
AcDbLine
 10
-2.23700226
 20
-50.81535477
 30
0.0
 11
-2.23700226
 21
-45.81768634
 31
0.0
  0
LINE
  5
243
100
AcDbEntity
  8
レイヤー_1
  6
CONTINUOUS
 62
       3
100
AcDbLine
 10
-16.87028855
 20
-45.81768634
 30
0.0
 11
-18.07373033
 21
-45.81768634
 31
0.0
  0
LINE
  5
244
100
AcDbEntity
  8
レイヤー_1
  6
CONTINUOUS
 62
       3
100
AcDbLine
 10
-21.04141173
 20
-45.81768634
 30
0.0
 11
-22.759676
 21
-45.81768634
 31
0.0
  0
LINE
  5
245
100
AcDbEntity
  8
レイヤー_1
  6
CONTINUOUS
 62
       3
100
AcDbLine
 10
-21.04141173
 20
-45.81768634
 30
0.0
 11
-18.07373033
 21
-45.81768634
 31
0.0
  0
LINE
  5
246
100
AcDbEntity
  8
レイヤー_1
  6
CONTINUOUS
 62
       3
100
AcDbLine
 10
39.92185733
 20
-44.31818373
 30
0.0
 11
39.92185733
 21
-45.319031
 31
0.0
  0
LINE
  5
247
100
AcDbEntity
  8
レイヤー_1
  6
CONTINUOUS
 62
       3
100
AcDbLine
 10
40.92043325
 20
45.62164646
 30
0.0
 11
40.91377126
 21
-45.81802308
 31
0.0
  0
LINE
  5
248
100
AcDbEntity
  8
レイヤー_1
  6
CONTINUOUS
 62
       3
100
AcDbLine
 10
-43.52738303
 20
55.0
 30
0.0
 11
-43.52738303
 21
-55.0
 31
0.0
  0
LINE
  5
249
100
AcDbEntity
  8
レイヤー_1
  6
CONTINUOUS
 62
       3
100
AcDbLine
 10
-44.52671464
 20
55.0
 30
0.0
 11
-44.52671464
 21
-55.0
 31
0.0
  0
LINE
  5
24A
100
AcDbEntity
  8
レイヤー_1
  6
CONTINUOUS
 62
       3
100
AcDbLine
 10
23.05447379
 20
-50.51424172
 30
0.0
 11
26.24546387
 21
-50.51424172
 31
0.0
  0
LINE
  5
24B
100
AcDbEntity
  8
レイヤー_1
  6
CONTINUOUS
 62
       3
100
AcDbLine
 10
26.24546387
 20
-50.51424172
 30
0.0
 11
26.24546387
 21
-49.01574956
 31
0.0
  0
LINE
  5
24C
100
AcDbEntity
  8
レイヤー_1
  6
CONTINUOUS
 62
       3
100
AcDbLine
 10
26.24546387
 20
-49.01574956
 30
0.0
 11
24.52467347
 21
-48.94653395
 31
0.0
  0
LINE
  5
24D
100
AcDbEntity
  8
レイヤー_1
  6
CONTINUOUS
 62
       3
100
AcDbLine
 10
-5.37140732
 20
47.6218386
 30
0.0
 11
-3.87291515
 21
47.6218386
 31
0.0
  0
LINE
  5
24E
100
AcDbEntity
  8
レイヤー_1
  6
CONTINUOUS
 62
       3
100
AcDbLine
 10
21.61357709
 20
45.62165975
 30
0.0
 11
21.61357709
 21
42.62417017
 31
0.0
  0
LINE
  5
24F
100
AcDbEntity
  8
レイヤー_1
  6
CONTINUOUS
 62
       3
100
AcDbLine
 10
-3.87291515
 20
47.6218386
 30
0.0
 11
21.61357709
 21
47.6218386
 31
0.0
  0
LINE
  5
250
100
AcDbEntity
  8
レイヤー_1
  6
CONTINUOUS
 62
       3
100
AcDbLine
 10
-3.87291515
 20
47.6218386
 30
0.0
 11
-3.87291515
 21
42.62417017
 31
0.0
  0
LINE
  5
251
100
AcDbEntity
  8
レイヤー_1
  6
CONTINUOUS
 62
       3
100
AcDbLine
 10
21.61357709
 20
42.62417017
 30
0.0
 11
-3.87291515
 21
42.62417017
 31
0.0
  0
LINE
  5
252
100
AcDbEntity
  8
レイヤー_1
  6
CONTINUOUS
 62
       3
100
AcDbLine
 10
-15.36472325
 20
45.62163451
 30
0.0
 11
-5.37140732
 21
45.62163451
 31
0.0
  0
LINE
  5
253
100
AcDbEntity
  8
レイヤー_1
  6
CONTINUOUS
 62
       3
100
AcDbLine
 10
-5.37140732
 20
50.61930293
 30
0.0
 11
-5.37140732
 21
45.62163451
 31
0.0
  0
LINE
  5
254
100
AcDbEntity
  8
レイヤー_1
  6
CONTINUOUS
 62
       3
100
AcDbLine
 10
-15.36472325
 20
50.61930293
 30
0.0
 11
-15.36472325
 21
45.62163451
 31
0.0
  0
LINE
  5
255
100
AcDbEntity
  8
レイヤー_1
  6
CONTINUOUS
 62
       3
100
AcDbLine
 10
-21.20763018
 20
45.62163451
 30
0.0
 11
-20.00469361
 21
45.62163451
 31
0.0
  0
LINE
  5
256
100
AcDbEntity
  8
レイヤー_1
  6
CONTINUOUS
 62
       3
100
AcDbLine
 10
-25.89408106
 20
45.62163451
 30
0.0
 11
-24.17531156
 21
45.62163451
 31
0.0
  0
LINE
  5
257
100
AcDbEntity
  8
レイヤー_1
  6
CONTINUOUS
 62
       3
100
AcDbLine
 10
-21.20763018
 20
45.62163451
 30
0.0
 11
-24.17531156
 21
45.62163451
 31
0.0
  0
LINE
  5
258
100
AcDbEntity
  8
レイヤー_1
  6
CONTINUOUS
 62
       3
100
AcDbLine
 10
19.92006872
 20
50.31922555
 30
0.0
 11
23.11105881
 21
50.31922555
 31
0.0
  0
LINE
  5
259
100
AcDbEntity
  8
レイヤー_1
  6
CONTINUOUS
 62
       3
100
AcDbLine
 10
23.11105881
 20
50.31922555
 30
0.0
 11
23.11105881
 21
48.82022817
 31
0.0
  0
LINE
  5
25A
100
AcDbEntity
  8
レイヤー_1
  6
CONTINUOUS
 62
       3
100
AcDbLine
 10
23.11105881
 20
48.82022817
 30
0.0
 11
21.39026841
 21
48.75252825
 31
0.0
  0
LINE
  5
25B
100
AcDbEntity
  8
レイヤー_1
  6
CONTINUOUS
 62
       3
100
AcDbLine
 10
-16.04374331
 20
45.62163451
 30
0.0
 11
-16.04374331
 21
41.62481335
 31
0.0
  0
LINE
  5
25C
100
AcDbEntity
  8
レイヤー_1
  6
CONTINUOUS
 62
       3
100
AcDbLine
 10
-16.04374331
 20
41.62481335
 30
0.0
 11
-34.031712
 21
41.62481335
 31
0.0
  0
LINE
  5
25D
100
AcDbEntity
  8
レイヤー_1
  6
CONTINUOUS
 62
       3
100
AcDbLine
 10
-14.0445749
 20
45.62165975
 30
0.0
 11
-14.0445749
 21
41.62483859
 31
0.0
  0
LINE
  5
25E
100
AcDbEntity
  8
レイヤー_1
  6
CONTINUOUS
 62
       3
100
AcDbLine
 10
-14.0445749
 20
41.62483859
 30
0.0
 11
39.92185733
 21
41.62483859
 31
0.0
  0
LINE
  5
25F
100
AcDbEntity
  8
レイヤー_1
  6
CONTINUOUS
 62
       3
100
AcDbLine
 10
-15.36472325
 20
45.62163451
 30
0.0
 11
-16.04374331
 21
45.62163451
 31
0.0
  0
LINE
  5
260
100
AcDbEntity
  8
レイヤー_1
  6
CONTINUOUS
 62
       3
100
AcDbLine
 10
-14.0445749
 20
-45.81768634
 30
0.0
 11
-16.04374331
 21
-45.81768634
 31
0.0
  0
LINE
  5
261
100
AcDbEntity
  8
レイヤー_1
  6
CONTINUOUS
 62
       3
100
AcDbLine
 10
-16.04374331
 20
-45.81768634
 30
0.0
 11
-16.04374331
 21
-41.82035997
 31
0.0
  0
LINE
  5
262
100
AcDbEntity
  8
レイヤー_1
  6
CONTINUOUS
 62
       3
100
AcDbLine
 10
-14.0445749
 20
-45.81768634
 30
0.0
 11
-14.0445749
 21
-41.82035997
 31
0.0
  0
LINE
  5
263
100
AcDbEntity
  8
レイヤー_1
  6
CONTINUOUS
 62
       3
100
AcDbLine
 10
-14.0445749
 20
-41.82035997
 30
0.0
 11
39.92185733
 21
-41.82035997
 31
0.0
  0
LINE
  5
264
100
AcDbEntity
  8
レイヤー_1
  6
CONTINUOUS
 62
       3
100
AcDbLine
 10
-16.04374331
 20
-41.82035997
 30
0.0
 11
-34.031712
 21
-41.82035997
 31
0.0
  0
LINE
  5
265
100
AcDbEntity
  8
レイヤー_1
  6
CONTINUOUS
 62
       3
100
AcDbLine
 10
39.92185733
 20
-19.63044948
 30
0.0
 11
-34.031712
 21
-19.63044948
 31
0.0
  0
LINE
  5
266
100
AcDbEntity
  8
レイヤー_1
  6
CONTINUOUS
 62
       3
100
AcDbLine
 10
39.92185733
 20
19.43442289
 30
0.0
 11
-34.031712
 21
19.43442289
 31
0.0
  0
LINE
  5
267
100
AcDbEntity
  8
レイヤー_1
  6
CONTINUOUS
 62
       3
100
AcDbLine
 10
-35.03255927
 20
55.0
 30
0.0
 11
-35.03255927
 21
-55.0
 31
0.0
  0
LINE
  5
268
100
AcDbEntity
  8
レイヤー_1
  6
CONTINUOUS
 62
       3
100
AcDbLine
 10
-2.23700226
 20
-45.81768634
 30
0.0
 11
-0.73851009
 21
-45.81768634
 31
0.0
  0
LINE
  5
269
100
AcDbEntity
  8
レイヤー_1
  6
CONTINUOUS
 62
       3
100
AcDbLine
 10
-14.0445749
 20
-45.81768634
 30
0.0
 11
-12.23031818
 21
-45.81768634
 31
0.0
  0
LINE
  5
26A
100
AcDbEntity
  8
レイヤー_1
  6
CONTINUOUS
 62
       3
100
AcDbLine
 10
38.12225209
 20
-45.81768634
 30
0.0
 11
38.12225209
 21
-44.41872315
 31
0.0
  0
LINE
  5
26B
100
AcDbEntity
  8
レイヤー_1
  6
CONTINUOUS
 62
       3
100
AcDbLine
 10
-5.37140732
 20
45.62163451
 30
0.0
 11
-3.87291515
 21
45.62163451
 31
0.0
  0
LINE
  5
26C
100
AcDbEntity
  8
レイヤー_1
  6
CONTINUOUS
 62
       3
100
AcDbLine
 10
24.74596125
 20
-44.41872315
 30
0.0
 11
38.12225209
 21
-44.41872315
 31
0.0
  0
LINE
  5
26D
100
AcDbEntity
  8
レイヤー_1
  6
CONTINUOUS
 62
       3
100
AcDbLine
 10
-14.0445749
 20
-44.41872315
 30
0.0
 11
-0.73851009
 21
-44.41872315
 31
0.0
  0
LINE
  5
26E
100
AcDbEntity
  8
レイヤー_1
  6
CONTINUOUS
 62
       3
100
AcDbLine
 10
38.12225209
 20
-44.41872315
 30
0.0
 11
39.92185733
 21
-44.31818373
 31
0.0
  0
LINE
  5
26F
100
AcDbEntity
  8
レイヤー_1
  6
CONTINUOUS
 62
       3
100
AcDbLine
 10
21.61357709
 20
44.12367279
 30
0.0
 11
39.92185733
 21
44.12367279
 31
0.0
  0
LINE
  5
270
100
AcDbEntity
  8
レイヤー_1
  6
CONTINUOUS
 62
       3
100
AcDbLine
 10
-14.0445749
 20
44.12367279
 30
0.0
 11
-3.87291515
 21
44.12367279
 31
0.0
  0
LINE
  5
271
100
AcDbEntity
  8
レイヤー_1
  6
CONTINUOUS
 62
       3
100
AcDbLine
 10
39.92185733
 20
44.12367279
 30
0.0
 11
39.92185733
 21
45.12199395
 31
0.0
  0
LINE
  5
272
100
AcDbEntity
  8
レイヤー_1
  6
CONTINUOUS
 62
       3
100
AcDbLine
 10
38.12225209
 20
44.22370701
 30
0.0
 11
38.12225209
 21
45.62165975
 31
0.0
  0
LINE
  5
273
100
AcDbEntity
  8
レイヤー_1
  6
CONTINUOUS
 62
       3
100
AcDbLine
 10
-57.0188648
 20
-42.80676996
 30
0.0
 11
-57.18783053
 21
-42.87356109
 31
0.0
  0
LINE
  5
274
100
AcDbEntity
  8
レイヤー_1
  6
CONTINUOUS
 62
       3
100
AcDbLine
 10
-57.18783053
 20
-42.87356109
 30
0.0
 11
-57.41082235
 21
-42.98944996
 31
0.0
  0
LINE
  5
275
100
AcDbEntity
  8
レイヤー_1
  6
CONTINUOUS
 62
       3
100
AcDbLine
 10
-57.41082235
 20
-42.98944996
 30
0.0
 11
-57.61970284
 21
-43.13332306
 31
0.0
  0
LINE
  5
276
100
AcDbEntity
  8
レイヤー_1
  6
CONTINUOUS
 62
       3
100
AcDbLine
 10
-57.61970284
 20
-43.13332306
 30
0.0
 11
-57.81349521
 21
-43.30304069
 31
0.0
  0
LINE
  5
277
100
AcDbEntity
  8
レイヤー_1
  6
CONTINUOUS
 62
       3
100
AcDbLine
 10
-57.81349521
 20
-43.30304069
 30
0.0
 11
-57.99122267
 21
-43.4964633
 31
0.0
  0
LINE
  5
278
100
AcDbEntity
  8
レイヤー_1
  6
CONTINUOUS
 62
       3
100
AcDbLine
 10
-57.99122267
 20
-43.4964633
 30
0.0
 11
-58.15190848
 21
-43.71145129
 31
0.0
  0
LINE
  5
279
100
AcDbEntity
  8
レイヤー_1
  6
CONTINUOUS
 62
       3
100
AcDbLine
 10
-58.15190848
 20
-43.71145129
 30
0.0
 11
-58.29457582
 21
-43.94586504
 31
0.0
  0
LINE
  5
27A
100
AcDbEntity
  8
レイヤー_1
  6
CONTINUOUS
 62
       3
100
AcDbLine
 10
-58.29457582
 20
-43.94586504
 30
0.0
 11
-58.41824796
 21
-44.19756492
 31
0.0
  0
LINE
  5
27B
100
AcDbEntity
  8
レイヤー_1
  6
CONTINUOUS
 62
       3
100
AcDbLine
 10
-58.41824796
 20
-44.19756492
 30
0.0
 11
-58.52194808
 21
-44.46441137
 31
0.0
  0
LINE
  5
27C
100
AcDbEntity
  8
レイヤー_1
  6
CONTINUOUS
 62
       3
100
AcDbLine
 10
-58.52194808
 20
-44.46441137
 30
0.0
 11
-58.60469945
 21
-44.74426477
 31
0.0
  0
LINE
  5
27D
100
AcDbEntity
  8
レイヤー_1
  6
CONTINUOUS
 62
       3
100
AcDbLine
 10
-58.60469945
 20
-44.74426477
 30
0.0
 11
-58.66552523
 21
-45.03498552
 31
0.0
  0
LINE
  5
27E
100
AcDbEntity
  8
レイヤー_1
  6
CONTINUOUS
 62
       3
100
AcDbLine
 10
-58.66552523
 20
-45.03498552
 30
0.0
 11
-58.70344872
 21
-45.33443397
 31
0.0
  0
LINE
  5
27F
100
AcDbEntity
  8
レイヤー_1
  6
CONTINUOUS
 62
       3
100
AcDbLine
 10
-58.70344872
 20
-45.33443397
 30
0.0
 11
-58.71749309
 21
-45.64047058
 31
0.0
  0
LINE
  5
280
100
AcDbEntity
  8
レイヤー_1
  6
CONTINUOUS
 62
       3
100
AcDbLine
 10
-58.71749309
 20
-45.64047058
 30
0.0
 11
-58.70668159
 21
-45.95095573
 31
0.0
  0
LINE
  5
281
100
AcDbEntity
  8
レイヤー_1
  6
CONTINUOUS
 62
       3
100
AcDbLine
 10
-58.70668159
 20
-45.95095573
 30
0.0
 11
-58.67003742
 21
-46.26374977
 31
0.0
  0
LINE
  5
282
100
AcDbEntity
  8
レイヤー_1
  6
CONTINUOUS
 62
       3
100
AcDbLine
 10
-58.67003742
 20
-46.26374977
 30
0.0
 11
-58.62211029
 21
-46.51273466
 31
0.0
  0
LINE
  5
283
100
AcDbEntity
  8
レイヤー_1
  6
CONTINUOUS
 62
       3
100
AcDbLine
 10
-58.62211029
 20
-46.51273466
 30
0.0
 11
-58.57022062
 21
-46.71452559
 31
0.0
  0
LINE
  5
284
100
AcDbEntity
  8
レイヤー_1
  6
CONTINUOUS
 62
       3
100
AcDbLine
 10
-58.57022062
 20
-46.71452559
 30
0.0
 11
-58.50783565
 21
-46.90934557
 31
0.0
  0
LINE
  5
285
100
AcDbEntity
  8
レイヤー_1
  6
CONTINUOUS
 62
       3
100
AcDbLine
 10
-58.50783565
 20
-46.90934557
 30
0.0
 11
-58.4353924
 21
-47.09662853
 31
0.0
  0
LINE
  5
286
100
AcDbEntity
  8
レイヤー_1
  6
CONTINUOUS
 62
       3
100
AcDbLine
 10
-58.4353924
 20
-47.09662853
 30
0.0
 11
-58.35332794
 21
-47.2758084
 31
0.0
  0
LINE
  5
287
100
AcDbEntity
  8
レイヤー_1
  6
CONTINUOUS
 62
       3
100
AcDbLine
 10
-58.35332794
 20
-47.2758084
 30
0.0
 11
-58.26207932
 21
-47.44631918
 31
0.0
  0
LINE
  5
288
100
AcDbEntity
  8
レイヤー_1
  6
CONTINUOUS
 62
       3
100
AcDbLine
 10
-58.26207932
 20
-47.44631918
 30
0.0
 11
-58.16208355
 21
-47.60759479
 31
0.0
  0
LINE
  5
289
100
AcDbEntity
  8
レイヤー_1
  6
CONTINUOUS
 62
       3
100
AcDbLine
 10
-58.16208355
 20
-47.60759479
 30
0.0
 11
-58.05377772
 21
-47.75906916
 31
0.0
  0
LINE
  5
28A
100
AcDbEntity
  8
レイヤー_1
  6
CONTINUOUS
 62
       3
100
AcDbLine
 10
-58.05377772
 20
-47.75906916
 30
0.0
 11
-57.93759886
 21
-47.90017623
 31
0.0
  0
LINE
  5
28B
100
AcDbEntity
  8
レイヤー_1
  6
CONTINUOUS
 62
       3
100
AcDbLine
 10
-57.93759886
 20
-47.90017623
 30
0.0
 11
-57.813984
 21
-48.03034996
 31
0.0
  0
LINE
  5
28C
100
AcDbEntity
  8
レイヤー_1
  6
CONTINUOUS
 62
       3
100
AcDbLine
 10
-57.813984
 20
-48.03034996
 30
0.0
 11
-57.68337021
 21
-48.1490243
 31
0.0
  0
LINE
  5
28D
100
AcDbEntity
  8
レイヤー_1
  6
CONTINUOUS
 62
       3
100
AcDbLine
 10
-57.68337021
 20
-48.1490243
 30
0.0
 11
-57.54619456
 21
-48.25563316
 31
0.0
  0
LINE
  5
28E
100
AcDbEntity
  8
レイヤー_1
  6
CONTINUOUS
 62
       3
100
AcDbLine
 10
-57.54619456
 20
-48.25563316
 30
0.0
 11
-57.031712
 21
-48.61147196
 31
0.0
  0
LINE
  5
28F
100
AcDbEntity
  8
レイヤー_1
  6
CONTINUOUS
 62
       3
100
AcDbLine
 10
-43.52738303
 20
-54.54725554
 30
0.0
 11
-43.52738303
 21
-54.58603133
 31
0.0
  0
LINE
  5
290
100
AcDbEntity
  8
レイヤー_1
  6
CONTINUOUS
 62
       3
100
AcDbLine
 10
-43.52738303
 20
-54.58603133
 30
0.0
 11
-43.52738303
 21
-54.62571344
 31
0.0
  0
LINE
  5
291
100
AcDbEntity
  8
レイヤー_1
  6
CONTINUOUS
 62
       3
100
AcDbLine
 10
-43.52738303
 20
-54.62571344
 30
0.0
 11
-43.52738303
 21
-54.66491002
 31
0.0
  0
LINE
  5
292
100
AcDbEntity
  8
レイヤー_1
  6
CONTINUOUS
 62
       3
100
AcDbLine
 10
-43.52738303
 20
-54.66491002
 30
0.0
 11
-43.52738303
 21
-54.70222916
 31
0.0
  0
LINE
  5
293
100
AcDbEntity
  8
レイヤー_1
  6
CONTINUOUS
 62
       3
100
AcDbLine
 10
-35.03255927
 20
-54.70875529
 30
0.0
 11
-35.03255927
 21
-54.68398936
 31
0.0
  0
LINE
  5
294
100
AcDbEntity
  8
レイヤー_1
  6
CONTINUOUS
 62
       3
100
AcDbLine
 10
-35.03255927
 20
-54.68398936
 30
0.0
 11
-35.03255927
 21
-54.65932465
 31
0.0
  0
LINE
  5
295
100
AcDbEntity
  8
レイヤー_1
  6
CONTINUOUS
 62
       3
100
AcDbLine
 10
-35.03255927
 20
-54.65932465
 30
0.0
 11
-35.03255927
 21
-54.63563176
 31
0.0
  0
LINE
  5
296
100
AcDbEntity
  8
レイヤー_1
  6
CONTINUOUS
 62
       3
100
AcDbLine
 10
-35.03255927
 20
-54.63563176
 30
0.0
 11
-35.03255927
 21
-54.61378126
 31
0.0
  0
LINE
  5
297
100
AcDbEntity
  8
レイヤー_1
  6
CONTINUOUS
 62
       3
100
AcDbLine
 10
-35.03255927
 20
-54.61378126
 30
0.0
 11
-35.03255927
 21
-54.59464376
 31
0.0
  0
LINE
  5
298
100
AcDbEntity
  8
レイヤー_1
  6
CONTINUOUS
 62
       3
100
AcDbLine
 10
-35.03255927
 20
-54.59464376
 30
0.0
 11
-35.03255927
 21
-54.57908983
 31
0.0
  0
LINE
  5
299
100
AcDbEntity
  8
レイヤー_1
  6
CONTINUOUS
 62
       3
100
AcDbLine
 10
-35.03255927
 20
-54.57908983
 30
0.0
 11
-35.03255927
 21
-54.56799003
 31
0.0
  0
LINE
  5
29A
100
AcDbEntity
  8
レイヤー_1
  6
CONTINUOUS
 62
       3
100
AcDbLine
 10
-35.03255927
 20
-54.56799003
 30
0.0
 11
-35.03255927
 21
-54.56221502
 31
0.0
  0
LINE
  5
29B
100
AcDbEntity
  8
レイヤー_1
  6
CONTINUOUS
 62
       3
100
AcDbLine
 10
-35.03255927
 20
-54.56221502
 30
0.0
 11
-35.02856663
 21
-54.56158518
 31
0.0
  0
LINE
  5
29C
100
AcDbEntity
  8
レイヤー_1
  6
CONTINUOUS
 62
       3
100
AcDbLine
 10
-34.031712
 20
-55.0
 30
0.0
 11
-34.031712
 21
-53.95308776
 31
0.0
  0
LINE
  5
29D
100
AcDbEntity
  8
レイヤー_1
  6
CONTINUOUS
 62
       3
100
AcDbLine
 10
-34.031712
 20
-53.95308776
 30
0.0
 11
-34.031712
 21
-53.4124005
 31
0.0
  0
LINE
  5
29E
100
AcDbEntity
  8
レイヤー_1
  6
CONTINUOUS
 62
       3
100
AcDbLine
 10
-34.031712
 20
-53.4124005
 30
0.0
 11
-34.031712
 21
-52.74714067
 31
0.0
  0
LINE
  5
29F
100
AcDbEntity
  8
レイヤー_1
  6
CONTINUOUS
 62
       3
100
AcDbLine
 10
-34.031712
 20
-52.74714067
 30
0.0
 11
-34.031712
 21
-51.98757168
 31
0.0
  0
LINE
  5
2A0
100
AcDbEntity
  8
レイヤー_1
  6
CONTINUOUS
 62
       3
100
AcDbLine
 10
-34.031712
 20
-51.98757168
 30
0.0
 11
-34.031712
 21
-51.16395695
 31
0.0
  0
LINE
  5
2A1
100
AcDbEntity
  8
レイヤー_1
  6
CONTINUOUS
 62
       3
100
AcDbLine
 10
-34.031712
 20
-51.16395695
 30
0.0
 11
-34.031712
 21
-50.30655984
 31
0.0
  0
LINE
  5
2A2
100
AcDbEntity
  8
レイヤー_1
  6
CONTINUOUS
 62
       3
100
AcDbLine
 10
-34.031712
 20
-50.30655984
 30
0.0
 11
-34.031712
 21
-49.44564371
 31
0.0
  0
LINE
  5
2A3
100
AcDbEntity
  8
レイヤー_1
  6
CONTINUOUS
 62
       3
100
AcDbLine
 10
-34.031712
 20
-49.44564371
 30
0.0
 11
-34.031712
 21
-48.61147196
 31
0.0
  0
LINE
  5
2A4
100
AcDbEntity
  8
レイヤー_1
  6
CONTINUOUS
 62
       3
100
AcDbLine
 10
-34.031712
 20
-48.61147196
 30
0.0
 11
-34.031712
 21
-47.834308
 31
0.0
  0
LINE
  5
2A5
100
AcDbEntity
  8
レイヤー_1
  6
CONTINUOUS
 62
       3
100
AcDbLine
 10
-34.031712
 20
-47.834308
 30
0.0
 11
-34.031712
 21
-47.14441519
 31
0.0
  0
LINE
  5
2A6
100
AcDbEntity
  8
レイヤー_1
  6
CONTINUOUS
 62
       3
100
AcDbLine
 10
-34.031712
 20
-47.14441519
 30
0.0
 11
-34.031712
 21
-46.57205693
 31
0.0
  0
LINE
  5
2A7
100
AcDbEntity
  8
レイヤー_1
  6
CONTINUOUS
 62
       3
100
AcDbLine
 10
-34.031712
 20
-46.57205693
 30
0.0
 11
-34.031712
 21
-46.14749659
 31
0.0
  0
LINE
  5
2A8
100
AcDbEntity
  8
レイヤー_1
  6
CONTINUOUS
 62
       3
100
AcDbLine
 10
-34.031712
 20
-46.14749659
 30
0.0
 11
-34.031712
 21
-45.90099759
 31
0.0
  0
LINE
  5
2A9
100
AcDbEntity
  8
レイヤー_1
  6
CONTINUOUS
 62
       3
100
AcDbLine
 10
-34.031712
 20
-45.90099759
 30
0.0
 11
-34.01624978
 21
-45.85052588
 31
0.0
  0
LINE
  5
2AA
100
AcDbEntity
  8
レイヤー_1
  6
CONTINUOUS
 62
       3
100
AcDbLine
 10
-34.01624978
 20
-45.85052588
 30
0.0
 11
-33.7868707
 21
-45.85052588
 31
0.0
  0
LINE
  5
2AB
100
AcDbEntity
  8
レイヤー_1
  6
CONTINUOUS
 62
       3
100
AcDbLine
 10
-33.7868707
 20
-45.85052588
 30
0.0
 11
-33.31342112
 21
-45.85052588
 31
0.0
  0
LINE
  5
2AC
100
AcDbEntity
  8
レイヤー_1
  6
CONTINUOUS
 62
       3
100
AcDbLine
 10
-33.31342112
 20
-45.85052588
 30
0.0
 11
-32.63506166
 21
-45.85052588
 31
0.0
  0
LINE
  5
2AD
100
AcDbEntity
  8
レイヤー_1
  6
CONTINUOUS
 62
       3
100
AcDbLine
 10
-32.63506166
 20
-45.85052588
 30
0.0
 11
-31.79095282
 21
-45.85052588
 31
0.0
  0
LINE
  5
2AE
100
AcDbEntity
  8
レイヤー_1
  6
CONTINUOUS
 62
       3
100
AcDbLine
 10
-31.79095282
 20
-45.85052588
 30
0.0
 11
-30.82025521
 21
-45.85052588
 31
0.0
  0
LINE
  5
2AF
100
AcDbEntity
  8
レイヤー_1
  6
CONTINUOUS
 62
       3
100
AcDbLine
 10
-30.82025521
 20
-45.85052588
 30
0.0
 11
-29.76212935
 21
-45.85052588
 31
0.0
  0
LINE
  5
2B0
100
AcDbEntity
  8
レイヤー_1
  6
CONTINUOUS
 62
       3
100
AcDbLine
 10
-29.76212935
 20
-45.85052588
 30
0.0
 11
-28.65573581
 21
-45.85052588
 31
0.0
  0
LINE
  5
2B1
100
AcDbEntity
  8
レイヤー_1
  6
CONTINUOUS
 62
       3
100
AcDbLine
 10
-28.65573581
 20
-45.85052588
 30
0.0
 11
-27.5402352
 21
-45.85052588
 31
0.0
  0
LINE
  5
2B2
100
AcDbEntity
  8
レイヤー_1
  6
CONTINUOUS
 62
       3
100
AcDbLine
 10
-27.5402352
 20
-45.85052588
 30
0.0
 11
-26.45478801
 21
-45.85052588
 31
0.0
  0
LINE
  5
2B3
100
AcDbEntity
  8
レイヤー_1
  6
CONTINUOUS
 62
       3
100
AcDbLine
 10
-26.45478801
 20
-45.85052588
 30
0.0
 11
-25.43855486
 21
-45.85052588
 31
0.0
  0
LINE
  5
2B4
100
AcDbEntity
  8
レイヤー_1
  6
CONTINUOUS
 62
       3
100
AcDbLine
 10
-25.43855486
 20
-45.85052588
 30
0.0
 11
-24.53069628
 21
-45.85052588
 31
0.0
  0
LINE
  5
2B5
100
AcDbEntity
  8
レイヤー_1
  6
CONTINUOUS
 62
       3
100
AcDbLine
 10
-24.53069628
 20
-45.85052588
 30
0.0
 11
-23.77037284
 21
-45.85052588
 31
0.0
  0
LINE
  5
2B6
100
AcDbEntity
  8
レイヤー_1
  6
CONTINUOUS
 62
       3
100
AcDbLine
 10
-23.77037284
 20
-45.85052588
 30
0.0
 11
-23.19674509
 21
-45.85052588
 31
0.0
  0
LINE
  5
2B7
100
AcDbEntity
  8
レイヤー_1
  6
CONTINUOUS
 62
       3
100
AcDbLine
 10
-23.19674509
 20
-45.85052588
 30
0.0
 11
-22.84897359
 21
-45.85052588
 31
0.0
  0
LINE
  5
2B8
100
AcDbEntity
  8
レイヤー_1
  6
CONTINUOUS
 62
       3
100
AcDbLine
 10
-22.84897359
 20
-45.85052588
 30
0.0
 11
-22.759676
 21
-45.85335502
 31
0.0
  0
LINE
  5
2B9
100
AcDbEntity
  8
レイヤー_1
  6
CONTINUOUS
 62
       3
100
AcDbLine
 10
-22.759676
 20
-45.85335502
 30
0.0
 11
-22.759676
 21
-45.94076661
 31
0.0
  0
LINE
  5
2BA
100
AcDbEntity
  8
レイヤー_1
  6
CONTINUOUS
 62
       3
100
AcDbLine
 10
-22.759676
 20
-45.94076661
 30
0.0
 11
-22.759676
 21
-46.13768597
 31
0.0
  0
LINE
  5
2BB
100
AcDbEntity
  8
レイヤー_1
  6
CONTINUOUS
 62
       3
100
AcDbLine
 10
-22.759676
 20
-46.13768597
 30
0.0
 11
-22.759676
 21
-46.42686463
 31
0.0
  0
LINE
  5
2BC
100
AcDbEntity
  8
レイヤー_1
  6
CONTINUOUS
 62
       3
100
AcDbLine
 10
-22.759676
 20
-46.42686463
 30
0.0
 11
-22.759676
 21
-46.79105416
 31
0.0
  0
LINE
  5
2BD
100
AcDbEntity
  8
レイヤー_1
  6
CONTINUOUS
 62
       3
100
AcDbLine
 10
-22.759676
 20
-46.79105416
 30
0.0
 11
-22.759676
 21
-47.21300604
 31
0.0
  0
LINE
  5
2BE
100
AcDbEntity
  8
レイヤー_1
  6
CONTINUOUS
 62
       3
100
AcDbLine
 10
-22.759676
 20
-47.21300604
 30
0.0
 11
-22.759676
 21
-47.67547177
 31
0.0
  0
LINE
  5
2BF
100
AcDbEntity
  8
レイヤー_1
  6
CONTINUOUS
 62
       3
100
AcDbLine
 10
-22.759676
 20
-47.67547177
 30
0.0
 11
-22.759676
 21
-48.16120288
 31
0.0
  0
LINE
  5
2C0
100
AcDbEntity
  8
レイヤー_1
  6
CONTINUOUS
 62
       3
100
AcDbLine
 10
-22.759676
 20
-48.16120288
 30
0.0
 11
-22.759676
 21
-48.65295092
 31
0.0
  0
LINE
  5
2C1
100
AcDbEntity
  8
レイヤー_1
  6
CONTINUOUS
 62
       3
100
AcDbLine
 10
-22.759676
 20
-48.65295092
 30
0.0
 11
-22.759676
 21
-49.13346739
 31
0.0
  0
LINE
  5
2C2
100
AcDbEntity
  8
レイヤー_1
  6
CONTINUOUS
 62
       3
100
AcDbLine
 10
-22.759676
 20
-49.13346739
 30
0.0
 11
-22.759676
 21
-49.58550381
 31
0.0
  0
LINE
  5
2C3
100
AcDbEntity
  8
レイヤー_1
  6
CONTINUOUS
 62
       3
100
AcDbLine
 10
-22.759676
 20
-49.58550381
 30
0.0
 11
-22.759676
 21
-49.99181172
 31
0.0
  0
LINE
  5
2C4
100
AcDbEntity
  8
レイヤー_1
  6
CONTINUOUS
 62
       3
100
AcDbLine
 10
-22.759676
 20
-49.99181172
 30
0.0
 11
-22.759676
 21
-50.3351426
 31
0.0
  0
LINE
  5
2C5
100
AcDbEntity
  8
レイヤー_1
  6
CONTINUOUS
 62
       3
100
AcDbLine
 10
-22.759676
 20
-50.3351426
 30
0.0
 11
-22.759676
 21
-50.59824801
 31
0.0
  0
LINE
  5
2C6
100
AcDbEntity
  8
レイヤー_1
  6
CONTINUOUS
 62
       3
100
AcDbLine
 10
-22.759676
 20
-50.59824801
 30
0.0
 11
-22.759676
 21
-50.76387941
 31
0.0
  0
LINE
  5
2C7
100
AcDbEntity
  8
レイヤー_1
  6
CONTINUOUS
 62
       3
100
AcDbLine
 10
-22.759676
 20
-50.76387941
 30
0.0
 11
-22.75464015
 21
-50.81535477
 31
0.0
  0
LINE
  5
2C8
100
AcDbEntity
  8
レイヤー_1
  6
CONTINUOUS
 62
       3
100
AcDbLine
 10
-22.75464015
 20
-50.81535477
 30
0.0
 11
-22.09520188
 21
-50.81535477
 31
0.0
  0
LINE
  5
2C9
100
AcDbEntity
  8
レイヤー_1
  6
CONTINUOUS
 62
       3
100
AcDbLine
 10
-22.09520188
 20
-50.81535477
 30
0.0
 11
-20.43606907
 21
-50.81535477
 31
0.0
  0
LINE
  5
2CA
100
AcDbEntity
  8
レイヤー_1
  6
CONTINUOUS
 62
       3
100
AcDbLine
 10
-20.43606907
 20
-50.81535477
 30
0.0
 11
-17.93187068
 21
-50.81535477
 31
0.0
  0
LINE
  5
2CB
100
AcDbEntity
  8
レイヤー_1
  6
CONTINUOUS
 62
       3
100
AcDbLine
 10
-17.93187068
 20
-50.81535477
 30
0.0
 11
-14.73723576
 21
-50.81535477
 31
0.0
  0
LINE
  5
2CC
100
AcDbEntity
  8
レイヤー_1
  6
CONTINUOUS
 62
       3
100
AcDbLine
 10
-14.73723576
 20
-50.81535477
 30
0.0
 11
-11.00679333
 21
-50.81535477
 31
0.0
  0
LINE
  5
2CD
100
AcDbEntity
  8
レイヤー_1
  6
CONTINUOUS
 62
       3
100
AcDbLine
 10
-11.00679333
 20
-50.81535477
 30
0.0
 11
-6.89517238
 21
-50.81535477
 31
0.0
  0
LINE
  5
2CE
100
AcDbEntity
  8
レイヤー_1
  6
CONTINUOUS
 62
       3
100
AcDbLine
 10
-6.89517238
 20
-50.81535477
 30
0.0
 11
-2.55700194
 21
-50.81535477
 31
0.0
  0
LINE
  5
2CF
100
AcDbEntity
  8
レイヤー_1
  6
CONTINUOUS
 62
       3
100
AcDbLine
 10
-2.55700194
 20
-50.81535477
 30
0.0
 11
1.85308898
 21
-50.81535477
 31
0.0
  0
LINE
  5
2D0
100
AcDbEntity
  8
レイヤー_1
  6
CONTINUOUS
 62
       3
100
AcDbLine
 10
1.85308898
 20
-50.81535477
 30
0.0
 11
6.18047134
 21
-50.81535477
 31
0.0
  0
LINE
  5
2D1
100
AcDbEntity
  8
レイヤー_1
  6
CONTINUOUS
 62
       3
100
AcDbLine
 10
6.18047134
 20
-50.81535477
 30
0.0
 11
10.27051615
 21
-50.81535477
 31
0.0
  0
LINE
  5
2D2
100
AcDbEntity
  8
レイヤー_1
  6
CONTINUOUS
 62
       3
100
AcDbLine
 10
10.27051615
 20
-50.81535477
 30
0.0
 11
13.96859436
 21
-50.81535477
 31
0.0
  0
LINE
  5
2D3
100
AcDbEntity
  8
レイヤー_1
  6
CONTINUOUS
 62
       3
100
AcDbLine
 10
13.96859436
 20
-50.81535477
 30
0.0
 11
17.12007702
 21
-50.81535477
 31
0.0
  0
LINE
  5
2D4
100
AcDbEntity
  8
レイヤー_1
  6
CONTINUOUS
 62
       3
100
AcDbLine
 10
17.12007702
 20
-50.81535477
 30
0.0
 11
19.57033502
 21
-50.81535477
 31
0.0
  0
LINE
  5
2D5
100
AcDbEntity
  8
レイヤー_1
  6
CONTINUOUS
 62
       3
100
AcDbLine
 10
19.57033502
 20
-50.81535477
 30
0.0
 11
21.16473942
 21
-50.81535477
 31
0.0
  0
LINE
  5
2D6
100
AcDbEntity
  8
レイヤー_1
  6
CONTINUOUS
 62
       3
100
AcDbLine
 10
21.16473942
 20
-50.81535477
 30
0.0
 11
21.74866118
 21
-50.81535477
 31
0.0
  0
LINE
  5
2D7
100
AcDbEntity
  8
レイヤー_1
  6
CONTINUOUS
 62
       3
100
AcDbLine
 10
21.74866118
 20
-50.81535477
 30
0.0
 11
22.06544155
 21
-50.79879458
 31
0.0
  0
LINE
  5
2D8
100
AcDbEntity
  8
レイヤー_1
  6
CONTINUOUS
 62
       3
100
AcDbLine
 10
22.06544155
 20
-50.79879458
 30
0.0
 11
22.37962037
 21
-50.74869741
 31
0.0
  0
LINE
  5
2D9
100
AcDbEntity
  8
レイヤー_1
  6
CONTINUOUS
 62
       3
100
AcDbLine
 10
22.37962037
 20
-50.74869741
 30
0.0
 11
22.68208477
 21
-50.66685017
 31
0.0
  0
LINE
  5
2DA
100
AcDbEntity
  8
レイヤー_1
  6
CONTINUOUS
 62
       3
100
AcDbLine
 10
22.68208477
 20
-50.66685017
 30
0.0
 11
22.9710427
 21
-50.55504932
 31
0.0
  0
LINE
  5
2DB
100
AcDbEntity
  8
レイヤー_1
  6
CONTINUOUS
 62
       3
100
AcDbLine
 10
22.9710427
 20
-50.55504932
 30
0.0
 11
23.24470204
 21
-50.41509131
 31
0.0
  0
LINE
  5
2DC
100
AcDbEntity
  8
レイヤー_1
  6
CONTINUOUS
 62
       3
100
AcDbLine
 10
23.24470204
 20
-50.41509131
 30
0.0
 11
23.50127076
 21
-50.24877261
 31
0.0
  0
LINE
  5
2DD
100
AcDbEntity
  8
レイヤー_1
  6
CONTINUOUS
 62
       3
100
AcDbLine
 10
23.50127076
 20
-50.24877261
 30
0.0
 11
23.7389568
 21
-50.05788966
 31
0.0
  0
LINE
  5
2DE
100
AcDbEntity
  8
レイヤー_1
  6
CONTINUOUS
 62
       3
100
AcDbLine
 10
23.7389568
 20
-50.05788966
 30
0.0
 11
23.95596803
 21
-49.84423897
 31
0.0
  0
LINE
  5
2DF
100
AcDbEntity
  8
レイヤー_1
  6
CONTINUOUS
 62
       3
100
AcDbLine
 10
23.95596803
 20
-49.84423897
 30
0.0
 11
24.15051242
 21
-49.60961697
 31
0.0
  0
LINE
  5
2E0
100
AcDbEntity
  8
レイヤー_1
  6
CONTINUOUS
 62
       3
100
AcDbLine
 10
24.15051242
 20
-49.60961697
 30
0.0
 11
24.32079789
 21
-49.35582011
 31
0.0
  0
LINE
  5
2E1
100
AcDbEntity
  8
レイヤー_1
  6
CONTINUOUS
 62
       3
100
AcDbLine
 10
24.32079789
 20
-49.35582011
 30
0.0
 11
24.46503233
 21
-49.08464488
 31
0.0
  0
LINE
  5
2E2
100
AcDbEntity
  8
レイヤー_1
  6
CONTINUOUS
 62
       3
100
AcDbLine
 10
24.46503233
 20
-49.08464488
 30
0.0
 11
24.58142374
 21
-48.79788773
 31
0.0
  0
LINE
  5
2E3
100
AcDbEntity
  8
レイヤー_1
  6
CONTINUOUS
 62
       3
100
AcDbLine
 10
24.58142374
 20
-48.79788773
 30
0.0
 11
24.66818
 21
-48.49734509
 31
0.0
  0
LINE
  5
2E4
100
AcDbEntity
  8
レイヤー_1
  6
CONTINUOUS
 62
       3
100
AcDbLine
 10
24.66818
 20
-48.49734509
 30
0.0
 11
24.72350902
 21
-48.18481347
 31
0.0
  0
LINE
  5
2E5
100
AcDbEntity
  8
レイヤー_1
  6
CONTINUOUS
 62
       3
100
AcDbLine
 10
24.72350902
 20
-48.18481347
 30
0.0
 11
24.7456188
 21
-47.86208929
 31
0.0
  0
LINE
  5
2E6
100
AcDbEntity
  8
レイヤー_1
  6
CONTINUOUS
 62
       3
100
AcDbLine
 10
24.7456188
 20
-47.86208929
 30
0.0
 11
24.74596125
 21
-47.79765841
 31
0.0
  0
LINE
  5
2E7
100
AcDbEntity
  8
レイヤー_1
  6
CONTINUOUS
 62
       3
100
AcDbLine
 10
24.74596125
 20
-47.79765841
 30
0.0
 11
24.74596125
 21
-47.73297517
 31
0.0
  0
LINE
  5
2E8
100
AcDbEntity
  8
レイヤー_1
  6
CONTINUOUS
 62
       3
100
AcDbLine
 10
24.74596125
 20
-47.73297517
 30
0.0
 11
24.74596125
 21
-47.62872946
 31
0.0
  0
LINE
  5
2E9
100
AcDbEntity
  8
レイヤー_1
  6
CONTINUOUS
 62
       3
100
AcDbLine
 10
24.74596125
 20
-47.62872946
 30
0.0
 11
24.74596125
 21
-47.49186483
 31
0.0
  0
LINE
  5
2EA
100
AcDbEntity
  8
レイヤー_1
  6
CONTINUOUS
 62
       3
100
AcDbLine
 10
24.74596125
 20
-47.49186483
 30
0.0
 11
24.74596125
 21
-47.32932498
 31
0.0
  0
LINE
  5
2EB
100
AcDbEntity
  8
レイヤー_1
  6
CONTINUOUS
 62
       3
100
AcDbLine
 10
24.74596125
 20
-47.32932498
 30
0.0
 11
24.74596125
 21
-47.14805346
 31
0.0
  0
LINE
  5
2EC
100
AcDbEntity
  8
レイヤー_1
  6
CONTINUOUS
 62
       3
100
AcDbLine
 10
24.74596125
 20
-47.14805346
 30
0.0
 11
24.74596125
 21
-46.95499393
 31
0.0
  0
LINE
  5
2ED
100
AcDbEntity
  8
レイヤー_1
  6
CONTINUOUS
 62
       3
100
AcDbLine
 10
24.74596125
 20
-46.95499393
 30
0.0
 11
24.74596125
 21
-46.75709002
 31
0.0
  0
LINE
  5
2EE
100
AcDbEntity
  8
レイヤー_1
  6
CONTINUOUS
 62
       3
100
AcDbLine
 10
24.74596125
 20
-46.75709002
 30
0.0
 11
24.74596125
 21
-46.56128537
 31
0.0
  0
LINE
  5
2EF
100
AcDbEntity
  8
レイヤー_1
  6
CONTINUOUS
 62
       3
100
AcDbLine
 10
24.74596125
 20
-46.56128537
 30
0.0
 11
24.74596125
 21
-46.37452355
 31
0.0
  0
LINE
  5
2F0
100
AcDbEntity
  8
レイヤー_1
  6
CONTINUOUS
 62
       3
100
AcDbLine
 10
24.74596125
 20
-46.37452355
 30
0.0
 11
24.74596125
 21
-46.20374821
 31
0.0
  0
LINE
  5
2F1
100
AcDbEntity
  8
レイヤー_1
  6
CONTINUOUS
 62
       3
100
AcDbLine
 10
24.74596125
 20
-46.20374821
 30
0.0
 11
24.74596125
 21
-46.05590299
 31
0.0
  0
LINE
  5
2F2
100
AcDbEntity
  8
レイヤー_1
  6
CONTINUOUS
 62
       3
100
AcDbLine
 10
24.74596125
 20
-46.05590299
 30
0.0
 11
24.74596125
 21
-45.93793148
 31
0.0
  0
LINE
  5
2F3
100
AcDbEntity
  8
レイヤー_1
  6
CONTINUOUS
 62
       3
100
AcDbLine
 10
24.74596125
 20
-45.93793148
 30
0.0
 11
24.74596125
 21
-45.85677734
 31
0.0
  0
LINE
  5
2F4
100
AcDbEntity
  8
レイヤー_1
  6
CONTINUOUS
 62
       3
100
AcDbLine
 10
24.74596125
 20
-45.85677734
 30
0.0
 11
24.74596125
 21
-45.81938417
 31
0.0
  0
LINE
  5
2F5
100
AcDbEntity
  8
レイヤー_1
  6
CONTINUOUS
 62
       3
100
AcDbLine
 10
24.74596125
 20
-45.81938417
 30
0.0
 11
24.85268374
 21
-45.81768634
 31
0.0
  0
LINE
  5
2F6
100
AcDbEntity
  8
レイヤー_1
  6
CONTINUOUS
 62
       3
100
AcDbLine
 10
24.85268374
 20
-45.81768634
 30
0.0
 11
25.30547312
 21
-45.81768634
 31
0.0
  0
LINE
  5
2F7
100
AcDbEntity
  8
レイヤー_1
  6
CONTINUOUS
 62
       3
100
AcDbLine
 10
25.30547312
 20
-45.81768634
 30
0.0
 11
26.06479212
 21
-45.81768634
 31
0.0
  0
LINE
  5
2F8
100
AcDbEntity
  8
レイヤー_1
  6
CONTINUOUS
 62
       3
100
AcDbLine
 10
26.06479212
 20
-45.81768634
 30
0.0
 11
27.07791764
 21
-45.81768634
 31
0.0
  0
LINE
  5
2F9
100
AcDbEntity
  8
レイヤー_1
  6
CONTINUOUS
 62
       3
100
AcDbLine
 10
27.07791764
 20
-45.81768634
 30
0.0
 11
28.29212661
 21
-45.81768634
 31
0.0
  0
LINE
  5
2FA
100
AcDbEntity
  8
レイヤー_1
  6
CONTINUOUS
 62
       3
100
AcDbLine
 10
28.29212661
 20
-45.81768634
 30
0.0
 11
29.65469587
 21
-45.81768634
 31
0.0
  0
LINE
  5
2FB
100
AcDbEntity
  8
レイヤー_1
  6
CONTINUOUS
 62
       3
100
AcDbLine
 10
29.65469587
 20
-45.81768634
 30
0.0
 11
31.1129024
 21
-45.81768634
 31
0.0
  0
LINE
  5
2FC
100
AcDbEntity
  8
レイヤー_1
  6
CONTINUOUS
 62
       3
100
AcDbLine
 10
31.1129024
 20
-45.81768634
 30
0.0
 11
32.61402309
 21
-45.81768634
 31
0.0
  0
LINE
  5
2FD
100
AcDbEntity
  8
レイヤー_1
  6
CONTINUOUS
 62
       3
100
AcDbLine
 10
32.61402309
 20
-45.81768634
 30
0.0
 11
34.10533481
 21
-45.81768634
 31
0.0
  0
LINE
  5
2FE
100
AcDbEntity
  8
レイヤー_1
  6
CONTINUOUS
 62
       3
100
AcDbLine
 10
34.10533481
 20
-45.81768634
 30
0.0
 11
35.53411449
 21
-45.81768634
 31
0.0
  0
LINE
  5
2FF
100
AcDbEntity
  8
レイヤー_1
  6
CONTINUOUS
 62
       3
100
AcDbLine
 10
35.53411449
 20
-45.81768634
 30
0.0
 11
36.84763904
 21
-45.81768634
 31
0.0
  0
LINE
  5
300
100
AcDbEntity
  8
レイヤー_1
  6
CONTINUOUS
 62
       3
100
AcDbLine
 10
36.84763904
 20
-45.81768634
 30
0.0
 11
37.99318536
 21
-45.81768634
 31
0.0
  0
LINE
  5
301
100
AcDbEntity
  8
レイヤー_1
  6
CONTINUOUS
 62
       3
100
AcDbLine
 10
37.99318536
 20
-45.81768634
 30
0.0
 11
38.91803036
 21
-45.81768634
 31
0.0
  0
LINE
  5
302
100
AcDbEntity
  8
レイヤー_1
  6
CONTINUOUS
 62
       3
100
AcDbLine
 10
38.91803036
 20
-45.81768634
 30
0.0
 11
39.56945092
 21
-45.81768634
 31
0.0
  0
LINE
  5
303
100
AcDbEntity
  8
レイヤー_1
  6
CONTINUOUS
 62
       3
100
AcDbLine
 10
39.56945092
 20
-45.81768634
 30
0.0
 11
39.894724
 21
-45.81768634
 31
0.0
  0
LINE
  5
304
100
AcDbEntity
  8
レイヤー_1
  6
CONTINUOUS
 62
       3
100
AcDbLine
 10
39.894724
 20
-45.81768634
 30
0.0
 11
39.92185733
 21
-45.81517663
 31
0.0
  0
LINE
  5
305
100
AcDbEntity
  8
レイヤー_1
  6
CONTINUOUS
 62
       3
100
AcDbLine
 10
39.92185733
 20
-45.81517663
 30
0.0
 11
39.92185733
 21
-45.80158229
 31
0.0
  0
LINE
  5
306
100
AcDbEntity
  8
レイヤー_1
  6
CONTINUOUS
 62
       3
100
AcDbLine
 10
39.92185733
 20
-45.80158229
 30
0.0
 11
39.92185733
 21
-45.77771448
 31
0.0
  0
LINE
  5
307
100
AcDbEntity
  8
レイヤー_1
  6
CONTINUOUS
 62
       3
100
AcDbLine
 10
39.92185733
 20
-45.77771448
 30
0.0
 11
39.92185733
 21
-45.74530553
 31
0.0
  0
LINE
  5
308
100
AcDbEntity
  8
レイヤー_1
  6
CONTINUOUS
 62
       3
100
AcDbLine
 10
39.92185733
 20
-45.74530553
 30
0.0
 11
39.92185733
 21
-45.70608786
 31
0.0
  0
LINE
  5
309
100
AcDbEntity
  8
レイヤー_1
  6
CONTINUOUS
 62
       3
100
AcDbLine
 10
39.92185733
 20
-45.70608786
 30
0.0
 11
39.92185733
 21
-45.6617939
 31
0.0
  0
LINE
  5
30A
100
AcDbEntity
  8
レイヤー_1
  6
CONTINUOUS
 62
       3
100
AcDbLine
 10
39.92185733
 20
-45.6617939
 30
0.0
 11
39.92185733
 21
-45.614156
 31
0.0
  0
LINE
  5
30B
100
AcDbEntity
  8
レイヤー_1
  6
CONTINUOUS
 62
       3
100
AcDbLine
 10
39.92185733
 20
-45.614156
 30
0.0
 11
39.92185733
 21
-45.56490656
 31
0.0
  0
LINE
  5
30C
100
AcDbEntity
  8
レイヤー_1
  6
CONTINUOUS
 62
       3
100
AcDbLine
 10
39.92185733
 20
-45.56490656
 30
0.0
 11
39.92185733
 21
-45.51577799
 31
0.0
  0
LINE
  5
30D
100
AcDbEntity
  8
レイヤー_1
  6
CONTINUOUS
 62
       3
100
AcDbLine
 10
39.92185733
 20
-45.51577799
 30
0.0
 11
39.92185733
 21
-45.46850266
 31
0.0
  0
LINE
  5
30E
100
AcDbEntity
  8
レイヤー_1
  6
CONTINUOUS
 62
       3
100
AcDbLine
 10
39.92185733
 20
-45.46850266
 30
0.0
 11
39.92185733
 21
-45.42481301
 31
0.0
  0
LINE
  5
30F
100
AcDbEntity
  8
レイヤー_1
  6
CONTINUOUS
 62
       3
100
AcDbLine
 10
39.92185733
 20
-45.42481301
 30
0.0
 11
39.92185733
 21
-45.3864414
 31
0.0
  0
LINE
  5
310
100
AcDbEntity
  8
レイヤー_1
  6
CONTINUOUS
 62
       3
100
AcDbLine
 10
39.92185733
 20
-45.3864414
 30
0.0
 11
39.92185733
 21
-45.35512024
 31
0.0
  0
LINE
  5
311
100
AcDbEntity
  8
レイヤー_1
  6
CONTINUOUS
 62
       3
100
AcDbLine
 10
39.92185733
 20
-45.35512024
 30
0.0
 11
39.92185733
 21
-45.33258193
 31
0.0
  0
LINE
  5
312
100
AcDbEntity
  8
レイヤー_1
  6
CONTINUOUS
 62
       3
100
AcDbLine
 10
39.92185733
 20
-45.33258193
 30
0.0
 11
39.92185733
 21
-45.32055885
 31
0.0
  0
LINE
  5
313
100
AcDbEntity
  8
レイヤー_1
  6
CONTINUOUS
 62
       3
100
AcDbLine
 10
39.92185733
 20
-45.32055885
 30
0.0
 11
39.9252108
 21
-45.319031
 31
0.0
  0
LINE
  5
314
100
AcDbEntity
  8
レイヤー_1
  6
CONTINUOUS
 62
       3
100
AcDbLine
 10
39.9252108
 20
-45.319031
 30
0.0
 11
39.94981031
 21
-45.319031
 31
0.0
  0
LINE
  5
315
100
AcDbEntity
  8
レイヤー_1
  6
CONTINUOUS
 62
       3
100
AcDbLine
 10
39.94981031
 20
-45.319031
 30
0.0
 11
39.99538092
 21
-45.319031
 31
0.0
  0
LINE
  5
316
100
AcDbEntity
  8
レイヤー_1
  6
CONTINUOUS
 62
       3
100
AcDbLine
 10
39.99538092
 20
-45.319031
 30
0.0
 11
40.05845435
 21
-45.319031
 31
0.0
  0
LINE
  5
317
100
AcDbEntity
  8
レイヤー_1
  6
CONTINUOUS
 62
       3
100
AcDbLine
 10
40.05845435
 20
-45.319031
 30
0.0
 11
40.13556231
 21
-45.319031
 31
0.0
  0
LINE
  5
318
100
AcDbEntity
  8
レイヤー_1
  6
CONTINUOUS
 62
       3
100
AcDbLine
 10
40.13556231
 20
-45.319031
 30
0.0
 11
40.22323651
 21
-45.319031
 31
0.0
  0
LINE
  5
319
100
AcDbEntity
  8
レイヤー_1
  6
CONTINUOUS
 62
       3
100
AcDbLine
 10
40.22323651
 20
-45.319031
 30
0.0
 11
40.3180086
 21
-45.319031
 31
0.0
  0
LINE
  5
31A
100
AcDbEntity
  8
レイヤー_1
  6
CONTINUOUS
 62
       3
100
AcDbLine
 10
40.3180086
 20
-45.319031
 30
0.0
 11
40.41641031
 21
-45.319031
 31
0.0
  0
LINE
  5
31B
100
AcDbEntity
  8
レイヤー_1
  6
CONTINUOUS
 62
       3
100
AcDbLine
 10
40.41641031
 20
-45.319031
 30
0.0
 11
40.51497334
 21
-45.319031
 31
0.0
  0
LINE
  5
31C
100
AcDbEntity
  8
レイヤー_1
  6
CONTINUOUS
 62
       3
100
AcDbLine
 10
40.51497334
 20
-45.319031
 30
0.0
 11
40.61022938
 21
-45.319031
 31
0.0
  0
LINE
  5
31D
100
AcDbEntity
  8
レイヤー_1
  6
CONTINUOUS
 62
       3
100
AcDbLine
 10
40.61022938
 20
-45.319031
 30
0.0
 11
40.69871016
 21
-45.319031
 31
0.0
  0
LINE
  5
31E
100
AcDbEntity
  8
レイヤー_1
  6
CONTINUOUS
 62
       3
100
AcDbLine
 10
40.69871016
 20
-45.319031
 30
0.0
 11
40.77694731
 21
-45.319031
 31
0.0
  0
LINE
  5
31F
100
AcDbEntity
  8
レイヤー_1
  6
CONTINUOUS
 62
       3
100
AcDbLine
 10
40.77694731
 20
-45.319031
 30
0.0
 11
40.84147261
 21
-45.319031
 31
0.0
  0
LINE
  5
320
100
AcDbEntity
  8
レイヤー_1
  6
CONTINUOUS
 62
       3
100
AcDbLine
 10
40.84147261
 20
-45.319031
 30
0.0
 11
40.88881771
 21
-45.319031
 31
0.0
  0
LINE
  5
321
100
AcDbEntity
  8
レイヤー_1
  6
CONTINUOUS
 62
       3
100
AcDbLine
 10
40.88881771
 20
-45.319031
 30
0.0
 11
40.91551432
 21
-45.319031
 31
0.0
  0
LINE
  5
322
100
AcDbEntity
  8
レイヤー_1
  6
CONTINUOUS
 62
       3
100
AcDbLine
 10
40.92017846
 20
-45.81439188
 30
0.0
 11
40.92421741
 21
-45.81747411
 31
0.0
  0
LINE
  5
323
100
AcDbEntity
  8
レイヤー_1
  6
CONTINUOUS
 62
       3
100
AcDbLine
 10
40.92421741
 20
-45.81747411
 30
0.0
 11
41.00123579
 21
-45.81342666
 31
0.0
  0
LINE
  5
324
100
AcDbEntity
  8
レイヤー_1
  6
CONTINUOUS
 62
       3
100
AcDbLine
 10
40.91377126
 20
-45.81802308
 30
0.0
 11
41.16549722
 21
-45.80479443
 31
0.0
  0
LINE
  5
325
100
AcDbEntity
  8
レイヤー_1
  6
CONTINUOUS
 62
       3
100
AcDbLine
 10
41.16549722
 20
-45.80479443
 30
0.0
 11
41.4031075
 21
-45.79230756
 31
0.0
  0
LINE
  5
326
100
AcDbEntity
  8
レイヤー_1
  6
CONTINUOUS
 62
       3
100
AcDbLine
 10
41.4031075
 20
-45.79230756
 30
0.0
 11
41.7001723
 21
-45.77669629
 31
0.0
  0
LINE
  5
327
100
AcDbEntity
  8
レイヤー_1
  6
CONTINUOUS
 62
       3
100
AcDbLine
 10
41.7001723
 20
-45.77669629
 30
0.0
 11
42.04279738
 21
-45.75869072
 31
0.0
  0
LINE
  5
328
100
AcDbEntity
  8
レイヤー_1
  6
CONTINUOUS
 62
       3
100
AcDbLine
 10
42.04279738
 20
-45.75869072
 30
0.0
 11
42.41708845
 21
-45.73902105
 31
0.0
  0
LINE
  5
329
100
AcDbEntity
  8
レイヤー_1
  6
CONTINUOUS
 62
       3
100
AcDbLine
 10
42.41708845
 20
-45.73902105
 30
0.0
 11
42.80915127
 21
-45.71841743
 31
0.0
  0
LINE
  5
32A
100
AcDbEntity
  8
レイヤー_1
  6
CONTINUOUS
 62
       3
100
AcDbLine
 10
42.80915127
 20
-45.71841743
 30
0.0
 11
43.20509155
 21
-45.69761008
 31
0.0
  0
LINE
  5
32B
100
AcDbEntity
  8
レイヤー_1
  6
CONTINUOUS
 62
       3
100
AcDbLine
 10
43.20509155
 20
-45.69761008
 30
0.0
 11
43.59101504
 21
-45.67732909
 31
0.0
  0
LINE
  5
32C
100
AcDbEntity
  8
レイヤー_1
  6
CONTINUOUS
 62
       3
100
AcDbLine
 10
43.59101504
 20
-45.67732909
 30
0.0
 11
43.95302746
 21
-45.65830469
 31
0.0
  0
LINE
  5
32D
100
AcDbEntity
  8
レイヤー_1
  6
CONTINUOUS
 62
       3
100
AcDbLine
 10
43.95302746
 20
-45.65830469
 30
0.0
 11
44.27723457
 21
-45.64126704
 31
0.0
  0
LINE
  5
32E
100
AcDbEntity
  8
レイヤー_1
  6
CONTINUOUS
 62
       3
100
AcDbLine
 10
44.27723457
 20
-45.64126704
 30
0.0
 11
44.96829922
 21
-45.60495035
 31
0.0
  0
LINE
  5
32F
100
AcDbEntity
  8
レイヤー_1
  6
CONTINUOUS
 62
       3
100
AcDbLine
 10
44.91941236
 20
45.41300844
 30
0.0
 11
44.86467443
 21
45.41586428
 31
0.0
  0
LINE
  5
330
100
AcDbEntity
  8
レイヤー_1
  6
CONTINUOUS
 62
       3
100
AcDbLine
 10
44.96829922
 20
45.41045788
 30
0.0
 11
44.71946216
 21
45.42344042
 31
0.0
  0
LINE
  5
331
100
AcDbEntity
  8
レイヤー_1
  6
CONTINUOUS
 62
       3
100
AcDbLine
 10
44.71946216
 20
45.42344042
 30
0.0
 11
44.49766987
 21
45.43501195
 31
0.0
  0
LINE
  5
332
100
AcDbEntity
  8
レイヤー_1
  6
CONTINUOUS
 62
       3
100
AcDbLine
 10
44.49766987
 20
45.43501195
 30
0.0
 11
44.21319184
 21
45.44985396
 31
0.0
  0
LINE
  5
333
100
AcDbEntity
  8
レイヤー_1
  6
CONTINUOUS
 62
       3
100
AcDbLine
 10
44.21319184
 20
45.44985396
 30
0.0
 11
43.87992226
 21
45.46724158
 31
0.0
  0
LINE
  5
334
100
AcDbEntity
  8
レイヤー_1
  6
CONTINUOUS
 62
       3
100
AcDbLine
 10
43.87992226
 20
45.46724158
 30
0.0
 11
43.5117555
 21
45.48644988
 31
0.0
  0
LINE
  5
335
100
AcDbEntity
  8
レイヤー_1
  6
CONTINUOUS
 62
       3
100
AcDbLine
 10
43.5117555
 20
45.48644988
 30
0.0
 11
43.12258576
 21
45.50675396
 31
0.0
  0
LINE
  5
336
100
AcDbEntity
  8
レイヤー_1
  6
CONTINUOUS
 62
       3
100
AcDbLine
 10
43.12258576
 20
45.50675396
 30
0.0
 11
42.72630731
 21
45.52742891
 31
0.0
  0
LINE
  5
337
100
AcDbEntity
  8
レイヤー_1
  6
CONTINUOUS
 62
       3
100
AcDbLine
 10
42.72630731
 20
45.52742891
 30
0.0
 11
42.33681444
 21
45.54774985
 31
0.0
  0
LINE
  5
338
100
AcDbEntity
  8
レイヤー_1
  6
CONTINUOUS
 62
       3
100
AcDbLine
 10
42.33681444
 20
45.54774985
 30
0.0
 11
41.96800142
 21
45.56699188
 31
0.0
  0
LINE
  5
339
100
AcDbEntity
  8
レイヤー_1
  6
CONTINUOUS
 62
       3
100
AcDbLine
 10
41.96800142
 20
45.56699188
 30
0.0
 11
41.63376249
 21
45.58443006
 31
0.0
  0
LINE
  5
33A
100
AcDbEntity
  8
レイヤー_1
  6
CONTINUOUS
 62
       3
100
AcDbLine
 10
41.63376249
 20
45.58443006
 30
0.0
 11
41.34799194
 21
45.5993395
 31
0.0
  0
LINE
  5
33B
100
AcDbEntity
  8
レイヤー_1
  6
CONTINUOUS
 62
       3
100
AcDbLine
 10
41.34799194
 20
45.5993395
 30
0.0
 11
41.12458404
 21
45.61099533
 31
0.0
  0
LINE
  5
33C
100
AcDbEntity
  8
レイヤー_1
  6
CONTINUOUS
 62
       3
100
AcDbLine
 10
41.12458404
 20
45.61099533
 30
0.0
 11
40.97743306
 21
45.6186726
 31
0.0
  0
LINE
  5
33D
100
AcDbEntity
  8
レイヤー_1
  6
CONTINUOUS
 62
       3
100
AcDbLine
 10
40.97743306
 20
45.6186726
 30
0.0
 11
40.92043325
 21
45.62164646
 31
0.0
  0
LINE
  5
33E
100
AcDbEntity
  8
レイヤー_1
  6
CONTINUOUS
 62
       3
100
AcDbLine
 10
40.92043325
 20
45.62164646
 30
0.0
 11
40.91937482
 21
45.61621595
 31
0.0
  0
LINE
  5
33F
100
AcDbEntity
  8
レイヤー_1
  6
CONTINUOUS
 62
       3
100
AcDbLine
 10
40.91937482
 20
45.61621595
 30
0.0
 11
40.91687746
 21
45.59929879
 31
0.0
  0
LINE
  5
340
100
AcDbEntity
  8
レイヤー_1
  6
CONTINUOUS
 62
       3
100
AcDbLine
 10
40.91687746
 20
45.59929879
 30
0.0
 11
40.91293785
 21
45.57261207
 31
0.0
  0
LINE
  5
341
100
AcDbEntity
  8
レイヤー_1
  6
CONTINUOUS
 62
       3
100
AcDbLine
 10
40.91293785
 20
45.57261207
 30
0.0
 11
40.90781232
 21
45.53789177
 31
0.0
  0
LINE
  5
342
100
AcDbEntity
  8
レイヤー_1
  6
CONTINUOUS
 62
       3
100
AcDbLine
 10
40.90781232
 20
45.53789177
 30
0.0
 11
40.90175708
 21
45.49687376
 31
0.0
  0
LINE
  5
343
100
AcDbEntity
  8
レイヤー_1
  6
CONTINUOUS
 62
       3
100
AcDbLine
 10
40.90175708
 20
45.49687376
 30
0.0
 11
40.8950284
 21
45.45129395
 31
0.0
  0
LINE
  5
344
100
AcDbEntity
  8
レイヤー_1
  6
CONTINUOUS
 62
       3
100
AcDbLine
 10
40.8950284
 20
45.45129395
 30
0.0
 11
40.88788256
 21
45.40288824
 31
0.0
  0
LINE
  5
345
100
AcDbEntity
  8
レイヤー_1
  6
CONTINUOUS
 62
       3
100
AcDbLine
 10
40.88788256
 20
45.40288824
 30
0.0
 11
40.88057584
 21
45.35339255
 31
0.0
  0
LINE
  5
346
100
AcDbEntity
  8
レイヤー_1
  6
CONTINUOUS
 62
       3
100
AcDbLine
 10
40.88057584
 20
45.35339255
 30
0.0
 11
40.87336444
 21
45.30454279
 31
0.0
  0
LINE
  5
347
100
AcDbEntity
  8
レイヤー_1
  6
CONTINUOUS
 62
       3
100
AcDbLine
 10
40.87336444
 20
45.30454279
 30
0.0
 11
40.86650465
 21
45.25807483
 31
0.0
  0
LINE
  5
348
100
AcDbEntity
  8
レイヤー_1
  6
CONTINUOUS
 62
       3
100
AcDbLine
 10
40.86650465
 20
45.25807483
 30
0.0
 11
40.86025276
 21
45.2157246
 31
0.0
  0
LINE
  5
349
100
AcDbEntity
  8
レイヤー_1
  6
CONTINUOUS
 62
       3
100
AcDbLine
 10
40.86025276
 20
45.2157246
 30
0.0
 11
40.85486498
 21
45.17922802
 31
0.0
  0
LINE
  5
34A
100
AcDbEntity
  8
レイヤー_1
  6
CONTINUOUS
 62
       3
100
AcDbLine
 10
40.85486498
 20
45.17922802
 30
0.0
 11
40.85059761
 21
45.15032098
 31
0.0
  0
LINE
  5
34B
100
AcDbEntity
  8
レイヤー_1
  6
CONTINUOUS
 62
       3
100
AcDbLine
 10
40.85059761
 20
45.15032098
 30
0.0
 11
40.84770691
 21
45.1307394
 31
0.0
  0
LINE
  5
34C
100
AcDbEntity
  8
レイヤー_1
  6
CONTINUOUS
 62
       3
100
AcDbLine
 10
40.84770691
 20
45.1307394
 30
0.0
 11
40.84644912
 21
45.12221915
 31
0.0
  0
LINE
  5
34D
100
AcDbEntity
  8
レイヤー_1
  6
CONTINUOUS
 62
       3
100
AcDbLine
 10
40.84644912
 20
45.12221915
 30
0.0
 11
40.83866253
 21
45.12199395
 31
0.0
  0
LINE
  5
34E
100
AcDbEntity
  8
レイヤー_1
  6
CONTINUOUS
 62
       3
100
AcDbLine
 10
40.83866253
 20
45.12199395
 30
0.0
 11
40.80967021
 21
45.12199395
 31
0.0
  0
LINE
  5
34F
100
AcDbEntity
  8
レイヤー_1
  6
CONTINUOUS
 62
       3
100
AcDbLine
 10
40.80967021
 20
45.12199395
 30
0.0
 11
40.76222732
 21
45.12199395
 31
0.0
  0
LINE
  5
350
100
AcDbEntity
  8
レイヤー_1
  6
CONTINUOUS
 62
       3
100
AcDbLine
 10
40.76222732
 20
45.12199395
 30
0.0
 11
40.69954594
 21
45.12199395
 31
0.0
  0
LINE
  5
351
100
AcDbEntity
  8
レイヤー_1
  6
CONTINUOUS
 62
       3
100
AcDbLine
 10
40.69954594
 20
45.12199395
 30
0.0
 11
40.62483806
 21
45.12199395
 31
0.0
  0
LINE
  5
352
100
AcDbEntity
  8
レイヤー_1
  6
CONTINUOUS
 62
       3
100
AcDbLine
 10
40.62483806
 20
45.12199395
 30
0.0
 11
40.54131576
 21
45.12199395
 31
0.0
  0
LINE
  5
353
100
AcDbEntity
  8
レイヤー_1
  6
CONTINUOUS
 62
       3
100
AcDbLine
 10
40.54131576
 20
45.12199395
 30
0.0
 11
40.45219104
 21
45.12199395
 31
0.0
  0
LINE
  5
354
100
AcDbEntity
  8
レイヤー_1
  6
CONTINUOUS
 62
       3
100
AcDbLine
 10
40.45219104
 20
45.12199395
 30
0.0
 11
40.36067598
 21
45.12199395
 31
0.0
  0
LINE
  5
355
100
AcDbEntity
  8
レイヤー_1
  6
CONTINUOUS
 62
       3
100
AcDbLine
 10
40.36067598
 20
45.12199395
 30
0.0
 11
40.26998261
 21
45.12199395
 31
0.0
  0
LINE
  5
356
100
AcDbEntity
  8
レイヤー_1
  6
CONTINUOUS
 62
       3
100
AcDbLine
 10
40.26998261
 20
45.12199395
 30
0.0
 11
40.18332296
 21
45.12199395
 31
0.0
  0
LINE
  5
357
100
AcDbEntity
  8
レイヤー_1
  6
CONTINUOUS
 62
       3
100
AcDbLine
 10
40.18332296
 20
45.12199395
 30
0.0
 11
40.10390908
 21
45.12199395
 31
0.0
  0
LINE
  5
358
100
AcDbEntity
  8
レイヤー_1
  6
CONTINUOUS
 62
       3
100
AcDbLine
 10
40.10390908
 20
45.12199395
 30
0.0
 11
40.03495299
 21
45.12199395
 31
0.0
  0
LINE
  5
359
100
AcDbEntity
  8
レイヤー_1
  6
CONTINUOUS
 62
       3
100
AcDbLine
 10
40.03495299
 20
45.12199395
 30
0.0
 11
39.97966676
 21
45.12199395
 31
0.0
  0
LINE
  5
35A
100
AcDbEntity
  8
レイヤー_1
  6
CONTINUOUS
 62
       3
100
AcDbLine
 10
39.97966676
 20
45.12199395
 30
0.0
 11
39.94126241
 21
45.12199395
 31
0.0
  0
LINE
  5
35B
100
AcDbEntity
  8
レイヤー_1
  6
CONTINUOUS
 62
       3
100
AcDbLine
 10
39.94126241
 20
45.12199395
 30
0.0
 11
39.92295198
 21
45.12199395
 31
0.0
  0
LINE
  5
35C
100
AcDbEntity
  8
レイヤー_1
  6
CONTINUOUS
 62
       3
100
AcDbLine
 10
39.92295198
 20
45.12199395
 30
0.0
 11
39.92185733
 21
45.12508883
 31
0.0
  0
LINE
  5
35D
100
AcDbEntity
  8
レイヤー_1
  6
CONTINUOUS
 62
       3
100
AcDbLine
 10
39.92185733
 20
45.12508883
 30
0.0
 11
39.92185733
 21
45.13948522
 31
0.0
  0
LINE
  5
35E
100
AcDbEntity
  8
レイヤー_1
  6
CONTINUOUS
 62
       3
100
AcDbLine
 10
39.92185733
 20
45.13948522
 30
0.0
 11
39.92185733
 21
45.16405485
 31
0.0
  0
LINE
  5
35F
100
AcDbEntity
  8
レイヤー_1
  6
CONTINUOUS
 62
       3
100
AcDbLine
 10
39.92185733
 20
45.16405485
 30
0.0
 11
39.92185733
 21
45.1970618
 31
0.0
  0
LINE
  5
360
100
AcDbEntity
  8
レイヤー_1
  6
CONTINUOUS
 62
       3
100
AcDbLine
 10
39.92185733
 20
45.1970618
 30
0.0
 11
39.92185733
 21
45.23677013
 31
0.0
  0
LINE
  5
361
100
AcDbEntity
  8
レイヤー_1
  6
CONTINUOUS
 62
       3
100
AcDbLine
 10
39.92185733
 20
45.23677013
 30
0.0
 11
39.92185733
 21
45.28144398
 31
0.0
  0
LINE
  5
362
100
AcDbEntity
  8
レイヤー_1
  6
CONTINUOUS
 62
       3
100
AcDbLine
 10
39.92185733
 20
45.28144398
 30
0.0
 11
39.92185733
 21
45.3293474
 31
0.0
  0
LINE
  5
363
100
AcDbEntity
  8
レイヤー_1
  6
CONTINUOUS
 62
       3
100
AcDbLine
 10
39.92185733
 20
45.3293474
 30
0.0
 11
39.92185733
 21
45.37874452
 31
0.0
  0
LINE
  5
364
100
AcDbEntity
  8
レイヤー_1
  6
CONTINUOUS
 62
       3
100
AcDbLine
 10
39.92185733
 20
45.37874452
 30
0.0
 11
39.92185733
 21
45.4278994
 31
0.0
  0
LINE
  5
365
100
AcDbEntity
  8
レイヤー_1
  6
CONTINUOUS
 62
       3
100
AcDbLine
 10
39.92185733
 20
45.4278994
 30
0.0
 11
39.92185733
 21
45.47507618
 31
0.0
  0
LINE
  5
366
100
AcDbEntity
  8
レイヤー_1
  6
CONTINUOUS
 62
       3
100
AcDbLine
 10
39.92185733
 20
45.47507618
 30
0.0
 11
39.92185733
 21
45.51853893
 31
0.0
  0
LINE
  5
367
100
AcDbEntity
  8
レイヤー_1
  6
CONTINUOUS
 62
       3
100
AcDbLine
 10
39.92185733
 20
45.51853893
 30
0.0
 11
39.92185733
 21
45.55655172
 31
0.0
  0
LINE
  5
368
100
AcDbEntity
  8
レイヤー_1
  6
CONTINUOUS
 62
       3
100
AcDbLine
 10
39.92185733
 20
45.55655172
 30
0.0
 11
39.92185733
 21
45.58737867
 31
0.0
  0
LINE
  5
369
100
AcDbEntity
  8
レイヤー_1
  6
CONTINUOUS
 62
       3
100
AcDbLine
 10
39.92185733
 20
45.58737867
 30
0.0
 11
39.92185733
 21
45.60928389
 31
0.0
  0
LINE
  5
36A
100
AcDbEntity
  8
レイヤー_1
  6
CONTINUOUS
 62
       3
100
AcDbLine
 10
39.92185733
 20
45.60928389
 30
0.0
 11
39.92185733
 21
45.62053145
 31
0.0
  0
LINE
  5
36B
100
AcDbEntity
  8
レイヤー_1
  6
CONTINUOUS
 62
       3
100
AcDbLine
 10
39.92185733
 20
45.62053145
 30
0.0
 11
39.84269088
 21
45.62165975
 31
0.0
  0
LINE
  5
36C
100
AcDbEntity
  8
レイヤー_1
  6
CONTINUOUS
 62
       3
100
AcDbLine
 10
39.84269088
 20
45.62165975
 30
0.0
 11
39.36266319
 21
45.62165975
 31
0.0
  0
LINE
  5
36D
100
AcDbEntity
  8
レイヤー_1
  6
CONTINUOUS
 62
       3
100
AcDbLine
 10
39.36266319
 20
45.62165975
 30
0.0
 11
38.50248222
 21
45.62165975
 31
0.0
  0
LINE
  5
36E
100
AcDbEntity
  8
レイヤー_1
  6
CONTINUOUS
 62
       3
100
AcDbLine
 10
38.50248222
 20
45.62165975
 30
0.0
 11
37.32575338
 21
45.62165975
 31
0.0
  0
LINE
  5
36F
100
AcDbEntity
  8
レイヤー_1
  6
CONTINUOUS
 62
       3
100
AcDbLine
 10
37.32575338
 20
45.62165975
 30
0.0
 11
35.89608206
 21
45.62165975
 31
0.0
  0
LINE
  5
370
100
AcDbEntity
  8
レイヤー_1
  6
CONTINUOUS
 62
       3
100
AcDbLine
 10
35.89608206
 20
45.62165975
 30
0.0
 11
34.27707369
 21
45.62165975
 31
0.0
  0
LINE
  5
371
100
AcDbEntity
  8
レイヤー_1
  6
CONTINUOUS
 62
       3
100
AcDbLine
 10
34.27707369
 20
45.62165975
 30
0.0
 11
32.53233368
 21
45.62165975
 31
0.0
  0
LINE
  5
372
100
AcDbEntity
  8
レイヤー_1
  6
CONTINUOUS
 62
       3
100
AcDbLine
 10
32.53233368
 20
45.62165975
 30
0.0
 11
30.72546745
 21
45.62165975
 31
0.0
  0
LINE
  5
373
100
AcDbEntity
  8
レイヤー_1
  6
CONTINUOUS
 62
       3
100
AcDbLine
 10
30.72546745
 20
45.62165975
 30
0.0
 11
28.92008041
 21
45.62165975
 31
0.0
  0
LINE
  5
374
100
AcDbEntity
  8
レイヤー_1
  6
CONTINUOUS
 62
       3
100
AcDbLine
 10
28.92008041
 20
45.62165975
 30
0.0
 11
27.179778
 21
45.62165975
 31
0.0
  0
LINE
  5
375
100
AcDbEntity
  8
レイヤー_1
  6
CONTINUOUS
 62
       3
100
AcDbLine
 10
27.179778
 20
45.62165975
 30
0.0
 11
25.5681656
 21
45.62165975
 31
0.0
  0
LINE
  5
376
100
AcDbEntity
  8
レイヤー_1
  6
CONTINUOUS
 62
       3
100
AcDbLine
 10
25.5681656
 20
45.62165975
 30
0.0
 11
24.14884865
 21
45.62165975
 31
0.0
  0
LINE
  5
377
100
AcDbEntity
  8
レイヤー_1
  6
CONTINUOUS
 62
       3
100
AcDbLine
 10
24.14884865
 20
45.62165975
 30
0.0
 11
22.98543255
 21
45.62165975
 31
0.0
  0
LINE
  5
378
100
AcDbEntity
  8
レイヤー_1
  6
CONTINUOUS
 62
       3
100
AcDbLine
 10
22.98543255
 20
45.62165975
 30
0.0
 11
22.14152275
 21
45.62165975
 31
0.0
  0
LINE
  5
379
100
AcDbEntity
  8
レイヤー_1
  6
CONTINUOUS
 62
       3
100
AcDbLine
 10
22.14152275
 20
45.62165975
 30
0.0
 11
21.6807246
 21
45.62165975
 31
0.0
  0
LINE
  5
37A
100
AcDbEntity
  8
レイヤー_1
  6
CONTINUOUS
 62
       3
100
AcDbLine
 10
21.6807246
 20
45.62165975
 30
0.0
 11
21.61357709
 21
45.6272242
 31
0.0
  0
LINE
  5
37B
100
AcDbEntity
  8
レイヤー_1
  6
CONTINUOUS
 62
       3
100
AcDbLine
 10
21.61357709
 20
45.6272242
 30
0.0
 11
21.61357709
 21
45.67438693
 31
0.0
  0
LINE
  5
37C
100
AcDbEntity
  8
レイヤー_1
  6
CONTINUOUS
 62
       3
100
AcDbLine
 10
21.61357709
 20
45.67438693
 30
0.0
 11
21.61357709
 21
45.76388942
 31
0.0
  0
LINE
  5
37D
100
AcDbEntity
  8
レイヤー_1
  6
CONTINUOUS
 62
       3
100
AcDbLine
 10
21.61357709
 20
45.76388942
 30
0.0
 11
21.61357709
 21
45.88878278
 31
0.0
  0
LINE
  5
37E
100
AcDbEntity
  8
レイヤー_1
  6
CONTINUOUS
 62
       3
100
AcDbLine
 10
21.61357709
 20
45.88878278
 30
0.0
 11
21.61357709
 21
46.04211808
 31
0.0
  0
LINE
  5
37F
100
AcDbEntity
  8
レイヤー_1
  6
CONTINUOUS
 62
       3
100
AcDbLine
 10
21.61357709
 20
46.04211808
 30
0.0
 11
21.61357709
 21
46.21694647
 31
0.0
  0
LINE
  5
380
100
AcDbEntity
  8
レイヤー_1
  6
CONTINUOUS
 62
       3
100
AcDbLine
 10
21.61357709
 20
46.21694647
 30
0.0
 11
21.61357709
 21
46.40631905
 31
0.0
  0
LINE
  5
381
100
AcDbEntity
  8
レイヤー_1
  6
CONTINUOUS
 62
       3
100
AcDbLine
 10
21.61357709
 20
46.40631905
 30
0.0
 11
21.61357709
 21
46.60328692
 31
0.0
  0
LINE
  5
382
100
AcDbEntity
  8
レイヤー_1
  6
CONTINUOUS
 62
       3
100
AcDbLine
 10
21.61357709
 20
46.60328692
 30
0.0
 11
21.61357709
 21
46.8009012
 31
0.0
  0
LINE
  5
383
100
AcDbEntity
  8
レイヤー_1
  6
CONTINUOUS
 62
       3
100
AcDbLine
 10
21.61357709
 20
46.8009012
 30
0.0
 11
21.61357709
 21
46.99221299
 31
0.0
  0
LINE
  5
384
100
AcDbEntity
  8
レイヤー_1
  6
CONTINUOUS
 62
       3
100
AcDbLine
 10
21.61357709
 20
46.99221299
 30
0.0
 11
21.61357709
 21
47.17027342
 31
0.0
  0
LINE
  5
385
100
AcDbEntity
  8
レイヤー_1
  6
CONTINUOUS
 62
       3
100
AcDbLine
 10
21.61357709
 20
47.17027342
 30
0.0
 11
21.61357709
 21
47.32813358
 31
0.0
  0
LINE
  5
386
100
AcDbEntity
  8
レイヤー_1
  6
CONTINUOUS
 62
       3
100
AcDbLine
 10
21.61357709
 20
47.32813358
 30
0.0
 11
21.61357709
 21
47.4588446
 31
0.0
  0
LINE
  5
387
100
AcDbEntity
  8
レイヤー_1
  6
CONTINUOUS
 62
       3
100
AcDbLine
 10
21.61357709
 20
47.4588446
 30
0.0
 11
21.61357709
 21
47.55545759
 31
0.0
  0
LINE
  5
388
100
AcDbEntity
  8
レイヤー_1
  6
CONTINUOUS
 62
       3
100
AcDbLine
 10
21.61357709
 20
47.55545759
 30
0.0
 11
21.61357709
 21
47.61102363
 31
0.0
  0
LINE
  5
389
100
AcDbEntity
  8
レイヤー_1
  6
CONTINUOUS
 62
       3
100
AcDbLine
 10
21.61357709
 20
47.61102363
 30
0.0
 11
21.61144113
 21
47.73594433
 31
0.0
  0
LINE
  5
38A
100
AcDbEntity
  8
レイヤー_1
  6
CONTINUOUS
 62
       3
100
AcDbLine
 10
21.61144113
 20
47.73594433
 30
0.0
 11
21.582188
 21
48.05680977
 31
0.0
  0
LINE
  5
38B
100
AcDbEntity
  8
レイヤー_1
  6
CONTINUOUS
 62
       3
100
AcDbLine
 10
21.582188
 20
48.05680977
 30
0.0
 11
21.52004706
 21
48.36702802
 31
0.0
  0
LINE
  5
38C
100
AcDbEntity
  8
レイヤー_1
  6
CONTINUOUS
 62
       3
100
AcDbLine
 10
21.52004706
 20
48.36702802
 30
0.0
 11
21.42681743
 21
48.66481311
 31
0.0
  0
LINE
  5
38D
100
AcDbEntity
  8
レイヤー_1
  6
CONTINUOUS
 62
       3
100
AcDbLine
 10
21.42681743
 20
48.66481311
 30
0.0
 11
21.30429819
 21
48.94837915
 31
0.0
  0
LINE
  5
38E
100
AcDbEntity
  8
レイヤー_1
  6
CONTINUOUS
 62
       3
100
AcDbLine
 10
21.30429819
 20
48.94837915
 30
0.0
 11
21.15428841
 21
49.2159402
 31
0.0
  0
LINE
  5
38F
100
AcDbEntity
  8
レイヤー_1
  6
CONTINUOUS
 62
       3
100
AcDbLine
 10
21.15428841
 20
49.2159402
 30
0.0
 11
20.97858722
 21
49.46571035
 31
0.0
  0
LINE
  5
390
100
AcDbEntity
  8
レイヤー_1
  6
CONTINUOUS
 62
       3
100
AcDbLine
 10
20.97858722
 20
49.46571035
 30
0.0
 11
20.77899373
 21
49.69590363
 31
0.0
  0
LINE
  5
391
100
AcDbEntity
  8
レイヤー_1
  6
CONTINUOUS
 62
       3
100
AcDbLine
 10
20.77899373
 20
49.69590363
 30
0.0
 11
20.55730697
 21
49.9047341
 31
0.0
  0
LINE
  5
392
100
AcDbEntity
  8
レイヤー_1
  6
CONTINUOUS
 62
       3
100
AcDbLine
 10
20.55730697
 20
49.9047341
 30
0.0
 11
20.31532608
 21
50.09041588
 31
0.0
  0
LINE
  5
393
100
AcDbEntity
  8
レイヤー_1
  6
CONTINUOUS
 62
       3
100
AcDbLine
 10
20.31532608
 20
50.09041588
 30
0.0
 11
20.05485013
 21
50.25116302
 31
0.0
  0
LINE
  5
394
100
AcDbEntity
  8
レイヤー_1
  6
CONTINUOUS
 62
       3
100
AcDbLine
 10
20.05485013
 20
50.25116302
 30
0.0
 11
19.77767823
 21
50.3851896
 31
0.0
  0
LINE
  5
395
100
AcDbEntity
  8
レイヤー_1
  6
CONTINUOUS
 62
       3
100
AcDbLine
 10
19.77767823
 20
50.3851896
 30
0.0
 11
19.48560948
 21
50.49070967
 31
0.0
  0
LINE
  5
396
100
AcDbEntity
  8
レイヤー_1
  6
CONTINUOUS
 62
       3
100
AcDbLine
 10
19.48560948
 20
50.49070967
 30
0.0
 11
19.18044294
 21
50.56593734
 31
0.0
  0
LINE
  5
397
100
AcDbEntity
  8
レイヤー_1
  6
CONTINUOUS
 62
       3
100
AcDbLine
 10
19.18044294
 20
50.56593734
 30
0.0
 11
18.86397772
 21
50.60908661
 31
0.0
  0
LINE
  5
398
100
AcDbEntity
  8
レイヤー_1
  6
CONTINUOUS
 62
       3
100
AcDbLine
 10
18.86397772
 20
50.60908661
 30
0.0
 11
18.58329221
 21
50.61932817
 31
0.0
  0
LINE
  5
399
100
AcDbEntity
  8
レイヤー_1
  6
CONTINUOUS
 62
       3
100
AcDbLine
 10
18.58329221
 20
50.61932817
 30
0.0
 11
17.77507892
 21
50.61932817
 31
0.0
  0
LINE
  5
39A
100
AcDbEntity
  8
レイヤー_1
  6
CONTINUOUS
 62
       3
100
AcDbLine
 10
17.77507892
 20
50.61932817
 30
0.0
 11
15.98874721
 21
50.61932817
 31
0.0
  0
LINE
  5
39B
100
AcDbEntity
  8
レイヤー_1
  6
CONTINUOUS
 62
       3
100
AcDbLine
 10
15.98874721
 20
50.61932817
 30
0.0
 11
13.37892609
 21
50.61932817
 31
0.0
  0
LINE
  5
39C
100
AcDbEntity
  8
レイヤー_1
  6
CONTINUOUS
 62
       3
100
AcDbLine
 10
13.37892609
 20
50.61932817
 30
0.0
 11
10.10024459
 21
50.61932817
 31
0.0
  0
LINE
  5
39D
100
AcDbEntity
  8
レイヤー_1
  6
CONTINUOUS
 62
       3
100
AcDbLine
 10
10.10024459
 20
50.61932817
 30
0.0
 11
6.30733169
 21
50.61932817
 31
0.0
  0
LINE
  5
39E
100
AcDbEntity
  8
レイヤー_1
  6
CONTINUOUS
 62
       3
100
AcDbLine
 10
6.30733169
 20
50.61932817
 30
0.0
 11
2.15481642
 21
50.61932817
 31
0.0
  0
LINE
  5
39F
100
AcDbEntity
  8
レイヤー_1
  6
CONTINUOUS
 62
       3
100
AcDbLine
 10
2.15481642
 20
50.61932817
 30
0.0
 11
-2.20267219
 21
50.61932817
 31
0.0
  0
LINE
  5
3A0
100
AcDbEntity
  8
レイヤー_1
  6
CONTINUOUS
 62
       3
100
AcDbLine
 10
-2.20267219
 20
50.61932817
 30
0.0
 11
-6.61050514
 21
50.61932817
 31
0.0
  0
LINE
  5
3A1
100
AcDbEntity
  8
レイヤー_1
  6
CONTINUOUS
 62
       3
100
AcDbLine
 10
-6.61050514
 20
50.61932817
 30
0.0
 11
-10.91405339
 21
50.61932817
 31
0.0
  0
LINE
  5
3A2
100
AcDbEntity
  8
レイヤー_1
  6
CONTINUOUS
 62
       3
100
AcDbLine
 10
-10.91405339
 20
50.61932817
 30
0.0
 11
-14.95868794
 21
50.61932817
 31
0.0
  0
LINE
  5
3A3
100
AcDbEntity
  8
レイヤー_1
  6
CONTINUOUS
 62
       3
100
AcDbLine
 10
-14.95868794
 20
50.61932817
 30
0.0
 11
-18.58977977
 21
50.61932817
 31
0.0
  0
LINE
  5
3A4
100
AcDbEntity
  8
レイヤー_1
  6
CONTINUOUS
 62
       3
100
AcDbLine
 10
-18.58977977
 20
50.61932817
 30
0.0
 11
-21.65269988
 21
50.61932817
 31
0.0
  0
LINE
  5
3A5
100
AcDbEntity
  8
レイヤー_1
  6
CONTINUOUS
 62
       3
100
AcDbLine
 10
-21.65269988
 20
50.61932817
 30
0.0
 11
-23.99281921
 21
50.61932817
 31
0.0
  0
LINE
  5
3A6
100
AcDbEntity
  8
レイヤー_1
  6
CONTINUOUS
 62
       3
100
AcDbLine
 10
-23.99281921
 20
50.61932817
 30
0.0
 11
-25.45550881
 21
50.61932817
 31
0.0
  0
LINE
  5
3A7
100
AcDbEntity
  8
レイヤー_1
  6
CONTINUOUS
 62
       3
100
AcDbLine
 10
-25.45550881
 20
50.61932817
 30
0.0
 11
-25.89408106
 21
50.61844554
 31
0.0
  0
LINE
  5
3A8
100
AcDbEntity
  8
レイヤー_1
  6
CONTINUOUS
 62
       3
100
AcDbLine
 10
-25.89408106
 20
50.61844554
 30
0.0
 11
-25.89408106
 21
50.54159264
 31
0.0
  0
LINE
  5
3A9
100
AcDbEntity
  8
レイヤー_1
  6
CONTINUOUS
 62
       3
100
AcDbLine
 10
-25.89408106
 20
50.54159264
 30
0.0
 11
-25.89408106
 21
50.35289246
 31
0.0
  0
LINE
  5
3AA
100
AcDbEntity
  8
レイヤー_1
  6
CONTINUOUS
 62
       3
100
AcDbLine
 10
-25.89408106
 20
50.35289246
 30
0.0
 11
-25.89408106
 21
50.06970761
 31
0.0
  0
LINE
  5
3AB
100
AcDbEntity
  8
レイヤー_1
  6
CONTINUOUS
 62
       3
100
AcDbLine
 10
-25.89408106
 20
50.06970761
 30
0.0
 11
-25.89408106
 21
49.70940068
 31
0.0
  0
LINE
  5
3AC
100
AcDbEntity
  8
レイヤー_1
  6
CONTINUOUS
 62
       3
100
AcDbLine
 10
-25.89408106
 20
49.70940068
 30
0.0
 11
-25.89408106
 21
49.28933419
 31
0.0
  0
LINE
  5
3AD
100
AcDbEntity
  8
レイヤー_1
  6
CONTINUOUS
 62
       3
100
AcDbLine
 10
-25.89408106
 20
49.28933419
 30
0.0
 11
-25.89408106
 21
48.82687071
 31
0.0
  0
LINE
  5
3AE
100
AcDbEntity
  8
レイヤー_1
  6
CONTINUOUS
 62
       3
100
AcDbLine
 10
-25.89408106
 20
48.82687071
 30
0.0
 11
-25.89408106
 21
48.33937285
 31
0.0
  0
LINE
  5
3AF
100
AcDbEntity
  8
レイヤー_1
  6
CONTINUOUS
 62
       3
100
AcDbLine
 10
-25.89408106
 20
48.33937285
 30
0.0
 11
-25.89408106
 21
47.84420314
 31
0.0
  0
LINE
  5
3B0
100
AcDbEntity
  8
レイヤー_1
  6
CONTINUOUS
 62
       3
100
AcDbLine
 10
-25.89408106
 20
47.84420314
 30
0.0
 11
-25.89408106
 21
47.35872419
 31
0.0
  0
LINE
  5
3B1
100
AcDbEntity
  8
レイヤー_1
  6
CONTINUOUS
 62
       3
100
AcDbLine
 10
-25.89408106
 20
47.35872419
 30
0.0
 11
-25.89408106
 21
46.90029854
 31
0.0
  0
LINE
  5
3B2
100
AcDbEntity
  8
レイヤー_1
  6
CONTINUOUS
 62
       3
100
AcDbLine
 10
-25.89408106
 20
46.90029854
 30
0.0
 11
-25.89408106
 21
46.48628876
 31
0.0
  0
LINE
  5
3B3
100
AcDbEntity
  8
レイヤー_1
  6
CONTINUOUS
 62
       3
100
AcDbLine
 10
-25.89408106
 20
46.48628876
 30
0.0
 11
-25.89408106
 21
46.13405743
 31
0.0
  0
LINE
  5
3B4
100
AcDbEntity
  8
レイヤー_1
  6
CONTINUOUS
 62
       3
100
AcDbLine
 10
-25.89408106
 20
46.13405743
 30
0.0
 11
-25.89408106
 21
45.86096709
 31
0.0
  0
LINE
  5
3B5
100
AcDbEntity
  8
レイヤー_1
  6
CONTINUOUS
 62
       3
100
AcDbLine
 10
-25.89408106
 20
45.86096709
 30
0.0
 11
-25.89408106
 21
45.68438034
 31
0.0
  0
LINE
  5
3B6
100
AcDbEntity
  8
レイヤー_1
  6
CONTINUOUS
 62
       3
100
AcDbLine
 10
-25.89408106
 20
45.68438034
 30
0.0
 11
-25.89408106
 21
45.62163451
 31
0.0
  0
LINE
  5
3B7
100
AcDbEntity
  8
レイヤー_1
  6
CONTINUOUS
 62
       3
100
AcDbLine
 10
-16.04374331
 20
45.62163451
 30
0.0
 11
-20.00469361
 21
45.62163451
 31
0.0
  0
LINE
  5
3B8
100
AcDbEntity
  8
レイヤー_1
  6
CONTINUOUS
 62
       3
100
AcDbLine
 10
-16.04374331
 20
-45.81768634
 30
0.0
 11
-16.87028855
 21
-45.81768634
 31
0.0
  0
LINE
  5
3B9
100
AcDbEntity
  8
レイヤー_1
  6
CONTINUOUS
 62
       3
100
AcDbLine
 10
-16.04374331
 20
-44.41872315
 30
0.0
 11
-34.031712
 21
-44.41872315
 31
0.0
  0
LINE
  5
3BA
100
AcDbEntity
  8
レイヤー_1
  6
CONTINUOUS
 62
       3
100
AcDbLine
 10
-16.04374331
 20
44.12367279
 30
0.0
 11
-34.031712
 21
44.12367279
 31
0.0
  0
LINE
  5
3BB
100
AcDbEntity
  8
レイヤー_1
  6
CONTINUOUS
 62
       3
100
AcDbLine
 10
-25.89408106
 20
45.62163451
 30
0.0
 11
-34.03170078
 21
45.62163451
 31
0.0
  0
LINE
  5
3BC
100
AcDbEntity
  8
レイヤー_1
  6
CONTINUOUS
 62
       3
100
AcDbLine
 10
-34.03170078
 20
45.62163451
 30
0.0
 11
-34.03170078
 21
55.0
 31
0.0
  0
LINE
  5
3BD
100
AcDbEntity
  8
レイヤー_1
  6
CONTINUOUS
 62
       3
100
AcDbLine
 10
161.70491198
 20
-44.31818373
 30
0.0
 11
161.70491198
 21
-43.81851793
 31
0.0
  0
LINE
  5
3BE
100
AcDbEntity
  8
レイヤー_1
  6
CONTINUOUS
 62
       3
100
AcDbLine
 10
161.70491198
 20
-44.31818373
 30
0.0
 11
163.20542504
 21
-44.31818373
 31
0.0
  0
LINE
  5
3BF
100
AcDbEntity
  8
レイヤー_1
  6
CONTINUOUS
 62
       3
100
AcDbLine
 10
131.72294327
 20
-47.81634954
 30
0.0
 11
131.72294327
 21
-50.81535477
 31
0.0
  0
LINE
  5
3C0
100
AcDbEntity
  8
レイヤー_1
  6
CONTINUOUS
 62
       3
100
AcDbLine
 10
131.72294327
 20
-50.81535477
 30
0.0
 11
129.92535892
 21
-50.81535477
 31
0.0
  0
LINE
  5
3C1
100
AcDbEntity
  8
レイヤー_1
  6
CONTINUOUS
 62
       3
100
AcDbLine
 10
129.92535892
 20
-50.81535477
 30
0.0
 11
129.92535892
 21
-47.81634954
 31
0.0
  0
LINE
  5
3C2
100
AcDbEntity
  8
レイヤー_1
  6
CONTINUOUS
 62
       3
100
AcDbLine
 10
158.50785924
 20
-47.81634954
 30
0.0
 11
158.50785924
 21
-50.81535477
 31
0.0
  0
LINE
  5
3C3
100
AcDbEntity
  8
レイヤー_1
  6
CONTINUOUS
 62
       3
100
AcDbLine
 10
158.50785924
 20
-50.81535477
 30
0.0
 11
156.70724355
 21
-50.81535477
 31
0.0
  0
LINE
  5
3C4
100
AcDbEntity
  8
レイヤー_1
  6
CONTINUOUS
 62
       3
100
AcDbLine
 10
156.70724355
 20
-50.81535477
 30
0.0
 11
156.70724355
 21
-47.81634954
 31
0.0
  0
LINE
  5
3C5
100
AcDbEntity
  8
レイヤー_1
  6
CONTINUOUS
 62
       3
100
AcDbLine
 10
163.20542504
 20
-42.8201968
 30
0.0
 11
165.70324882
 21
-42.8201968
 31
0.0
  0
LINE
  5
3C6
100
AcDbEntity
  8
レイヤー_1
  6
CONTINUOUS
 62
       3
100
AcDbLine
 10
122.72996937
 20
-47.81634954
 30
0.0
 11
129.92535892
 21
-47.81634954
 31
0.0
  0
LINE
  5
3C7
100
AcDbEntity
  8
レイヤー_1
  6
CONTINUOUS
 62
       3
100
AcDbLine
 10
131.72294327
 20
-47.81634954
 30
0.0
 11
131.72294327
 21
-47.4328851
 31
0.0
  0
LINE
  5
3C8
100
AcDbEntity
  8
レイヤー_1
  6
CONTINUOUS
 62
       3
100
AcDbLine
 10
131.72294327
 20
-47.4328851
 30
0.0
 11
156.70724355
 21
-47.4328851
 31
0.0
  0
LINE
  5
3C9
100
AcDbEntity
  8
レイヤー_1
  6
CONTINUOUS
 62
       3
100
AcDbLine
 10
156.70724355
 20
-47.81634954
 30
0.0
 11
156.70724355
 21
-47.4328851
 31
0.0
  0
LINE
  5
3CA
100
AcDbEntity
  8
レイヤー_1
  6
CONTINUOUS
 62
       3
100
AcDbLine
 10
165.70324882
 20
-47.81634954
 30
0.0
 11
158.50785924
 21
-47.81634954
 31
0.0
  0
LINE
  5
3CB
100
AcDbEntity
  8
レイヤー_1
  6
CONTINUOUS
 62
       3
100
AcDbLine
 10
165.70324882
 20
-47.81634954
 30
0.0
 11
165.70324882
 21
-42.8201968
 31
0.0
  0
LINE
  5
3CC
100
AcDbEntity
  8
レイヤー_1
  6
CONTINUOUS
 62
       3
100
AcDbLine
 10
163.20542504
 20
-42.8201968
 30
0.0
 11
163.20542504
 21
-44.41872315
 31
0.0
  0
LINE
  5
3CD
100
AcDbEntity
  8
レイヤー_1
  6
CONTINUOUS
 62
       3
100
AcDbLine
 10
125.22779312
 20
-42.8201968
 30
0.0
 11
125.22779312
 21
-44.41872315
 31
0.0
  0
LINE
  5
3CE
100
AcDbEntity
  8
レイヤー_1
  6
CONTINUOUS
 62
       3
100
AcDbLine
 10
125.22779312
 20
-42.8201968
 30
0.0
 11
122.72996937
 21
-42.8201968
 31
0.0
  0
LINE
  5
3CF
100
AcDbEntity
  8
レイヤー_1
  6
CONTINUOUS
 62
       3
100
AcDbLine
 10
122.72996937
 20
-47.81634954
 30
0.0
 11
122.72996937
 21
-42.8201968
 31
0.0
  0
LINE
  5
3D0
100
AcDbEntity
  8
レイヤー_1
  6
CONTINUOUS
 62
       3
100
AcDbLine
 10
154.21144069
 20
-49.01574956
 30
0.0
 11
154.21144069
 21
-48.71463649
 31
0.0
  0
LINE
  5
3D1
100
AcDbEntity
  8
レイヤー_1
  6
CONTINUOUS
 62
       3
100
AcDbLine
 10
134.22278791
 20
-49.01574956
 30
0.0
 11
134.22278791
 21
-48.71463649
 31
0.0
  0
LINE
  5
3D2
100
AcDbEntity
  8
レイヤー_1
  6
CONTINUOUS
 62
       3
100
AcDbLine
 10
154.21144069
 20
-50.51424172
 30
0.0
 11
154.21144069
 21
-49.01574956
 31
0.0
  0
LINE
  5
3D3
100
AcDbEntity
  8
レイヤー_1
  6
CONTINUOUS
 62
       3
100
AcDbLine
 10
134.22278791
 20
-50.51424172
 30
0.0
 11
134.22278791
 21
-49.01574956
 31
0.0
  0
LINE
  5
3D4
100
AcDbEntity
  8
レイヤー_1
  6
CONTINUOUS
 62
       3
100
AcDbLine
 10
134.22278791
 20
-49.01574956
 30
0.0
 11
154.21144069
 21
-49.01574956
 31
0.0
  0
LINE
  5
3D5
100
AcDbEntity
  8
レイヤー_1
  6
CONTINUOUS
 62
       3
100
AcDbLine
 10
134.22278791
 20
-50.51424172
 30
0.0
 11
154.21144069
 21
-50.51424172
 31
0.0
  0
LINE
  5
3D6
100
AcDbEntity
  8
レイヤー_1
  6
CONTINUOUS
 62
       3
100
AcDbLine
 10
116.73016809
 20
-41.79771011
 30
0.0
 11
127.02739836
 21
-42.31901531
 31
0.0
  0
LINE
  5
3D7
100
AcDbEntity
  8
レイヤー_1
  6
CONTINUOUS
 62
       3
100
AcDbLine
 10
127.02739836
 20
45.75000001
 30
0.0
 11
127.02739836
 21
42.12450439
 31
0.0
  0
LINE
  5
3D8
100
AcDbEntity
  8
レイヤー_1
  6
CONTINUOUS
 62
       3
100
AcDbLine
 10
127.02739836
 20
-42.31901531
 30
0.0
 11
127.02739836
 21
-45.74999999
 31
0.0
  0
LINE
  5
3D9
100
AcDbEntity
  8
レイヤー_1
  6
CONTINUOUS
 62
       3
100
AcDbLine
 10
127.02739836
 20
42.12450439
 30
0.0
 11
116.41023232
 21
41.58591303
 31
0.0
  0
LINE
  5
3DA
100
AcDbEntity
  8
レイヤー_1
  6
CONTINUOUS
 62
       3
100
AcDbLine
 10
161.40683028
 20
-45.74999999
 30
0.0
 11
161.40683028
 21
-42.31901531
 31
0.0
  0
LINE
  5
3DB
100
AcDbEntity
  8
レイヤー_1
  6
CONTINUOUS
 62
       3
100
AcDbLine
 10
161.40683028
 20
42.12450439
 30
0.0
 11
161.40683028
 21
45.75000001
 31
0.0
  0
LINE
  5
3DC
100
AcDbEntity
  8
レイヤー_1
  6
CONTINUOUS
 62
       3
100
AcDbLine
 10
161.40683028
 20
-42.31901531
 30
0.0
 11
171.60232251
 21
-41.80280772
 31
0.0
  0
LINE
  5
3DD
100
AcDbEntity
  8
レイヤー_1
  6
CONTINUOUS
 62
       3
100
AcDbLine
 10
171.92238323
 20
41.59101297
 30
0.0
 11
161.40683028
 21
42.12450439
 31
0.0
  0
LINE
  5
3DE
100
AcDbEntity
  8
レイヤー_1
  6
CONTINUOUS
 62
       3
100
AcDbLine
 10
117.73230094
 20
50.61932817
 30
0.0
 11
117.73230094
 21
45.62165975
 31
0.0
  0
LINE
  5
3DF
100
AcDbEntity
  8
レイヤー_1
  6
CONTINUOUS
 62
       3
100
AcDbLine
 10
170.70091722
 20
45.62165975
 30
0.0
 11
170.70091722
 21
50.61932817
 31
0.0
  0
LINE
  5
3E0
100
AcDbEntity
  8
レイヤー_1
  6
CONTINUOUS
 62
       3
100
AcDbLine
 10
117.73230094
 20
-45.81768634
 30
0.0
 11
117.73230094
 21
-50.81535477
 31
0.0
  0
LINE
  5
3E1
100
AcDbEntity
  8
レイヤー_1
  6
CONTINUOUS
 62
       3
100
AcDbLine
 10
170.70091722
 20
-50.81535477
 30
0.0
 11
170.70091722
 21
-45.81768634
 31
0.0
  0
LINE
  5
3E2
100
AcDbEntity
  8
レイヤー_1
  6
CONTINUOUS
 62
       3
100
AcDbLine
 10
39.92185733
 20
-42.31901532
 30
0.0
 11
39.92185733
 21
-44.31818373
 31
0.0
  0
LINE
  5
3E3
100
AcDbEntity
  8
レイヤー_1
  6
CONTINUOUS
 62
       3
100
AcDbLine
 10
165.70324882
 20
50.61932817
 30
0.0
 11
170.70091722
 21
50.61932817
 31
0.0
  0
LINE
  5
3E4
100
AcDbEntity
  8
レイヤー_1
  6
CONTINUOUS
 62
       3
100
AcDbLine
 10
128.92703779
 20
50.61932817
 30
0.0
 11
129.92535892
 21
50.61932817
 31
0.0
  0
LINE
  5
3E5
100
AcDbEntity
  8
レイヤー_1
  6
CONTINUOUS
 62
       3
100
AcDbLine
 10
131.72294327
 20
50.61932817
 30
0.0
 11
132.72429575
 21
50.61932817
 31
0.0
  0
LINE
  5
3E6
100
AcDbEntity
  8
レイヤー_1
  6
CONTINUOUS
 62
       3
100
AcDbLine
 10
155.70892241
 20
50.61932817
 30
0.0
 11
156.70724355
 21
50.61932817
 31
0.0
  0
LINE
  5
3E7
100
AcDbEntity
  8
レイヤー_1
  6
CONTINUOUS
 62
       3
100
AcDbLine
 10
158.50785924
 20
50.61932817
 30
0.0
 11
159.50516992
 21
50.61932817
 31
0.0
  0
LINE
  5
3E8
100
AcDbEntity
  8
レイヤー_1
  6
CONTINUOUS
 62
       3
100
AcDbLine
 10
154.21144069
 20
48.521136
 30
0.0
 11
154.21144069
 21
47.4222754
 31
0.0
  0
LINE
  5
3E9
100
AcDbEntity
  8
レイヤー_1
  6
CONTINUOUS
 62
       3
100
AcDbLine
 10
134.22278791
 20
48.521136
 30
0.0
 11
134.22278791
 21
47.4222754
 31
0.0
  0
LINE
  5
3EA
100
AcDbEntity
  8
レイヤー_1
  6
CONTINUOUS
 62
       3
100
AcDbLine
 10
125.7289746
 20
42.62417017
 30
0.0
 11
125.22779312
 21
42.62417017
 31
0.0
  0
LINE
  5
3EB
100
AcDbEntity
  8
レイヤー_1
  6
CONTINUOUS
 62
       3
100
AcDbLine
 10
125.7289746
 20
42.62417017
 30
0.0
 11
126.72527484
 21
43.62249134
 31
0.0
  0
LINE
  5
3EC
100
AcDbEntity
  8
レイヤー_1
  6
CONTINUOUS
 62
       3
100
AcDbLine
 10
126.72527484
 20
44.12367279
 30
0.0
 11
126.72527484
 21
43.62249134
 31
0.0
  0
LINE
  5
3ED
100
AcDbEntity
  8
レイヤー_1
  6
CONTINUOUS
 62
       3
100
AcDbLine
 10
162.70525404
 20
42.62417017
 30
0.0
 11
163.20542504
 21
42.62417017
 31
0.0
  0
LINE
  5
3EE
100
AcDbEntity
  8
レイヤー_1
  6
CONTINUOUS
 62
       3
100
AcDbLine
 10
161.70491198
 20
44.12367279
 30
0.0
 11
161.70491198
 21
43.62249134
 31
0.0
  0
LINE
  5
3EF
100
AcDbEntity
  8
レイヤー_1
  6
CONTINUOUS
 62
       3
100
AcDbLine
 10
161.70491198
 20
43.62249134
 30
0.0
 11
162.70525404
 21
42.62417017
 31
0.0
  0
LINE
  5
3F0
100
AcDbEntity
  8
レイヤー_1
  6
CONTINUOUS
 62
       3
100
AcDbLine
 10
131.72294327
 20
50.61932817
 30
0.0
 11
131.72294327
 21
47.6218386
 31
0.0
  0
LINE
  5
3F1
100
AcDbEntity
  8
レイヤー_1
  6
CONTINUOUS
 62
       3
100
AcDbLine
 10
129.92535892
 20
47.6218386
 30
0.0
 11
129.92535892
 21
50.61932817
 31
0.0
  0
LINE
  5
3F2
100
AcDbEntity
  8
レイヤー_1
  6
CONTINUOUS
 62
       3
100
AcDbLine
 10
129.92535892
 20
50.61932817
 30
0.0
 11
131.72294327
 21
50.61932817
 31
0.0
  0
LINE
  5
3F3
100
AcDbEntity
  8
レイヤー_1
  6
CONTINUOUS
 62
       3
100
AcDbLine
 10
156.70724355
 20
47.6218386
 30
0.0
 11
156.70724355
 21
50.61932817
 31
0.0
  0
LINE
  5
3F4
100
AcDbEntity
  8
レイヤー_1
  6
CONTINUOUS
 62
       3
100
AcDbLine
 10
156.70724355
 20
50.61932817
 30
0.0
 11
158.50785924
 21
50.61932817
 31
0.0
  0
LINE
  5
3F5
100
AcDbEntity
  8
レイヤー_1
  6
CONTINUOUS
 62
       3
100
AcDbLine
 10
158.50785924
 20
50.61932817
 30
0.0
 11
158.50785924
 21
47.6218386
 31
0.0
  0
LINE
  5
3F6
100
AcDbEntity
  8
レイヤー_1
  6
CONTINUOUS
 62
       3
100
AcDbLine
 10
156.70724355
 20
47.4222754
 30
0.0
 11
131.72294327
 21
47.4222754
 31
0.0
  0
LINE
  5
3F7
100
AcDbEntity
  8
レイヤー_1
  6
CONTINUOUS
 62
       3
100
AcDbLine
 10
163.20542504
 20
42.62417017
 30
0.0
 11
165.70324882
 21
42.62417017
 31
0.0
  0
LINE
  5
3F8
100
AcDbEntity
  8
レイヤー_1
  6
CONTINUOUS
 62
       3
100
AcDbLine
 10
165.70324882
 20
47.6218386
 30
0.0
 11
158.50785924
 21
47.6218386
 31
0.0
  0
LINE
  5
3F9
100
AcDbEntity
  8
レイヤー_1
  6
CONTINUOUS
 62
       3
100
AcDbLine
 10
156.70724355
 20
47.6218386
 30
0.0
 11
156.70724355
 21
47.23786892
 31
0.0
  0
LINE
  5
3FA
100
AcDbEntity
  8
レイヤー_1
  6
CONTINUOUS
 62
       3
100
AcDbLine
 10
156.70724355
 20
47.23786892
 30
0.0
 11
131.72294327
 21
47.23786892
 31
0.0
  0
LINE
  5
3FB
100
AcDbEntity
  8
レイヤー_1
  6
CONTINUOUS
 62
       3
100
AcDbLine
 10
131.72294327
 20
47.6218386
 30
0.0
 11
131.72294327
 21
47.23786892
 31
0.0
  0
LINE
  5
3FC
100
AcDbEntity
  8
レイヤー_1
  6
CONTINUOUS
 62
       3
100
AcDbLine
 10
122.72996937
 20
47.6218386
 30
0.0
 11
129.92535892
 21
47.6218386
 31
0.0
  0
LINE
  5
3FD
100
AcDbEntity
  8
レイヤー_1
  6
CONTINUOUS
 62
       3
100
AcDbLine
 10
122.72996937
 20
47.6218386
 30
0.0
 11
122.72996937
 21
42.62417017
 31
0.0
  0
LINE
  5
3FE
100
AcDbEntity
  8
レイヤー_1
  6
CONTINUOUS
 62
       3
100
AcDbLine
 10
125.22779312
 20
42.62417017
 30
0.0
 11
122.72996937
 21
42.62417017
 31
0.0
  0
LINE
  5
3FF
100
AcDbEntity
  8
レイヤー_1
  6
CONTINUOUS
 62
       3
100
AcDbLine
 10
125.22779312
 20
42.62417017
 30
0.0
 11
125.22779312
 21
44.22370701
 31
0.0
  0
LINE
  5
400
100
AcDbEntity
  8
レイヤー_1
  6
CONTINUOUS
 62
       3
100
AcDbLine
 10
163.20542504
 20
42.62417017
 30
0.0
 11
163.20542504
 21
44.22370701
 31
0.0
  0
LINE
  5
401
100
AcDbEntity
  8
レイヤー_1
  6
CONTINUOUS
 62
       3
100
AcDbLine
 10
165.70324882
 20
47.6218386
 30
0.0
 11
165.70324882
 21
42.62417017
 31
0.0
  0
LINE
  5
402
100
AcDbEntity
  8
レイヤー_1
  6
CONTINUOUS
 62
       3
100
AcDbLine
 10
154.21144069
 20
48.82022817
 30
0.0
 11
154.21144069
 21
48.521136
 31
0.0
  0
LINE
  5
403
100
AcDbEntity
  8
レイヤー_1
  6
CONTINUOUS
 62
       3
100
AcDbLine
 10
134.22278791
 20
48.82022817
 30
0.0
 11
134.22278791
 21
48.521136
 31
0.0
  0
LINE
  5
404
100
AcDbEntity
  8
レイヤー_1
  6
CONTINUOUS
 62
       3
100
AcDbLine
 10
154.21144069
 20
50.31922555
 30
0.0
 11
134.22278791
 21
50.31922555
 31
0.0
  0
LINE
  5
405
100
AcDbEntity
  8
レイヤー_1
  6
CONTINUOUS
 62
       3
100
AcDbLine
 10
154.21144069
 20
50.31922555
 30
0.0
 11
154.21144069
 21
48.82022817
 31
0.0
  0
LINE
  5
406
100
AcDbEntity
  8
レイヤー_1
  6
CONTINUOUS
 62
       3
100
AcDbLine
 10
134.22278791
 20
50.31922555
 30
0.0
 11
134.22278791
 21
48.82022817
 31
0.0
  0
LINE
  5
407
100
AcDbEntity
  8
レイヤー_1
  6
CONTINUOUS
 62
       3
100
AcDbLine
 10
154.21144069
 20
48.82022817
 30
0.0
 11
134.22278791
 21
48.82022817
 31
0.0
  0
LINE
  5
408
100
AcDbEntity
  8
レイヤー_1
  6
CONTINUOUS
 62
       3
100
AcDbLine
 10
114.23514558
 20
-45.81768634
 30
0.0
 11
116.80875283
 21
-45.81768634
 31
0.0
  0
LINE
  5
409
100
AcDbEntity
  8
レイヤー_1
  6
CONTINUOUS
 62
       3
100
AcDbLine
 10
116.80875283
 20
-50.81535477
 30
0.0
 11
114.23514558
 21
-50.81535477
 31
0.0
  0
LINE
  5
40A
100
AcDbEntity
  8
レイヤー_1
  6
CONTINUOUS
 62
       3
100
AcDbLine
 10
114.23514558
 20
-50.81535477
 30
0.0
 11
114.23514558
 21
-45.81768634
 31
0.0
  0
LINE
  5
40B
100
AcDbEntity
  8
レイヤー_1
  6
CONTINUOUS
 62
       3
100
AcDbLine
 10
171.62446533
 20
-45.81768634
 30
0.0
 11
174.19807258
 21
-45.81768634
 31
0.0
  0
LINE
  5
40C
100
AcDbEntity
  8
レイヤー_1
  6
CONTINUOUS
 62
       3
100
AcDbLine
 10
174.19807258
 20
-45.81768634
 30
0.0
 11
174.19807258
 21
-50.81535477
 31
0.0
  0
LINE
  5
40D
100
AcDbEntity
  8
レイヤー_1
  6
CONTINUOUS
 62
       3
100
AcDbLine
 10
174.19807258
 20
-50.81535477
 30
0.0
 11
171.62446533
 21
-50.81535477
 31
0.0
  0
LINE
  5
40E
100
AcDbEntity
  8
レイヤー_1
  6
CONTINUOUS
 62
       3
100
AcDbLine
 10
117.73230094
 20
-45.81768634
 30
0.0
 11
116.80875283
 21
-45.81768634
 31
0.0
  0
LINE
  5
40F
100
AcDbEntity
  8
レイヤー_1
  6
CONTINUOUS
 62
       3
100
AcDbLine
 10
117.73230094
 20
-50.81535477
 30
0.0
 11
116.80875283
 21
-50.81535477
 31
0.0
  0
LINE
  5
410
100
AcDbEntity
  8
レイヤー_1
  6
CONTINUOUS
 62
       3
100
AcDbLine
 10
171.62446533
 20
-45.81768634
 30
0.0
 11
170.70091722
 21
-45.81768634
 31
0.0
  0
LINE
  5
411
100
AcDbEntity
  8
レイヤー_1
  6
CONTINUOUS
 62
       3
100
AcDbLine
 10
171.62446533
 20
-50.81535477
 30
0.0
 11
170.70091722
 21
-50.81535477
 31
0.0
  0
LINE
  5
412
100
AcDbEntity
  8
レイヤー_1
  6
CONTINUOUS
 62
       3
100
AcDbLine
 10
128.92703779
 20
-50.81535477
 30
0.0
 11
122.72996937
 21
-50.81535477
 31
0.0
  0
LINE
  5
413
100
AcDbEntity
  8
レイヤー_1
  6
CONTINUOUS
 62
       3
100
AcDbLine
 10
155.70892241
 20
-50.81535477
 30
0.0
 11
132.72429575
 21
-50.81535477
 31
0.0
  0
LINE
  5
414
100
AcDbEntity
  8
レイヤー_1
  6
CONTINUOUS
 62
       3
100
AcDbLine
 10
122.72996937
 20
-45.81768634
 30
0.0
 11
117.73230094
 21
-45.81768634
 31
0.0
  0
LINE
  5
415
100
AcDbEntity
  8
レイヤー_1
  6
CONTINUOUS
 62
       3
100
AcDbLine
 10
122.72996937
 20
-50.81535477
 30
0.0
 11
117.73230094
 21
-50.81535477
 31
0.0
  0
LINE
  5
416
100
AcDbEntity
  8
レイヤー_1
  6
CONTINUOUS
 62
       3
100
AcDbLine
 10
165.70324882
 20
-50.81535477
 30
0.0
 11
159.50516992
 21
-50.81535477
 31
0.0
  0
LINE
  5
417
100
AcDbEntity
  8
レイヤー_1
  6
CONTINUOUS
 62
       3
100
AcDbLine
 10
170.70091722
 20
-45.81768634
 30
0.0
 11
165.70324882
 21
-45.81768634
 31
0.0
  0
LINE
  5
418
100
AcDbEntity
  8
レイヤー_1
  6
CONTINUOUS
 62
       3
100
AcDbLine
 10
170.70091722
 20
-50.81535477
 30
0.0
 11
165.70324882
 21
-50.81535477
 31
0.0
  0
LINE
  5
419
100
AcDbEntity
  8
レイヤー_1
  6
CONTINUOUS
 62
       3
100
AcDbLine
 10
132.72429575
 20
-50.81535477
 30
0.0
 11
131.72294327
 21
-50.81535477
 31
0.0
  0
LINE
  5
41A
100
AcDbEntity
  8
レイヤー_1
  6
CONTINUOUS
 62
       3
100
AcDbLine
 10
129.92535892
 20
-50.81535477
 30
0.0
 11
128.92703779
 21
-50.81535477
 31
0.0
  0
LINE
  5
41B
100
AcDbEntity
  8
レイヤー_1
  6
CONTINUOUS
 62
       3
100
AcDbLine
 10
156.70724355
 20
-50.81535477
 30
0.0
 11
155.70892241
 21
-50.81535477
 31
0.0
  0
LINE
  5
41C
100
AcDbEntity
  8
レイヤー_1
  6
CONTINUOUS
 62
       3
100
AcDbLine
 10
159.50516992
 20
-50.81535477
 30
0.0
 11
158.50785924
 21
-50.81535477
 31
0.0
  0
LINE
  5
41D
100
AcDbEntity
  8
レイヤー_1
  6
CONTINUOUS
 62
       3
100
AcDbLine
 10
154.21144069
 20
-48.71463649
 30
0.0
 11
154.21144069
 21
-47.61678637
 31
0.0
  0
LINE
  5
41E
100
AcDbEntity
  8
レイヤー_1
  6
CONTINUOUS
 62
       3
100
AcDbLine
 10
134.22278791
 20
-48.71463649
 30
0.0
 11
134.22278791
 21
-47.61678637
 31
0.0
  0
LINE
  5
41F
100
AcDbEntity
  8
レイヤー_1
  6
CONTINUOUS
 62
       3
100
AcDbLine
 10
126.72527484
 20
-44.31818373
 30
0.0
 11
126.72527484
 21
-43.81851793
 31
0.0
  0
LINE
  5
420
100
AcDbEntity
  8
レイヤー_1
  6
CONTINUOUS
 62
       3
100
AcDbLine
 10
126.72527484
 20
-43.81851793
 30
0.0
 11
125.7289746
 21
-42.8201968
 31
0.0
  0
LINE
  5
421
100
AcDbEntity
  8
レイヤー_1
  6
CONTINUOUS
 62
       3
100
AcDbLine
 10
125.7289746
 20
-42.8201968
 30
0.0
 11
125.22779312
 21
-42.8201968
 31
0.0
  0
LINE
  5
422
100
AcDbEntity
  8
レイヤー_1
  6
CONTINUOUS
 62
       3
100
AcDbLine
 10
126.72527484
 20
-44.31818373
 30
0.0
 11
125.22779312
 21
-44.31818373
 31
0.0
  0
LINE
  5
423
100
AcDbEntity
  8
レイヤー_1
  6
CONTINUOUS
 62
       3
100
AcDbLine
 10
162.70525404
 20
-42.8201968
 30
0.0
 11
163.20542504
 21
-42.8201968
 31
0.0
  0
LINE
  5
424
100
AcDbEntity
  8
レイヤー_1
  6
CONTINUOUS
 62
       3
100
AcDbLine
 10
162.70525404
 20
-42.8201968
 30
0.0
 11
161.70491198
 21
-43.81851793
 31
0.0
  0
LINE
  5
425
100
AcDbEntity
  8
レイヤー_1
  6
CONTINUOUS
 62
       3
100
AcDbLine
 10
127.02739836
 20
44.12367279
 30
0.0
 11
125.22779312
 21
44.22370701
 31
0.0
  0
LINE
  5
426
100
AcDbEntity
  8
レイヤー_1
  6
CONTINUOUS
 62
       3
100
AcDbLine
 10
125.22779312
 20
44.22370701
 30
0.0
 11
125.22779312
 21
45.75
 31
0.0
  0
LINE
  5
427
100
AcDbEntity
  8
レイヤー_1
  6
CONTINUOUS
 62
       3
100
AcDbLine
 10
125.22779312
 20
-45.75
 30
0.0
 11
125.22779312
 21
-44.41872315
 31
0.0
  0
LINE
  5
428
100
AcDbEntity
  8
レイヤー_1
  6
CONTINUOUS
 62
       3
100
AcDbLine
 10
163.20542504
 20
-44.41872315
 30
0.0
 11
163.20542504
 21
-45.75
 31
0.0
  0
LINE
  5
429
100
AcDbEntity
  8
レイヤー_1
  6
CONTINUOUS
 62
       3
100
AcDbLine
 10
163.20542504
 20
45.75
 30
0.0
 11
163.20542504
 21
44.22370701
 31
0.0
  0
LINE
  5
42A
100
AcDbEntity
  8
レイヤー_1
  6
CONTINUOUS
 62
       3
100
AcDbLine
 10
163.20542504
 20
44.22370701
 30
0.0
 11
161.40683028
 21
44.12367279
 31
0.0
  0
LINE
  5
42B
100
AcDbEntity
  8
レイヤー_1
  6
CONTINUOUS
 62
       3
100
AcDbLine
 10
116.80875283
 20
45.62165975
 30
0.0
 11
114.23514558
 21
45.62165975
 31
0.0
  0
LINE
  5
42C
100
AcDbEntity
  8
レイヤー_1
  6
CONTINUOUS
 62
       3
100
AcDbLine
 10
114.23514558
 20
45.62165975
 30
0.0
 11
114.23514558
 21
50.61932817
 31
0.0
  0
LINE
  5
42D
100
AcDbEntity
  8
レイヤー_1
  6
CONTINUOUS
 62
       3
100
AcDbLine
 10
114.23514558
 20
50.61932817
 30
0.0
 11
116.80875283
 21
50.61932817
 31
0.0
  0
LINE
  5
42E
100
AcDbEntity
  8
レイヤー_1
  6
CONTINUOUS
 62
       3
100
AcDbLine
 10
174.19807258
 20
45.62165975
 30
0.0
 11
171.62446533
 21
45.62165975
 31
0.0
  0
LINE
  5
42F
100
AcDbEntity
  8
レイヤー_1
  6
CONTINUOUS
 62
       3
100
AcDbLine
 10
171.62446533
 20
50.61932817
 30
0.0
 11
174.19807258
 21
50.61932817
 31
0.0
  0
LINE
  5
430
100
AcDbEntity
  8
レイヤー_1
  6
CONTINUOUS
 62
       3
100
AcDbLine
 10
174.19807258
 20
50.61932817
 30
0.0
 11
174.19807258
 21
45.62165975
 31
0.0
  0
LINE
  5
431
100
AcDbEntity
  8
レイヤー_1
  6
CONTINUOUS
 62
       3
100
AcDbLine
 10
116.80875283
 20
45.62165975
 30
0.0
 11
117.73230094
 21
45.62165975
 31
0.0
  0
LINE
  5
432
100
AcDbEntity
  8
レイヤー_1
  6
CONTINUOUS
 62
       3
100
AcDbLine
 10
116.80875283
 20
50.61932817
 30
0.0
 11
117.73230094
 21
50.61932817
 31
0.0
  0
LINE
  5
433
100
AcDbEntity
  8
レイヤー_1
  6
CONTINUOUS
 62
       3
100
AcDbLine
 10
170.70091722
 20
45.62165975
 30
0.0
 11
171.62446533
 21
45.62165975
 31
0.0
  0
LINE
  5
434
100
AcDbEntity
  8
レイヤー_1
  6
CONTINUOUS
 62
       3
100
AcDbLine
 10
170.70091722
 20
50.61932817
 30
0.0
 11
171.62446533
 21
50.61932817
 31
0.0
  0
LINE
  5
435
100
AcDbEntity
  8
レイヤー_1
  6
CONTINUOUS
 62
       3
100
AcDbLine
 10
122.72996937
 20
50.61932817
 30
0.0
 11
128.92703779
 21
50.61932817
 31
0.0
  0
LINE
  5
436
100
AcDbEntity
  8
レイヤー_1
  6
CONTINUOUS
 62
       3
100
AcDbLine
 10
132.72429575
 20
50.61932817
 30
0.0
 11
155.70892241
 21
50.61932817
 31
0.0
  0
LINE
  5
437
100
AcDbEntity
  8
レイヤー_1
  6
CONTINUOUS
 62
       3
100
AcDbLine
 10
117.73230094
 20
45.62165975
 30
0.0
 11
122.72996937
 21
45.62165975
 31
0.0
  0
LINE
  5
438
100
AcDbEntity
  8
レイヤー_1
  6
CONTINUOUS
 62
       3
100
AcDbLine
 10
117.73230094
 20
50.61932817
 30
0.0
 11
122.72996937
 21
50.61932817
 31
0.0
  0
LINE
  5
439
100
AcDbEntity
  8
レイヤー_1
  6
CONTINUOUS
 62
       3
100
AcDbLine
 10
159.50516992
 20
50.61932817
 30
0.0
 11
165.70324882
 21
50.61932817
 31
0.0
  0
LINE
  5
43A
100
AcDbEntity
  8
レイヤー_1
  6
CONTINUOUS
 62
       3
100
AcDbLine
 10
165.70324882
 20
45.62165975
 30
0.0
 11
170.70091722
 21
45.62165975
 31
0.0
  0
LINE
  5
43B
100
AcDbEntity
  8
レイヤー_1
  6
CONTINUOUS
 62
       3
100
AcDbLine
 10
44.96829922
 20
-45.60495035
 30
0.0
 11
44.96829922
 21
45.41045788
 31
0.0
  0
LINE
  5
43C
100
AcDbEntity
  8
レイヤー_1
  6
CONTINUOUS
 62
       3
100
AcDbLine
 10
-57.031712
 20
-52.44671173
 30
0.0
 11
-57.031712
 21
52.44671173
 31
0.0
  0
LINE
  5
43D
100
AcDbEntity
  8
レイヤー_1
  6
CONTINUOUS
 62
       3
100
AcDbLine
 10
-196.17012853
 20
-55.0
 30
0.0
 11
-92.17012853
 21
-55.0
 31
0.0
  0
LINE
  5
43E
100
AcDbEntity
  8
レイヤー_1
  6
CONTINUOUS
 62
       3
100
AcDbLine
 10
-196.17012853
 20
55.0
 30
0.0
 11
-92.17012853
 21
55.0
 31
0.0
  0
LINE
  5
43F
100
AcDbEntity
  8
レイヤー_1
  6
CONTINUOUS
 62
       3
100
AcDbLine
 10
98.42012853
 20
20.17269194
 30
0.0
 11
98.42012853
 21
-20.17269194
 31
0.0
  0
LINE
  5
440
100
AcDbEntity
  8
レイヤー_1
  6
CONTINUOUS
 62
       3
100
AcDbLine
 10
189.92012853
 20
20.17269194
 30
0.0
 11
189.92012853
 21
-20.17269194
 31
0.0
  0
LINE
  5
441
100
AcDbEntity
  8
レイヤー_1
  6
CONTINUOUS
 62
       3
100
AcDbLine
 10
-199.17012853
 20
52.0
 30
0.0
 11
-199.17012853
 21
-52.0
 31
0.0
  0
LINE
  5
442
100
AcDbEntity
  8
レイヤー_1
  6
CONTINUOUS
 62
       3
100
AcDbLine
 10
-89.17012853
 20
52.0
 30
0.0
 11
-89.17012853
 21
-52.0
 31
0.0
  0
LINE
  5
443
100
AcDbEntity
  8
レイヤー_1
  6
CONTINUOUS
 62
       3
100
AcDbLine
 10
125.22779312
 20
-45.75
 30
0.0
 11
163.20542504
 21
-45.75
 31
0.0
  0
LINE
  5
444
100
AcDbEntity
  8
レイヤー_1
  6
CONTINUOUS
 62
       3
100
AcDbLine
 10
125.22779312
 20
45.75
 30
0.0
 11
163.20542504
 21
45.75
 31
0.0
  0
LINE
  5
445
100
AcDbEntity
  8
レイヤー_1
  6
CONTINUOUS
 62
       3
100
AcDbLine
 10
-44.52671464
 20
55.0
 30
0.0
 11
-55.13638392
 21
54.44397079
 31
0.0
  0
LINE
  5
446
100
AcDbEntity
  8
レイヤー_1
  6
CONTINUOUS
 62
       3
100
AcDbLine
 10
-44.52671464
 20
-55.0
 30
0.0
 11
-55.13638392
 21
-54.44397079
 31
0.0
  0
LINE
  5
447
100
AcDbEntity
  8
レイヤー_1
  6
CONTINUOUS
 62
       3
100
AcDbLine
 10
-59.03170078
 20
-33.50157322
 30
0.0
 11
-59.03170078
 21
45.62163451
 31
0.0
  0
LINE
  5
448
100
AcDbEntity
  8
レイヤー_1
  6
CONTINUOUS
 62
       3
100
AcDbLine
 10
-44.52671464
 20
-55.0
 30
0.0
 11
-34.031712
 21
-55.0
 31
0.0
  0
LINE
  5
449
100
AcDbEntity
  8
レイヤー_1
  6
CONTINUOUS
 62
       3
100
AcDbLine
 10
-44.52671464
 20
55.0
 30
0.0
 11
-34.03170078
 21
55.0
 31
0.0
  0
ARC
  5
44A
100
AcDbEntity
  8
レイヤー_1
  6
CONTINUOUS
 62
       3
100
AcDbCircle
 10
-92.17012853
 20
52.0
 30
0.0
 40
3.0
100
AcDbArc
 50
0.0
 51
90.0
  0
ARC
  5
44B
100
AcDbEntity
  8
レイヤー_1
  6
CONTINUOUS
 62
       3
100
AcDbCircle
 10
-92.17012853
 20
-52.0
 30
0.0
 40
3.0
100
AcDbArc
 50
270.0
 51
360.0
  0
ARC
  5
44C
100
AcDbEntity
  8
レイヤー_1
  6
CONTINUOUS
 62
       3
100
AcDbCircle
 10
-196.17012853
 20
-52.0
 30
0.0
 40
3.0
100
AcDbArc
 50
180.0
 51
270.0
  0
ARC
  5
44D
100
AcDbEntity
  8
レイヤー_1
  6
CONTINUOUS
 62
       3
100
AcDbCircle
 10
-196.17012853
 20
52.0
 30
0.0
 40
3.0
100
AcDbArc
 50
90.0
 51
180.0
  0
ARC
  5
44E
100
AcDbEntity
  8
レイヤー_1
  6
CONTINUOUS
 62
       3
100
AcDbCircle
 10
-55.031712
 20
-52.44671173
 30
0.0
 40
2.0
100
AcDbArc
 50
180.0
 51
266.99999977
  0
ARC
  5
44F
100
AcDbEntity
  8
レイヤー_1
  6
CONTINUOUS
 62
       3
100
AcDbCircle
 10
-55.031712
 20
52.44671172
 30
0.0
 40
2.0
100
AcDbArc
 50
93.00000023
 51
179.99999974
  0
ARC
  5
450
100
AcDbEntity
  8
レイヤー_1
  6
CONTINUOUS
 62
       3
100
AcDbCircle
 10
-26.87559993
 20
39.23371313
 30
0.0
 40
32.78445304
100
AcDbArc
 50
156.65533811
 51
168.76426923
  0
ARC
  5
451
100
AcDbEntity
  8
レイヤー_1
  6
CONTINUOUS
 62
       3
100
AcDbCircle
 10
-34.27289677
 20
-30.92253629
 30
0.0
 40
24.89276617
100
AcDbArc
 50
185.94685125
 51
203.97002066
  0
ARC
  5
452
100
AcDbEntity
  8
レイヤー_1
  6
CONTINUOUS
 62
       3
100
AcDbCircle
 10
144.17012853
 20
0.0
 30
0.0
 40
50.0
100
AcDbArc
 50
203.79427296
 51
236.71532738
  0
ARC
  5
453
100
AcDbEntity
  8
レイヤー_1
  6
CONTINUOUS
 62
       3
100
AcDbCircle
 10
144.17012853
 20
0.0
 30
0.0
 40
50.0
100
AcDbArc
 50
23.79427295
 51
56.2861792
  0
ARC
  5
454
100
AcDbEntity
  8
レイヤー_1
  6
CONTINUOUS
 62
       3
100
AcDbCircle
 10
144.17012853
 20
0.0
 30
0.0
 40
50.0
100
AcDbArc
 50
303.2740271
 51
336.20572705
  0
ARC
  5
455
100
AcDbEntity
  8
レイヤー_1
  6
CONTINUOUS
 62
       3
100
AcDbCircle
 10
144.17012853
 20
0.0
 30
0.0
 40
50.0
100
AcDbArc
 50
123.7243484
 51
156.20572705
  0
LINE
  5
456
100
AcDbEntity
  8
レイヤー_1
  6
PHANTOM
 62
       3
100
AcDbLine
 10
146.7654604
 20
-14.93086279
 30
0.0
 11
152.949393
 21
-14.93086279
 31
0.0
  0
LINE
  5
457
100
AcDbEntity
  8
レイヤー_1
  6
PHANTOM
 62
       3
100
AcDbLine
 10
152.949393
 20
-14.93086279
 30
0.0
 11
152.949393
 21
-23.75458689
 31
0.0
  0
LINE
  5
458
100
AcDbEntity
  8
レイヤー_1
  6
PHANTOM
 62
       3
100
AcDbLine
 10
154.36603901
 20
-23.75458689
 30
0.0
 11
154.36603901
 21
-14.93086279
 31
0.0
  0
LINE
  5
459
100
AcDbEntity
  8
レイヤー_1
  6
PHANTOM
 62
       3
100
AcDbLine
 10
154.36603901
 20
-14.93086279
 30
0.0
 11
160.54795074
 21
-14.93086279
 31
0.0
  0
LINE
  5
45A
100
AcDbEntity
  8
レイヤー_1
  6
PHANTOM
 62
       3
100
AcDbLine
 10
160.54795074
 20
-14.93086279
 30
0.0
 11
160.54795074
 21
-23.75458689
 31
0.0
  0
LINE
  5
45B
100
AcDbEntity
  8
レイヤー_1
  6
PHANTOM
 62
       3
100
AcDbLine
 10
161.96560719
 20
-23.75458689
 30
0.0
 11
161.96560719
 21
-14.93086279
 31
0.0
  0
LINE
  5
45C
100
AcDbEntity
  8
レイヤー_1
  6
PHANTOM
 62
       3
100
AcDbLine
 10
161.96560719
 20
-14.93086279
 30
0.0
 11
168.14650845
 21
-14.93086279
 31
0.0
  0
LINE
  5
45D
100
AcDbEntity
  8
レイヤー_1
  6
PHANTOM
 62
       3
100
AcDbLine
 10
168.14650845
 20
-14.93086279
 30
0.0
 11
168.14650845
 21
-23.75458689
 31
0.0
  0
LINE
  5
45E
100
AcDbEntity
  8
レイヤー_1
  6
PHANTOM
 62
       3
100
AcDbLine
 10
169.56315446
 20
-23.75458689
 30
0.0
 11
169.56315446
 21
-14.93086279
 31
0.0
  0
LINE
  5
45F
100
AcDbEntity
  8
レイヤー_1
  6
PHANTOM
 62
       3
100
AcDbLine
 10
112.56588796
 20
-13.18632688
 30
0.0
 11
118.74982056
 21
-13.18632688
 31
0.0
  0
LINE
  5
460
100
AcDbEntity
  8
レイヤー_1
  6
PHANTOM
 62
       3
100
AcDbLine
 10
120.16646657
 20
-13.18632688
 30
0.0
 11
126.35039919
 21
-13.18632688
 31
0.0
  0
LINE
  5
461
100
AcDbEntity
  8
レイヤー_1
  6
PHANTOM
 62
       3
100
AcDbLine
 10
127.76502431
 20
-13.18632688
 30
0.0
 11
133.9489569
 21
-13.18632688
 31
0.0
  0
LINE
  5
462
100
AcDbEntity
  8
レイヤー_1
  6
PHANTOM
 62
       3
100
AcDbLine
 10
135.36560291
 20
-13.18632688
 30
0.0
 11
141.55054599
 21
-13.18632688
 31
0.0
  0
LINE
  5
463
100
AcDbEntity
  8
レイヤー_1
  6
PHANTOM
 62
       3
100
AcDbLine
 10
142.96618152
 20
-13.18632688
 30
0.0
 11
149.14910369
 21
-13.18632688
 31
0.0
  0
LINE
  5
464
100
AcDbEntity
  8
レイヤー_1
  6
PHANTOM
 62
       3
100
AcDbLine
 10
150.56473926
 20
-13.18632688
 30
0.0
 11
156.74766143
 21
-13.18632688
 31
0.0
  0
LINE
  5
465
100
AcDbEntity
  8
レイヤー_1
  6
PHANTOM
 62
       3
100
AcDbLine
 10
158.16329697
 20
-13.18632688
 30
0.0
 11
164.34824004
 21
-13.18632688
 31
0.0
  0
LINE
  5
466
100
AcDbEntity
  8
レイヤー_1
  6
PHANTOM
 62
       3
100
AcDbLine
 10
165.76185471
 20
-13.18632688
 30
0.0
 11
171.94982909
 21
-13.18632688
 31
0.0
  0
LINE
  5
467
100
AcDbEntity
  8
レイヤー_1
  6
PHANTOM
 62
       3
100
AcDbLine
 10
171.94982909
 20
-5.20784129
 30
0.0
 11
165.76185471
 21
-5.20784129
 31
0.0
  0
LINE
  5
468
100
AcDbEntity
  8
レイヤー_1
  6
PHANTOM
 62
       3
100
AcDbLine
 10
165.76185471
 20
-5.20784129
 30
0.0
 11
165.76185471
 21
-13.18632688
 31
0.0
  0
LINE
  5
469
100
AcDbEntity
  8
レイヤー_1
  6
PHANTOM
 62
       3
100
AcDbLine
 10
165.76185471
 20
-13.18632688
 30
0.0
 11
164.34824004
 21
-13.18632688
 31
0.0
  0
LINE
  5
46A
100
AcDbEntity
  8
レイヤー_1
  6
PHANTOM
 62
       3
100
AcDbLine
 10
171.94982909
 20
-5.20784129
 30
0.0
 11
171.94982909
 21
-13.18632688
 31
0.0
  0
LINE
  5
46B
100
AcDbEntity
  8
レイヤー_1
  6
PHANTOM
 62
       3
100
AcDbLine
 10
175.74607663
 20
-13.18632688
 30
0.0
 11
171.94982909
 21
-13.18632688
 31
0.0
  0
LINE
  5
46C
100
AcDbEntity
  8
レイヤー_1
  6
PHANTOM
 62
       3
100
AcDbLine
 10
175.74607663
 20
-13.18632688
 30
0.0
 11
175.74607663
 21
-23.75458689
 31
0.0
  0
LINE
  5
46D
100
AcDbEntity
  8
レイヤー_1
  6
PHANTOM
 62
       3
100
AcDbLine
 10
118.74982056
 20
-5.20784129
 30
0.0
 11
112.56588796
 21
-5.20784129
 31
0.0
  0
LINE
  5
46E
100
AcDbEntity
  8
レイヤー_1
  6
PHANTOM
 62
       3
100
AcDbLine
 10
112.56588796
 20
-5.20784129
 30
0.0
 11
112.56588796
 21
-23.75458689
 31
0.0
  0
LINE
  5
46F
100
AcDbEntity
  8
レイヤー_1
  6
PHANTOM
 62
       3
100
AcDbLine
 10
118.74982056
 20
-5.20784129
 30
0.0
 11
118.74982056
 21
-13.18632688
 31
0.0
  0
LINE
  5
470
100
AcDbEntity
  8
レイヤー_1
  6
PHANTOM
 62
       3
100
AcDbLine
 10
126.35039919
 20
-5.20784129
 30
0.0
 11
120.16646657
 21
-5.20784129
 31
0.0
  0
LINE
  5
471
100
AcDbEntity
  8
レイヤー_1
  6
PHANTOM
 62
       3
100
AcDbLine
 10
120.16646657
 20
-5.20784129
 30
0.0
 11
120.16646657
 21
-13.18632688
 31
0.0
  0
LINE
  5
472
100
AcDbEntity
  8
レイヤー_1
  6
PHANTOM
 62
       3
100
AcDbLine
 10
120.16646657
 20
-13.18632688
 30
0.0
 11
118.74982056
 21
-13.18632688
 31
0.0
  0
LINE
  5
473
100
AcDbEntity
  8
レイヤー_1
  6
PHANTOM
 62
       3
100
AcDbLine
 10
126.35039919
 20
-5.20784129
 30
0.0
 11
126.35039919
 21
-13.18632688
 31
0.0
  0
LINE
  5
474
100
AcDbEntity
  8
レイヤー_1
  6
PHANTOM
 62
       3
100
AcDbLine
 10
133.9489569
 20
-5.20784129
 30
0.0
 11
127.76502431
 21
-5.20784129
 31
0.0
  0
LINE
  5
475
100
AcDbEntity
  8
レイヤー_1
  6
PHANTOM
 62
       3
100
AcDbLine
 10
127.76502431
 20
-5.20784129
 30
0.0
 11
127.76502431
 21
-13.18632688
 31
0.0
  0
LINE
  5
476
100
AcDbEntity
  8
レイヤー_1
  6
PHANTOM
 62
       3
100
AcDbLine
 10
127.76502431
 20
-13.18632688
 30
0.0
 11
126.35039919
 21
-13.18632688
 31
0.0
  0
LINE
  5
477
100
AcDbEntity
  8
レイヤー_1
  6
PHANTOM
 62
       3
100
AcDbLine
 10
133.9489569
 20
-5.20784129
 30
0.0
 11
133.9489569
 21
-13.18632688
 31
0.0
  0
LINE
  5
478
100
AcDbEntity
  8
レイヤー_1
  6
PHANTOM
 62
       3
100
AcDbLine
 10
141.55054599
 20
-5.20784129
 30
0.0
 11
135.36560291
 21
-5.20784129
 31
0.0
  0
LINE
  5
479
100
AcDbEntity
  8
レイヤー_1
  6
PHANTOM
 62
       3
100
AcDbLine
 10
135.36560291
 20
-5.20784129
 30
0.0
 11
135.36560291
 21
-13.18632688
 31
0.0
  0
LINE
  5
47A
100
AcDbEntity
  8
レイヤー_1
  6
PHANTOM
 62
       3
100
AcDbLine
 10
135.36560291
 20
-13.18632688
 30
0.0
 11
133.9489569
 21
-13.18632688
 31
0.0
  0
LINE
  5
47B
100
AcDbEntity
  8
レイヤー_1
  6
PHANTOM
 62
       3
100
AcDbLine
 10
141.55054599
 20
-5.20784129
 30
0.0
 11
141.55054599
 21
-13.18632688
 31
0.0
  0
LINE
  5
47C
100
AcDbEntity
  8
レイヤー_1
  6
PHANTOM
 62
       3
100
AcDbLine
 10
149.14910369
 20
-5.20784129
 30
0.0
 11
142.96618152
 21
-5.20784129
 31
0.0
  0
LINE
  5
47D
100
AcDbEntity
  8
レイヤー_1
  6
PHANTOM
 62
       3
100
AcDbLine
 10
142.96618152
 20
-5.20784129
 30
0.0
 11
142.96618152
 21
-13.18632688
 31
0.0
  0
LINE
  5
47E
100
AcDbEntity
  8
レイヤー_1
  6
PHANTOM
 62
       3
100
AcDbLine
 10
142.96618152
 20
-13.18632688
 30
0.0
 11
141.55054599
 21
-13.18632688
 31
0.0
  0
LINE
  5
47F
100
AcDbEntity
  8
レイヤー_1
  6
PHANTOM
 62
       3
100
AcDbLine
 10
149.14910369
 20
-5.20784129
 30
0.0
 11
149.14910369
 21
-13.18632688
 31
0.0
  0
LINE
  5
480
100
AcDbEntity
  8
レイヤー_1
  6
PHANTOM
 62
       3
100
AcDbLine
 10
156.74766143
 20
-5.20784129
 30
0.0
 11
150.56473926
 21
-5.20784129
 31
0.0
  0
LINE
  5
481
100
AcDbEntity
  8
レイヤー_1
  6
PHANTOM
 62
       3
100
AcDbLine
 10
150.56473926
 20
-5.20784129
 30
0.0
 11
150.56473926
 21
-13.18632688
 31
0.0
  0
LINE
  5
482
100
AcDbEntity
  8
レイヤー_1
  6
PHANTOM
 62
       3
100
AcDbLine
 10
150.56473926
 20
-13.18632688
 30
0.0
 11
149.14910369
 21
-13.18632688
 31
0.0
  0
LINE
  5
483
100
AcDbEntity
  8
レイヤー_1
  6
PHANTOM
 62
       3
100
AcDbLine
 10
156.74766143
 20
-5.20784129
 30
0.0
 11
156.74766143
 21
-13.18632688
 31
0.0
  0
LINE
  5
484
100
AcDbEntity
  8
レイヤー_1
  6
PHANTOM
 62
       3
100
AcDbLine
 10
164.34824004
 20
-5.20784129
 30
0.0
 11
158.16329697
 21
-5.20784129
 31
0.0
  0
LINE
  5
485
100
AcDbEntity
  8
レイヤー_1
  6
PHANTOM
 62
       3
100
AcDbLine
 10
158.16329697
 20
-5.20784129
 30
0.0
 11
158.16329697
 21
-13.18632688
 31
0.0
  0
LINE
  5
486
100
AcDbEntity
  8
レイヤー_1
  6
PHANTOM
 62
       3
100
AcDbLine
 10
158.16329697
 20
-13.18632688
 30
0.0
 11
156.74766143
 21
-13.18632688
 31
0.0
  0
LINE
  5
487
100
AcDbEntity
  8
レイヤー_1
  6
PHANTOM
 62
       3
100
AcDbLine
 10
164.34824004
 20
-5.20784129
 30
0.0
 11
164.34824004
 21
-13.18632688
 31
0.0
  0
LINE
  5
488
100
AcDbEntity
  8
レイヤー_1
  6
PHANTOM
 62
       3
100
AcDbLine
 10
109.94984196
 20
17.45192683
 30
0.0
 11
109.94984196
 21
3.53858366
 31
0.0
  0
LINE
  5
489
100
AcDbEntity
  8
レイヤー_1
  6
PHANTOM
 62
       3
100
AcDbLine
 10
118.52550143
 20
17.45192683
 30
0.0
 11
118.52550143
 21
3.53858366
 31
0.0
  0
LINE
  5
48A
100
AcDbEntity
  8
レイヤー_1
  6
PHANTOM
 62
       3
100
AcDbLine
 10
119.92294896
 20
17.45192683
 30
0.0
 11
119.92294896
 21
3.53858366
 31
0.0
  0
LINE
  5
48B
100
AcDbEntity
  8
レイヤー_1
  6
PHANTOM
 62
       3
100
AcDbLine
 10
129.89504552
 20
17.45192683
 30
0.0
 11
129.89504552
 21
3.53858366
 31
0.0
  0
LINE
  5
48C
100
AcDbEntity
  8
レイヤー_1
  6
PHANTOM
 62
       3
100
AcDbLine
 10
128.49860846
 20
17.45192683
 30
0.0
 11
128.49860846
 21
3.53858366
 31
0.0
  0
LINE
  5
48D
100
AcDbEntity
  8
レイヤー_1
  6
PHANTOM
 62
       3
100
AcDbLine
 10
138.47171547
 20
17.45192683
 30
0.0
 11
138.47171547
 21
3.53858366
 31
0.0
  0
LINE
  5
48E
100
AcDbEntity
  8
レイヤー_1
  6
PHANTOM
 62
       3
100
AcDbLine
 10
139.87017344
 20
17.45192683
 30
0.0
 11
139.87017344
 21
3.53858366
 31
0.0
  0
LINE
  5
48F
100
AcDbEntity
  8
レイヤー_1
  6
PHANTOM
 62
       3
100
AcDbLine
 10
149.84429089
 20
17.45192683
 30
0.0
 11
149.84429089
 21
3.53858366
 31
0.0
  0
LINE
  5
490
100
AcDbEntity
  8
レイヤー_1
  6
PHANTOM
 62
       3
100
AcDbLine
 10
148.44684339
 20
17.45192683
 30
0.0
 11
148.44684339
 21
3.53858366
 31
0.0
  0
LINE
  5
491
100
AcDbEntity
  8
レイヤー_1
  6
PHANTOM
 62
       3
100
AcDbLine
 10
158.41893994
 20
17.45192683
 30
0.0
 11
158.41893994
 21
3.53858366
 31
0.0
  0
LINE
  5
492
100
AcDbEntity
  8
レイヤー_1
  6
PHANTOM
 62
       3
100
AcDbLine
 10
159.81436658
 20
17.45192683
 30
0.0
 11
159.81436658
 21
3.53858366
 31
0.0
  0
LINE
  5
493
100
AcDbEntity
  8
レイヤー_1
  6
PHANTOM
 62
       3
100
AcDbLine
 10
169.78747358
 20
17.45192683
 30
0.0
 11
169.78747358
 21
3.53858366
 31
0.0
  0
LINE
  5
494
100
AcDbEntity
  8
レイヤー_1
  6
PHANTOM
 62
       3
100
AcDbLine
 10
168.3910365
 20
17.45192683
 30
0.0
 11
168.3910365
 21
3.53858366
 31
0.0
  0
LINE
  5
495
100
AcDbEntity
  8
レイヤー_1
  6
PHANTOM
 62
       3
100
AcDbLine
 10
178.36515398
 20
17.45192683
 30
0.0
 11
178.36515398
 21
3.53858366
 31
0.0
  0
LINE
  5
496
100
AcDbEntity
  8
レイヤー_1
  6
PHANTOM
 62
       3
100
AcDbLine
 10
106.66083859
 20
3.52090087
 30
0.0
 11
181.66123049
 21
3.52090087
 31
0.0
  0
LINE
  5
497
100
AcDbEntity
  8
レイヤー_1
  6
PHANTOM
 62
       3
100
AcDbLine
 10
181.66123049
 20
3.52090087
 30
0.0
 11
181.66123049
 21
17.43474924
 31
0.0
  0
LINE
  5
498
100
AcDbEntity
  8
レイヤー_1
  6
PHANTOM
 62
       3
100
AcDbLine
 10
181.66123049
 20
17.43474924
 30
0.0
 11
106.66083859
 21
17.43474924
 31
0.0
  0
LINE
  5
499
100
AcDbEntity
  8
レイヤー_1
  6
PHANTOM
 62
       3
100
AcDbLine
 10
106.66083859
 20
17.43474924
 30
0.0
 11
106.66083859
 21
3.52090087
 31
0.0
  0
LINE
  5
49A
100
AcDbEntity
  8
レイヤー_1
  6
PHANTOM
 62
       3
100
AcDbLine
 10
109.97106134
 20
-23.90868
 30
0.0
 11
178.33989281
 21
-23.90868
 31
0.0
  0
LINE
  5
49B
100
AcDbEntity
  8
レイヤー_1
  6
PHANTOM
 62
       3
100
AcDbLine
 10
178.33989281
 20
-23.90868
 30
0.0
 11
178.33989281
 21
-3.69267675
 31
0.0
  0
LINE
  5
49C
100
AcDbEntity
  8
レイヤー_1
  6
PHANTOM
 62
       3
100
AcDbLine
 10
178.33989281
 20
-3.69267675
 30
0.0
 11
109.97106134
 21
-3.69267675
 31
0.0
  0
LINE
  5
49D
100
AcDbEntity
  8
レイヤー_1
  6
PHANTOM
 62
       3
100
AcDbLine
 10
109.97106134
 20
-3.69267675
 30
0.0
 11
109.97106134
 21
-23.90868
 31
0.0
  0
LINE
  5
49E
100
AcDbEntity
  8
レイヤー_1
  6
PHANTOM
 62
       3
100
AcDbLine
 10
169.56315446
 20
-14.93086279
 30
0.0
 11
175.74607663
 21
-14.93086279
 31
0.0
  0
LINE
  5
49F
100
AcDbEntity
  8
レイヤー_1
  6
PHANTOM
 62
       3
100
AcDbLine
 10
116.36516682
 20
-23.75458689
 30
0.0
 11
116.36516682
 21
-14.93086279
 31
0.0
  0
LINE
  5
4A0
100
AcDbEntity
  8
レイヤー_1
  6
PHANTOM
 62
       3
100
AcDbLine
 10
116.36516682
 20
-14.93086279
 30
0.0
 11
122.55112034
 21
-14.93086279
 31
0.0
  0
LINE
  5
4A1
100
AcDbEntity
  8
レイヤー_1
  6
PHANTOM
 62
       3
100
AcDbLine
 10
122.55112034
 20
-14.93086279
 30
0.0
 11
122.55112034
 21
-23.75458689
 31
0.0
  0
LINE
  5
4A2
100
AcDbEntity
  8
レイヤー_1
  6
PHANTOM
 62
       3
100
AcDbLine
 10
123.96776632
 20
-23.75458689
 30
0.0
 11
123.96776632
 21
-14.93086279
 31
0.0
  0
LINE
  5
4A3
100
AcDbEntity
  8
レイヤー_1
  6
PHANTOM
 62
       3
100
AcDbLine
 10
123.96776632
 20
-14.93086279
 30
0.0
 11
130.14967805
 21
-14.93086279
 31
0.0
  0
LINE
  5
4A4
100
AcDbEntity
  8
レイヤー_1
  6
PHANTOM
 62
       3
100
AcDbLine
 10
130.14967805
 20
-14.93086279
 30
0.0
 11
130.14967805
 21
-23.75458689
 31
0.0
  0
LINE
  5
4A5
100
AcDbEntity
  8
レイヤー_1
  6
PHANTOM
 62
       3
100
AcDbLine
 10
131.56531361
 20
-23.75458689
 30
0.0
 11
131.56531361
 21
-14.93086279
 31
0.0
  0
LINE
  5
4A6
100
AcDbEntity
  8
レイヤー_1
  6
PHANTOM
 62
       3
100
AcDbLine
 10
131.56531361
 20
-14.93086279
 30
0.0
 11
137.75025668
 21
-14.93086279
 31
0.0
  0
LINE
  5
4A7
100
AcDbEntity
  8
レイヤー_1
  6
PHANTOM
 62
       3
100
AcDbLine
 10
137.75025668
 20
-14.93086279
 30
0.0
 11
137.75025668
 21
-23.75458689
 31
0.0
  0
LINE
  5
4A8
100
AcDbEntity
  8
レイヤー_1
  6
PHANTOM
 62
       3
100
AcDbLine
 10
139.16488177
 20
-23.75458689
 30
0.0
 11
139.16488177
 21
-14.93086279
 31
0.0
  0
LINE
  5
4A9
100
AcDbEntity
  8
レイヤー_1
  6
PHANTOM
 62
       3
100
AcDbLine
 10
139.16488177
 20
-14.93086279
 30
0.0
 11
145.35184574
 21
-14.93086279
 31
0.0
  0
LINE
  5
4AA
100
AcDbEntity
  8
レイヤー_1
  6
PHANTOM
 62
       3
100
AcDbLine
 10
145.35184574
 20
-14.93086279
 30
0.0
 11
145.35184574
 21
-23.75458689
 31
0.0
  0
LINE
  5
4AB
100
AcDbEntity
  8
レイヤー_1
  6
PHANTOM
 62
       3
100
AcDbLine
 10
146.7654604
 20
-23.75458689
 30
0.0
 11
146.7654604
 21
-14.93086279
 31
0.0
  0
LINE
  5
4AC
100
AcDbEntity
  8
SLD-0_0
  6
CONTINUOUS
 62
       3
100
AcDbLine
 10
199.17012853
 20
52.0
 30
0.0
 11
199.17012853
 21
-52.0
 31
0.0
  0
LINE
  5
4AD
100
AcDbEntity
  8
SLD-0_0
  6
CONTINUOUS
 62
       3
100
AcDbLine
 10
92.17012853
 20
-55.0
 30
0.0
 11
196.17012853
 21
-55.0
 31
0.0
  0
LINE
  5
4AE
100
AcDbEntity
  8
SLD-0_0
  6
CONTINUOUS
 62
       3
100
AcDbLine
 10
92.17012853
 20
55.0
 30
0.0
 11
196.17012853
 21
55.0
 31
0.0
  0
LINE
  5
4AF
100
AcDbEntity
  8
SLD-0_0
  6
CONTINUOUS
 62
       3
100
AcDbLine
 10
89.17012853
 20
52.0
 30
0.0
 11
89.17012853
 21
-52.0
 31
0.0
  0
LINE
  5
4B0
100
AcDbEntity
  8
SLD-0_0
  6
CONTINUOUS
 62
       3
100
AcDbLine
 10
52.61578143
 20
35.17579192
 30
0.0
 11
65.14609669
 21
35.17579192
 31
0.0
  0
LINE
  5
4B1
100
AcDbEntity
  8
SLD-0_0
  6
CONTINUOUS
 62
       3
100
AcDbLine
 10
65.14609669
 20
35.17579192
 30
0.0
 11
65.14609669
 21
21.87981935
 31
0.0
  0
LINE
  5
4B2
100
AcDbEntity
  8
SLD-0_0
  6
CONTINUOUS
 62
       3
100
AcDbLine
 10
65.14609669
 20
21.87981935
 30
0.0
 11
55.56325905
 21
21.87981935
 31
0.0
  0
LINE
  5
4B3
100
AcDbEntity
  8
SLD-0_0
  6
CONTINUOUS
 62
       3
100
AcDbLine
 10
55.46224885
 20
-3.47374076
 30
0.0
 11
65.14609669
 21
-3.47374076
 31
0.0
  0
LINE
  5
4B4
100
AcDbEntity
  8
SLD-0_0
  6
CONTINUOUS
 62
       3
100
AcDbLine
 10
65.14609669
 20
-3.47374076
 30
0.0
 11
65.14609669
 21
-23.64749783
 31
0.0
  0
LINE
  5
4B5
100
AcDbEntity
  8
SLD-0_0
  6
CONTINUOUS
 62
       3
100
AcDbLine
 10
65.14609669
 20
-23.64749783
 30
0.0
 11
44.96829922
 21
-23.64749783
 31
0.0
  0
LINE
  5
4B6
100
AcDbEntity
  8
SLD-0_0
  6
CONTINUOUS
 62
       3
100
AcDbLine
 10
64.33296459
 20
-1.44747616
 30
0.0
 11
64.33296459
 21
19.89799923
 31
0.0
  0
LINE
  5
4B7
100
AcDbEntity
  8
SLD-0_0
  6
CONTINUOUS
 62
       3
100
AcDbLine
 10
64.33296459
 20
19.89799923
 30
0.0
 11
58.76225208
 21
19.89799923
 31
0.0
  0
LINE
  5
4B8
100
AcDbEntity
  8
SLD-0_0
  6
CONTINUOUS
 62
       3
100
AcDbLine
 10
58.76225208
 20
19.89799923
 30
0.0
 11
44.96829922
 21
28.25558315
 31
0.0
  0
LINE
  5
4B9
100
AcDbEntity
  8
SLD-0_0
  6
CONTINUOUS
 62
       3
100
AcDbLine
 10
64.33296459
 20
-1.44747616
 30
0.0
 11
58.76225208
 21
-1.44747616
 31
0.0
  0
LINE
  5
4BA
100
AcDbEntity
  8
SLD-0_0
  6
CONTINUOUS
 62
       3
100
AcDbLine
 10
58.76225208
 20
-1.44747616
 30
0.0
 11
45.164259
 21
-9.80506007
 31
0.0
  0
LINE
  5
4BB
100
AcDbEntity
  8
SLD-0_0
  6
CONTINUOUS
 62
       3
100
AcDbLine
 10
44.96829922
 20
45.42327667
 30
0.0
 11
52.32487205
 21
45.42327667
 31
0.0
  0
LINE
  5
4BC
100
AcDbEntity
  8
SLD-0_0
  6
CONTINUOUS
 62
       3
100
AcDbLine
 10
52.32487205
 20
45.42327667
 30
0.0
 11
52.32487205
 21
24.17376098
 31
0.0
  0
LINE
  5
4BD
100
AcDbEntity
  8
SLD-0_0
  6
CONTINUOUS
 62
       3
100
AcDbLine
 10
64.33296459
 20
17.54749188
 30
0.0
 11
80.96829922
 21
17.54749188
 31
0.0
  0
LINE
  5
4BE
100
AcDbEntity
  8
SLD-0_0
  6
CONTINUOUS
 62
       3
100
AcDbLine
 10
80.96829922
 20
3.64444801
 30
0.0
 11
64.33296459
 21
3.64444801
 31
0.0
  0
ARC
  5
4BF
100
AcDbEntity
  8
SLD-0_0
  6
CONTINUOUS
 62
       3
100
AcDbCircle
 10
196.17012853
 20
52.0
 30
0.0
 40
3.0
100
AcDbArc
 50
0.0
 51
90.0
  0
ARC
  5
4C0
100
AcDbEntity
  8
SLD-0_0
  6
CONTINUOUS
 62
       3
100
AcDbCircle
 10
92.17012853
 20
52.0
 30
0.0
 40
3.0
100
AcDbArc
 50
90.0
 51
180.0
  0
ARC
  5
4C1
100
AcDbEntity
  8
SLD-0_0
  6
CONTINUOUS
 62
       3
100
AcDbCircle
 10
196.17012853
 20
-52.0
 30
0.0
 40
3.0
100
AcDbArc
 50
270.0
 51
360.0
  0
ARC
  5
4C2
100
AcDbEntity
  8
SLD-0_0
  6
CONTINUOUS
 62
       3
100
AcDbCircle
 10
92.17012853
 20
-52.0
 30
0.0
 40
3.0
100
AcDbArc
 50
180.0
 51
270.0
  0
LINE
  5
4C3
100
AcDbEntity
  8
SLD-0_0
  6
PHANTOM
 62
       3
100
AcDbLine
 10
121.68711589
 20
21.60849069
 30
0.0
 11
166.76897809
 21
21.60849069
 31
0.0
  0
LINE
  5
4C4
100
AcDbEntity
  8
SLD-0_0
  6
PHANTOM
 62
       3
100
AcDbLine
 10
166.76897809
 20
21.60849069
 30
0.0
 11
166.76897809
 21
35.51759518
 31
0.0
  0
LINE
  5
4C5
100
AcDbEntity
  8
SLD-0_0
  6
PHANTOM
 62
       3
100
AcDbLine
 10
166.76897809
 20
35.51759518
 30
0.0
 11
121.68711589
 21
35.51759518
 31
0.0
  0
LINE
  5
4C6
100
AcDbEntity
  8
SLD-0_0
  6
PHANTOM
 62
       3
100
AcDbLine
 10
121.68711589
 20
35.51759518
 30
0.0
 11
121.68711589
 21
21.60849069
 31
0.0
  0
LINE
  5
4C7
100
AcDbEntity
  8
SLD-0_0
  6
PHANTOM
 62
       3
100
AcDbLine
 10
124.99216962
 20
35.53476691
 30
0.0
 11
124.99216962
 21
21.62667252
 31
0.0
  0
LINE
  5
4C8
100
AcDbEntity
  8
SLD-0_0
  6
PHANTOM
 62
       3
100
AcDbLine
 10
134.96187633
 20
35.53476691
 30
0.0
 11
134.96187633
 21
21.62667252
 31
0.0
  0
LINE
  5
4C9
100
AcDbEntity
  8
SLD-0_0
  6
PHANTOM
 62
       3
100
AcDbLine
 10
133.56490526
 20
35.53476691
 30
0.0
 11
133.56490526
 21
21.62667252
 31
0.0
  0
LINE
  5
4CA
100
AcDbEntity
  8
SLD-0_0
  6
PHANTOM
 62
       3
100
AcDbLine
 10
143.53360187
 20
35.53476691
 30
0.0
 11
143.53360187
 21
21.62667252
 31
0.0
  0
LINE
  5
4CB
100
AcDbEntity
  8
SLD-0_0
  6
PHANTOM
 62
       3
100
AcDbLine
 10
144.92956282
 20
35.53476691
 30
0.0
 11
144.92956282
 21
21.62667252
 31
0.0
  0
LINE
  5
4CC
100
AcDbEntity
  8
SLD-0_0
  6
PHANTOM
 62
       3
100
AcDbLine
 10
154.89825943
 20
35.53476691
 30
0.0
 11
154.89825943
 21
21.62667252
 31
0.0
  0
LINE
  5
4CD
100
AcDbEntity
  8
SLD-0_0
  6
PHANTOM
 62
       3
100
AcDbLine
 10
153.50431867
 20
35.53476691
 30
0.0
 11
153.50431867
 21
21.62667252
 31
0.0
  0
LINE
  5
4CE
100
AcDbEntity
  8
SLD-0_0
  6
PHANTOM
 62
       3
100
AcDbLine
 10
163.47402537
 20
35.53476691
 30
0.0
 11
163.47402537
 21
21.62667252
 31
0.0
  0
LINE
  5
4CF
100
AcDbEntity
  8
SLD-0
  6
CONTINUOUS
 62
       3
100
AcDbLine
 10
80.96829922
 20
17.54749188
 30
0.0
 11
80.96829922
 21
3.64444801
 31
0.0
  0
TEXT
  5
4D0
100
AcDbEntity
  8
0
 62
       7
100
AcDbText
 10
164.38914027
 20
-139.74208145
 30
0.0
 40
5.0
  1
000
 41
0.8
 72
       5
 11
176.38914027
 21
-139.74208145
 31
0.0
100
AcDbText
  0
ENDSEC
  0
SECTION
  2
OBJECTS
  0
DICTIONARY
  5
19
100
AcDbDictionary
  3
ACAD_GROUP
350
1A
  3
ACAD_MLINESTYLE
350
1B
  0
DICTIONARY
  5
1A
102
{ACAD_REACTORS
330
19
102
}
100
AcDbDictionary
  0
DICTIONARY
  5
1B
102
{ACAD_REACTORS
330
19
102
}
100
AcDbDictionary
  3
STANDARD
350
1C
  0
MLINESTYLE
  5
1C
102
{ACAD_REACTORS
330
1B
102
}
100
AcDbMlineStyle
  2
STANDARD
 70
       0
  3

 62
       0
 51
90.0
 52
90.0
 71
       2
 49
0.5
 62
     256
  6
BYLAYER
 49
-0.5
 62
     256
  6
BYLAYER
  0
ENDSEC
  0
EOF
