  0
SECTION
  2
HEADER
  9
$ACADVER
  1
AC1009
  9
$DWGCODEPAGE
  3
ansi_932
  9
$INSBASE
 10
0.0
 20
0.0
 30
0.0
  9
$EXTMIN
 10
-501.407844135
 20
-323.54645262
 30
0.0
  9
$EXTMAX
 10
489.407844135
 20
323.54645262
 30
0.0
  9
$LIMMIN
 10
-198.1666666666667
 20
-140.1666666666667
  9
$LIMMAX
 10
198.1666666666667
 20
140.1666666666667
  9
$ORTHOMODE
 70
     0
  9
$REGENMODE
 70
     1
  9
$FILLMODE
 70
     1
  9
$QTEXTMODE
 70
     0
  9
$MIRRTEXT
 70
     1
  9
$DRAGMODE
 70
     2
  9
$LTSCALE
 40
0.0833333333333333
  9
$OSMODE
 70
    37
  9
$ATTMODE
 70
     1
  9
$TEXTSIZE
 40
0.2
  9
$TRACEWID
 40
0.05
  9
$TEXTSTYLE
  7
STANDARD
  9
$CLAYER
  8
0
  9
$CELTYPE
  6
BYLAYER
  9
$CECOLOR
 62
   256
  9
$DIMSCALE
 40
1.0
  9
$DIMASZ
 40
0.6001052856445312
  9
$DIMEXO
 40
1.0
  9
$DIMDLI
 40
10.0
  9
$DIMRND
 40
0.0
  9
$DIMDLE
 40
0.0
  9
$DIMEXE
 40
1.0
  9
$DIMTP
 40
0.0
  9
$DIMTM
 40
0.0
  9
$DIMTXT
 40
1.166666666666667
  9
$DIMCEN
 40
0.0
  9
$DIMTSZ
 40
0.0
  9
$DIMTOL
 70
     0
  9
$DIMLIM
 70
     0
  9
$DIMTIH
 70
     0
  9
$DIMTOH
 70
     0
  9
$DIMSE1
 70
     0
  9
$DIMSE2
 70
     0
  9
$DIMTAD
 70
     1
  9
$DIMZIN
 70
     8
  9
$DIMBLK
  1

  9
$DIMASO
 70
     1
  9
$DIMSHO
 70
     1
  9
$DIMPOST
  1

  9
$DIMAPOST
  1

  9
$DIMALT
 70
     0
  9
$DIMALTD
 70
     2
  9
$DIMALTF
 40
0.0393700787401575
  9
$DIMLFAC
 40
1.0
  9
$DIMTOFL
 70
     0
  9
$DIMTVP
 40
0.0
  9
$DIMTIX
 70
     0
  9
$DIMSOXD
 70
     0
  9
$DIMSAH
 70
     0
  9
$DIMBLK1
  1

  9
$DIMBLK2
  1

  9
$DIMSTYLE
  2
STANDARD
  9
$DIMCLRD
 70
     0
  9
$DIMCLRE
 70
     0
  9
$DIMCLRT
 70
     0
  9
$DIMTFAC
 40
0.65
  9
$DIMGAP
 40
0.09
  9
$LUNITS
 70
     2
  9
$LUPREC
 70
     4
  9
$SKETCHINC
 40
0.1
  9
$FILLETRAD
 40
0.5
  9
$AUNITS
 70
     0
  9
$AUPREC
 70
     0
  9
$MENU
  1
.
  9
$ELEVATION
 40
0.0
  9
$PELEVATION
 40
0.0
  9
$THICKNESS
 40
0.0
  9
$LIMCHECK
 70
     0
  9
$CHAMFERA
 40
0.0
  9
$CHAMFERB
 40
0.0
  9
$SKPOLY
 70
     0
  9
$TDCREATE
 40
2458925.621730035
  9
$TDUPDATE
 40
2458925.621731539
  9
$TDINDWG
 40
0.0000000116
  9
$TDUSRTIMER
 40
0.0000000116
  9
$USRTIMER
 70
     1
  9
$ANGBASE
 50
0.0
  9
$ANGDIR
 70
     0
  9
$PDMODE
 70
     0
  9
$PDSIZE
 40
1.0
  9
$PLINEWID
 40
0.0
  9
$COORDS
 70
     1
  9
$SPLFRAME
 70
     0
  9
$SPLINETYPE
 70
     6
  9
$SPLINESEGS
 70
     8
  9
$ATTDIA
 70
     0
  9
$ATTREQ
 70
     1
  9
$HANDLING
 70
     1
  9
$HANDSEED
  5
16F
  9
$SURFTAB1
 70
     6
  9
$SURFTAB2
 70
     6
  9
$SURFTYPE
 70
     6
  9
$SURFU
 70
     6
  9
$SURFV
 70
     6
  9
$UCSNAME
  2

  9
$UCSORG
 10
0.0
 20
0.0
 30
0.0
  9
$UCSXDIR
 10
1.0
 20
0.0
 30
0.0
  9
$UCSYDIR
 10
0.0
 20
1.0
 30
0.0
  9
$PUCSNAME
  2

  9
$PUCSORG
 10
0.0
 20
0.0
 30
0.0
  9
$PUCSXDIR
 10
1.0
 20
0.0
 30
0.0
  9
$PUCSYDIR
 10
0.0
 20
1.0
 30
0.0
  9
$USERI1
 70
     0
  9
$USERI2
 70
     0
  9
$USERI3
 70
     0
  9
$USERI4
 70
     0
  9
$USERI5
 70
     0
  9
$USERR1
 40
0.0
  9
$USERR2
 40
0.0
  9
$USERR3
 40
0.0
  9
$USERR4
 40
0.0
  9
$USERR5
 40
0.0
  9
$WORLDVIEW
 70
     1
  9
$SHADEDGE
 70
     3
  9
$SHADEDIF
 70
    70
  9
$TILEMODE
 70
     1
  9
$MAXACTVP
 70
    64
  9
$PLIMCHECK
 70
     0
  9
$PEXTMIN
 10
1.000000000000000E+20
 20
1.000000000000000E+20
 30
1.000000000000000E+20
  9
$PEXTMAX
 10
-1.000000000000000E+20
 20
-1.000000000000000E+20
 30
-1.000000000000000E+20
  9
$PLIMMIN
 10
0.0
 20
0.0
  9
$PLIMMAX
 10
12.0
 20
9.0
  9
$UNITMODE
 70
     0
  9
$VISRETAIN
 70
     0
  9
$PLINEGEN
 70
     1
  9
$PSLTSCALE
 70
     0
  0
ENDSEC
  0
SECTION
  2
TABLES
  0
TABLE
  2
VPORT
 70
     1
  0
VPORT
  2
*ACTIVE
 70
     0
 10
0.0
 20
0.0
 11
1.0
 21
1.0
 12
0.0
 22
0.0
 13
0.0
 23
0.0
 14
0.5
 24
0.5
 15
0.5
 25
0.5
 16
0.0
 26
0.0
 36
1.0
 17
-0.0000000000000036
 27
0.0
 37
0.0
 40
220.0115877816
 41
1.586813392567122
 42
50.0
 43
0.0
 44
0.0
 50
0.0
 51
0.0
 71
     0
 72
  1000
 73
     1
 74
     1
 75
     0
 76
     0
 77
     0
 78
     0
  0
ENDTAB
  0
TABLE
  2
LTYPE
 70
    67
  0
LTYPE
  2
CONTINUOUS
 70
     0
  3
Solid line
 72
    65
 73
     0
 40
0.0
  0
LTYPE
  2
HIDDENX2
 70
     0
  3
Hidden (2x) ____ ____ ____ ____ ____ ____ ____ 
 72
    65
 73
     2
 40
19.05
 49
12.7
 49
-6.35
  0
LTYPE
  2
HIDDEN
 70
     0
  3
Hidden __ __ __ __ __ __ __ __ __ __ __ __ __ __
 72
    65
 73
     2
 40
9.524999999999999
 49
6.35
 49
-3.175
  0
LTYPE
  2
HIDDEN2
 70
     0
  3
Hidden (.5x) _ _ _ _ _ _ _ _ _ _ _ _ _ _ _ _ _ 
 72
    65
 73
     2
 40
4.762499999999999
 49
3.175
 49
-1.5875
  0
LTYPE
  2
DASHED
 70
     0
  3
Dashed __ __ __ __ __ __ __ __ __ __ __ __ __ _
 72
    65
 73
     2
 40
19.05
 49
12.7
 49
-6.35
  0
LTYPE
  2
DASHED2
 70
     0
  3
Dashed (.5x) _ _ _ _ _ _ _ _ _ _ _ _ _ _ _ _ _ 
 72
    65
 73
     2
 40
9.524999999999999
 49
6.35
 49
-3.175
  0
LTYPE
  2
DASHEDX2
 70
     0
  3
Dashed (2x) ____  ____  ____  ____  ____  ___
 72
    65
 73
     2
 40
38.09999999999999
 49
25.4
 49
-12.7
  0
LTYPE
  2
DOTX2
 70
     0
  3
Dot (2x) .  .  .  .  .  .  .  .  .  .  .  .  .  .
 72
    65
 73
     2
 40
12.7
 49
0.0
 49
-12.7
  0
LTYPE
  2
DOT
 70
     0
  3
Dot . . . . . . . . . . . . . . . . . . . . . . . .
 72
    65
 73
     2
 40
6.35
 49
0.0
 49
-6.35
  0
LTYPE
  2
DOT2
 70
     0
  3
Dot (.5x) ........................................
 72
    65
 73
     2
 40
3.175
 49
0.0
 49
-3.175
  0
LTYPE
  2
CENTERX2
 70
     0
  3
Center (2x) ________  __  ________  __  _____
 72
    65
 73
     4
 40
101.6
 49
63.5
 49
-12.7
 49
12.7
 49
-12.7
  0
LTYPE
  2
CENTER
 70
     0
  3
Center ____ _ ____ _ ____ _ ____ _ ____ _ ____
 72
    65
 73
     4
 40
50.8
 49
31.75
 49
-6.35
 49
6.35
 49
-6.35
  0
LTYPE
  2
CENTER2
 70
     0
  3
Center (.5x) ___ _ ___ _ ___ _ ___ _ ___ _ ___
 72
    65
 73
     4
 40
28.575
 49
19.05
 49
-3.175
 49
3.175
 49
-3.175
  0
LTYPE
  2
DASHDOTX2
 70
     0
  3
Dash dot (2x) ____  .  ____  .  ____  .  ___
 72
    65
 73
     4
 40
50.8
 49
25.4
 49
-12.7
 49
0.0
 49
-12.7
  0
LTYPE
  2
DASHDOT
 70
     0
  3
Dash dot __ . __ . __ . __ . __ . __ . __ . __
 72
    65
 73
     4
 40
25.4
 49
12.7
 49
-6.35
 49
0.0
 49
-6.35
  0
LTYPE
  2
DASHDOT2
 70
     0
  3
Dash dot (.5x) _._._._._._._._._._._._._._._.
 72
    65
 73
     4
 40
12.7
 49
6.35
 49
-3.175
 49
0.0
 49
-3.175
  0
LTYPE
  2
DIVIDEX2
 70
     0
  3
Divide (2x) ________  .  .  ________  .  .  _
 72
    65
 73
     6
 40
63.5
 49
25.4
 49
-12.7
 49
0.0
 49
-12.7
 49
0.0
 49
-12.7
  0
LTYPE
  2
DIVIDE
 70
     0
  3
Divide ____ . . ____ . . ____ . . ____ . . ____
 72
    65
 73
     6
 40
31.75
 49
12.7
 49
-6.35
 49
0.0
 49
-6.35
 49
0.0
 49
-6.35
  0
LTYPE
  2
DIVIDE2
 70
     0
  3
Divide (.5x) __..__..__..__..__..__..__..__.._
 72
    65
 73
     6
 40
15.875
 49
6.35
 49
-3.175
 49
0.0
 49
-3.175
 49
0.0
 49
-3.175
  0
LTYPE
  2
BORDERX2
 70
     0
  3
Border (2x) ____  ____  .  ____  ____  .  ___
 72
    65
 73
     6
 40
88.89999999999999
 49
25.4
 49
-12.7
 49
25.4
 49
-12.7
 49
0.0
 49
-12.7
  0
LTYPE
  2
BORDER
 70
     0
  3
Border __ __ . __ __ . __ __ . __ __ . __ __ .
 72
    65
 73
     6
 40
44.45
 49
12.7
 49
-6.35
 49
12.7
 49
-6.35
 49
0.0
 49
-6.35
  0
LTYPE
  2
BORDER2
 70
     0
  3
Border (.5x) __.__.__.__.__.__.__.__.__.__.__.
 72
    65
 73
     6
 40
22.225
 49
6.35
 49
-3.175
 49
6.35
 49
-3.175
 49
0.0
 49
-3.175
  0
LTYPE
  2
PHANTOMX2
 70
     0
  3
Phantom (2x) ____________    ____    ____   _
 72
    65
 73
     6
 40
127.0
 49
63.5
 49
-12.7
 49
12.7
 49
-12.7
 49
12.7
 49
-12.7
  0
LTYPE
  2
PHANTOM
 70
     0
  3
Phantom ______  __  __  ______  __  __  ______ 
 72
    65
 73
     6
 40
63.5
 49
31.75
 49
-6.35
 49
6.35
 49
-6.35
 49
6.35
 49
-6.35
  0
LTYPE
  2
PHANTOM2
 70
     0
  3
Phantom (.5x) ___ _ _ ___ _ _ ___ _ _ ___ _ _
 72
    65
 73
     6
 40
31.75
 49
15.875
 49
-3.175
 49
3.175
 49
-3.175
 49
3.175
 49
-3.175
  0
LTYPE
  2
ACAD_ISO06W100
 70
     0
  3
ISO long-dash triple-dot ____ ... ____ ... ____
 72
    65
 73
     8
 40
36.0
 49
24.0
 49
-3.0
 49
0.0
 49
-3.0
 49
0.0
 49
-3.0
 49
0.0
 49
-3.0
  0
LTYPE
  2
ACAD_ISO13W100
 70
     0
  3
ISO double-dash double-dot __ __ . . __ __ . . _
 72
    65
 73
     8
 40
36.0
 49
12.0
 49
-3.0
 49
12.0
 49
-3.0
 49
0.0
 49
-3.0
 49
0.0
 49
-3.0
  0
LTYPE
  2
ACAD_ISO14W100
 70
     0
  3
ISO dash triple-dot __ . . . __ . . . __ . . . _
 72
    65
 73
     8
 40
24.0
 49
12.0
 49
-3.0
 49
0.0
 49
-3.0
 49
0.0
 49
-3.0
 49
0.0
 49
-3.0
  0
LTYPE
  2
ACAD_ISO02W100
 70
     0
  3
ISO dash __ __ __ __ __ __ __ __ __ __ __ __ __
 72
    65
 73
     2
 40
15.0
 49
12.0
 49
-3.0
  0
LTYPE
  2
ACAD_ISO03W100
 70
     0
  3
ISO dash space __    __    __    __    __    __
 72
    65
 73
     2
 40
30.0
 49
12.0
 49
-18.0
  0
LTYPE
  2
ACAD_ISO04W100
 70
     0
  3
ISO long-dash dot ____ . ____ . ____ . ____ . _
 72
    65
 73
     4
 40
30.0
 49
24.0
 49
-3.0
 49
0.0
 49
-3.0
  0
LTYPE
  2
ACAD_ISO05W100
 70
     0
  3
ISO long-dash double-dot ____ .. ____ .. ____ . 
 72
    65
 73
     6
 40
33.0
 49
24.0
 49
-3.0
 49
0.0
 49
-3.0
 49
0.0
 49
-3.0
  0
LTYPE
  2
ACAD_ISO07W100
 70
     0
  3
ISO dot . . . . . . . . . . . . . . . . . . . . 
 72
    65
 73
     2
 40
3.0
 49
0.0
 49
-3.0
  0
LTYPE
  2
ACAD_ISO08W100
 70
     0
  3
ISO long-dash short-dash ____ __ ____ __ ____ _
 72
    65
 73
     4
 40
36.0
 49
24.0
 49
-3.0
 49
6.0
 49
-3.0
  0
LTYPE
  2
ACAD_ISO09W100
 70
     0
  3
ISO long-dash double-short-dash ____ __ __ ____
 72
    65
 73
     6
 40
45.0
 49
24.0
 49
-3.0
 49
6.0
 49
-3.0
 49
6.0
 49
-3.0
  0
LTYPE
  2
ACAD_ISO10W100
 70
     0
  3
ISO dash dot __ . __ . __ . __ . __ . __ . __ . 
 72
    65
 73
     4
 40
18.0
 49
12.0
 49
-3.0
 49
0.0
 49
-3.0
  0
LTYPE
  2
ACAD_ISO11W100
 70
     0
  3
ISO double-dash dot __ __ . __ __ . __ __ . __ _
 72
    65
 73
     6
 40
33.0
 49
12.0
 49
-3.0
 49
12.0
 49
-3.0
 49
0.0
 49
-3.0
  0
LTYPE
  2
ACAD_ISO12W100
 70
     0
  3
ISO dash double-dot __ . . __ . . __ . . __ . . 
 72
    65
 73
     6
 40
21.0
 49
12.0
 49
-3.0
 49
0.0
 49
-3.0
 49
0.0
 49
-3.0
  0
LTYPE
  2
ACAD_ISO15W100
 70
     0
  3
ISO double-dash triple-dot __ __ . . . __ __ . .
 72
    65
 73
    10
 40
39.0
 49
12.0
 49
-3.0
 49
12.0
 49
-3.0
 49
0.0
 49
-3.0
 49
0.0
 49
-3.0
 49
0.0
 49
-3.0
  0
LTYPE
  2
JIS_02_0_7
 70
     0
  3
HIDDEN0.75 _ _ _ _ _ _ _ _ _ _ _ _ _ _ _ _ _ 
 72
    65
 73
     2
 40
1.35
 49
0.75
 49
-0.6
  0
LTYPE
  2
JIS_02_1_0
 70
     0
  3
HIDDEN01 _ _ _ _ _ _ _ _ _ _ _ _ _ _ _ _ _ 
 72
    65
 73
     2
 40
2.0
 49
1.0
 49
-1.0
  0
LTYPE
  2
JIS_02_1_2
 70
     0
  3
HIDDEN01.25  _ _ _ _ _ _ _ _ _ _ _ _ _ _ _ _ _ 
 72
    65
 73
     2
 40
2.5
 49
1.25
 49
-1.25
  0
LTYPE
  2
JIS_02_2_0
 70
     0
  3
HIDDEN02 __ __ __ __ __ __ __ __ __ __ __ 
 72
    65
 73
     2
 40
3.0
 49
2.0
 49
-1.0
  0
LTYPE
  2
JIS_02_4_0
 70
     0
  3
HIDDEN04 ____ ____ ____ ____ ____ ____ ____ 
 72
    65
 73
     2
 40
5.5
 49
4.0
 49
-1.5
  0
LTYPE
  2
JIS_08_11
 70
     0
  3
1SASEN11 ___ _ ___ _ ___ _ ___ _ ___ _ ___
 72
    65
 73
     4
 40
12.8
 49
11.0
 49
-0.6
 49
0.6
 49
-0.6
  0
LTYPE
  2
JIS_08_15
 70
     0
  3
1SASEN15 ____ _ ____ _ ____ _ ____ _ ____ 
 72
    65
 73
     4
 40
17.25
 49
15.0
 49
-0.75
 49
0.75
 49
-0.75
  0
LTYPE
  2
JIS_08_25
 70
     0
  3
1SASEN25 ________  __  ________  __  _____
 72
    65
 73
     4
 40
28.0
 49
25.0
 49
-1.125
 49
0.75
 49
-1.125
  0
LTYPE
  2
JIS_08_37
 70
     0
  3
1SASEN37 ________  __  ________  __  _____
 72
    65
 73
     4
 40
40.5
 49
37.5
 49
-1.125
 49
0.75
 49
-1.125
  0
LTYPE
  2
JIS_08_50
 70
     0
  3
1SASEN50 _______________  __  ____________
 72
    65
 73
     4
 40
53.0
 49
50.0
 49
-1.125
 49
0.75
 49
-1.125
  0
LTYPE
  2
JIS_09_08
 70
     0
  3
2SASEN8 __ _ _ __ _ _ __ _ _ __ _ _ __ _ _ 
 72
    65
 73
     6
 40
10.75
 49
8.0
 49
-0.55
 49
0.55
 49
-0.55
 49
0.55
 49
-0.55
  0
LTYPE
  2
JIS_09_15
 70
     0
  3
2SASEN15 ___ _ _ ___ _ _ ___ _ _ ___ _ _ ___ 
 72
    65
 73
     6
 40
18.9
 49
15.0
 49
-0.9
 49
0.6
 49
-0.9
 49
0.6
 49
-0.9
  0
LTYPE
  2
JIS_09_29
 70
     0
  3
2SASEN29 ______　__  __  ______　__  __  ___
 72
    65
 73
     6
 40
34.0
 49
29.0
 49
-1.2
 49
0.7
 49
-1.2
 49
0.7
 49
-1.2
  0
LTYPE
  2
JIS_09_50
 70
     0
  3
2SASEN50 ____________　__  __  _____________
 72
    65
 73
     6
 40
55.0
 49
50.0
 49
-1.2
 49
0.7
 49
-1.2
 49
0.7
 49
-1.2
  0
LTYPE
  2
SXF_破線
 70
     0
  3
02 dashed -- -- -- -- -- --
 72
    65
 73
     2
 40
7.5
 49
6.0
 49
-1.5
  0
LTYPE
  2
SXF_跳び破線
 70
     0
  3
03 dashed_spaced --  --  --  --
 72
    65
 73
     2
 40
12.0
 49
6.0
 49
-6.0
  0
LTYPE
  2
SXF_一点長鎖線
 70
     0
  3
04 long_dashed_dotted ---- . ---- . ----
 72
    65
 73
     4
 40
15.25
 49
12.0
 49
-1.5
 49
0.25
 49
-1.5
  0
LTYPE
  2
SXF_二点長鎖線
 70
     0
  3
05 long_dashed_double-dotted ---- . . ---- 
 72
    65
 73
     6
 40
17.0
 49
12.0
 49
-1.5
 49
0.25
 49
-1.5
 49
0.25
 49
-1.5
  0
LTYPE
  2
SXF_三点長鎖線
 70
     0
  3
06 long_dashed_triplicate-dotted ---- ... ---- 
 72
    65
 73
     8
 40
18.75
 49
12.0
 49
-1.5
 49
0.25
 49
-1.5
 49
0.25
 49
-1.5
 49
0.25
 49
-1.5
  0
LTYPE
  2
SXF_点線
 70
     0
  3
07 dotted . . . . . . . . . . . . 
 72
    65
 73
     2
 40
1.75
 49
0.25
 49
-1.5
  0
LTYPE
  2
SXF_一点鎖線
 70
     0
  3
08 chain ---- - --- - --- - ---
 72
    65
 73
     4
 40
18.5
 49
12.0
 49
-1.5
 49
3.5
 49
-1.5
  0
LTYPE
  2
SXF_二点鎖線
 70
     0
  3
09 chain_double_dash ---- - - ---- - - ----
 72
    65
 73
     6
 40
23.5
 49
12.0
 49
-1.5
 49
3.5
 49
-1.5
 49
3.5
 49
-1.5
  0
LTYPE
  2
SXF_一点短鎖線
 70
     0
  3
10 dashed_dotted -- . -- . -- . --
 72
    65
 73
     4
 40
9.25
 49
6.0
 49
-1.5
 49
0.25
 49
-1.5
  0
LTYPE
  2
SXF_一点二短鎖線
 70
     0
  3
11 double-dashed_dotted -- -- . -- --
 72
    65
 73
     6
 40
16.75
 49
6.0
 49
-1.5
 49
6.0
 49
-1.5
 49
0.25
 49
-1.5
  0
LTYPE
  2
SXF_二点短鎖線
 70
     0
  3
12 dashed_double_dotted -- . . -- . . --
 72
    65
 73
     6
 40
11.0
 49
6.0
 49
-1.5
 49
0.25
 49
-1.5
 49
0.25
 49
-1.5
  0
LTYPE
  2
SXF_二点二短鎖線
 70
     0
  3
13 double-dashed_double-dotted -- -- . . -- --
 72
    65
 73
     8
 40
18.5
 49
6.0
 49
-1.5
 49
6.0
 49
-1.5
 49
0.25
 49
-1.5
 49
0.25
 49
-1.5
  0
LTYPE
  2
SXF_三点短鎖線
 70
     0
  3
14 dashed triplicate-dotted -- . . . -- . . . --
 72
    65
 73
     8
 40
12.75
 49
6.0
 49
-1.5
 49
0.25
 49
-1.5
 49
0.25
 49
-1.5
 49
0.25
 49
-1.5
  0
LTYPE
  2
SXF_三点二短鎖線
 70
     0
  3
15 double-dashed triplicate-dotted -- -- . . . -- -- 
 72
    65
 73
    10
 40
20.25
 49
6.0
 49
-1.5
 49
6.0
 49
-1.5
 49
0.25
 49
-1.5
 49
0.25
 49
-1.5
 49
0.25
 49
-1.5
  0
ENDTAB
  0
TABLE
  2
LAYER
 70
     4
  0
LAYER
  2
0
 70
     0
 62
     7
  6
CONTINUOUS
  0
LAYER
  2
SLD-0_0
 70
     0
 62
     7
  6
CONTINUOUS
  0
LAYER
  2
SLD-0
 70
     0
 62
     7
  6
CONTINUOUS
  0
LAYER
  2
LAYER0003
 70
     0
 62
     7
  6
CONTINUOUS
  0
ENDTAB
  0
TABLE
  2
STYLE
 70
     2
  0
STYLE
  2
STANDARD
 70
     0
 40
0.0
 41
1.0
 50
0.0
 71
     0
 42
0.2
  3
txt.shx
  4
bigfont.shx
  0
STYLE
  2
DCSTYLE0
 70
     0
 40
0.0
 41
2.0
 50
0.0
 71
     0
 42
0.2
  3
txt.shx
  4
bigfont
  0
ENDTAB
  0
TABLE
  2
VIEW
 70
     0
  0
ENDTAB
  0
TABLE
  2
UCS
 70
     0
  0
ENDTAB
  0
TABLE
  2
APPID
 70
     2
  0
APPID
  2
ACAD
 70
     0
  0
APPID
  2
DAFUSIONOUT
 70
     0
  0
ENDTAB
  0
TABLE
  2
DIMSTYLE
 70
     1
  0
DIMSTYLE
  2
STANDARD
 70
     0
  3

  4

  5

  6

  7

 40
1.0
 41
0.18
 42
0.0625
 43
0.38
 44
0.18
 45
0.0
 46
0.0
 47
0.0
 48
0.0
140
0.18
141
0.09
142
0.0
143
25.4
144
1.0
145
0.0
146
1.0
147
0.09
 71
     0
 72
     0
 73
     1
 74
     1
 75
     0
 76
     0
 77
     0
 78
     0
170
     0
171
     2
172
     0
173
     0
174
     0
175
     0
176
     0
177
     0
178
     0
  0
ENDTAB
  0
ENDSEC
  0
SECTION
  2
BLOCKS
  0
BLOCK
  8
0
  2
$MODEL_SPACE
 70
     0
 10
0.0
 20
0.0
 30
0.0
  3
$MODEL_SPACE
  1

  0
ENDBLK
  5
21
  8
0
  0
BLOCK
 67
     1
  8
0
  2
$PAPER_SPACE
 70
     0
 10
0.0
 20
0.0
 30
0.0
  3
$PAPER_SPACE
  1

  0
ENDBLK
  5
1D
 67
     1
  8
0
  0
ENDSEC
  0
SECTION
  2
ENTITIES
  0
LINE
  5
B5
  8
LAYER0003
  6
CONTINUOUS
 62
     3
 10
-171.135948045
 20
107.84881754
 30
0.0
 11
-130.135948045
 21
107.84881754
 31
0.0
  0
LINE
  5
B6
  8
LAYER0003
  6
CONTINUOUS
 62
     3
 10
-171.135948045
 20
-36.15118246
 30
0.0
 11
-130.135948045
 21
-36.15118246
 31
0.0
  0
LINE
  5
B7
  8
LAYER0003
  6
CONTINUOUS
 62
     3
 10
-93.128956225
 20
107.84881754
 30
0.0
 11
-84.128956225
 21
107.84881754
 31
0.0
  0
LINE
  5
B8
  8
LAYER0003
  6
CONTINUOUS
 62
     3
 10
-93.128956225
 20
-36.15118246
 30
0.0
 11
-84.128956225
 21
-36.15118246
 31
0.0
  0
LINE
  5
B9
  8
LAYER0003
  6
CONTINUOUS
 62
     3
 10
-132.635948045
 20
-36.15118246
 30
0.0
 11
-132.635948045
 21
107.84881754
 31
0.0
  0
LINE
  5
BA
  8
LAYER0003
  6
CONTINUOUS
 62
     3
 10
50.888086675
 20
103.34913809
 30
0.0
 11
62.90476920500001
 21
103.34913809
 31
0.0
  0
LINE
  5
BB
  8
LAYER0003
  6
CONTINUOUS
 62
     3
 10
62.90476920500001
 20
103.34913809
 30
0.0
 11
62.90476920500001
 21
94.35139272
 31
0.0
  0
LINE
  5
BC
  8
LAYER0003
  6
CONTINUOUS
 62
     3
 10
62.90476920500001
 20
94.35139272
 30
0.0
 11
52.894148565
 21
94.35139272
 31
0.0
  0
LINE
  5
BD
  8
LAYER0003
  6
CONTINUOUS
 62
     3
 10
52.894148565
 20
94.35139272
 30
0.0
 11
52.894148565
 21
15.40345108
 31
0.0
  0
LINE
  5
BE
  8
LAYER0003
  6
CONTINUOUS
 62
     3
 10
52.894148565
 20
15.40345108
 30
0.0
 11
62.90476920500001
 21
15.40345108
 31
0.0
  0
LINE
  5
BF
  8
LAYER0003
  6
CONTINUOUS
 62
     3
 10
62.90476920500001
 20
15.40345108
 30
0.0
 11
62.90476920500001
 21
6.406799559999999
 31
0.0
  0
LINE
  5
C0
  8
LAYER0003
  6
CONTINUOUS
 62
     3
 10
62.90476920500001
 20
6.406799559999999
 30
0.0
 11
50.888086675
 21
6.406799559999999
 31
0.0
  0
LINE
  5
C1
  8
LAYER0003
  6
CONTINUOUS
 62
     3
 10
-84.128956225
 20
-36.15118246
 30
0.0
 11
-84.128956225
 21
107.84881754
 31
0.0
  0
LINE
  5
C2
  8
LAYER0003
  6
CONTINUOUS
 62
     3
 10
52.894148565
 20
92.34533085
 30
0.0
 11
65.90292385499998
 21
92.34533085
 31
0.0
  0
LINE
  5
C3
  8
LAYER0003
  6
CONTINUOUS
 62
     3
 10
65.90292385499998
 20
92.34533085
 30
0.0
 11
65.90292385499998
 21
93.36039378
 31
0.0
  0
LINE
  5
C4
  8
LAYER0003
  6
CONTINUOUS
 62
     3
 10
65.90292385499998
 20
93.36039378
 30
0.0
 11
52.894148565
 21
93.36039378
 31
0.0
  0
LINE
  5
C5
  8
LAYER0003
  6
CONTINUOUS
 62
     3
 10
63.89795578500001
 20
16.3621824
 30
0.0
 11
70.871043775
 21
16.3621824
 31
0.0
  0
LINE
  5
C6
  8
LAYER0003
  6
CONTINUOUS
 62
     3
 10
70.871043775
 20
93.35929997
 30
0.0
 11
63.89795578500001
 21
93.35929997
 31
0.0
  0
LINE
  5
C7
  8
LAYER0003
  6
CONTINUOUS
 62
     3
 10
63.89795578500001
 20
93.35929997
 30
0.0
 11
63.89795578500001
 21
16.3621824
 31
0.0
  0
LINE
  5
C8
  8
LAYER0003
  6
CONTINUOUS
 62
     3
 10
61.93674044499999
 20
56.58623879999999
 30
0.0
 11
63.94498994500001
 21
56.58623879999999
 31
0.0
  0
LINE
  5
C9
  8
LAYER0003
  6
CONTINUOUS
 62
     3
 10
63.94498994500001
 20
62.58637643
 30
0.0
 11
61.93674044499999
 21
62.58637643
 31
0.0
  0
LINE
  5
CA
  8
LAYER0003
  6
CONTINUOUS
 62
     3
 10
61.93674044499999
 20
66.08768725
 30
0.0
 11
63.94498994500001
 21
66.08768725
 31
0.0
  0
LINE
  5
CB
  8
LAYER0003
  6
CONTINUOUS
 62
     3
 10
63.94498994500001
 20
72.08782489
 30
0.0
 11
61.93674044499999
 21
72.08782489
 31
0.0
  0
LINE
  5
CC
  8
LAYER0003
  6
CONTINUOUS
 62
     3
 10
61.93674044499999
 20
75.58804192
 30
0.0
 11
63.94498994500001
 21
75.58804192
 31
0.0
  0
LINE
  5
CD
  8
LAYER0003
  6
CONTINUOUS
 62
     3
 10
63.94498994500001
 20
81.58817952
 30
0.0
 11
61.93674044499999
 21
81.58817952
 31
0.0
  0
LINE
  5
CE
  8
LAYER0003
  6
CONTINUOUS
 62
     3
 10
61.93674044499999
 20
85.08949036999998
 30
0.0
 11
63.94498994500001
 21
85.08949036999998
 31
0.0
  0
LINE
  5
CF
  8
LAYER0003
  6
CONTINUOUS
 62
     3
 10
63.94498994500001
 20
91.09017490000001
 30
0.0
 11
61.93674044499999
 21
91.09017490000001
 31
0.0
  0
LINE
  5
D0
  8
LAYER0003
  6
CONTINUOUS
 62
     3
 10
59.90552076500001
 20
18.58208566
 30
0.0
 11
61.91377026499999
 21
18.58208566
 31
0.0
  0
LINE
  5
D1
  8
LAYER0003
  6
CONTINUOUS
 62
     3
 10
61.91377026499999
 20
18.58208566
 30
0.0
 11
61.91377026499999
 21
24.5822233
 31
0.0
  0
LINE
  5
D2
  8
LAYER0003
  6
CONTINUOUS
 62
     3
 10
61.91377026499999
 20
24.5822233
 30
0.0
 11
59.90552076500001
 21
24.5822233
 31
0.0
  0
LINE
  5
D3
  8
LAYER0003
  6
CONTINUOUS
 62
     3
 10
59.90552076500001
 20
28.08353412
 30
0.0
 11
61.91377026499999
 21
28.08353412
 31
0.0
  0
LINE
  5
D4
  8
LAYER0003
  6
CONTINUOUS
 62
     3
 10
61.91377026499999
 20
28.08353412
 30
0.0
 11
61.91377026499999
 21
34.08367176
 31
0.0
  0
LINE
  5
D5
  8
LAYER0003
  6
CONTINUOUS
 62
     3
 10
61.91377026499999
 20
34.08367176
 30
0.0
 11
59.90552076500001
 21
34.08367176
 31
0.0
  0
LINE
  5
D6
  8
LAYER0003
  6
CONTINUOUS
 62
     3
 10
59.90552076500001
 20
37.58388878
 30
0.0
 11
61.91377026499999
 21
37.58388878
 31
0.0
  0
LINE
  5
D7
  8
LAYER0003
  6
CONTINUOUS
 62
     3
 10
61.91377026499999
 20
37.58388878
 30
0.0
 11
61.91377026499999
 21
43.58457331999999
 31
0.0
  0
LINE
  5
D8
  8
LAYER0003
  6
CONTINUOUS
 62
     3
 10
61.91377026499999
 20
43.58457331999999
 30
0.0
 11
59.90552076500001
 21
43.58457331999999
 31
0.0
  0
LINE
  5
D9
  8
LAYER0003
  6
CONTINUOUS
 62
     3
 10
59.90552076500001
 20
47.08479033999999
 30
0.0
 11
61.91377026499999
 21
47.08479033999999
 31
0.0
  0
LINE
  5
DA
  8
LAYER0003
  6
CONTINUOUS
 62
     3
 10
61.91377026499999
 20
47.08479033999999
 30
0.0
 11
61.91377026499999
 21
53.08602177
 31
0.0
  0
LINE
  5
DB
  8
LAYER0003
  6
CONTINUOUS
 62
     3
 10
61.91377026499999
 20
53.08602177
 30
0.0
 11
59.90552076500001
 21
53.08602177
 31
0.0
  0
LINE
  5
DC
  8
LAYER0003
  6
CONTINUOUS
 62
     3
 10
59.90552076500001
 20
56.58623879999999
 30
0.0
 11
61.91377026499999
 21
56.58623879999999
 31
0.0
  0
LINE
  5
DD
  8
LAYER0003
  6
CONTINUOUS
 62
     3
 10
61.91377026499999
 20
56.58623879999999
 30
0.0
 11
61.91377026499999
 21
62.58637643
 31
0.0
  0
LINE
  5
DE
  8
LAYER0003
  6
CONTINUOUS
 62
     3
 10
61.91377026499999
 20
62.58637643
 30
0.0
 11
59.90552076500001
 21
62.58637643
 31
0.0
  0
LINE
  5
DF
  8
LAYER0003
  6
CONTINUOUS
 62
     3
 10
59.90552076500001
 20
66.08768725
 30
0.0
 11
61.91377026499999
 21
66.08768725
 31
0.0
  0
LINE
  5
E0
  8
LAYER0003
  6
CONTINUOUS
 62
     3
 10
61.91377026499999
 20
66.08768725
 30
0.0
 11
61.91377026499999
 21
72.08782489
 31
0.0
  0
LINE
  5
E1
  8
LAYER0003
  6
CONTINUOUS
 62
     3
 10
61.91377026499999
 20
72.08782489
 30
0.0
 11
59.90552076500001
 21
72.08782489
 31
0.0
  0
LINE
  5
E2
  8
LAYER0003
  6
CONTINUOUS
 62
     3
 10
59.90552076500001
 20
75.58804192
 30
0.0
 11
61.91377026499999
 21
75.58804192
 31
0.0
  0
LINE
  5
E3
  8
LAYER0003
  6
CONTINUOUS
 62
     3
 10
61.91377026499999
 20
75.58804192
 30
0.0
 11
61.91377026499999
 21
81.58817952
 31
0.0
  0
LINE
  5
E4
  8
LAYER0003
  6
CONTINUOUS
 62
     3
 10
61.91377026499999
 20
81.58817952
 30
0.0
 11
59.90552076500001
 21
81.58817952
 31
0.0
  0
LINE
  5
E5
  8
LAYER0003
  6
CONTINUOUS
 62
     3
 10
59.90552076500001
 20
85.08949036999998
 30
0.0
 11
61.91377026499999
 21
85.08949036999998
 31
0.0
  0
LINE
  5
E6
  8
LAYER0003
  6
CONTINUOUS
 62
     3
 10
61.91377026499999
 20
85.08949036999998
 30
0.0
 11
61.91377026499999
 21
91.09017490000001
 31
0.0
  0
LINE
  5
E7
  8
LAYER0003
  6
CONTINUOUS
 62
     3
 10
61.91377026499999
 20
91.09017490000001
 30
0.0
 11
59.90552076500001
 21
91.09017490000001
 31
0.0
  0
LINE
  5
E8
  8
LAYER0003
  6
CONTINUOUS
 62
     3
 10
59.90661458499999
 20
16.32171115
 30
0.0
 11
59.90661458499999
 21
15.39579438
 31
0.0
  0
LINE
  5
E9
  8
LAYER0003
  6
CONTINUOUS
 62
     3
 10
59.90661458499999
 20
25.81550287
 30
0.0
 11
59.90661458499999
 21
17.32638282
 31
0.0
  0
LINE
  5
EA
  8
LAYER0003
  6
CONTINUOUS
 62
     3
 10
59.90661458499999
 20
35.31695136
 30
0.0
 11
59.90661458499999
 21
26.82728438
 31
0.0
  0
LINE
  5
EB
  8
LAYER0003
  6
CONTINUOUS
 62
     3
 10
59.90661458499999
 20
44.81839981
 30
0.0
 11
59.90661458499999
 21
36.32873283
 31
0.0
  0
LINE
  5
EC
  8
LAYER0003
  6
CONTINUOUS
 62
     3
 10
59.90661458499999
 20
54.27554866
 30
0.0
 11
59.90661458499999
 21
45.83018127999999
 31
0.0
  0
LINE
  5
ED
  8
LAYER0003
  6
CONTINUOUS
 62
     3
 10
59.90661458499999
 20
63.82074982
 30
0.0
 11
59.90661458499999
 21
55.33053595
 31
0.0
  0
LINE
  5
EE
  8
LAYER0003
  6
CONTINUOUS
 62
     3
 10
59.90661458499999
 20
73.32110449
 30
0.0
 11
59.90661458499999
 21
64.83198440000001
 31
0.0
  0
LINE
  5
EF
  8
LAYER0003
  6
CONTINUOUS
 62
     3
 10
59.90661458499999
 20
82.82255294
 30
0.0
 11
59.90661458499999
 21
74.33233904
 31
0.0
  0
LINE
  5
F0
  8
LAYER0003
  6
CONTINUOUS
 62
     3
 10
59.90661458499999
 20
92.32290758
 30
0.0
 11
59.90661458499999
 21
83.83378752
 31
0.0
  0
LINE
  5
F1
  8
LAYER0003
  6
CONTINUOUS
 62
     3
 10
59.90661458499999
 20
94.33006329999999
 30
0.0
 11
59.90661458499999
 21
93.36039378
 31
0.0
  0
LINE
  5
F2
  8
LAYER0003
  6
CONTINUOUS
 62
     3
 10
52.894148565
 20
16.3621824
 30
0.0
 11
65.90292385499998
 21
16.3621824
 31
0.0
  0
LINE
  5
F3
  8
LAYER0003
  6
CONTINUOUS
 62
     3
 10
65.90292385499998
 20
16.3621824
 30
0.0
 11
65.90292385499998
 21
17.37669844
 31
0.0
  0
LINE
  5
F4
  8
LAYER0003
  6
CONTINUOUS
 62
     3
 10
65.90292385499998
 20
17.37669844
 30
0.0
 11
52.894148565
 21
17.37669844
 31
0.0
  0
LINE
  5
F5
  8
LAYER0003
  6
CONTINUOUS
 62
     3
 10
52.894148565
 20
25.81331526
 30
0.0
 11
65.90292385499998
 21
25.81331526
 31
0.0
  0
LINE
  5
F6
  8
LAYER0003
  6
CONTINUOUS
 62
     3
 10
65.90292385499998
 20
25.81331526
 30
0.0
 11
65.90292385499998
 21
26.8283782
 31
0.0
  0
LINE
  5
F7
  8
LAYER0003
  6
CONTINUOUS
 62
     3
 10
65.90292385499998
 20
26.8283782
 30
0.0
 11
52.894148565
 21
26.8283782
 31
0.0
  0
LINE
  5
F8
  8
LAYER0003
  6
CONTINUOUS
 62
     3
 10
52.894148565
 20
35.31366989999999
 30
0.0
 11
65.90292385499998
 21
35.31366989999999
 31
0.0
  0
LINE
  5
F9
  8
LAYER0003
  6
CONTINUOUS
 62
     3
 10
65.90292385499998
 20
35.31366989999999
 30
0.0
 11
65.90292385499998
 21
36.32873283
 31
0.0
  0
LINE
  5
FA
  8
LAYER0003
  6
CONTINUOUS
 62
     3
 10
65.90292385499998
 20
36.32873283
 30
0.0
 11
52.894148565
 21
36.32873283
 31
0.0
  0
LINE
  5
FB
  8
LAYER0003
  6
CONTINUOUS
 62
     3
 10
52.894148565
 20
44.81511835
 30
0.0
 11
65.90292385499998
 21
44.81511835
 31
0.0
  0
LINE
  5
FC
  8
LAYER0003
  6
CONTINUOUS
 62
     3
 10
65.90292385499998
 20
44.81511835
 30
0.0
 11
65.90292385499998
 21
45.83018127999999
 31
0.0
  0
LINE
  5
FD
  8
LAYER0003
  6
CONTINUOUS
 62
     3
 10
65.90292385499998
 20
45.83018127999999
 30
0.0
 11
52.894148565
 21
45.83018127999999
 31
0.0
  0
LINE
  5
FE
  8
LAYER0003
  6
CONTINUOUS
 62
     3
 10
52.894148565
 20
54.31601991
 30
0.0
 11
65.90292385499998
 21
54.31601991
 31
0.0
  0
LINE
  5
FF
  8
LAYER0003
  6
CONTINUOUS
 62
     3
 10
65.90292385499998
 20
54.31601991
 30
0.0
 11
65.90292385499998
 21
55.33053595
 31
0.0
  0
LINE
  5
100
  8
LAYER0003
  6
CONTINUOUS
 62
     3
 10
65.90292385499998
 20
55.33053595
 30
0.0
 11
52.894148565
 21
55.33053595
 31
0.0
  0
LINE
  5
101
  8
LAYER0003
  6
CONTINUOUS
 62
     3
 10
52.894148565
 20
63.81746836
 30
0.0
 11
65.90292385499998
 21
63.81746836
 31
0.0
  0
LINE
  5
102
  8
LAYER0003
  6
CONTINUOUS
 62
     3
 10
65.90292385499998
 20
63.81746836
 30
0.0
 11
65.90292385499998
 21
64.83198440000001
 31
0.0
  0
LINE
  5
103
  8
LAYER0003
  6
CONTINUOUS
 62
     3
 10
65.90292385499998
 20
64.83198440000001
 30
0.0
 11
52.894148565
 21
64.83198440000001
 31
0.0
  0
LINE
  5
104
  8
LAYER0003
  6
CONTINUOUS
 62
     3
 10
52.894148565
 20
73.31782303
 30
0.0
 11
65.90292385499998
 21
73.31782303
 31
0.0
  0
LINE
  5
105
  8
LAYER0003
  6
CONTINUOUS
 62
     3
 10
65.90292385499998
 20
73.31782303
 30
0.0
 11
65.90292385499998
 21
74.33233904
 31
0.0
  0
LINE
  5
106
  8
LAYER0003
  6
CONTINUOUS
 62
     3
 10
65.90292385499998
 20
74.33233904
 30
0.0
 11
52.894148565
 21
74.33233904
 31
0.0
  0
LINE
  5
107
  8
LAYER0003
  6
CONTINUOUS
 62
     3
 10
52.894148565
 20
82.81927147999998
 30
0.0
 11
65.90292385499998
 21
82.81927147999998
 31
0.0
  0
LINE
  5
108
  8
LAYER0003
  6
CONTINUOUS
 62
     3
 10
65.90292385499998
 20
82.81927147999998
 30
0.0
 11
65.90292385499998
 21
83.83378752
 31
0.0
  0
LINE
  5
109
  8
LAYER0003
  6
CONTINUOUS
 62
     3
 10
65.90292385499998
 20
83.83378752
 30
0.0
 11
52.894148565
 21
83.83378752
 31
0.0
  0
LINE
  5
10A
  8
LAYER0003
  6
CONTINUOUS
 62
     3
 10
61.93674044499999
 20
18.58208566
 30
0.0
 11
63.94498994500001
 21
18.58208566
 31
0.0
  0
LINE
  5
10B
  8
LAYER0003
  6
CONTINUOUS
 62
     3
 10
63.94498994500001
 20
24.5822233
 30
0.0
 11
61.93674044499999
 21
24.5822233
 31
0.0
  0
LINE
  5
10C
  8
LAYER0003
  6
CONTINUOUS
 62
     3
 10
61.93674044499999
 20
28.08353412
 30
0.0
 11
63.94498994500001
 21
28.08353412
 31
0.0
  0
LINE
  5
10D
  8
LAYER0003
  6
CONTINUOUS
 62
     3
 10
63.94498994500001
 20
34.08367176
 30
0.0
 11
61.93674044499999
 21
34.08367176
 31
0.0
  0
LINE
  5
10E
  8
LAYER0003
  6
CONTINUOUS
 62
     3
 10
61.93674044499999
 20
37.58388878
 30
0.0
 11
63.94498994500001
 21
37.58388878
 31
0.0
  0
LINE
  5
10F
  8
LAYER0003
  6
CONTINUOUS
 62
     3
 10
63.94498994500001
 20
43.58457331999999
 30
0.0
 11
61.93674044499999
 21
43.58457331999999
 31
0.0
  0
LINE
  5
110
  8
LAYER0003
  6
CONTINUOUS
 62
     3
 10
61.93674044499999
 20
47.08479033999999
 30
0.0
 11
63.890299075
 21
47.08479033999999
 31
0.0
  0
LINE
  5
111
  8
LAYER0003
  6
CONTINUOUS
 62
     3
 10
63.94498994500001
 20
53.08602177
 30
0.0
 11
61.93674044499999
 21
53.08602177
 31
0.0
  0
LINE
  5
112
  8
LAYER0003
  6
CONTINUOUS
 62
     3
 10
103.206486675
 20
104.59881754
 30
0.0
 11
103.206486675
 21
-32.90118246
 31
0.0
  0
LINE
  5
113
  8
LAYER0003
  6
PHANTOM
 62
     3
 10
120.216447545
 20
16.32171115
 30
0.0
 11
120.216447545
 21
15.39579438
 31
0.0
  0
LINE
  5
114
  8
LAYER0003
  6
PHANTOM
 62
     3
 10
120.216447545
 20
25.81550287
 30
0.0
 11
120.216447545
 21
17.32638282
 31
0.0
  0
LINE
  5
115
  8
LAYER0003
  6
PHANTOM
 62
     3
 10
120.216447545
 20
35.31695136
 30
0.0
 11
120.216447545
 21
26.82728438
 31
0.0
  0
LINE
  5
116
  8
LAYER0003
  6
PHANTOM
 62
     3
 10
120.216447545
 20
44.81839981
 30
0.0
 11
120.216447545
 21
36.32873283
 31
0.0
  0
LINE
  5
117
  8
LAYER0003
  6
PHANTOM
 62
     3
 10
120.216447545
 20
54.27554866
 30
0.0
 11
120.216447545
 21
45.83018127999999
 31
0.0
  0
LINE
  5
118
  8
LAYER0003
  6
PHANTOM
 62
     3
 10
120.216447545
 20
63.82074982
 30
0.0
 11
120.216447545
 21
55.33053595
 31
0.0
  0
LINE
  5
119
  8
LAYER0003
  6
PHANTOM
 62
     3
 10
120.216447545
 20
73.32110449
 30
0.0
 11
120.216447545
 21
64.83198440000001
 31
0.0
  0
LINE
  5
11A
  8
LAYER0003
  6
PHANTOM
 62
     3
 10
120.216447545
 20
82.82255294
 30
0.0
 11
120.216447545
 21
74.33233904
 31
0.0
  0
LINE
  5
11B
  8
LAYER0003
  6
PHANTOM
 62
     3
 10
120.216447545
 20
92.32290758
 30
0.0
 11
120.216447545
 21
83.83378752
 31
0.0
  0
LINE
  5
11C
  8
LAYER0003
  6
PHANTOM
 62
     3
 10
120.216447545
 20
94.33006329999999
 30
0.0
 11
120.216447545
 21
93.36039378
 31
0.0
  0
LINE
  5
11D
  8
LAYER0003
  6
PHANTOM
 62
     3
 10
111.196825825
 20
16.32171115
 30
0.0
 11
111.196825825
 21
15.39579438
 31
0.0
  0
LINE
  5
11E
  8
LAYER0003
  6
PHANTOM
 62
     3
 10
111.196825825
 20
25.81550287
 30
0.0
 11
111.196825825
 21
17.32638282
 31
0.0
  0
LINE
  5
11F
  8
LAYER0003
  6
PHANTOM
 62
     3
 10
111.196825825
 20
35.31695136
 30
0.0
 11
111.196825825
 21
26.82728438
 31
0.0
  0
LINE
  5
120
  8
LAYER0003
  6
PHANTOM
 62
     3
 10
111.196825825
 20
44.81839981
 30
0.0
 11
111.196825825
 21
36.32873283
 31
0.0
  0
LINE
  5
121
  8
LAYER0003
  6
PHANTOM
 62
     3
 10
111.196825825
 20
54.27554866
 30
0.0
 11
111.196825825
 21
45.83018127999999
 31
0.0
  0
LINE
  5
122
  8
LAYER0003
  6
PHANTOM
 62
     3
 10
111.196825825
 20
63.82074982
 30
0.0
 11
111.196825825
 21
55.33053595
 31
0.0
  0
LINE
  5
123
  8
LAYER0003
  6
PHANTOM
 62
     3
 10
111.196825825
 20
73.32110449
 30
0.0
 11
111.196825825
 21
64.83198440000001
 31
0.0
  0
LINE
  5
124
  8
LAYER0003
  6
PHANTOM
 62
     3
 10
111.196825825
 20
82.82255294
 30
0.0
 11
111.196825825
 21
74.33233904
 31
0.0
  0
LINE
  5
125
  8
LAYER0003
  6
PHANTOM
 62
     3
 10
111.196825825
 20
92.32290758
 30
0.0
 11
111.196825825
 21
83.83378752
 31
0.0
  0
LINE
  5
126
  8
LAYER0003
  6
PHANTOM
 62
     3
 10
111.196825825
 20
94.33006329999999
 30
0.0
 11
111.196825825
 21
93.36039378
 31
0.0
  0
LINE
  5
127
  8
LAYER0003
  6
PHANTOM
 62
     3
 10
123.214602165
 20
94.33006329999999
 30
0.0
 11
123.214602165
 21
15.40345108
 31
0.0
  0
LINE
  5
128
  8
LAYER0003
  6
PHANTOM
 62
     3
 10
108.220547535
 20
94.33006329999999
 30
0.0
 11
108.220547535
 21
15.40345108
 31
0.0
  0
LINE
  5
129
  8
LAYER0003
  6
PHANTOM
 62
     3
 10
126.214944435
 20
94.33006329999999
 30
0.0
 11
126.214944435
 21
15.40345108
 31
0.0
  0
LINE
  5
12A
  8
LAYER0003
  6
PHANTOM
 62
     3
 10
105.199422735
 20
94.33006329999999
 30
0.0
 11
105.199422735
 21
15.40345108
 31
0.0
  0
LINE
  5
12B
  8
LAYER0003
  6
PHANTOM
 62
     3
 10
105.199422735
 20
15.40345108
 30
0.0
 11
126.214944435
 21
15.40345108
 31
0.0
  0
LINE
  5
12C
  8
LAYER0003
  6
PHANTOM
 62
     3
 10
126.214944435
 20
15.40345108
 30
0.0
 11
126.214944435
 21
6.384376279999999
 31
0.0
  0
LINE
  5
12D
  8
LAYER0003
  6
PHANTOM
 62
     3
 10
126.214944435
 20
6.384376279999999
 30
0.0
 11
105.199422735
 21
6.384376279999999
 31
0.0
  0
LINE
  5
12E
  8
LAYER0003
  6
PHANTOM
 62
     3
 10
105.199422735
 20
6.384376279999999
 30
0.0
 11
105.199422735
 21
15.40345108
 31
0.0
  0
LINE
  5
12F
  8
LAYER0003
  6
PHANTOM
 62
     3
 10
108.217266085
 20
16.40265368
 30
0.0
 11
123.217883625
 21
16.40265368
 31
0.0
  0
LINE
  5
130
  8
LAYER0003
  6
PHANTOM
 62
     3
 10
123.217883625
 20
16.40265368
 30
0.0
 11
123.217883625
 21
17.40295007
 31
0.0
  0
LINE
  5
131
  8
LAYER0003
  6
PHANTOM
 62
     3
 10
123.217883625
 20
17.40295007
 30
0.0
 11
108.217266085
 21
17.40295007
 31
0.0
  0
LINE
  5
132
  8
LAYER0003
  6
PHANTOM
 62
     3
 10
108.217266085
 20
17.40295007
 30
0.0
 11
108.217266085
 21
16.40265368
 31
0.0
  0
LINE
  5
133
  8
LAYER0003
  6
PHANTOM
 62
     3
 10
108.217266085
 20
25.85269269
 30
0.0
 11
123.217883625
 21
25.85269269
 31
0.0
  0
LINE
  5
134
  8
LAYER0003
  6
PHANTOM
 62
     3
 10
123.217883625
 20
25.85269269
 30
0.0
 11
123.217883625
 21
26.85298908
 31
0.0
  0
LINE
  5
135
  8
LAYER0003
  6
PHANTOM
 62
     3
 10
123.217883625
 20
26.85298908
 30
0.0
 11
108.217266085
 21
26.85298908
 31
0.0
  0
LINE
  5
136
  8
LAYER0003
  6
PHANTOM
 62
     3
 10
108.217266085
 20
26.85298908
 30
0.0
 11
108.217266085
 21
25.85269269
 31
0.0
  0
LINE
  5
137
  8
LAYER0003
  6
PHANTOM
 62
     3
 10
108.217266085
 20
35.35414115
 30
0.0
 11
123.217883625
 21
35.35414115
 31
0.0
  0
LINE
  5
138
  8
LAYER0003
  6
PHANTOM
 62
     3
 10
123.217883625
 20
35.35414115
 30
0.0
 11
123.217883625
 21
36.35443753
 31
0.0
  0
LINE
  5
139
  8
LAYER0003
  6
PHANTOM
 62
     3
 10
123.217883625
 20
36.35443753
 30
0.0
 11
108.217266085
 21
36.35443753
 31
0.0
  0
LINE
  5
13A
  8
LAYER0003
  6
PHANTOM
 62
     3
 10
108.217266085
 20
36.35443753
 30
0.0
 11
108.217266085
 21
35.35414115
 31
0.0
  0
LINE
  5
13B
  8
LAYER0003
  6
PHANTOM
 62
     3
 10
108.217266085
 20
44.85449581
 30
0.0
 11
123.217883625
 21
44.85449581
 31
0.0
  0
LINE
  5
13C
  8
LAYER0003
  6
PHANTOM
 62
     3
 10
123.217883625
 20
44.85449581
 30
0.0
 11
123.217883625
 21
45.85479219999999
 31
0.0
  0
LINE
  5
13D
  8
LAYER0003
  6
PHANTOM
 62
     3
 10
123.217883625
 20
45.85479219999999
 30
0.0
 11
108.217266085
 21
45.85479219999999
 31
0.0
  0
LINE
  5
13E
  8
LAYER0003
  6
PHANTOM
 62
     3
 10
108.217266085
 20
45.85479219999999
 30
0.0
 11
108.217266085
 21
44.85449581
 31
0.0
  0
LINE
  5
13F
  8
LAYER0003
  6
PHANTOM
 62
     3
 10
108.217266085
 20
54.35594427
 30
0.0
 11
123.217883625
 21
54.35594427
 31
0.0
  0
LINE
  5
140
  8
LAYER0003
  6
PHANTOM
 62
     3
 10
123.217883625
 20
54.35594427
 30
0.0
 11
123.217883625
 21
55.35624065
 31
0.0
  0
LINE
  5
141
  8
LAYER0003
  6
PHANTOM
 62
     3
 10
123.217883625
 20
55.35624065
 30
0.0
 11
108.217266085
 21
55.35624065
 31
0.0
  0
LINE
  5
142
  8
LAYER0003
  6
PHANTOM
 62
     3
 10
108.217266085
 20
55.35624065
 30
0.0
 11
108.217266085
 21
54.35594427
 31
0.0
  0
LINE
  5
143
  8
LAYER0003
  6
PHANTOM
 62
     3
 10
108.217266085
 20
63.85629889999999
 30
0.0
 11
123.217883625
 21
63.85629889999999
 31
0.0
  0
LINE
  5
144
  8
LAYER0003
  6
PHANTOM
 62
     3
 10
123.217883625
 20
63.85629889999999
 30
0.0
 11
123.217883625
 21
64.85659532
 31
0.0
  0
LINE
  5
145
  8
LAYER0003
  6
PHANTOM
 62
     3
 10
123.217883625
 20
64.85659532
 30
0.0
 11
108.217266085
 21
64.85659532
 31
0.0
  0
LINE
  5
146
  8
LAYER0003
  6
PHANTOM
 62
     3
 10
108.217266085
 20
64.85659532
 30
0.0
 11
108.217266085
 21
63.85629889999999
 31
0.0
  0
LINE
  5
147
  8
LAYER0003
  6
PHANTOM
 62
     3
 10
108.217266085
 20
73.35829428
 30
0.0
 11
123.217883625
 21
73.35829428
 31
0.0
  0
LINE
  5
148
  8
LAYER0003
  6
PHANTOM
 62
     3
 10
123.217883625
 20
73.35829428
 30
0.0
 11
123.217883625
 21
74.35804377
 31
0.0
  0
LINE
  5
149
  8
LAYER0003
  6
PHANTOM
 62
     3
 10
123.217883625
 20
74.35804377
 30
0.0
 11
108.217266085
 21
74.35804377
 31
0.0
  0
LINE
  5
14A
  8
LAYER0003
  6
PHANTOM
 62
     3
 10
108.217266085
 20
74.35804377
 30
0.0
 11
108.217266085
 21
73.35829428
 31
0.0
  0
LINE
  5
14B
  8
LAYER0003
  6
PHANTOM
 62
     3
 10
108.217266085
 20
82.85864895000002
 30
0.0
 11
123.217883625
 21
82.85864895000002
 31
0.0
  0
LINE
  5
14C
  8
LAYER0003
  6
PHANTOM
 62
     3
 10
123.217883625
 20
82.85864895000002
 30
0.0
 11
123.217883625
 21
83.85894533
 31
0.0
  0
LINE
  5
14D
  8
LAYER0003
  6
PHANTOM
 62
     3
 10
123.217883625
 20
83.85894533
 30
0.0
 11
108.217266085
 21
83.85894533
 31
0.0
  0
LINE
  5
14E
  8
LAYER0003
  6
PHANTOM
 62
     3
 10
108.217266085
 20
83.85894533
 30
0.0
 11
108.217266085
 21
82.85864895000002
 31
0.0
  0
LINE
  5
14F
  8
LAYER0003
  6
PHANTOM
 62
     3
 10
108.217266085
 20
92.3600974
 30
0.0
 11
123.217883625
 21
92.3600974
 31
0.0
  0
LINE
  5
150
  8
LAYER0003
  6
PHANTOM
 62
     3
 10
123.217883625
 20
92.3600974
 30
0.0
 11
123.217883625
 21
93.36039378
 31
0.0
  0
LINE
  5
151
  8
LAYER0003
  6
PHANTOM
 62
     3
 10
123.217883625
 20
93.36039378
 30
0.0
 11
108.217266085
 21
93.36039378
 31
0.0
  0
LINE
  5
152
  8
LAYER0003
  6
PHANTOM
 62
     3
 10
108.217266085
 20
93.36039378
 30
0.0
 11
108.217266085
 21
92.3600974
 31
0.0
  0
LINE
  5
153
  8
LAYER0003
  6
PHANTOM
 62
     3
 10
105.199422735
 20
103.34913809
 30
0.0
 11
126.214944435
 21
103.34913809
 31
0.0
  0
LINE
  5
154
  8
LAYER0003
  6
PHANTOM
 62
     3
 10
126.214944435
 20
103.34913809
 30
0.0
 11
126.214944435
 21
94.33006329999999
 31
0.0
  0
LINE
  5
155
  8
LAYER0003
  6
PHANTOM
 62
     3
 10
126.214944435
 20
94.33006329999999
 30
0.0
 11
105.199422735
 21
94.33006329999999
 31
0.0
  0
LINE
  5
156
  8
LAYER0003
  6
PHANTOM
 62
     3
 10
105.199422735
 20
94.33006329999999
 30
0.0
 11
105.199422735
 21
103.34913809
 31
0.0
  0
LINE
  5
157
  8
SLD-0_0
  6
CONTINUOUS
 62
     3
 10
-166.635948045
 20
85.84881753999998
 30
0.0
 11
-134.635948045
 21
85.84881753999998
 31
0.0
  0
LINE
  5
158
  8
SLD-0_0
  6
CONTINUOUS
 62
     3
 10
-166.635948045
 20
-14.15118246
 30
0.0
 11
-134.635948045
 21
-14.15118246
 31
0.0
  0
LINE
  5
159
  8
SLD-0_0
  6
CONTINUOUS
 62
     3
 10
-171.135948045
 20
-36.15118246
 30
0.0
 11
-171.135948045
 21
107.84881754
 31
0.0
  0
LINE
  5
15A
  8
SLD-0_0
  6
CONTINUOUS
 62
     3
 10
-130.135948045
 20
-36.15118246
 30
0.0
 11
-130.135948045
 21
107.84881754
 31
0.0
  0
LINE
  5
15B
  8
SLD-0
  6
CONTINUOUS
 62
     3
 10
-84.128956225
 20
-32.90118246
 30
0.0
 11
50.871043775
 21
-32.90118246
 31
0.0
  0
LINE
  5
15C
  8
SLD-0
  6
CONTINUOUS
 62
     3
 10
50.871043775
 20
-32.90118246
 30
0.0
 11
50.871043775
 21
104.59881754
 31
0.0
  0
LINE
  5
15D
  8
SLD-0
  6
CONTINUOUS
 62
     3
 10
-84.128956225
 20
104.59881754
 30
0.0
 11
50.871043775
 21
104.59881754
 31
0.0
  0
LINE
  5
15E
  8
SLD-0
  6
CONTINUOUS
 62
     3
 10
-93.128956225
 20
-36.15118246
 30
0.0
 11
-93.128956225
 21
107.84881754
 31
0.0
  0
LINE
  5
15F
  8
SLD-0
  6
CONTINUOUS
 62
     3
 10
103.206486675
 20
104.59881754
 30
0.0
 11
139.206486675
 21
104.59881754
 31
0.0
  0
LINE
  5
160
  8
SLD-0
  6
CONTINUOUS
 62
     3
 10
139.206486675
 20
104.59881754
 30
0.0
 11
139.206486675
 21
-32.90118246
 31
0.0
  0
LINE
  5
161
  8
SLD-0
  6
CONTINUOUS
 62
     3
 10
103.206486675
 20
-32.90118246
 30
0.0
 11
139.206486675
 21
-32.90118246
 31
0.0
  0
LINE
  5
162
  8
SLD-0
  6
CONTINUOUS
 62
     3
 10
70.871043775
 20
16.3621824
 30
0.0
 11
70.871043775
 21
93.35929997
 31
0.0
  0
LINE
  5
163
  8
SLD-0
  6
CONTINUOUS
 62
     3
 10
-168.635948045
 20
-36.15118246
 30
0.0
 11
-168.635948045
 21
107.84881754
 31
0.0
  0
LINE
  5
164
  8
SLD-0
  6
CONTINUOUS
 62
     3
 10
-166.635948045
 20
85.84881753999998
 30
0.0
 11
-166.635948045
 21
-14.15118246
 31
0.0
  0
LINE
  5
165
  8
SLD-0
  6
CONTINUOUS
 62
     3
 10
-134.635948045
 20
85.84881753999998
 30
0.0
 11
-134.635948045
 21
-14.15118246
 31
0.0
  0
TEXT
  5
167
  8
SLD-0_0
 62
     7
 10
156.135948045
 20
-107.84881754
 30
0.0
 40
5.0
  1
001
 41
1.235294117647059
  7
DCSTYLE0
 72
     5
 11
171.135948045
 21
-107.84881754
 31
0.0
  0
VIEWPORT
  5
B4
 67
     1
  8
0
 10
-6.0
 20
0.0
 30
0.0
 40
990.81568827
 41
647.0929052399999
 68
     1
 69
     1
1001
ACAD
1000
MVIEW
1002
{
1070
    16
1010
0.0
1020
0.0
1030
0.0
1010
0.0
1020
0.0
1030
1.0
1040
0.0
1040
647.0929052399999
1040
-6.0
1040
0.0
1040
50.0
1040
0.0
1040
0.0
1070
     0
1070
   100
1070
     0
1070
     3
1070
     0
1070
     0
1070
     0
1070
     0
1040
0.0
1040
0.0
1040
0.0
1040
0.5
1040
0.5
1040
0.0
1040
0.0
1070
     0
1002
{
1002
}
1002
}
  0
ENDSEC
  0
EOF
