  0
SECTION
  2
HEADER
  9
$ACADVER
  1
AC1009
  9
$INSBASE
 10
0.0
 20
0.0
 30
0.0
  9
$EXTMIN
 10
-125.3782522852076937
 20
-127.6087799280685999
 30
0.0
  9
$EXTMAX
 10
192.5960687689320991
 20
121.5893483845762972
 30
0.0
  9
$LIMMIN
 10
-210.0
 20
-148.5
  9
$LIMMAX
 10
210.0
 20
148.5
  9
$ORTHOMODE
 70
     0
  9
$REGENMODE
 70
     1
  9
$FILLMODE
 70
     1
  9
$QTEXTMODE
 70
     0
  9
$MIRRTEXT
 70
     1
  9
$DRAGMODE
 70
     2
  9
$LTSCALE
 40
0.25
  9
$OSMODE
 70
  1079
  9
$ATTMODE
 70
     1
  9
$TEXTSIZE
 40
0.2
  9
$TRACEWID
 40
0.05
  9
$TEXTSTYLE
  7
STANDARD
  9
$CLAYER
  8
0
  9
$CELTYPE
  6
BYLAYER
  9
$CECOLOR
 62
   256
  9
$DIMSCALE
 40
1.0
  9
$DIMASZ
 40
3.0000019073486328
  9
$DIMEXO
 40
1.0
  9
$DIMDLI
 40
10.0
  9
$DIMRND
 40
0.0
  9
$DIMDLE
 40
0.0
  9
$DIMEXE
 40
1.0
  9
$DIMTP
 40
0.0
  9
$DIMTM
 40
0.0
  9
$DIMTXT
 40
3.5
  9
$DIMCEN
 40
0.0
  9
$DIMTSZ
 40
0.0
  9
$DIMTOL
 70
     0
  9
$DIMLIM
 70
     0
  9
$DIMTIH
 70
     0
  9
$DIMTOH
 70
     0
  9
$DIMSE1
 70
     0
  9
$DIMSE2
 70
     0
  9
$DIMTAD
 70
     1
  9
$DIMZIN
 70
     8
  9
$DIMBLK
  1

  9
$DIMASO
 70
     1
  9
$DIMSHO
 70
     1
  9
$DIMPOST
  1

  9
$DIMAPOST
  1

  9
$DIMALT
 70
     0
  9
$DIMALTD
 70
     2
  9
$DIMALTF
 40
25.3999999999999986
  9
$DIMLFAC
 40
1.0
  9
$DIMTOFL
 70
     0
  9
$DIMTVP
 40
0.0
  9
$DIMTIX
 70
     0
  9
$DIMSOXD
 70
     0
  9
$DIMSAH
 70
     0
  9
$DIMBLK1
  1

  9
$DIMBLK2
  1

  9
$DIMSTYLE
  2
STANDARD
  9
$DIMCLRD
 70
     0
  9
$DIMCLRE
 70
     0
  9
$DIMCLRT
 70
     0
  9
$DIMTFAC
 40
0.65
  9
$DIMGAP
 40
0.09
  9
$LUNITS
 70
     2
  9
$LUPREC
 70
     4
  9
$SKETCHINC
 40
0.1
  9
$FILLETRAD
 40
0.5
  9
$AUNITS
 70
     0
  9
$AUPREC
 70
     0
  9
$MENU
  1
.
  9
$ELEVATION
 40
0.0
  9
$PELEVATION
 40
0.0
  9
$THICKNESS
 40
0.0
  9
$LIMCHECK
 70
     0
  9
$BLIPMODE
 70
     0
  9
$CHAMFERA
 40
0.0
  9
$CHAMFERB
 40
0.0
  9
$SKPOLY
 70
     0
  9
$TDCREATE
 40
2458697.685833333991468
  9
$TDUPDATE
 40
2458752.5711111109703779
  9
$TDINDWG
 40
0.0172916782
  9
$TDUSRTIMER
 40
0.0172916782
  9
$USRTIMER
 70
     1
  9
$ANGBASE
 50
0.0
  9
$ANGDIR
 70
     0
  9
$PDMODE
 70
     0
  9
$PDSIZE
 40
1.0
  9
$PLINEWID
 40
0.0
  9
$COORDS
 70
     1
  9
$SPLFRAME
 70
     0
  9
$SPLINETYPE
 70
     6
  9
$SPLINESEGS
 70
     8
  9
$ATTDIA
 70
     1
  9
$ATTREQ
 70
     1
  9
$HANDLING
 70
     1
  9
$HANDSEED
  5
CC0
  9
$SURFTAB1
 70
     6
  9
$SURFTAB2
 70
     6
  9
$SURFTYPE
 70
     6
  9
$SURFU
 70
     6
  9
$SURFV
 70
     6
  9
$UCSNAME
  2

  9
$UCSORG
 10
0.0
 20
0.0
 30
0.0
  9
$UCSXDIR
 10
1.0
 20
0.0
 30
0.0
  9
$UCSYDIR
 10
0.0
 20
1.0
 30
0.0
  9
$PUCSNAME
  2

  9
$PUCSORG
 10
0.0
 20
0.0
 30
0.0
  9
$PUCSXDIR
 10
1.0
 20
0.0
 30
0.0
  9
$PUCSYDIR
 10
0.0
 20
1.0
 30
0.0
  9
$USERI1
 70
     0
  9
$USERI2
 70
     0
  9
$USERI3
 70
     0
  9
$USERI4
 70
     0
  9
$USERI5
 70
     0
  9
$USERR1
 40
0.0
  9
$USERR2
 40
0.0
  9
$USERR3
 40
0.0
  9
$USERR4
 40
0.0
  9
$USERR5
 40
0.0
  9
$WORLDVIEW
 70
     1
  9
$SHADEDGE
 70
     3
  9
$SHADEDIF
 70
    70
  9
$TILEMODE
 70
     1
  9
$MAXACTVP
 70
    64
  9
$PLIMCHECK
 70
     0
  9
$PEXTMIN
 10
1.0000000000000000E+20
 20
1.0000000000000000E+20
 30
1.0000000000000000E+20
  9
$PEXTMAX
 10
-1.0000000000000000E+20
 20
-1.0000000000000000E+20
 30
-1.0000000000000000E+20
  9
$PLIMMIN
 10
0.0
 20
0.0
  9
$PLIMMAX
 10
12.0
 20
9.0
  9
$UNITMODE
 70
     0
  9
$VISRETAIN
 70
     0
  9
$PLINEGEN
 70
     1
  9
$PSLTSCALE
 70
     0
  0
ENDSEC
  0
SECTION
  2
TABLES
  0
TABLE
  2
VPORT
 70
     1
  0
VPORT
  2
*ACTIVE
 70
     0
 10
0.0
 20
0.0
 11
1.0
 21
1.0
 12
7.5537364979672361
 22
-63.1758224641318975
 13
0.0
 23
0.0
 14
0.5
 24
0.5
 15
0.5
 25
0.5
 16
0.0
 26
0.0
 36
1.0
 17
0.0
 27
0.0
 37
0.0
 40
216.2784606894865931
 41
2.2158693115519248
 42
50.0
 43
0.0
 44
0.0
 50
0.0
 51
0.0
 71
     0
 72
  1000
 73
     1
 74
     1
 75
     0
 76
     0
 77
     0
 78
     0
  0
ENDTAB
  0
TABLE
  2
LTYPE
 70
    68
  0
LTYPE
  2
CONTINUOUS
 70
     0
  3
Solid line
 72
    65
 73
     0
 40
0.0
  0
LTYPE
  2
HIDDENX2
 70
     0
  3
Hidden (2x) ____ ____ ____ ____ ____ ____ ____ 
 72
    65
 73
     2
 40
19.0500000000000007
 49
12.6999999999999993
 49
-6.3499999999999988
  0
LTYPE
  2
HIDDEN
 70
     0
  3
Hidden __ __ __ __ __ __ __ __ __ __ __ __ __ __
 72
    65
 73
     2
 40
9.5250000000000004
 49
6.3499999999999988
 49
-3.1749999999999989
  0
LTYPE
  2
HIDDEN2
 70
     0
  3
Hidden (.5x) _ _ _ _ _ _ _ _ _ _ _ _ _ _ _ _ _ 
 72
    65
 73
     2
 40
4.7624999999999984
 49
3.1749999999999989
 49
-1.587499999999999
  0
LTYPE
  2
DASHED
 70
     0
  3
Dashed __ __ __ __ __ __ __ __ __ __ __ __ __ _
 72
    65
 73
     2
 40
19.0500000000000007
 49
12.6999999999999993
 49
-6.3499999999999988
  0
LTYPE
  2
DASHED2
 70
     0
  3
Dashed (.5x) _ _ _ _ _ _ _ _ _ _ _ _ _ _ _ _ _ 
 72
    65
 73
     2
 40
9.5250000000000004
 49
6.3499999999999988
 49
-3.1749999999999989
  0
LTYPE
  2
DASHEDX2
 70
     0
  3
Dashed (2x) ____  ____  ____  ____  ____  ___
 72
    65
 73
     2
 40
38.0999999999999872
 49
25.3999999999999986
 49
-12.6999999999999993
  0
LTYPE
  2
DOTX2
 70
     0
  3
Dot (2x) .  .  .  .  .  .  .  .  .  .  .  .  .  .
 72
    65
 73
     2
 40
12.6999999999999993
 49
0.0
 49
-12.6999999999999993
  0
LTYPE
  2
DOT
 70
     0
  3
Dot . . . . . . . . . . . . . . . . . . . . . . . .
 72
    65
 73
     2
 40
6.3499999999999988
 49
0.0
 49
-6.3499999999999988
  0
LTYPE
  2
DOT2
 70
     0
  3
Dot (.5x) ........................................
 72
    65
 73
     2
 40
3.1749999999999989
 49
0.0
 49
-3.1749999999999989
  0
LTYPE
  2
CENTERX2
 70
     0
  3
Center (2x) ________  __  ________  __  _____
 72
    65
 73
     4
 40
101.5999999999999943
 49
63.5
 49
-12.6999999999999993
 49
12.6999999999999993
 49
-12.6999999999999993
  0
LTYPE
  2
CENTER
 70
     0
  3
Center ____ _ ____ _ ____ _ ____ _ ____ _ ____
 72
    65
 73
     4
 40
50.7999999999999972
 49
31.75
 49
-6.3499999999999988
 49
6.3499999999999988
 49
-6.3499999999999988
  0
LTYPE
  2
CENTER2
 70
     0
  3
Center (.5x) ___ _ ___ _ ___ _ ___ _ ___ _ ___
 72
    65
 73
     4
 40
28.5749999999999993
 49
19.0500000000000007
 49
-3.1749999999999989
 49
3.1749999999999989
 49
-3.1749999999999989
  0
LTYPE
  2
DASHDOTX2
 70
     0
  3
Dash dot (2x) ____  .  ____  .  ____  .  ___
 72
    65
 73
     4
 40
50.7999999999999972
 49
25.3999999999999986
 49
-12.6999999999999993
 49
0.0
 49
-12.6999999999999993
  0
LTYPE
  2
DASHDOT
 70
     0
  3
Dash dot __ . __ . __ . __ . __ . __ . __ . __
 72
    65
 73
     4
 40
25.3999999999999986
 49
12.6999999999999993
 49
-6.3499999999999988
 49
0.0
 49
-6.3499999999999988
  0
LTYPE
  2
DASHDOT2
 70
     0
  3
Dash dot (.5x) _._._._._._._._._._._._._._._.
 72
    65
 73
     4
 40
12.6999999999999993
 49
6.3499999999999988
 49
-3.1749999999999989
 49
0.0
 49
-3.1749999999999989
  0
LTYPE
  2
DIVIDEX2
 70
     0
  3
Divide (2x) ________  .  .  ________  .  .  _
 72
    65
 73
     6
 40
63.5
 49
25.3999999999999986
 49
-12.6999999999999993
 49
0.0
 49
-12.6999999999999993
 49
0.0
 49
-12.6999999999999993
  0
LTYPE
  2
DIVIDE
 70
     0
  3
Divide ____ . . ____ . . ____ . . ____ . . ____
 72
    65
 73
     6
 40
31.75
 49
12.6999999999999993
 49
-6.3499999999999988
 49
0.0
 49
-6.3499999999999988
 49
0.0
 49
-6.3499999999999988
  0
LTYPE
  2
DIVIDE2
 70
     0
  3
Divide (.5x) __..__..__..__..__..__..__..__.._
 72
    65
 73
     6
 40
15.875
 49
6.3499999999999988
 49
-3.1749999999999989
 49
0.0
 49
-3.1749999999999989
 49
0.0
 49
-3.1749999999999989
  0
LTYPE
  2
BORDERX2
 70
     0
  3
Border (2x) ____  ____  .  ____  ____  .  ___
 72
    65
 73
     6
 40
88.8999999999999773
 49
25.3999999999999986
 49
-12.6999999999999993
 49
25.3999999999999986
 49
-12.6999999999999993
 49
0.0
 49
-12.6999999999999993
  0
LTYPE
  2
BORDER
 70
     0
  3
Border __ __ . __ __ . __ __ . __ __ . __ __ .
 72
    65
 73
     6
 40
44.4500000000000028
 49
12.6999999999999993
 49
-6.3499999999999988
 49
12.6999999999999993
 49
-6.3499999999999988
 49
0.0
 49
-6.3499999999999988
  0
LTYPE
  2
BORDER2
 70
     0
  3
Border (.5x) __.__.__.__.__.__.__.__.__.__.__.
 72
    65
 73
     6
 40
22.2250000000000014
 49
6.3499999999999988
 49
-3.1749999999999989
 49
6.3499999999999988
 49
-3.1749999999999989
 49
0.0
 49
-3.1749999999999989
  0
LTYPE
  2
PHANTOMX2
 70
     0
  3
Phantom (2x) ____________    ____    ____   _
 72
    65
 73
     6
 40
127.0
 49
63.5
 49
-12.6999999999999993
 49
12.6999999999999993
 49
-12.6999999999999993
 49
12.6999999999999993
 49
-12.6999999999999993
  0
LTYPE
  2
PHANTOM
 70
     0
  3
Phantom ______  __  __  ______  __  __  ______ 
 72
    65
 73
     6
 40
63.5
 49
31.75
 49
-6.3499999999999988
 49
6.3499999999999988
 49
-6.3499999999999988
 49
6.3499999999999988
 49
-6.3499999999999988
  0
LTYPE
  2
PHANTOM2
 70
     0
  3
Phantom (.5x) ___ _ _ ___ _ _ ___ _ _ ___ _ _
 72
    65
 73
     6
 40
31.75
 49
15.875
 49
-3.1749999999999989
 49
3.1749999999999989
 49
-3.1749999999999989
 49
3.1749999999999989
 49
-3.1749999999999989
  0
LTYPE
  2
ACAD_ISO06W100
 70
     0
  3
ISO long-dash triple-dot ____ ... ____ ... ____
 72
    65
 73
     8
 40
36.0
 49
24.0
 49
-3.0
 49
0.0
 49
-3.0
 49
0.0
 49
-3.0
 49
0.0
 49
-3.0
  0
LTYPE
  2
ACAD_ISO13W100
 70
     0
  3
ISO double-dash double-dot __ __ . . __ __ . . _
 72
    65
 73
     8
 40
36.0
 49
12.0
 49
-3.0
 49
12.0
 49
-3.0
 49
0.0
 49
-3.0
 49
0.0
 49
-3.0
  0
LTYPE
  2
ACAD_ISO14W100
 70
     0
  3
ISO dash triple-dot __ . . . __ . . . __ . . . _
 72
    65
 73
     8
 40
24.0
 49
12.0
 49
-3.0
 49
0.0
 49
-3.0
 49
0.0
 49
-3.0
 49
0.0
 49
-3.0
  0
LTYPE
  2
ACAD_ISO02W100
 70
     0
  3
ISO dash __ __ __ __ __ __ __ __ __ __ __ __ __
 72
    65
 73
     2
 40
15.0
 49
12.0
 49
-3.0
  0
LTYPE
  2
ACAD_ISO03W100
 70
     0
  3
ISO dash space __    __    __    __    __    __
 72
    65
 73
     2
 40
30.0
 49
12.0
 49
-18.0
  0
LTYPE
  2
ACAD_ISO04W100
 70
     0
  3
ISO long-dash dot ____ . ____ . ____ . ____ . _
 72
    65
 73
     4
 40
30.0
 49
24.0
 49
-3.0
 49
0.0
 49
-3.0
  0
LTYPE
  2
ACAD_ISO05W100
 70
     0
  3
ISO long-dash double-dot ____ .. ____ .. ____ . 
 72
    65
 73
     6
 40
33.0
 49
24.0
 49
-3.0
 49
0.0
 49
-3.0
 49
0.0
 49
-3.0
  0
LTYPE
  2
ACAD_ISO07W100
 70
     0
  3
ISO dot . . . . . . . . . . . . . . . . . . . . 
 72
    65
 73
     2
 40
3.0
 49
0.0
 49
-3.0
  0
LTYPE
  2
ACAD_ISO08W100
 70
     0
  3
ISO long-dash short-dash ____ __ ____ __ ____ _
 72
    65
 73
     4
 40
36.0
 49
24.0
 49
-3.0
 49
6.0
 49
-3.0
  0
LTYPE
  2
ACAD_ISO09W100
 70
     0
  3
ISO long-dash double-short-dash ____ __ __ ____
 72
    65
 73
     6
 40
45.0
 49
24.0
 49
-3.0
 49
6.0
 49
-3.0
 49
6.0
 49
-3.0
  0
LTYPE
  2
ACAD_ISO10W100
 70
     0
  3
ISO dash dot __ . __ . __ . __ . __ . __ . __ . 
 72
    65
 73
     4
 40
18.0
 49
12.0
 49
-3.0
 49
0.0
 49
-3.0
  0
LTYPE
  2
ACAD_ISO11W100
 70
     0
  3
ISO double-dash dot __ __ . __ __ . __ __ . __ _
 72
    65
 73
     6
 40
33.0
 49
12.0
 49
-3.0
 49
12.0
 49
-3.0
 49
0.0
 49
-3.0
  0
LTYPE
  2
ACAD_ISO12W100
 70
     0
  3
ISO dash double-dot __ . . __ . . __ . . __ . . 
 72
    65
 73
     6
 40
21.0
 49
12.0
 49
-3.0
 49
0.0
 49
-3.0
 49
0.0
 49
-3.0
  0
LTYPE
  2
ACAD_ISO15W100
 70
     0
  3
ISO double-dash triple-dot __ __ . . . __ __ . .
 72
    65
 73
    10
 40
39.0
 49
12.0
 49
-3.0
 49
12.0
 49
-3.0
 49
0.0
 49
-3.0
 49
0.0
 49
-3.0
 49
0.0
 49
-3.0
  0
LTYPE
  2
JIS_02_0_7
 70
     0
  3
HIDDEN0.75 _ _ _ _ _ _ _ _ _ _ _ _ _ _ _ _ _ 
 72
    65
 73
     2
 40
1.3500000000000001
 49
0.75
 49
-0.6
  0
LTYPE
  2
JIS_02_1_0
 70
     0
  3
HIDDEN01 _ _ _ _ _ _ _ _ _ _ _ _ _ _ _ _ _ 
 72
    65
 73
     2
 40
2.0
 49
1.0
 49
-1.0
  0
LTYPE
  2
JIS_02_1_2
 70
     0
  3
HIDDEN01.25  _ _ _ _ _ _ _ _ _ _ _ _ _ _ _ _ _ 
 72
    65
 73
     2
 40
2.5
 49
1.25
 49
-1.25
  0
LTYPE
  2
JIS_02_2_0
 70
     0
  3
HIDDEN02 __ __ __ __ __ __ __ __ __ __ __ 
 72
    65
 73
     2
 40
3.0
 49
2.0
 49
-1.0
  0
LTYPE
  2
JIS_02_4_0
 70
     0
  3
HIDDEN04 ____ ____ ____ ____ ____ ____ ____ 
 72
    65
 73
     2
 40
5.5
 49
4.0
 49
-1.5
  0
LTYPE
  2
JIS_08_11
 70
     0
  3
1SASEN11 ___ _ ___ _ ___ _ ___ _ ___ _ ___
 72
    65
 73
     4
 40
12.8000000000000007
 49
11.0
 49
-0.6
 49
0.6
 49
-0.6
  0
LTYPE
  2
JIS_08_15
 70
     0
  3
1SASEN15 ____ _ ____ _ ____ _ ____ _ ____ 
 72
    65
 73
     4
 40
17.25
 49
15.0
 49
-0.75
 49
0.75
 49
-0.75
  0
LTYPE
  2
JIS_08_25
 70
     0
  3
1SASEN25 ________  __  ________  __  _____
 72
    65
 73
     4
 40
28.0
 49
25.0
 49
-1.125
 49
0.75
 49
-1.125
  0
LTYPE
  2
JIS_08_37
 70
     0
  3
1SASEN37 ________  __  ________  __  _____
 72
    65
 73
     4
 40
40.4999999999999929
 49
37.5
 49
-1.125
 49
0.75
 49
-1.125
  0
LTYPE
  2
JIS_08_50
 70
     0
  3
1SASEN50 _______________  __  ____________
 72
    65
 73
     4
 40
53.0
 49
50.0
 49
-1.125
 49
0.75
 49
-1.125
  0
LTYPE
  2
JIS_09_08
 70
     0
  3
2SASEN8 __ _ _ __ _ _ __ _ _ __ _ _ __ _ _ 
 72
    65
 73
     6
 40
10.75
 49
8.0
 49
-0.55
 49
0.55
 49
-0.55
 49
0.55
 49
-0.55
  0
LTYPE
  2
JIS_09_15
 70
     0
  3
2SASEN15 ___ _ _ ___ _ _ ___ _ _ ___ _ _ ___ 
 72
    65
 73
     6
 40
18.8999999999999986
 49
15.0
 49
-0.9
 49
0.6
 49
-0.9
 49
0.6
 49
-0.9
  0
LTYPE
  2
JIS_09_29
 70
     0
  3
2SASEN29 ______　__  __  ______　__  __  ___
 72
    65
 73
     6
 40
34.0
 49
29.0
 49
-1.1999999999999991
 49
0.7
 49
-1.1999999999999991
 49
0.7
 49
-1.1999999999999991
  0
LTYPE
  2
JIS_09_50
 70
     0
  3
2SASEN50 ____________　__  __  _____________
 72
    65
 73
     6
 40
55.0
 49
50.0
 49
-1.1999999999999991
 49
0.7
 49
-1.1999999999999991
 49
0.7
 49
-1.1999999999999991
  0
LTYPE
  2
SXF_破線
 70
     0
  3
02 dashed -- -- -- -- -- --
 72
    65
 73
     2
 40
7.5
 49
6.0
 49
-1.5
  0
LTYPE
  2
SXF_跳び破線
 70
     0
  3
03 dashed_spaced --  --  --  --
 72
    65
 73
     2
 40
12.0
 49
6.0
 49
-6.0
  0
LTYPE
  2
SXF_一点長鎖線
 70
     0
  3
04 long_dashed_dotted ---- . ---- . ----
 72
    65
 73
     4
 40
15.25
 49
12.0
 49
-1.5
 49
0.25
 49
-1.5
  0
LTYPE
  2
SXF_二点長鎖線
 70
     0
  3
05 long_dashed_double-dotted ---- . . ---- 
 72
    65
 73
     6
 40
17.0
 49
12.0
 49
-1.5
 49
0.25
 49
-1.5
 49
0.25
 49
-1.5
  0
LTYPE
  2
SXF_三点長鎖線
 70
     0
  3
06 long_dashed_triplicate-dotted ---- ... ---- 
 72
    65
 73
     8
 40
18.75
 49
12.0
 49
-1.5
 49
0.25
 49
-1.5
 49
0.25
 49
-1.5
 49
0.25
 49
-1.5
  0
LTYPE
  2
SXF_点線
 70
     0
  3
07 dotted . . . . . . . . . . . . 
 72
    65
 73
     2
 40
1.75
 49
0.25
 49
-1.5
  0
LTYPE
  2
SXF_一点鎖線
 70
     0
  3
08 chain ---- - --- - --- - ---
 72
    65
 73
     4
 40
18.5
 49
12.0
 49
-1.5
 49
3.5
 49
-1.5
  0
LTYPE
  2
SXF_二点鎖線
 70
     0
  3
09 chain_double_dash ---- - - ---- - - ----
 72
    65
 73
     6
 40
23.5
 49
12.0
 49
-1.5
 49
3.5
 49
-1.5
 49
3.5
 49
-1.5
  0
LTYPE
  2
SXF_一点短鎖線
 70
     0
  3
10 dashed_dotted -- . -- . -- . --
 72
    65
 73
     4
 40
9.25
 49
6.0
 49
-1.5
 49
0.25
 49
-1.5
  0
LTYPE
  2
SXF_一点二短鎖線
 70
     0
  3
11 double-dashed_dotted -- -- . -- --
 72
    65
 73
     6
 40
16.75
 49
6.0
 49
-1.5
 49
6.0
 49
-1.5
 49
0.25
 49
-1.5
  0
LTYPE
  2
SXF_二点短鎖線
 70
     0
  3
12 dashed_double_dotted -- . . -- . . --
 72
    65
 73
     6
 40
11.0
 49
6.0
 49
-1.5
 49
0.25
 49
-1.5
 49
0.25
 49
-1.5
  0
LTYPE
  2
SXF_二点二短鎖線
 70
     0
  3
13 double-dashed_double-dotted -- -- . . -- --
 72
    65
 73
     8
 40
18.5
 49
6.0
 49
-1.5
 49
6.0
 49
-1.5
 49
0.25
 49
-1.5
 49
0.25
 49
-1.5
  0
LTYPE
  2
SXF_三点短鎖線
 70
     0
  3
14 dashed triplicate-dotted -- . . . -- . . . --
 72
    65
 73
     8
 40
12.75
 49
6.0
 49
-1.5
 49
0.25
 49
-1.5
 49
0.25
 49
-1.5
 49
0.25
 49
-1.5
  0
LTYPE
  2
SXF_三点二短鎖線
 70
     0
  3
15 double-dashed triplicate-dotted -- -- . . . -- -- 
 72
    65
 73
    10
 40
20.25
 49
6.0
 49
-1.5
 49
6.0
 49
-1.5
 49
0.25
 49
-1.5
 49
0.25
 49
-1.5
 49
0.25
 49
-1.5
  0
ENDTAB
  0
TABLE
  2
LAYER
 70
     1
  0
LAYER
  2
0
 70
     0
 62
     7
  6
CONTINUOUS
  0
ENDTAB
  0
TABLE
  2
STYLE
 70
     2
  0
STYLE
  2
STANDARD
 70
     0
 40
0.0
 41
1.0
 50
0.0
 71
     0
 42
0.2
  3
txt.shx
  4
bigfont.shx
  0
STYLE
  2
DCSTYLE0
 70
     0
 40
0.0
 41
0.45
 50
0.0
 71
     0
 42
0.2
  3
txt.shx
  4
bigfont
  0
ENDTAB
  0
TABLE
  2
VIEW
 70
     0
  0
ENDTAB
  0
TABLE
  2
UCS
 70
     0
  0
ENDTAB
  0
TABLE
  2
APPID
 70
     4
  0
APPID
  2
ACAD
 70
     0
  0
APPID
  2
DAFUSIONOUT
 70
     0
  0
APPID
  2
ACAD_NAV_VCDISPLAY
 70
     0
  0
APPID
  2
ACAD_MLEADERVER
 70
     0
  0
ENDTAB
  0
TABLE
  2
DIMSTYLE
 70
     2
  0
DIMSTYLE
  2
STANDARD
 70
     0
  3

  4

  5

  6

  7

 40
1.0
 41
0.18
 42
0.0625
 43
0.38
 44
0.18
 45
0.0
 46
0.0
 47
0.0
 48
0.0
140
0.18
141
0.09
142
0.0
143
25.3999999999999986
144
1.0
145
0.0
146
1.0
147
0.09
 71
     0
 72
     0
 73
     1
 74
     1
 75
     0
 76
     0
 77
     0
 78
     0
170
     0
171
     2
172
     0
173
     0
174
     0
175
     0
176
     0
177
     0
178
     0
  0
ENDTAB
  0
ENDSEC
  0
SECTION
  2
BLOCKS
  0
BLOCK
  8
0
  2
$MODEL_SPACE
 70
     0
 10
0.0
 20
0.0
 30
0.0
  3
$MODEL_SPACE
  1
*Model_Space
  0
ENDBLK
  5
21
  8
0
  0
BLOCK
 67
     1
  8
0
  2
$PAPER_SPACE
 70
     0
 10
0.0
 20
0.0
 30
0.0
  3
$PAPER_SPACE
  1
*Paper_Space
  0
ENDBLK
  5
1D
 67
     1
  8
0
  0
BLOCK
  8
0
  2
DC_GROUP_WL40WR_000_1
 70
     0
 10
0.0
 20
0.0
 30
0.0
  3
DC_GROUP_WL40WR_000_1
  1
DC_GROUP_WL40WR_000_1
  0
LINE
  5
DE
  8
0
  6
PHANTOM
 62
     7
 10
151.167573055773488
 20
3.0759092955171909
 30
0.0
 11
151.1618510098751074
 21
3.0752052156507821
 31
0.0
  0
LINE
  5
DF
  8
0
  6
PHANTOM
 62
     7
 10
151.1618510098751074
 20
3.0752052156507821
 30
0.0
 11
151.1449065269526102
 21
3.0731265036642408
 31
0.0
  0
LINE
  5
E0
  8
0
  6
PHANTOM
 62
     7
 10
151.1449065269526102
 20
3.0731265036642408
 30
0.0
 11
151.1173915328081137
 21
3.0697476653635349
 31
0.0
  0
LINE
  5
E1
  8
0
  6
PHANTOM
 62
     7
 10
151.1173915328081137
 20
3.0697476653635349
 30
0.0
 11
151.0803602845963098
 21
3.0651990859091129
 31
0.0
  0
LINE
  5
E2
  8
0
  6
PHANTOM
 62
     7
 10
151.0803602845963098
 20
3.0651990859091129
 30
0.0
 11
151.0352377058561046
 21
3.0596595792353001
 31
0.0
  0
LINE
  5
E3
  8
0
  6
PHANTOM
 62
     7
 10
151.0352377058561046
 20
3.0596595792353001
 30
0.0
 11
150.9837579192216879
 21
3.0533377615988111
 31
0.0
  0
LINE
  5
E4
  8
0
  6
PHANTOM
 62
     7
 10
150.9837579192216879
 20
3.0533377615988111
 30
0.0
 11
150.9278990538414007
 21
3.0464795021593432
 31
0.0
  0
LINE
  5
E5
  8
0
  6
PHANTOM
 62
     7
 10
150.9278990538414007
 20
3.0464795021593432
 30
0.0
 11
150.8698087395723064
 21
3.0393492965280862
 31
0.0
  0
ENDBLK
  5
B0
  8
0
  0
BLOCK
  8
0
  2
DC_GROUP_WL40WR_000_2
 70
     0
 10
0.0
 20
0.0
 30
0.0
  3
DC_GROUP_WL40WR_000_2
  1
DC_GROUP_WL40WR_000_2
  0
LINE
  5
E6
  8
0
  6
CONTINUOUS
 62
     7
 10
-74.0881542141093377
 20
-25.8606519015252587
 30
0.0
 11
-73.8652645076169421
 21
-25.7177423150956592
 31
0.0
  0
LINE
  5
E7
  8
0
  6
CONTINUOUS
 62
     7
 10
-73.8652645076169421
 20
-25.7177423150956592
 30
0.0
 11
-73.5782513792170647
 21
-25.6606522412717304
 31
0.0
  0
ENDBLK
  5
B3
  8
0
  0
BLOCK
  8
0
  2
DC_GROUP_WL40WR_000_3
 70
     0
 10
0.0
 20
0.0
 30
0.0
  3
DC_GROUP_WL40WR_000_3
  1
DC_GROUP_WL40WR_000_3
  0
LINE
  5
E8
  8
0
  6
CONTINUOUS
 62
     7
 10
-74.0782523924960401
 20
-23.3516353578984699
 30
0.0
 11
-73.8652645076169421
 21
-23.217742836636301
 31
0.0
  0
LINE
  5
E9
  8
0
  6
CONTINUOUS
 62
     7
 10
-73.8652645076169421
 20
-23.217742836636301
 30
0.0
 11
-73.5782513792170647
 21
-23.16065090016723
 31
0.0
  0
ENDBLK
  5
B6
  8
0
  0
BLOCK
  8
0
  2
DC_GROUP_WL40WR_000_4
 70
     0
 10
0.0
 20
0.0
 30
0.0
  3
DC_GROUP_WL40WR_000_4
  1
DC_GROUP_WL40WR_000_4
  0
LINE
  5
EA
  8
0
  6
CONTINUOUS
 62
     7
 10
-74.0782523924960401
 20
-5.8516334207475307
 30
0.0
 11
-73.8652645076169421
 21
-5.7177427621305119
 31
0.0
  0
LINE
  5
EB
  8
0
  6
CONTINUOUS
 62
     7
 10
-73.8652645076169421
 20
-5.7177427621305119
 30
0.0
 11
-73.5782513792170647
 21
-5.6606526883065831
 31
0.0
  0
ENDBLK
  5
B9
  8
0
  0
BLOCK
  8
0
  2
DC_GROUP_WL40WR_000_5
 70
     0
 10
0.0
 20
0.0
 30
0.0
  3
DC_GROUP_WL40WR_000_5
  1
DC_GROUP_WL40WR_000_5
  0
LINE
  5
EC
  8
0
  6
CONTINUOUS
 62
     7
 10
-74.0782523924960401
 20
-8.3516347618520381
 30
0.0
 11
-73.8652645076169421
 21
-8.2177403779447218
 31
0.0
  0
LINE
  5
ED
  8
0
  6
CONTINUOUS
 62
     7
 10
-73.8652645076169421
 20
-8.2177403779447218
 30
0.0
 11
-73.5782513792170647
 21
-8.1606503041207912
 31
0.0
  0
ENDBLK
  5
BC
  8
0
  0
BLOCK
  8
0
  2
DC_GROUP_WL40WR_000_6
 70
     0
 10
0.0
 20
0.0
 30
0.0
  3
DC_GROUP_WL40WR_000_6
  1
DC_GROUP_WL40WR_000_6
  0
LINE
  5
EE
  8
0
  6
CONTINUOUS
 62
     7
 10
-74.0782523924960401
 20
-20.8516340167939696
 30
0.0
 11
-73.8652645076169421
 21
-20.7177414955318007
 31
0.0
  0
LINE
  5
EF
  8
0
  6
CONTINUOUS
 62
     7
 10
-73.8652645076169421
 20
-20.7177414955318007
 30
0.0
 11
-73.5782513792170647
 21
-20.6606514217078683
 31
0.0
  0
ENDBLK
  5
BF
  8
0
  0
BLOCK
  8
0
  2
DC_GROUP_WL40WR_000_7
 70
     0
 10
0.0
 20
0.0
 30
0.0
  3
DC_GROUP_WL40WR_000_7
  1
DC_GROUP_WL40WR_000_7
  0
LINE
  5
F0
  8
0
  6
CONTINUOUS
 62
     7
 10
-74.0782523924960401
 20
-15.8516350598752602
 30
0.0
 11
-73.8652645076169421
 21
-15.7177406759679492
 31
0.0
  0
LINE
  5
F1
  8
0
  6
CONTINUOUS
 62
     7
 10
-73.8652645076169421
 20
-15.7177406759679492
 30
0.0
 11
-73.5782513792170647
 21
-15.6606506021440204
 31
0.0
  0
ENDBLK
  5
C2
  8
0
  0
BLOCK
  8
0
  2
DC_GROUP_WL40WR_000_8
 70
     0
 10
0.0
 20
0.0
 30
0.0
  3
DC_GROUP_WL40WR_000_8
  1
DC_GROUP_WL40WR_000_8
  0
LINE
  5
F2
  8
0
  6
CONTINUOUS
 62
     7
 10
-74.0782523924960401
 20
-18.3516345383346184
 30
0.0
 11
-73.8652645076169421
 21
-18.2177420170724496
 31
0.0
  0
LINE
  5
F3
  8
0
  6
CONTINUOUS
 62
     7
 10
-73.8652645076169421
 20
-18.2177420170724496
 30
0.0
 11
-73.5782513792170647
 21
-18.1606519432485207
 31
0.0
  0
ENDBLK
  5
C5
  8
0
  0
BLOCK
  8
0
  2
DC_GROUP_WL40WR_000_9
 70
     0
 10
0.0
 20
0.0
 30
0.0
  3
DC_GROUP_WL40WR_000_9
  1
DC_GROUP_WL40WR_000_9
  0
LINE
  5
F4
  8
0
  6
CONTINUOUS
 62
     7
 10
-74.0782523924960401
 20
-10.8516361029565491
 30
0.0
 11
-73.8652645076169421
 21
-10.7177417190492292
 31
0.0
  0
LINE
  5
F5
  8
0
  6
CONTINUOUS
 62
     7
 10
-73.8652645076169421
 20
-10.7177417190492292
 30
0.0
 11
-73.5782513792170647
 21
-10.6606516452253004
 31
0.0
  0
ENDBLK
  5
C8
  8
0
  0
BLOCK
  8
0
  2
DC_GROUP_WL40WR_000_10
 70
     0
 10
0.0
 20
0.0
 30
0.0
  3
DC_GROUP_WL40WR_000_10
  1
DC_GROUP_WL40WR_000_10
  0
LINE
  5
F6
  8
0
  6
CONTINUOUS
 62
     7
 10
-74.0782523924960401
 20
-13.3516337187707599
 30
0.0
 11
-73.8652645076169421
 21
-13.2177430601537402
 31
0.0
  0
LINE
  5
F7
  8
0
  6
CONTINUOUS
 62
     7
 10
-73.8652645076169421
 20
-13.2177430601537402
 30
0.0
 11
-73.5782513792170647
 21
-13.1606529863298096
 31
0.0
  0
ENDBLK
  5
CB
  8
0
  0
BLOCK
  8
0
  2
DC_GROUP_WL40WR_000_11
 70
     0
 10
0.0
 20
0.0
 30
0.0
  3
DC_GROUP_WL40WR_000_11
  1
DC_GROUP_WL40WR_000_11
  0
LINE
  5
F8
  8
0
  6
CONTINUOUS
 62
     7
 10
153.0352268578108124
 20
-14.5965624065816506
 30
0.0
 11
153.0873213173445038
 21
-14.5933772833764692
 31
0.0
  0
LINE
  5
F9
  8
0
  6
CONTINUOUS
 62
     7
 10
153.0873213173445038
 20
-14.5933772833764692
 30
0.0
 11
153.137832528501292
 21
-14.5902852924287494
 31
0.0
  0
LINE
  5
FA
  8
0
  6
CONTINUOUS
 62
     7
 10
153.137832528501292
 20
-14.5902852924287494
 30
0.0
 11
153.1852275343235021
 21
-14.5873870165765407
 31
0.0
  0
LINE
  5
FB
  8
0
  6
CONTINUOUS
 62
     7
 10
153.1852275343235021
 20
-14.5873870165765407
 30
0.0
 11
153.2280627848203949
 21
-14.5847681374967202
 31
0.0
  0
LINE
  5
FC
  8
0
  6
CONTINUOUS
 62
     7
 10
153.2280627848203949
 20
-14.5847681374967202
 30
0.0
 11
153.2650400163228994
 21
-14.5825068862855591
 31
0.0
  0
LINE
  5
FD
  8
0
  6
CONTINUOUS
 62
     7
 10
153.2650400163228994
 20
-14.5825068862855591
 30
0.0
 11
153.2950341911609939
 21
-14.5806703181684192
 31
0.0
  0
LINE
  5
FE
  8
0
  6
CONTINUOUS
 62
     7
 10
153.2950341911609939
 20
-14.5806703181684192
 30
0.0
 11
153.3171344758565908
 21
-14.5793217630803706
 31
0.0
  0
LINE
  5
FF
  8
0
  6
CONTINUOUS
 62
     7
 10
153.3171344758565908
 20
-14.5793217630803706
 30
0.0
 11
153.330668455510903
 21
-14.5784910233438207
 31
0.0
  0
LINE
  5
100
  8
0
  6
CONTINUOUS
 62
     7
 10
153.330668455510903
 20
-14.5784910233438207
 30
0.0
 11
153.3352263481910995
 21
-14.5782153518617292
 31
0.0
  0
ENDBLK
  5
CE
  8
0
  0
BLOCK
  8
0
  2
DC_GROUP_WL40WR_000_12
 70
     0
 10
0.0
 20
0.0
 30
0.0
  3
DC_GROUP_WL40WR_000_12
  1
DC_GROUP_WL40WR_000_12
  0
LINE
  5
101
  8
0
  6
CONTINUOUS
 62
     7
 10
153.0352268578108124
 20
-28.83638771490455
 30
0.0
 11
153.0873213173445038
 21
-28.8579664589583906
 31
0.0
  0
LINE
  5
102
  8
0
  6
CONTINUOUS
 62
     7
 10
153.0873213173445038
 20
-28.8579664589583906
 30
0.0
 11
153.137832528501292
 21
-28.8788876892745492
 31
0.0
  0
LINE
  5
103
  8
0
  6
CONTINUOUS
 62
     7
 10
153.137832528501292
 20
-28.8788876892745492
 30
0.0
 11
153.1852275343235021
 21
-28.8985199691474506
 31
0.0
  0
LINE
  5
104
  8
0
  6
CONTINUOUS
 62
     7
 10
153.1852275343235021
 20
-28.8985199691474506
 30
0.0
 11
153.2280627848203949
 21
-28.9162635268390211
 31
0.0
  0
LINE
  5
105
  8
0
  6
CONTINUOUS
 62
     7
 10
153.2280627848203949
 20
-28.9162635268390211
 30
0.0
 11
153.2650400163228994
 21
-28.9315800579011402
 31
0.0
  0
LINE
  5
106
  8
0
  6
CONTINUOUS
 62
     7
 10
153.2650400163228994
 20
-28.9315800579011402
 30
0.0
 11
153.2950341911609939
 21
-28.9440039010465107
 31
0.0
  0
LINE
  5
107
  8
0
  6
CONTINUOUS
 62
     7
 10
153.2950341911609939
 20
-28.9440039010465107
 30
0.0
 11
153.3171344758565908
 21
-28.9531569393098387
 31
0.0
  0
LINE
  5
108
  8
0
  6
CONTINUOUS
 62
     7
 10
153.3171344758565908
 20
-28.9531569393098387
 30
0.0
 11
153.330668455510903
 21
-28.9587635012090203
 31
0.0
  0
LINE
  5
109
  8
0
  6
CONTINUOUS
 62
     7
 10
153.330668455510903
 20
-28.9587635012090203
 30
0.0
 11
153.3352263481910995
 21
-28.9606522233903405
 31
0.0
  0
ENDBLK
  5
D1
  8
0
  0
BLOCK
  8
0
  2
DC_GROUP_WL40WR_000_13
 70
     0
 10
0.0
 20
0.0
 30
0.0
  3
DC_GROUP_WL40WR_000_13
  1
DC_GROUP_WL40WR_000_13
  0
LINE
  5
10A
  8
0
  6
CONTINUOUS
 62
     7
 10
152.0109620155390076
 20
-29.8606506945311985
 30
0.0
 11
152.0325407595927913
 21
-29.9127451540648899
 31
0.0
  0
LINE
  5
10B
  8
0
  6
CONTINUOUS
 62
     7
 10
152.0325407595927913
 20
-29.9127451540648899
 30
0.0
 11
152.0534638525541027
 21
-29.9632582278668913
 31
0.0
  0
LINE
  5
10C
  8
0
  6
CONTINUOUS
 62
     7
 10
152.0534638525541027
 20
-29.9632582278668913
 30
0.0
 11
152.0730942697819046
 21
-30.0106513710439202
 31
0.0
  0
LINE
  5
10D
  8
0
  6
CONTINUOUS
 62
     7
 10
152.0730942697819046
 20
-30.0106513710439202
 30
0.0
 11
152.0908378274735071
 21
-30.0534884841859302
 31
0.0
  0
LINE
  5
10E
  8
0
  6
CONTINUOUS
 62
     7
 10
152.0908378274735071
 20
-30.0534884841859302
 30
0.0
 11
152.1061543585356048
 21
-30.0904657156884703
 31
0.0
  0
LINE
  5
10F
  8
0
  6
CONTINUOUS
 62
     7
 10
152.1061543585356048
 20
-30.0904657156884703
 30
0.0
 11
152.1185782016808901
 21
-30.1204598905265399
 31
0.0
  0
LINE
  5
110
  8
0
  6
CONTINUOUS
 62
     7
 10
152.1185782016808901
 20
-30.1204598905265399
 30
0.0
 11
152.1277331025893886
 21
-30.1425601752221617
 31
0.0
  0
LINE
  5
111
  8
0
  6
CONTINUOUS
 62
     7
 10
152.1277331025893886
 20
-30.1425601752221617
 30
0.0
 11
152.1333396644886022
 21
-30.1560941548764703
 31
0.0
  0
LINE
  5
112
  8
0
  6
CONTINUOUS
 62
     7
 10
152.1333396644886022
 20
-30.1560941548764703
 30
0.0
 11
152.1352265240248016
 21
-30.1606520475566384
 31
0.0
  0
ENDBLK
  5
D4
  8
0
  0
BLOCK
  8
0
  2
DC_GROUP_WL40WR_000_14
 70
     0
 10
0.0
 20
0.0
 30
0.0
  3
DC_GROUP_WL40WR_000_14
  1
DC_GROUP_WL40WR_000_14
  0
LINE
  5
113
  8
0
  6
CONTINUOUS
 62
     7
 10
153.8352273614700039
 20
-25.1606512279927692
 30
0.0
 11
153.8306694687898926
 21
-25.1614558906972405
 31
0.0
  0
LINE
  5
114
  8
0
  6
CONTINUOUS
 62
     7
 10
153.8306694687898926
 20
-25.1614558906972405
 30
0.0
 11
153.8171336264904028
 21
-25.1638419391334089
 31
0.0
  0
LINE
  5
115
  8
0
  6
CONTINUOUS
 62
     7
 10
153.8171336264904028
 20
-25.1638419391334089
 30
0.0
 11
153.7950352044398983
 21
-25.1677385927856001
 31
0.0
  0
LINE
  5
116
  8
0
  6
CONTINUOUS
 62
     7
 10
153.7950352044398983
 20
-25.1677385927856001
 30
0.0
 11
153.7650391669567114
 21
-25.1730266423642703
 31
0.0
  0
LINE
  5
117
  8
0
  6
CONTINUOUS
 62
     7
 10
153.7650391669567114
 20
-25.1730266423642703
 30
0.0
 11
153.7280637980992992
 21
-25.1795477630317208
 31
0.0
  0
LINE
  5
118
  8
0
  6
CONTINUOUS
 62
     7
 10
153.7280637980992992
 20
-25.1795477630317208
 30
0.0
 11
153.6852266849573141
 21
-25.1871007891118595
 31
0.0
  0
LINE
  5
119
  8
0
  6
CONTINUOUS
 62
     7
 10
153.6852266849573141
 20
-25.1871007891118595
 30
0.0
 11
153.63783354178031
 21
-25.1954566152513095
 31
0.0
  0
LINE
  5
11A
  8
0
  6
CONTINUOUS
 62
     7
 10
153.63783354178031
 20
-25.1954566152513095
 30
0.0
 11
153.5873204679782873
 21
-25.2043637843549213
 31
0.0
  0
LINE
  5
11B
  8
0
  6
CONTINUOUS
 62
     7
 10
153.5873204679782873
 20
-25.2043637843549213
 30
0.0
 11
153.5352260084445959
 21
-25.2135503502309284
 31
0.0
  0
ENDBLK
  5
D7
  8
0
  0
BLOCK
  8
0
  2
DC_GROUP_WL40WR_000_15
 70
     0
 10
0.0
 20
0.0
 30
0.0
  3
DC_GROUP_WL40WR_000_15
  1
DC_GROUP_WL40WR_000_15
  0
LINE
  5
11C
  8
0
  6
CONTINUOUS
 62
     7
 10
153.0352268578108124
 20
-23.8398104371249708
 30
0.0
 11
153.0937530310447983
 21
-23.8294913829982313
 31
0.0
  0
LINE
  5
11D
  8
0
  6
CONTINUOUS
 62
     7
 10
153.0937530310447983
 20
-23.8294913829982313
 30
0.0
 11
153.1500309915836056
 21
-23.8195672096431288
 31
0.0
  0
LINE
  5
11E
  8
0
  6
CONTINUOUS
 62
     7
 10
153.1500309915836056
 20
-23.8195672096431288
 30
0.0
 11
153.2018982084090908
 21
-23.8104216219604012
 31
0.0
  0
LINE
  5
11F
  8
0
  6
CONTINUOUS
 62
     7
 10
153.2018982084090908
 20
-23.8104216219604012
 30
0.0
 11
153.2473579259211931
 21
-23.8024066598832604
 31
0.0
  0
LINE
  5
120
  8
0
  6
CONTINUOUS
 62
     7
 10
153.2473579259211931
 20
-23.8024066598832604
 30
0.0
 11
153.2846667082602892
 21
-23.7958277972161802
 31
0.0
  0
LINE
  5
121
  8
0
  6
CONTINUOUS
 62
     7
 10
153.2846667082602892
 20
-23.7958277972161802
 30
0.0
 11
153.3123903186614996
 21
-23.7909402163445911
 31
0.0
  0
LINE
  5
122
  8
0
  6
CONTINUOUS
 62
     7
 10
153.3123903186614996
 20
-23.7909402163445911
 30
0.0
 11
153.3294614614542013
 21
-23.787930181783441
 31
0.0
  0
LINE
  5
123
  8
0
  6
CONTINUOUS
 62
     7
 10
153.3294614614542013
 20
-23.787930181783441
 30
0.0
 11
153.3352263481910995
 21
-23.7869131775319609
 31
0.0
  0
ENDBLK
  5
DA
  8
0
  0
BLOCK
  8
0
  2
DC_GROUP_WL40WR_000_16
 70
     0
 10
0.0
 20
0.0
 30
0.0
  3
DC_GROUP_WL40WR_000_16
  1
DC_GROUP_WL40WR_000_16
  0
LINE
  5
124
  8
0
  6
CONTINUOUS
 62
     7
 10
152.0109620155390076
 20
-29.8606506945311985
 30
0.0
 11
152.0325407595927913
 21
-29.9127451540648899
 31
0.0
  0
LINE
  5
125
  8
0
  6
CONTINUOUS
 62
     7
 10
152.0325407595927913
 20
-29.9127451540648899
 30
0.0
 11
152.0534638525541027
 21
-29.9632582278668913
 31
0.0
  0
LINE
  5
126
  8
0
  6
CONTINUOUS
 62
     7
 10
152.0534638525541027
 20
-29.9632582278668913
 30
0.0
 11
152.0730942697819046
 21
-30.0106513710439202
 31
0.0
  0
LINE
  5
127
  8
0
  6
CONTINUOUS
 62
     7
 10
152.0730942697819046
 20
-30.0106513710439202
 30
0.0
 11
152.0908378274735071
 21
-30.0534884841859302
 31
0.0
  0
LINE
  5
128
  8
0
  6
CONTINUOUS
 62
     7
 10
152.0908378274735071
 20
-30.0534884841859302
 30
0.0
 11
152.1061543585356048
 21
-30.0904657156884703
 31
0.0
  0
LINE
  5
129
  8
0
  6
CONTINUOUS
 62
     7
 10
152.1061543585356048
 20
-30.0904657156884703
 30
0.0
 11
152.1185782016808901
 21
-30.1204598905265399
 31
0.0
  0
LINE
  5
12A
  8
0
  6
CONTINUOUS
 62
     7
 10
152.1185782016808901
 20
-30.1204598905265399
 30
0.0
 11
152.1277331025893886
 21
-30.1425601752221617
 31
0.0
  0
LINE
  5
12B
  8
0
  6
CONTINUOUS
 62
     7
 10
152.1277331025893886
 20
-30.1425601752221617
 30
0.0
 11
152.1333396644886022
 21
-30.1560941548764703
 31
0.0
  0
LINE
  5
12C
  8
0
  6
CONTINUOUS
 62
     7
 10
152.1333396644886022
 20
-30.1560941548764703
 30
0.0
 11
152.1352265240248016
 21
-30.1606520475566384
 31
0.0
  0
ENDBLK
  5
DD
  8
0
  0
ENDSEC
  0
SECTION
  2
ENTITIES
  0
LINE
  5
146
  8
0
  6
PHANTOM
 62
     7
 10
-106.4382519970191936
 20
-87.4106507213533064
 30
0.0
 11
-106.4382519970191936
 21
-72.4106519879520079
 31
0.0
  0
LINE
  5
147
  8
0
  6
PHANTOM
 62
     7
 10
-100.8295275668157984
 20
-72.4106519879520079
 30
0.0
 11
-100.8295275668157984
 21
-87.4106507213533064
 31
0.0
  0
LINE
  5
148
  8
0
  6
PHANTOM
 62
     7
 10
-112.7382515395536018
 20
-81.5212759585797784
 30
0.0
 11
-109.5382513875617008
 21
-81.5212759585797784
 31
0.0
  0
LINE
  5
149
  8
0
  6
PHANTOM
 62
     7
 10
-112.7382515395536018
 20
-76.5212770016610619
 30
0.0
 11
-109.5382513875617008
 21
-76.5212770016610619
 31
0.0
  0
LINE
  5
14A
  8
0
  6
PHANTOM
 62
     7
 10
-112.7382515395536018
 20
-83.3000275702893731
 30
0.0
 11
-109.5382513875617008
 21
-83.3000275702893731
 31
0.0
  0
LINE
  5
14B
  8
0
  6
PHANTOM
 62
     7
 10
-112.7382515395536018
 20
-78.3000267507255217
 30
0.0
 11
-109.5382513875617008
 21
-78.3000267507255217
 31
0.0
  0
CIRCLE
  5
14C
  8
0
  6
PHANTOM
 62
     7
 10
-113.7782515997547961
 20
-47.4106516154240722
 30
0.0
 40
1.799999999999996
  0
LINE
  5
14D
  8
0
  6
PHANTOM
 62
     7
 10
-112.5782521838797976
 20
-7.3606516631066921
 30
0.0
 11
-112.1782510007275988
 21
-7.3606516631066921
 31
0.0
  0
LINE
  5
14E
  8
0
  6
PHANTOM
 62
     7
 10
-112.1782510007275988
 20
-7.3606516631066921
 30
0.0
 11
-112.1782510007275988
 21
-7.6606530161321293
 31
0.0
  0
LINE
  5
14F
  8
0
  6
PHANTOM
 62
     7
 10
-112.5782521838797976
 20
-7.3606516631066921
 30
0.0
 11
-112.5782521838797976
 21
-7.6606530161321293
 31
0.0
  0
ARC
  5
150
  8
0
  6
PHANTOM
 62
     7
 10
-112.5782515997543953
 20
-20.2606516154229013
 30
0.0
 40
0.2999999999999972
 50
90.0
 51
180.0
  0
LINE
  5
151
  8
0
  6
PHANTOM
 62
     7
 10
-112.878251674260099
 20
-20.2606521012008187
 30
0.0
 11
-113.1782511646404004
 21
-20.2606521012008187
 31
0.0
  0
LINE
  5
152
  8
0
  6
PHANTOM
 62
     7
 10
-112.5782521838797976
 20
-19.6606512577951094
 30
0.0
 11
-112.5782521838797976
 21
-19.9606507481754001
 31
0.0
  0
LINE
  5
153
  8
0
  6
PHANTOM
 62
     7
 10
-111.578252019966996
 20
-6.2606516690671574
 30
0.0
 11
-111.8782515103472974
 21
-6.2606516690671574
 31
0.0
  0
ARC
  5
154
  8
0
  6
PHANTOM
 62
     7
 10
-112.1782515997545033
 20
-6.2606516154228871
 30
0.0
 40
0.2999999999999972
 50
0.0
 51
90.0
  0
LINE
  5
155
  8
0
  6
PHANTOM
 62
     7
 10
-112.1782510007275988
 20
-5.6606526883065831
 30
0.0
 11
-112.1782510007275988
 21
-5.960650316041721
 31
0.0
  0
ARC
  5
156
  8
0
  6
PHANTOM
 62
     7
 10
-112.1782515997544039
 20
-24.5606516154228984
 30
0.0
 40
0.2999999999999972
 50
270.0
 51
0.0
  0
LINE
  5
157
  8
0
  6
PHANTOM
 62
     7
 10
-111.578252019966996
 20
-24.5606522472321984
 30
0.0
 11
-111.8782515103472974
 21
-24.5606522472321984
 31
0.0
  0
LINE
  5
158
  8
0
  6
PHANTOM
 62
     7
 10
-112.1782510007275988
 20
-24.8606517376124891
 30
0.0
 11
-112.1782510007275988
 21
-25.1606512279927692
 31
0.0
  0
LINE
  5
159
  8
0
  6
PHANTOM
 62
     7
 10
-111.578252019966996
 20
-7.0606503100812574
 30
0.0
 11
-111.8782515103472974
 21
-7.0606503100812574
 31
0.0
  0
LINE
  5
15A
  8
0
  6
PHANTOM
 62
     7
 10
-111.8782515103472974
 20
-7.0606503100812574
 30
0.0
 11
-111.8782515103472974
 21
-6.2606516690671574
 31
0.0
  0
ARC
  5
15B
  8
0
  6
PHANTOM
 62
     7
 10
-112.5782515997544948
 20
-7.0606516154228967
 30
0.0
 40
0.3000000000000114
 50
180.0
 51
270.0000000000026716
  0
LINE
  5
15C
  8
0
  6
PHANTOM
 62
     7
 10
-112.878251674260099
 20
-7.0606503100812574
 30
0.0
 11
-113.1782511646404004
 21
-7.0606503100812574
 31
0.0
  0
LINE
  5
15D
  8
0
  6
PHANTOM
 62
     7
 10
-112.878251674260099
 20
-6.2606516690671574
 30
0.0
 11
-112.878251674260099
 21
-7.0606503100812574
 31
0.0
  0
LINE
  5
15E
  8
0
  6
PHANTOM
 62
     7
 10
-112.878251674260099
 20
-6.2606516690671574
 30
0.0
 11
-113.1782511646404004
 21
-6.2606516690671574
 31
0.0
  0
LINE
  5
15F
  8
0
  6
PHANTOM
 62
     7
 10
-111.8782515103472974
 20
-24.5606522472321984
 30
0.0
 11
-111.8782515103472974
 21
-23.7606517435729501
 31
0.0
  0
LINE
  5
160
  8
0
  6
PHANTOM
 62
     7
 10
-111.578252019966996
 20
-23.7606517435729501
 30
0.0
 11
-111.8782515103472974
 21
-23.7606517435729501
 31
0.0
  0
ARC
  5
161
  8
0
  6
PHANTOM
 62
     7
 10
-112.5782515997543953
 20
-24.5606516154228984
 30
0.0
 40
0.300000000000054
 50
180.0
 51
270.0
  0
LINE
  5
162
  8
0
  6
PHANTOM
 62
     7
 10
-112.878251674260099
 20
-23.7606517435729501
 30
0.0
 11
-112.878251674260099
 21
-24.5606522472321984
 31
0.0
  0
ARC
  5
163
  8
0
  6
PHANTOM
 62
     7
 10
-112.5782515997543953
 20
-23.7606516154229013
 30
0.0
 40
0.3000000000000114
 50
90.0
 51
180.0
  0
LINE
  5
164
  8
0
  6
PHANTOM
 62
     7
 10
-112.1782510007275988
 20
-23.4606522531926593
 30
0.0
 11
-112.5782521838797976
 21
-23.4606522531926593
 31
0.0
  0
ARC
  5
165
  8
0
  6
PHANTOM
 62
     7
 10
-112.1782515997544039
 20
-23.7606516154228906
 30
0.0
 40
0.2999999999999829
 50
0.0
 51
90.0000000000027143
  0
LINE
  5
166
  8
0
  6
PHANTOM
 62
     7
 10
-112.5782521838797976
 20
-24.8606517376124891
 30
0.0
 11
-112.1782510007275988
 21
-24.8606517376124891
 31
0.0
  0
ARC
  5
167
  8
0
  6
PHANTOM
 62
     7
 10
-112.5782515997544948
 20
-6.2606516154228871
 30
0.0
 40
0.2999999999999972
 50
90.0
 51
180.0
  0
LINE
  5
168
  8
0
  6
PHANTOM
 62
     7
 10
-112.5782521838797976
 20
-5.6606526883065831
 30
0.0
 11
-112.5782521838797976
 21
-5.960650316041721
 31
0.0
  0
ARC
  5
169
  8
0
  6
PHANTOM
 62
     7
 10
-112.5782515997544948
 20
-17.5606516154228984
 30
0.0
 40
0.3000000000000256
 50
180.0
 51
270.0000000000026716
  0
LINE
  5
16A
  8
0
  6
PHANTOM
 62
     7
 10
-112.878251674260099
 20
-16.7606524588287016
 30
0.0
 11
-112.878251674260099
 21
-17.5606510998428007
 31
0.0
  0
ARC
  5
16B
  8
0
  6
PHANTOM
 62
     7
 10
-112.5782515997544948
 20
-16.7606516154228906
 30
0.0
 40
0.2999999999999972
 50
90.0
 51
180.0
  0
LINE
  5
16C
  8
0
  6
PHANTOM
 62
     7
 10
-112.1782510007275988
 20
-16.4606511058032687
 30
0.0
 11
-112.5782521838797976
 21
-16.4606511058032687
 31
0.0
  0
ARC
  5
16D
  8
0
  6
PHANTOM
 62
     7
 10
-112.1782515997545033
 20
-16.7606516154228906
 30
0.0
 40
0.2999999999999829
 50
0.0
 51
90.0
  0
LINE
  5
16E
  8
0
  6
PHANTOM
 62
     7
 10
-111.8782515103472974
 20
-17.5606510998428007
 30
0.0
 11
-111.8782515103472974
 21
-16.7606524588287016
 31
0.0
  0
ARC
  5
16F
  8
0
  6
PHANTOM
 62
     7
 10
-112.1782515997544039
 20
-17.5606516154228984
 30
0.0
 40
0.2999999999999829
 50
270.0
 51
0.0
  0
LINE
  5
170
  8
0
  6
PHANTOM
 62
     7
 10
-112.5782521838797976
 20
-17.86065245286823
 30
0.0
 11
-112.1782510007275988
 21
-17.86065245286823
 31
0.0
  0
LINE
  5
171
  8
0
  6
PHANTOM
 62
     7
 10
-112.878251674260099
 20
-20.2606521012008187
 30
0.0
 11
-112.878251674260099
 21
-21.0606507422149214
 31
0.0
  0
LINE
  5
172
  8
0
  6
PHANTOM
 62
     7
 10
-112.878251674260099
 20
-21.0606507422149214
 30
0.0
 11
-113.1782511646404004
 21
-21.0606507422149214
 31
0.0
  0
LINE
  5
173
  8
0
  6
PHANTOM
 62
     7
 10
-112.1782510007275988
 20
-5.960650316041721
 30
0.0
 11
-112.5782521838797976
 21
-5.960650316041721
 31
0.0
  0
ARC
  5
174
  8
0
  6
PHANTOM
 62
     7
 10
-112.5782515997544948
 20
-13.2606516154228906
 30
0.0
 40
0.2999999999999829
 50
90.0
 51
180.0
  0
LINE
  5
175
  8
0
  6
PHANTOM
 62
     7
 10
-112.878251674260099
 20
-13.2606509538114192
 30
0.0
 11
-113.1782511646404004
 21
-13.2606509538114192
 31
0.0
  0
LINE
  5
176
  8
0
  6
PHANTOM
 62
     7
 10
-112.5782521838797976
 20
-12.6606519730508502
 30
0.0
 11
-112.5782521838797976
 21
-12.9606533260762795
 31
0.0
  0
LINE
  5
177
  8
0
  6
PHANTOM
 62
     7
 10
-112.5782521838797976
 20
-14.3606509478509601
 30
0.0
 11
-112.1782510007275988
 21
-14.3606509478509601
 31
0.0
  0
LINE
  5
178
  8
0
  6
PHANTOM
 62
     7
 10
-112.1782510007275988
 20
-14.3606509478509601
 30
0.0
 11
-112.1782510007275988
 21
-14.6606523008763894
 31
0.0
  0
LINE
  5
179
  8
0
  6
PHANTOM
 62
     7
 10
-112.5782521838797976
 20
-14.3606509478509601
 30
0.0
 11
-112.5782521838797976
 21
-14.6606523008763894
 31
0.0
  0
LINE
  5
17A
  8
0
  6
PHANTOM
 62
     7
 10
-111.578252019966996
 20
-17.5606510998428007
 30
0.0
 11
-111.8782515103472974
 21
-17.5606510998428007
 31
0.0
  0
LINE
  5
17B
  8
0
  6
PHANTOM
 62
     7
 10
-111.578252019966996
 20
-16.7606524588287016
 30
0.0
 11
-111.8782515103472974
 21
-16.7606524588287016
 31
0.0
  0
LINE
  5
17C
  8
0
  6
PHANTOM
 62
     7
 10
-112.5782521838797976
 20
-24.8606517376124891
 30
0.0
 11
-112.5782521838797976
 21
-25.1606512279927692
 31
0.0
  0
LINE
  5
17D
  8
0
  6
PHANTOM
 62
     7
 10
-112.878251674260099
 20
-13.2606509538114192
 30
0.0
 11
-112.878251674260099
 21
-14.0606533201158204
 31
0.0
  0
LINE
  5
17E
  8
0
  6
PHANTOM
 62
     7
 10
-112.878251674260099
 20
-14.0606533201158204
 30
0.0
 11
-113.1782511646404004
 21
-14.0606533201158204
 31
0.0
  0
LINE
  5
17F
  8
0
  6
PHANTOM
 62
     7
 10
-111.578252019966996
 20
-9.7606513114392897
 30
0.0
 11
-111.8782515103472974
 21
-9.7606513114392897
 31
0.0
  0
ARC
  5
180
  8
0
  6
PHANTOM
 62
     7
 10
-112.1782515997545033
 20
-9.7606516154228871
 30
0.0
 40
0.2999999999999829
 50
0.0
 51
90.0
  0
LINE
  5
181
  8
0
  6
PHANTOM
 62
     7
 10
-112.1782510007275988
 20
-9.1606523306787171
 30
0.0
 11
-112.1782510007275988
 21
-9.4606499584138515
 31
0.0
  0
LINE
  5
182
  8
0
  6
PHANTOM
 62
     7
 10
-112.1782510007275988
 20
-19.6606512577951094
 30
0.0
 11
-112.1782510007275988
 21
-19.9606507481754001
 31
0.0
  0
LINE
  5
183
  8
0
  6
PHANTOM
 62
     7
 10
-112.1782510007275988
 20
-19.9606507481754001
 30
0.0
 11
-112.5782521838797976
 21
-19.9606507481754001
 31
0.0
  0
LINE
  5
184
  8
0
  6
PHANTOM
 62
     7
 10
-112.878251674260099
 20
-24.5606522472321984
 30
0.0
 11
-113.1782511646404004
 21
-24.5606522472321984
 31
0.0
  0
LINE
  5
185
  8
0
  6
PHANTOM
 62
     7
 10
-112.878251674260099
 20
-23.7606517435729501
 30
0.0
 11
-113.1782511646404004
 21
-23.7606517435729501
 31
0.0
  0
ARC
  5
186
  8
0
  6
PHANTOM
 62
     7
 10
-112.5782515997543953
 20
-21.0606516154228984
 30
0.0
 40
0.3000000000000398
 50
180.0
 51
270.0
  0
LINE
  5
187
  8
0
  6
PHANTOM
 62
     7
 10
-112.5782521838797976
 20
-21.3606520952403507
 30
0.0
 11
-112.5782521838797976
 21
-21.6606515856206414
 31
0.0
  0
LINE
  5
188
  8
0
  6
PHANTOM
 62
     7
 10
-111.578252019966996
 20
-20.2606521012008187
 30
0.0
 11
-111.8782515103472974
 21
-20.2606521012008187
 31
0.0
  0
ARC
  5
189
  8
0
  6
PHANTOM
 62
     7
 10
-112.1782515997544039
 20
-20.2606516154229013
 30
0.0
 40
0.2999999999999972
 50
0.0
 51
90.0000000000027143
  0
LINE
  5
18A
  8
0
  6
PHANTOM
 62
     7
 10
-111.578252019966996
 20
-13.2606509538114192
 30
0.0
 11
-111.8782515103472974
 21
-13.2606509538114192
 31
0.0
  0
ARC
  5
18B
  8
0
  6
PHANTOM
 62
     7
 10
-112.1782515997545033
 20
-13.2606516154228906
 30
0.0
 40
0.2999999999999829
 50
0.0
 51
90.0000000000027143
  0
LINE
  5
18C
  8
0
  6
PHANTOM
 62
     7
 10
-112.1782510007275988
 20
-12.6606519730508502
 30
0.0
 11
-112.1782510007275988
 21
-12.9606533260762795
 31
0.0
  0
ARC
  5
18D
  8
0
  6
PHANTOM
 62
     7
 10
-112.1782515997545033
 20
-10.5606516154229002
 30
0.0
 40
0.3000000000000114
 50
270.0
 51
0.0
  0
LINE
  5
18E
  8
0
  6
PHANTOM
 62
     7
 10
-111.578252019966996
 20
-10.5606499524533906
 30
0.0
 11
-111.8782515103472974
 21
-10.5606499524533906
 31
0.0
  0
LINE
  5
18F
  8
0
  6
PHANTOM
 62
     7
 10
-112.1782510007275988
 20
-10.8606513054788305
 30
0.0
 11
-112.1782510007275988
 21
-11.1606526585042598
 31
0.0
  0
LINE
  5
190
  8
0
  6
PHANTOM
 62
     7
 10
-112.1782510007275988
 20
-17.86065245286823
 30
0.0
 11
-112.1782510007275988
 21
-18.1606519432485207
 31
0.0
  0
LINE
  5
191
  8
0
  6
PHANTOM
 62
     7
 10
-112.1782510007275988
 20
-12.9606533260762795
 30
0.0
 11
-112.5782521838797976
 21
-12.9606533260762795
 31
0.0
  0
LINE
  5
192
  8
0
  6
PHANTOM
 62
     7
 10
-112.1782510007275988
 20
-9.4606499584138515
 30
0.0
 11
-112.5782521838797976
 21
-9.4606499584138515
 31
0.0
  0
LINE
  5
193
  8
0
  6
PHANTOM
 62
     7
 10
-112.5782521838797976
 20
-9.1606523306787171
 30
0.0
 11
-112.5782521838797976
 21
-9.4606499584138515
 31
0.0
  0
LINE
  5
194
  8
0
  6
PHANTOM
 62
     7
 10
-112.5782521838797976
 20
-10.8606513054788305
 30
0.0
 11
-112.1782510007275988
 21
-10.8606513054788305
 31
0.0
  0
LINE
  5
195
  8
0
  6
PHANTOM
 62
     7
 10
-112.5782521838797976
 20
-10.8606513054788305
 30
0.0
 11
-112.5782521838797976
 21
-11.1606526585042598
 31
0.0
  0
LINE
  5
196
  8
0
  6
PHANTOM
 62
     7
 10
-111.8782515103472974
 20
-10.5606499524533906
 30
0.0
 11
-111.8782515103472974
 21
-9.7606513114392897
 31
0.0
  0
LINE
  5
197
  8
0
  6
PHANTOM
 62
     7
 10
-112.1782510007275988
 20
-23.16065090016723
 30
0.0
 11
-112.1782510007275988
 21
-23.4606522531926593
 31
0.0
  0
LINE
  5
198
  8
0
  6
PHANTOM
 62
     7
 10
-112.1782510007275988
 20
-16.1606516154229816
 30
0.0
 11
-112.1782510007275988
 21
-16.4606511058032687
 31
0.0
  0
ARC
  5
199
  8
0
  6
PHANTOM
 62
     7
 10
-112.1782515997545033
 20
-7.0606516154228967
 30
0.0
 40
0.3000000000000114
 50
270.0
 51
0.0
  0
ARC
  5
19A
  8
0
  6
PHANTOM
 62
     7
 10
-112.5782515997544948
 20
-10.5606516154229002
 30
0.0
 40
0.3000000000000114
 50
180.0
 51
270.0
  0
LINE
  5
19B
  8
0
  6
PHANTOM
 62
     7
 10
-112.878251674260099
 20
-10.5606499524533906
 30
0.0
 11
-113.1782511646404004
 21
-10.5606499524533906
 31
0.0
  0
LINE
  5
19C
  8
0
  6
PHANTOM
 62
     7
 10
-111.578252019966996
 20
-14.0606533201158204
 30
0.0
 11
-111.8782515103472974
 21
-14.0606533201158204
 31
0.0
  0
LINE
  5
19D
  8
0
  6
PHANTOM
 62
     7
 10
-111.8782515103472974
 20
-14.0606533201158204
 30
0.0
 11
-111.8782515103472974
 21
-13.2606509538114192
 31
0.0
  0
LINE
  5
19E
  8
0
  6
PHANTOM
 62
     7
 10
-112.878251674260099
 20
-9.7606513114392897
 30
0.0
 11
-112.878251674260099
 21
-10.5606499524533906
 31
0.0
  0
LINE
  5
19F
  8
0
  6
PHANTOM
 62
     7
 10
-112.878251674260099
 20
-9.7606513114392897
 30
0.0
 11
-113.1782511646404004
 21
-9.7606513114392897
 31
0.0
  0
LINE
  5
1A0
  8
0
  6
PHANTOM
 62
     7
 10
-111.8782515103472974
 20
-21.0606507422149214
 30
0.0
 11
-111.8782515103472974
 21
-20.2606521012008187
 31
0.0
  0
ARC
  5
1A1
  8
0
  6
PHANTOM
 62
     7
 10
-112.1782515997544039
 20
-21.0606516154228984
 30
0.0
 40
0.2999999999999972
 50
270.0
 51
0.0
  0
LINE
  5
1A2
  8
0
  6
PHANTOM
 62
     7
 10
-112.5782521838797976
 20
-21.3606520952403507
 30
0.0
 11
-112.1782510007275988
 21
-21.3606520952403507
 31
0.0
  0
ARC
  5
1A3
  8
0
  6
PHANTOM
 62
     7
 10
-112.5782515997544948
 20
-9.7606516154228871
 30
0.0
 40
0.2999999999999829
 50
90.0
 51
180.0
  0
ARC
  5
1A4
  8
0
  6
PHANTOM
 62
     7
 10
-112.5782515997544948
 20
-14.0606516154229002
 30
0.0
 40
0.3000000000000114
 50
180.0
 51
270.0000000000026716
  0
ARC
  5
1A5
  8
0
  6
PHANTOM
 62
     7
 10
-112.1782515997545033
 20
-14.0606516154229002
 30
0.0
 40
0.2999999999999829
 50
270.0
 51
0.0
  0
LINE
  5
1A6
  8
0
  6
PHANTOM
 62
     7
 10
-112.5782521838797976
 20
-23.16065090016723
 30
0.0
 11
-112.5782521838797976
 21
-23.4606522531926593
 31
0.0
  0
LINE
  5
1A7
  8
0
  6
PHANTOM
 62
     7
 10
-112.878251674260099
 20
-16.7606524588287016
 30
0.0
 11
-113.1782511646404004
 21
-16.7606524588287016
 31
0.0
  0
LINE
  5
1A8
  8
0
  6
PHANTOM
 62
     7
 10
-112.5782521838797976
 20
-16.1606516154229816
 30
0.0
 11
-112.5782521838797976
 21
-16.4606511058032687
 31
0.0
  0
LINE
  5
1A9
  8
0
  6
PHANTOM
 62
     7
 10
-111.578252019966996
 20
-21.0606507422149214
 30
0.0
 11
-111.8782515103472974
 21
-21.0606507422149214
 31
0.0
  0
LINE
  5
1AA
  8
0
  6
PHANTOM
 62
     7
 10
-112.5782521838797976
 20
-17.86065245286823
 30
0.0
 11
-112.5782521838797976
 21
-18.1606519432485207
 31
0.0
  0
LINE
  5
1AB
  8
0
  6
PHANTOM
 62
     7
 10
-112.878251674260099
 20
-17.5606510998428007
 30
0.0
 11
-113.1782511646404004
 21
-17.5606510998428007
 31
0.0
  0
LINE
  5
1AC
  8
0
  6
PHANTOM
 62
     7
 10
-112.1782510007275988
 20
-21.3606520952403507
 30
0.0
 11
-112.1782510007275988
 21
-21.6606515856206414
 31
0.0
  0
LINE
  5
1AD
  8
0
  6
PHANTOM
 62
     7
 10
-125.3782522852076937
 20
-98.4106533737599705
 30
0.0
 11
-124.5782517815484027
 21
-98.4106533737599705
 31
0.0
  0
ARC
  5
1AE
  8
0
  6
PHANTOM
 62
     7
 10
-123.8782515997548046
 20
-98.4106516154232338
 30
0.0
 40
0.700000000000003
 50
179.9999999999982947
 51
270.0
  0
LINE
  5
1AF
  8
0
  6
PHANTOM
 62
     7
 10
-123.878251108016002
 20
-99.110650322002158
 30
0.0
 11
-123.878251108016002
 21
-99.9106526883065555
 31
0.0
  0
LINE
  5
1B0
  8
0
  6
PHANTOM
 62
     7
 10
-124.5782517815484027
 20
3.589350142914042
 30
0.0
 11
-125.3782522852076937
 21
3.589350142914042
 31
0.0
  0
LINE
  5
1B1
  8
0
  6
PHANTOM
 62
     7
 10
-124.5782517815484027
 20
3.589350142914042
 30
0.0
 11
-124.5782517815484027
 21
-98.4106533737599705
 31
0.0
  0
LINE
  5
1B2
  8
0
  6
PHANTOM
 62
     7
 10
-123.878251108016002
 20
5.0893494574606271
 30
0.0
 11
-123.878251108016002
 21
4.2893470911562304
 31
0.0
  0
ARC
  5
1B3
  8
0
  6
PHANTOM
 62
     7
 10
-123.8782515997536962
 20
3.5893483845767649
 30
0.0
 40
0.7000000000000172
 50
90.0
 51
180.0
  0
LINE
  5
1B4
  8
0
  6
PHANTOM
 62
     7
 10
-66.178251417960098
 20
-98.4106533737599705
 30
0.0
 11
-66.178251417960098
 21
3.589350142914042
 31
0.0
  0
ARC
  5
1B5
  8
0
  6
PHANTOM
 62
     7
 10
-66.8782515997547762
 20
-98.4106516154238165
 30
0.0
 40
0.7000000000000172
 50
270.0
 51
0.0000000000011704
  0
LINE
  5
1B6
  8
0
  6
PHANTOM
 62
     7
 10
-123.878251108016002
 20
-99.110650322002158
 30
0.0
 11
-66.8782520914925698
 21
-99.110650322002158
 31
0.0
  0
LINE
  5
1B8
  8
0
  6
PHANTOM
 62
     7
 10
-66.8782520914925698
 20
4.2893483845760132
 30
0.0
 11
-123.878251108016002
 21
4.2893470911562304
 31
0.0
  0
ARC
  5
1B9
  8
0
  6
PHANTOM
 62
     7
 10
-66.878251599753753
 20
3.589348384576168
 30
0.0
 40
0.7000000000000172
 50
0.0
 51
89.9999999999976694
  0
LINE
  5
1BA
  8
0
  6
PHANTOM
 62
     7
 10
-66.8782520914925698
 20
-99.9106526883065555
 30
0.0
 11
-66.8782520914925698
 21
-99.110650322002158
 31
0.0
  0
LINE
  5
1BB
  8
0
  6
PHANTOM
 62
     7
 10
-66.8782520914925698
 20
4.2893470911562304
 30
0.0
 11
-66.8782520914925698
 21
5.0893494574606271
 31
0.0
  0
LINE
  5
1BC
  8
0
  6
PHANTOM
 62
     7
 10
-65.3782509143008497
 20
3.589350142914042
 30
0.0
 11
-66.178251417960098
 21
3.589350142914042
 31
0.0
  0
LINE
  5
1BD
  8
0
  6
PHANTOM
 62
     7
 10
-66.178251417960098
 20
-98.4106533737599705
 30
0.0
 11
-65.3782509143008497
 21
-98.4106533737599705
 31
0.0
  0
LINE
  5
1C5
  8
0
  6
PHANTOM
 62
     7
 10
148.8352265419061951
 20
-103.9106543870389032
 30
0.0
 11
153.3352263481910995
 21
-103.9106543870389032
 31
0.0
  0
LINE
  5
1C6
  8
0
  6
PHANTOM
 62
     7
 10
153.0352268578108124
 20
-14.5965624065816506
 30
0.0
 11
150.8698087395723064
 21
3.0393492965280862
 31
0.0
  0
LINE
  5
1C7
  8
0
  6
PHANTOM
 62
     7
 10
150.8698087395723064
 20
3.0393492965280862
 30
0.0
 11
147.33522722735961
 21
3.0393492965280862
 31
0.0
  0
LINE
  5
1C8
  8
0
  6
PHANTOM
 62
     7
 10
153.0352268578108124
 20
-28.83638771490455
 30
0.0
 11
153.0352268578108124
 21
-14.5965624065816506
 31
0.0
  0
LINE
  5
1C9
  8
0
  6
PHANTOM
 62
     7
 10
152.0109620155390076
 20
-29.8606506945311985
 30
0.0
 11
153.0352268578108124
 21
-28.83638771490455
 31
0.0
  0
LINE
  5
1CA
  8
0
  6
PHANTOM
 62
     7
 10
147.33522722735961
 20
-29.8606506945311985
 30
0.0
 11
152.0109620155390076
 21
-29.8606506945311985
 31
0.0
  0
LINE
  5
1CB
  8
0
  6
PHANTOM
 62
     7
 10
150.8698087395723064
 20
3.3393469242632241
 30
0.0
 11
150.8698087395723064
 21
3.0393492965280862
 31
0.0
  0
LINE
  5
1CC
  8
0
  6
PHANTOM
 62
     7
 10
153.5352260084445959
 20
-25.2135503502309284
 30
0.0
 11
153.0352268578108124
 21
-23.8398104371249708
 31
0.0
  0
LINE
  5
1CD
  8
0
  6
PHANTOM
 62
     7
 10
152.0109620155390076
 20
-29.8606506945311985
 30
0.0
 11
153.5352260084445959
 21
-29.8606506945311985
 31
0.0
  0
LINE
  5
1CE
  8
0
  6
PHANTOM
 62
     7
 10
153.5352260084445959
 20
-29.8606506945311985
 30
0.0
 11
153.5352260084445959
 21
-25.2135503502309284
 31
0.0
  0
LINE
  5
1CF
  8
0
  6
PHANTOM
 62
     7
 10
153.8352273614700039
 20
-29.8606506945311985
 30
0.0
 11
153.5352260084445959
 21
-29.8606506945311985
 31
0.0
  0
LINE
  5
1D0
  8
0
  6
PHANTOM
 62
     7
 10
153.5352260084445959
 20
-29.8606506945311985
 30
0.0
 11
153.5352260084445959
 21
-30.1606520475566384
 31
0.0
  0
LINE
  5
1D1
  8
0
  6
PHANTOM
 62
     7
 10
46.1352250637109691
 20
-25.6606522412717304
 30
0.0
 11
46.1352250637109691
 21
-27.160651555818319
 31
0.0
  0
LINE
  5
1D2
  8
0
  6
PHANTOM
 62
     7
 10
46.1352250637109691
 20
-23.16065090016723
 30
0.0
 11
46.1352250637109691
 21
-24.6606520773589608
 31
0.0
  0
LINE
  5
1D3
  8
0
  6
PHANTOM
 62
     7
 10
46.1352250637109691
 20
-20.6606514217078683
 30
0.0
 11
46.1352250637109691
 21
-22.1606507362544498
 31
0.0
  0
LINE
  5
1D4
  8
0
  6
PHANTOM
 62
     7
 10
46.1352250637109691
 20
-18.1606519432485207
 30
0.0
 11
46.1352250637109691
 21
-19.6606512577951094
 31
0.0
  0
LINE
  5
1D5
  8
0
  6
PHANTOM
 62
     7
 10
46.1352250637109691
 20
-15.6606506021440204
 30
0.0
 11
46.1352250637109691
 21
-17.1606517793357511
 31
0.0
  0
LINE
  5
1D6
  8
0
  6
PHANTOM
 62
     7
 10
46.1352250637109691
 20
-13.1606529863298096
 30
0.0
 11
46.1352250637109691
 21
-14.6606523008763894
 31
0.0
  0
LINE
  5
1D7
  8
0
  6
PHANTOM
 62
     7
 10
46.1352250637109691
 20
-10.6606516452253004
 30
0.0
 11
46.1352250637109691
 21
-12.1606509597718908
 31
0.0
  0
LINE
  5
1D8
  8
0
  6
PHANTOM
 62
     7
 10
46.1352250637109691
 20
-8.1606503041207912
 30
0.0
 11
46.1352250637109691
 21
-9.6606533439576765
 31
0.0
  0
LINE
  5
1D9
  8
0
  6
PHANTOM
 62
     7
 10
46.1352250637109691
 20
-5.6606526883065831
 30
0.0
 11
46.1352250637109691
 21
-7.1606520028531691
 31
0.0
  0
LINE
  5
1DA
  8
0
  6
PHANTOM
 62
     7
 10
43.7652251781518871
 20
-87.4106507213533064
 30
0.0
 11
43.7652251781518871
 21
-72.4106519879520079
 31
0.0
  0
LINE
  5
1DB
  8
0
  6
PHANTOM
 62
     7
 10
36.3394326628740316
 20
-72.4106519879520079
 30
0.0
 11
36.3394326628740316
 21
-87.4106507213533064
 31
0.0
  0
LINE
  5
1DC
  8
0
  6
PHANTOM
 62
     7
 10
36.1396229924257284
 20
-72.4106519879520079
 30
0.0
 11
36.1396229924257284
 21
-87.4106507213533064
 31
0.0
  0
LINE
  5
1DD
  8
0
  6
PHANTOM
 62
     7
 10
44.7671569050844127
 20
-82.4106517644345757
 30
0.0
 11
44.7671569050844127
 21
-84.010652771753044
 31
0.0
  0
LINE
  5
1DE
  8
0
  6
PHANTOM
 62
     7
 10
44.7671569050844127
 20
-75.8106518001973626
 30
0.0
 11
44.7671569050844127
 21
-77.4106509448706959
 31
0.0
  0
LINE
  5
1DF
  8
0
  6
PHANTOM
 62
     7
 10
35.5352244438226705
 20
-87.4106507213533064
 30
0.0
 11
35.5352244438226705
 21
-72.4106519879520079
 31
0.0
  0
LINE
  5
1E0
  8
0
  6
PHANTOM
 62
     7
 10
46.1352250637109691
 20
-7.1606520028531691
 30
0.0
 11
46.1352250637109691
 21
-7.6606530161321293
 31
0.0
  0
LINE
  5
1E1
  8
0
  6
PHANTOM
 62
     7
 10
46.1352250637109691
 20
-20.2606521012008187
 30
0.0
 11
46.1352250637109691
 21
-20.6606514217078683
 31
0.0
  0
LINE
  5
1E2
  8
0
  6
PHANTOM
 62
     7
 10
46.1352250637109691
 20
-20.2606521012008187
 30
0.0
 11
46.3352284492547923
 21
-20.2606521012008187
 31
0.0
  0
LINE
  5
1E3
  8
0
  6
PHANTOM
 62
     7
 10
46.1352250637109691
 20
-24.6606520773589608
 30
0.0
 11
46.1352250637109691
 21
-25.1606512279927692
 31
0.0
  0
LINE
  5
1E4
  8
0
  6
PHANTOM
 62
     7
 10
45.9620214165742809
 20
-24.5606522472321984
 30
0.0
 11
45.8352274359758383
 21
-24.5606522472321984
 31
0.0
  0
LINE
  5
1E5
  8
0
  6
PHANTOM
 62
     7
 10
45.9352291287477428
 20
-23.7606517435729501
 30
0.0
 11
45.8352274359758383
 21
-23.7606517435729501
 31
0.0
  0
LINE
  5
1E6
  8
0
  6
PHANTOM
 62
     7
 10
46.1352250637109691
 20
-17.5606510998428007
 30
0.0
 11
46.3352284492547923
 21
-17.5606510998428007
 31
0.0
  0
LINE
  5
1E7
  8
0
  6
PHANTOM
 62
     7
 10
46.1352250637109691
 20
-17.1606517793357511
 30
0.0
 11
46.1352250637109691
 21
-17.5606510998428007
 31
0.0
  0
LINE
  5
1E8
  8
0
  6
PHANTOM
 62
     7
 10
46.1352250637109691
 20
-19.6606512577951094
 30
0.0
 11
46.1352250637109691
 21
-20.2606521012008187
 31
0.0
  0
LINE
  5
1E9
  8
0
  6
PHANTOM
 62
     7
 10
45.9352291287477428
 20
-21.0606507422149214
 30
0.0
 11
45.8352274359758383
 21
-21.0606507422149214
 31
0.0
  0
LINE
  5
1EA
  8
0
  6
PHANTOM
 62
     7
 10
46.1352250637109691
 20
-20.2606521012008187
 30
0.0
 11
45.8352274359758383
 21
-20.2606521012008187
 31
0.0
  0
LINE
  5
1EB
  8
0
  6
PHANTOM
 62
     7
 10
46.1352250637109691
 20
-17.5606510998428007
 30
0.0
 11
46.1352250637109691
 21
-18.1606519432485207
 31
0.0
  0
LINE
  5
1EC
  8
0
  6
PHANTOM
 62
     7
 10
46.1352250637109691
 20
-17.5606510998428007
 30
0.0
 11
45.8352274359758383
 21
-17.5606510998428007
 31
0.0
  0
LINE
  5
1ED
  8
0
  6
PHANTOM
 62
     7
 10
45.9352291287477428
 20
-16.7606524588287016
 30
0.0
 11
45.8352274359758383
 21
-16.7606524588287016
 31
0.0
  0
LINE
  5
1EE
  8
0
  6
PHANTOM
 62
     7
 10
46.1352250637109691
 20
-10.5606499524533906
 30
0.0
 11
46.3352284492547923
 21
-10.5606499524533906
 31
0.0
  0
LINE
  5
1EF
  8
0
  6
PHANTOM
 62
     7
 10
46.1352250637109691
 20
-9.7606513114392897
 30
0.0
 11
46.1352250637109691
 21
-10.5606499524533906
 31
0.0
  0
LINE
  5
1F0
  8
0
  6
PHANTOM
 62
     7
 10
46.1352250637109691
 20
-9.7606513114392897
 30
0.0
 11
46.3352284492547923
 21
-9.7606513114392897
 31
0.0
  0
LINE
  5
1F1
  8
0
  6
PHANTOM
 62
     7
 10
46.1352250637109691
 20
-12.6606519730508502
 30
0.0
 11
46.1352250637109691
 21
-13.1606529863298096
 31
0.0
  0
LINE
  5
1F2
  8
0
  6
PHANTOM
 62
     7
 10
45.9352291287477428
 20
-14.0606533201158204
 30
0.0
 11
45.8352274359758383
 21
-14.0606533201158204
 31
0.0
  0
LINE
  5
1F3
  8
0
  6
PHANTOM
 62
     7
 10
45.9620214165742809
 20
-13.2606509538114192
 30
0.0
 11
45.8352274359758383
 21
-13.2606509538114192
 31
0.0
  0
LINE
  5
1F4
  8
0
  6
PHANTOM
 62
     7
 10
46.1352250637109691
 20
-10.5606499524533906
 30
0.0
 11
46.1352250637109691
 21
-10.6606516452253004
 31
0.0
  0
LINE
  5
1F5
  8
0
  6
PHANTOM
 62
     7
 10
46.1352250637109691
 20
-9.6606533439576765
 30
0.0
 11
46.1352250637109691
 21
-9.7606513114392897
 31
0.0
  0
LINE
  5
1F6
  8
0
  6
PHANTOM
 62
     7
 10
46.1352250637109691
 20
-10.5606499524533906
 30
0.0
 11
45.8352274359758383
 21
-10.5606499524533906
 31
0.0
  0
LINE
  5
1F7
  8
0
  6
PHANTOM
 62
     7
 10
46.1352250637109691
 20
-9.7606513114392897
 30
0.0
 11
45.8352274359758383
 21
-9.7606513114392897
 31
0.0
  0
LINE
  5
1F8
  8
0
  6
PHANTOM
 62
     7
 10
45.9620214165742809
 20
-7.0606503100812574
 30
0.0
 11
45.8352274359758383
 21
-7.0606503100812574
 31
0.0
  0
LINE
  5
1F9
  8
0
  6
PHANTOM
 62
     7
 10
45.9352291287477428
 20
-6.2606516690671574
 30
0.0
 11
45.8352274359758383
 21
-6.2606516690671574
 31
0.0
  0
LINE
  5
1FA
  8
0
  6
PHANTOM
 62
     7
 10
146.5352267237003048
 20
3.589350142914042
 30
0.0
 11
146.5352267237003048
 21
5.0893494574606271
 31
0.0
  0
LINE
  5
1FB
  8
0
  6
PHANTOM
 62
     7
 10
146.5352267237003048
 20
3.589350142914042
 30
0.0
 11
54.3352297605569774
 21
3.589350142914042
 31
0.0
  0
LINE
  5
1FC
  8
0
  6
PHANTOM
 62
     7
 10
146.5352267237003048
 20
-10.4106511385858198
 30
0.0
 11
146.5352267237003048
 21
3.589350142914042
 31
0.0
  0
LINE
  5
1FD
  8
0
  6
PHANTOM
 62
     7
 10
146.5352267237003048
 20
-98.4106533737599705
 30
0.0
 11
146.5352267237003048
 21
-84.410652092260122
 31
0.0
  0
LINE
  5
1FE
  8
0
  6
PHANTOM
 62
     7
 10
54.3352297605569774
 20
-98.4106533737599705
 30
0.0
 11
146.5352267237003048
 21
-98.4106533737599705
 31
0.0
  0
LINE
  5
1FF
  8
0
  6
PHANTOM
 62
     7
 10
79.3352272571619039
 20
-10.4106511385858198
 30
0.0
 11
79.3352272571619039
 21
-12.4106514664113696
 31
0.0
  0
ARC
  5
200
  8
0
  6
PHANTOM
 62
     7
 10
79.3352266611157262
 20
-22.4106516154229816
 30
0.0
 40
10.0000000000000302
 50
90.0
 51
180.0000000000015916
  0
LINE
  5
201
  8
0
  6
PHANTOM
 62
     7
 10
67.3352252902086406
 20
-22.4106512428939304
 30
0.0
 11
69.3352256180341726
 21
-22.4106512428939304
 31
0.0
  0
LINE
  5
202
  8
0
  6
PHANTOM
 62
     7
 10
69.3352256180341726
 20
-72.4106519879520079
 30
0.0
 11
69.3352256180341726
 21
-22.4106512428939304
 31
0.0
  0
LINE
  5
203
  8
0
  6
PHANTOM
 62
     7
 10
67.3352252902086406
 20
-72.4106519879520079
 30
0.0
 11
69.3352256180341726
 21
-72.4106519879520079
 31
0.0
  0
LINE
  5
204
  8
0
  6
PHANTOM
 62
     7
 10
79.3352272571619039
 20
-12.4106514664113696
 30
0.0
 11
147.2768463404472072
 21
-12.4106514664113696
 31
0.0
  0
ARC
  5
205
  8
0
  6
PHANTOM
 62
     7
 10
85.3352266611157262
 20
-24.4106516154229816
 30
0.0
 40
9.0
 50
90.0
 51
179.9999999999994031
  0
LINE
  5
206
  8
0
  6
PHANTOM
 62
     7
 10
85.3352282406385427
 20
-15.4106500955045398
 30
0.0
 11
85.3352282406385427
 21
-17.4106522859752317
 31
0.0
  0
LINE
  5
207
  8
0
  6
PHANTOM
 62
     7
 10
76.3352249027784353
 20
-24.4106515707194802
 30
0.0
 11
78.3352252306039816
 21
-24.4106515707194802
 31
0.0
  0
LINE
  5
208
  8
0
  6
PHANTOM
 62
     7
 10
146.5352267237003048
 20
-60.9106519656002519
 30
0.0
 11
146.5352267237003048
 21
-33.9106512652456829
 31
0.0
  0
LINE
  5
209
  8
0
  6
PHANTOM
 62
     7
 10
146.5352267237003048
 20
-77.4106509448706959
 30
0.0
 11
146.5352267237003048
 21
-62.4106512801468369
 31
0.0
  0
LINE
  5
20A
  8
0
  6
PHANTOM
 62
     7
 10
146.5352267237003048
 20
-32.4106519506990907
 30
0.0
 11
146.5352267237003048
 21
-17.4106522859752317
 31
0.0
  0
LINE
  5
20B
  8
0
  6
PHANTOM
 62
     7
 10
76.3352249027784353
 20
-70.4106516601264616
 30
0.0
 11
76.3352249027784353
 21
-24.4106515707194802
 31
0.0
  0
LINE
  5
20C
  8
0
  6
PHANTOM
 62
     7
 10
76.3352249027784353
 20
-70.4106516601264616
 30
0.0
 11
78.3352252306039816
 21
-70.4106516601264616
 31
0.0
  0
LINE
  5
20D
  8
0
  6
PHANTOM
 62
     7
 10
85.3352282406385427
 20
-15.4106500955045398
 30
0.0
 11
147.2768463404472072
 21
-15.4106500955045398
 31
0.0
  0
LINE
  5
20E
  8
0
  6
PHANTOM
 62
     7
 10
146.5352267237003048
 20
-99.9106526883065555
 30
0.0
 11
146.5352267237003048
 21
-98.4106533737599705
 31
0.0
  0
ARC
  5
20F
  8
0
  6
PHANTOM
 62
     7
 10
79.3352266611157262
 20
-72.410651615422978
 30
0.0
 40
10.0
 50
179.9999999999994031
 51
270.0000000000013074
  0
LINE
  5
210
  8
0
  6
PHANTOM
 62
     7
 10
79.3352272571619039
 20
-84.410652092260122
 30
0.0
 11
79.3352272571619039
 21
-82.4106517644345757
 31
0.0
  0
ARC
  5
211
  8
0
  6
PHANTOM
 62
     7
 10
85.3352266611157262
 20
-70.410651615422978
 30
0.0
 40
8.9999999999999876
 50
179.9999999999994031
 51
270.0000000000006821
  0
LINE
  5
212
  8
0
  6
PHANTOM
 62
     7
 10
85.3352282406385427
 20
-79.4106531353414056
 30
0.0
 11
85.3352282406385427
 21
-77.4106509448706959
 31
0.0
  0
LINE
  5
213
  8
0
  6
PHANTOM
 62
     7
 10
79.3352272571619039
 20
-82.4106517644345757
 30
0.0
 11
147.2768463404472072
 21
-82.4106517644345757
 31
0.0
  0
LINE
  5
214
  8
0
  6
PHANTOM
 62
     7
 10
85.3352282406385427
 20
-79.4106531353414056
 30
0.0
 11
147.2768463404472072
 21
-79.4106531353414056
 31
0.0
  0
LINE
  5
215
  8
0
  6
PHANTOM
 62
     7
 10
146.5352267237003048
 20
3.589350142914042
 30
0.0
 11
147.33522722735961
 21
3.589350142914042
 31
0.0
  0
LINE
  5
216
  8
0
  6
PHANTOM
 62
     7
 10
146.5352267237003048
 20
-98.4106533737599705
 30
0.0
 11
147.33522722735961
 21
-98.4106533737599705
 31
0.0
  0
LINE
  5
217
  8
0
  6
PHANTOM
 62
     7
 10
54.3352297605569774
 20
3.589350142914042
 30
0.0
 11
47.1352270902688915
 21
3.589350142914042
 31
0.0
  0
LINE
  5
218
  8
0
  6
PHANTOM
 62
     7
 10
47.1352270902688915
 20
3.589350142914042
 30
0.0
 11
47.1352270902688915
 21
5.0893494574606271
 31
0.0
  0
LINE
  5
219
  8
0
  6
PHANTOM
 62
     7
 10
46.3352284492547923
 20
-98.4106533737599705
 30
0.0
 11
47.1352270902688915
 21
-98.4106533737599705
 31
0.0
  0
LINE
  5
21A
  8
0
  6
PHANTOM
 62
     7
 10
47.1352270902688915
 20
3.589350142914042
 30
0.0
 11
46.3352284492547923
 21
3.589350142914042
 31
0.0
  0
LINE
  5
21B
  8
0
  6
PHANTOM
 62
     7
 10
47.1352270902688915
 20
3.589350142914042
 30
0.0
 11
47.1352270902688915
 21
-98.4106533737599705
 31
0.0
  0
LINE
  5
21C
  8
0
  6
PHANTOM
 62
     7
 10
47.1352270902688915
 20
-98.4106533737599705
 30
0.0
 11
54.3352297605569774
 21
-98.4106533737599705
 31
0.0
  0
LINE
  5
21D
  8
0
  6
PHANTOM
 62
     7
 10
47.1352270902688915
 20
-99.9106526883065555
 30
0.0
 11
47.1352270902688915
 21
-98.4106533737599705
 31
0.0
  0
INSERT
  5
21E
  8
0
  6
PHANTOM
  2
DC_GROUP_WL40WR_000_1
 10
0.0
 20
0.0
 30
0.0
  0
LINE
  5
236
  8
0
  6
CONTINUOUS
 62
     7
 10
-87.3782512197746684
 20
-103.9106543870389032
 30
0.0
 11
-87.3782512197746684
 21
-99.9106526883065555
 31
0.0
  0
ARC
  5
237
  8
0
  6
CONTINUOUS
 62
     7
 10
-88.3782515997548472
 20
-103.9106536717833933
 30
0.0
 40
1.0
 50
270.0
 51
0.0
  0
LINE
  5
238
  8
0
  6
CONTINUOUS
 62
     7
 10
-102.3782518158211019
 20
-104.9106526883065982
 30
0.0
 11
-88.3782513836874415
 21
-104.9106526883065982
 31
0.0
  0
ARC
  5
239
  8
0
  6
CONTINUOUS
 62
     7
 10
-102.3782515997548046
 20
-103.9106536717831943
 30
0.0
 40
1.0000000000000071
 50
179.9999999999996021
 51
270.0
  0
LINE
  5
23A
  8
0
  6
CONTINUOUS
 62
     7
 10
-103.3782519797339035
 20
-99.9106526883065555
 30
0.0
 11
-103.3782519797339035
 21
-103.9106543870389032
 31
0.0
  0
LINE
  5
23B
  8
0
  6
CONTINUOUS
 62
     7
 10
-101.8782517338647011
 20
-99.9106526883065555
 30
0.0
 11
-101.8782517338647011
 21
-102.9106523604809951
 31
0.0
  0
ARC
  5
23C
  8
0
  6
CONTINUOUS
 62
     7
 10
-101.3782515997548046
 20
-102.9106536717831943
 30
0.0
 40
0.5
 50
179.9999999999984084
 51
269.9999999999984084
  0
LINE
  5
23D
  8
0
  6
CONTINUOUS
 62
     7
 10
-101.3782516519083003
 20
-103.4106533737599989
 30
0.0
 11
-89.3782515476002146
 21
-103.4106533737599989
 31
0.0
  0
ARC
  5
23E
  8
0
  6
CONTINUOUS
 62
     7
 10
-89.3782515997548472
 20
-102.9106536717833933
 30
0.0
 40
0.5
 50
270.0
 51
0.0
  0
LINE
  5
23F
  8
0
  6
CONTINUOUS
 62
     7
 10
-88.8782514656438281
 20
-102.9106523604809951
 30
0.0
 11
-88.8782514656438281
 21
-99.9106526883065555
 31
0.0
  0
LINE
  5
249
  8
0
  6
CONTINUOUS
 62
     7
 10
-106.8882512325896954
 20
-86.4695082815110538
 30
0.0
 11
-113.6215979630602959
 21
-86.4695082815110538
 31
0.0
  0
LINE
  5
24A
  8
0
  6
CONTINUOUS
 62
     7
 10
-106.8882512325896954
 20
-82.923218181890249
 30
0.0
 11
-106.8882512325896954
 21
-86.4695082815110538
 31
0.0
  0
LINE
  5
24B
  8
0
  6
CONTINUOUS
 62
     7
 10
-113.6215979630602959
 20
-82.923218181890249
 30
0.0
 11
-106.8882512325896954
 21
-82.923218181890249
 31
0.0
  0
LINE
  5
24C
  8
0
  6
CONTINUOUS
 62
     7
 10
-113.6215979630602959
 20
-86.4695082815110538
 30
0.0
 11
-113.6215979630602959
 21
-82.923218181890249
 31
0.0
  0
LINE
  5
24D
  8
0
  6
CONTINUOUS
 62
     7
 10
-106.8882512325896954
 20
-81.8980853469789025
 30
0.0
 11
-113.6215979630602959
 21
-81.8980853469789025
 31
0.0
  0
LINE
  5
24E
  8
0
  6
CONTINUOUS
 62
     7
 10
-106.8882512325896954
 20
-77.9232192249715325
 30
0.0
 11
-106.8882512325896954
 21
-81.8980853469789025
 31
0.0
  0
LINE
  5
24F
  8
0
  6
CONTINUOUS
 62
     7
 10
-113.6215979630602959
 20
-77.9232192249715325
 30
0.0
 11
-106.8882512325896954
 21
-77.9232192249715325
 31
0.0
  0
LINE
  5
250
  8
0
  6
CONTINUOUS
 62
     7
 10
-113.6215979630602959
 20
-81.8980853469789025
 30
0.0
 11
-113.6215979630602959
 21
-77.9232192249715325
 31
0.0
  0
LINE
  5
251
  8
0
  6
CONTINUOUS
 62
     7
 10
-106.8882512325896954
 20
-76.8980845274150511
 30
0.0
 11
-113.6215979630602959
 21
-76.8980845274150511
 31
0.0
  0
LINE
  5
252
  8
0
  6
CONTINUOUS
 62
     7
 10
-106.8882512325896954
 20
-73.3517944277942178
 30
0.0
 11
-106.8882512325896954
 21
-76.8980845274150511
 31
0.0
  0
LINE
  5
253
  8
0
  6
CONTINUOUS
 62
     7
 10
-113.6215979630602959
 20
-73.3517944277942178
 30
0.0
 11
-106.8882512325896954
 21
-73.3517944277942178
 31
0.0
  0
LINE
  5
254
  8
0
  6
CONTINUOUS
 62
     7
 10
-113.6215979630602959
 20
-76.8980845274150511
 30
0.0
 11
-113.6215979630602959
 21
-73.3517944277942178
 31
0.0
  0
LINE
  5
255
  8
0
  6
CONTINUOUS
 62
     7
 10
-106.4382519970191936
 20
-72.4106519879520079
 30
0.0
 11
-115.638252201165102
 21
-72.4106519879520079
 31
0.0
  0
LINE
  5
256
  8
0
  6
CONTINUOUS
 62
     7
 10
-115.638252201165102
 20
-87.4106507213533064
 30
0.0
 11
-106.4382519970191936
 21
-87.4106507213533064
 31
0.0
  0
LINE
  5
257
  8
0
  6
CONTINUOUS
 62
     7
 10
-115.638252201165102
 20
-72.4106519879520079
 30
0.0
 11
-115.638252201165102
 21
-87.4106507213533064
 31
0.0
  0
LINE
  5
258
  8
0
  6
CONTINUOUS
 62
     7
 10
-106.2382514054430942
 20
-87.4106507213533064
 30
0.0
 11
-106.2382514054430942
 21
-72.4106519879520079
 31
0.0
  0
LINE
  5
259
  8
0
  6
CONTINUOUS
 62
     7
 10
-106.4382519970191936
 20
-87.4106507213533064
 30
0.0
 11
-106.2382514054430942
 21
-87.4106507213533064
 31
0.0
  0
LINE
  5
25A
  8
0
  6
CONTINUOUS
 62
     7
 10
-106.4382519970191936
 20
-72.4106519879520079
 30
0.0
 11
-106.2382514054430942
 21
-72.4106519879520079
 31
0.0
  0
LINE
  5
25B
  8
0
  6
CONTINUOUS
 62
     7
 10
-113.6215979630602959
 20
-86.4695082815110538
 30
0.0
 11
-112.7382515395536018
 21
-86.3356511505067203
 31
0.0
  0
LINE
  5
25C
  8
0
  6
CONTINUOUS
 62
     7
 10
-109.5382513875617008
 20
-86.3356511505067203
 30
0.0
 11
-112.7382515395536018
 21
-86.3356511505067203
 31
0.0
  0
LINE
  5
25D
  8
0
  6
CONTINUOUS
 62
     7
 10
-106.8882512325896954
 20
-86.443762800258412
 30
0.0
 11
-109.5382513875617008
 21
-86.3356511505067203
 31
0.0
  0
LINE
  5
25E
  8
0
  6
CONTINUOUS
 62
     7
 10
-106.8882512325896954
 20
-82.9645763547837447
 30
0.0
 11
-107.9727614695681979
 21
-83.035651168388128
 31
0.0
  0
LINE
  5
25F
  8
0
  6
CONTINUOUS
 62
     7
 10
-113.1597178454054955
 20
-83.035651168388128
 30
0.0
 11
-107.9727614695681979
 21
-83.035651168388128
 31
0.0
  0
LINE
  5
260
  8
0
  6
CONTINUOUS
 62
     7
 10
-113.6215979630602959
 20
-82.923218181890249
 30
0.0
 11
-113.1597178454054955
 21
-83.035651168388128
 31
0.0
  0
LINE
  5
261
  8
0
  6
CONTINUOUS
 62
     7
 10
-106.8882512325896954
 20
-73.3775399090468881
 30
0.0
 11
-109.5382513875617008
 21
-73.4856515587985513
 31
0.0
  0
LINE
  5
262
  8
0
  6
CONTINUOUS
 62
     7
 10
-109.5382513875617008
 20
-73.4856515587985513
 30
0.0
 11
-112.7382515395536018
 21
-73.4856515587985513
 31
0.0
  0
LINE
  5
263
  8
0
  6
CONTINUOUS
 62
     7
 10
-112.7382515395536018
 20
-73.4856515587985513
 30
0.0
 11
-113.6215979630602959
 21
-73.3517944277942178
 31
0.0
  0
LINE
  5
264
  8
0
  6
CONTINUOUS
 62
     7
 10
-112.7382515395536018
 20
-83.3000275702893731
 30
0.0
 11
-113.1597178454054955
 21
-83.035651168388128
 31
0.0
  0
LINE
  5
265
  8
0
  6
CONTINUOUS
 62
     7
 10
-112.7382515395536018
 20
-86.3356511505067203
 30
0.0
 11
-112.7382515395536018
 21
-83.3000275702893731
 31
0.0
  0
LINE
  5
266
  8
0
  6
CONTINUOUS
 62
     7
 10
-112.7382515395536018
 20
-73.4856515587985513
 30
0.0
 11
-112.7382515395536018
 21
-76.5212770016610619
 31
0.0
  0
LINE
  5
267
  8
0
  6
CONTINUOUS
 62
     7
 10
-113.1597178454054955
 20
-76.7856515409171578
 30
0.0
 11
-112.7382515395536018
 21
-76.5212770016610619
 31
0.0
  0
LINE
  5
268
  8
0
  6
CONTINUOUS
 62
     7
 10
-113.1597178454054955
 20
-76.7856515409171578
 30
0.0
 11
-113.6215979630602959
 21
-76.8980845274150511
 31
0.0
  0
LINE
  5
269
  8
0
  6
CONTINUOUS
 62
     7
 10
-113.6215979630602959
 20
-81.8980853469789025
 30
0.0
 11
-113.1597178454054955
 21
-81.7856523604809951
 31
0.0
  0
LINE
  5
26A
  8
0
  6
CONTINUOUS
 62
     7
 10
-113.1597178454054955
 20
-81.7856523604809951
 30
0.0
 11
-107.9727614695681979
 21
-81.7856523604809951
 31
0.0
  0
LINE
  5
26B
  8
0
  6
CONTINUOUS
 62
     7
 10
-107.9727614695681979
 20
-81.7856523604809951
 30
0.0
 11
-106.8882512325896954
 21
-81.8567234487950799
 31
0.0
  0
LINE
  5
26C
  8
0
  6
CONTINUOUS
 62
     7
 10
-106.8882512325896954
 20
-77.9645773978650709
 30
0.0
 11
-107.9727614695681979
 21
-78.0356522114693831
 31
0.0
  0
LINE
  5
26D
  8
0
  6
CONTINUOUS
 62
     7
 10
-113.1597178454054955
 20
-78.0356522114693831
 30
0.0
 11
-107.9727614695681979
 21
-78.0356522114693831
 31
0.0
  0
LINE
  5
26E
  8
0
  6
CONTINUOUS
 62
     7
 10
-113.6215979630602959
 20
-77.9232192249715325
 30
0.0
 11
-113.1597178454054955
 21
-78.0356522114693831
 31
0.0
  0
LINE
  5
26F
  8
0
  6
CONTINUOUS
 62
     7
 10
-113.1597178454054955
 20
-76.7856515409171578
 30
0.0
 11
-107.9727614695681979
 21
-76.7856515409171578
 31
0.0
  0
LINE
  5
270
  8
0
  6
CONTINUOUS
 62
     7
 10
-107.9727614695681979
 20
-76.7856515409171578
 30
0.0
 11
-106.8882512325896954
 21
-76.8567244918763635
 31
0.0
  0
LINE
  5
271
  8
0
  6
CONTINUOUS
 62
     7
 10
-112.7382515395536018
 20
-78.3000267507255217
 30
0.0
 11
-113.1597178454054955
 21
-78.0356522114693831
 31
0.0
  0
LINE
  5
272
  8
0
  6
CONTINUOUS
 62
     7
 10
-112.7382515395536018
 20
-81.5212759585797784
 30
0.0
 11
-112.7382515395536018
 21
-78.3000267507255217
 31
0.0
  0
LINE
  5
273
  8
0
  6
CONTINUOUS
 62
     7
 10
-113.1597178454054955
 20
-81.7856523604809951
 30
0.0
 11
-112.7382515395536018
 21
-81.5212759585797784
 31
0.0
  0
LINE
  5
274
  8
0
  6
CONTINUOUS
 62
     7
 10
-107.9727614695681979
 20
-76.7856515409171578
 30
0.0
 11
-109.5382513875617008
 21
-76.5212770016610619
 31
0.0
  0
LINE
  5
275
  8
0
  6
CONTINUOUS
 62
     7
 10
-109.5382513875617008
 20
-76.5212770016610619
 30
0.0
 11
-109.5382513875617008
 21
-73.4856515587985513
 31
0.0
  0
LINE
  5
276
  8
0
  6
CONTINUOUS
 62
     7
 10
-109.5382513875617008
 20
-83.3000275702893731
 30
0.0
 11
-109.5382513875617008
 21
-86.3356511505067203
 31
0.0
  0
LINE
  5
277
  8
0
  6
CONTINUOUS
 62
     7
 10
-109.5382513875617008
 20
-83.3000275702893731
 30
0.0
 11
-107.9727614695681979
 21
-83.035651168388128
 31
0.0
  0
LINE
  5
278
  8
0
  6
CONTINUOUS
 62
     7
 10
-109.5382513875617008
 20
-81.5212759585797784
 30
0.0
 11
-107.9727614695681979
 21
-81.7856523604809951
 31
0.0
  0
LINE
  5
279
  8
0
  6
CONTINUOUS
 62
     7
 10
-109.5382513875617008
 20
-78.3000267507255217
 30
0.0
 11
-109.5382513875617008
 21
-81.5212759585797784
 31
0.0
  0
LINE
  5
27A
  8
0
  6
CONTINUOUS
 62
     7
 10
-109.5382513875617008
 20
-78.3000267507255217
 30
0.0
 11
-107.9727614695681979
 21
-78.0356522114693831
 31
0.0
  0
LINE
  5
27B
  8
0
  6
CONTINUOUS
 62
     7
 10
-101.5848511295868946
 20
-87.4106507213533064
 30
0.0
 11
-101.5848511295868946
 21
-72.4106519879520079
 31
0.0
  0
LINE
  5
27C
  8
0
  6
CONTINUOUS
 62
     7
 10
-106.2382514054430942
 20
-87.4106507213533064
 30
0.0
 11
-101.5848511295868946
 21
-87.4106507213533064
 31
0.0
  0
LINE
  5
27D
  8
0
  6
CONTINUOUS
 62
     7
 10
-101.5848511295868946
 20
-72.4106519879520079
 30
0.0
 11
-106.2382514054430942
 21
-72.4106519879520079
 31
0.0
  0
LINE
  5
27E
  8
0
  6
CONTINUOUS
 62
     7
 10
-101.3882517280533051
 20
-87.4106507213533064
 30
0.0
 11
-101.3882517280533051
 21
-72.4106519879520079
 31
0.0
  0
LINE
  5
27F
  8
0
  6
CONTINUOUS
 62
     7
 10
-100.8295275668157984
 20
-87.4106507213533064
 30
0.0
 11
-101.3882517280533051
 21
-87.4106507213533064
 31
0.0
  0
LINE
  5
280
  8
0
  6
CONTINUOUS
 62
     7
 10
-101.3882517280533051
 20
-72.4106519879520079
 30
0.0
 11
-100.8295275668157984
 21
-72.4106519879520079
 31
0.0
  0
LINE
  5
281
  8
0
  6
CONTINUOUS
 62
     7
 10
-101.5848511295868946
 20
-87.4106507213533064
 30
0.0
 11
-101.3882517280533051
 21
-87.4106507213533064
 31
0.0
  0
LINE
  5
282
  8
0
  6
CONTINUOUS
 62
     7
 10
-101.5848511295868946
 20
-72.4106519879520079
 30
0.0
 11
-101.3882517280533051
 21
-72.4106519879520079
 31
0.0
  0
LINE
  5
283
  8
0
  6
CONTINUOUS
 62
     7
 10
-100.6382516051186968
 20
-72.4106519879520079
 30
0.0
 11
-100.6382516051186968
 21
-87.4106507213533064
 31
0.0
  0
LINE
  5
284
  8
0
  6
CONTINUOUS
 62
     7
 10
-100.8295275668157984
 20
-87.4106507213533064
 30
0.0
 11
-100.6382516051186968
 21
-87.4106507213533064
 31
0.0
  0
LINE
  5
285
  8
0
  6
CONTINUOUS
 62
     7
 10
-100.8295275668157984
 20
-72.4106519879520079
 30
0.0
 11
-100.6382516051186968
 21
-72.4106519879520079
 31
0.0
  0
LINE
  5
286
  8
0
  6
CONTINUOUS
 62
     7
 10
-112.7382515395536018
 20
-83.4856513352811049
 30
0.0
 11
-109.5382513875617008
 21
-83.4856513352811049
 31
0.0
  0
LINE
  5
287
  8
0
  6
CONTINUOUS
 62
     7
 10
-112.7382515395536018
 20
-78.4856523783624169
 30
0.0
 11
-109.5382513875617008
 21
-78.4856523783624169
 31
0.0
  0
LINE
  5
288
  8
0
  6
CONTINUOUS
 62
     7
 10
-112.7382515395536018
 20
-81.3356521935880181
 30
0.0
 11
-109.5382513875617008
 21
-81.3356521935880181
 31
0.0
  0
LINE
  5
289
  8
0
  6
CONTINUOUS
 62
     7
 10
-109.5382513875617008
 20
-76.3356513740241525
 30
0.0
 11
-112.7382515395536018
 21
-76.3356513740241525
 31
0.0
  0
LINE
  5
28A
  8
0
  6
CONTINUOUS
 62
     7
 10
-115.7782523358715991
 20
-87.4106507213533064
 30
0.0
 11
-115.7782523358715991
 21
-72.4106501253068444
 31
0.0
  0
LINE
  5
28B
  8
0
  6
CONTINUOUS
 62
     7
 10
-115.638252201165102
 20
-72.4106501253068444
 30
0.0
 11
-115.7782523358715991
 21
-72.4106501253068444
 31
0.0
  0
LINE
  5
28C
  8
0
  6
CONTINUOUS
 62
     7
 10
-115.638252201165102
 20
-87.4106507213533064
 30
0.0
 11
-115.7782523358715991
 21
-87.4106507213533064
 31
0.0
  0
CIRCLE
  5
28D
  8
0
  6
CONTINUOUS
 62
     7
 10
-113.7782515997547961
 20
-47.4106516154240722
 30
0.0
 40
2.0
  0
CIRCLE
  5
28E
  8
0
  6
CONTINUOUS
 62
     7
 10
-113.7782515997547961
 20
-47.4106516154240722
 30
0.0
 40
1.299999999999996
  0
LINE
  5
28F
  8
0
  6
CONTINUOUS
 62
     7
 10
-115.7782523358715991
 20
-45.910651602384462
 30
0.0
 11
-115.7782523358715991
 21
-47.4106516154240509
 31
0.0
  0
LINE
  5
290
  8
0
  6
CONTINUOUS
 62
     7
 10
-111.7782516802205066
 20
-47.4106516154240509
 30
0.0
 11
-111.7782516802205066
 21
-45.910651602384462
 31
0.0
  0
LINE
  5
291
  8
0
  6
CONTINUOUS
 62
     7
 10
-114.7580480600252031
 20
-49.7106516664594267
 30
0.0
 11
-112.7984559560670021
 21
-49.7106516664594267
 31
0.0
  0
LINE
  5
292
  8
0
  6
CONTINUOUS
 62
     7
 10
-115.7782523358715991
 20
-47.4106516154240509
 30
0.0
 11
-115.7782523358715991
 21
-48.9106516284614727
 31
0.0
  0
LINE
  5
293
  8
0
  6
CONTINUOUS
 62
     7
 10
-111.7782516802205066
 20
-48.9106516284614727
 30
0.0
 11
-111.7782516802205066
 21
-47.4106516154240509
 31
0.0
  0
LINE
  5
294
  8
0
  6
CONTINUOUS
 62
     7
 10
-115.3782511527194004
 20
-30.4756514193236789
 30
0.0
 11
-114.0182519728793977
 21
-30.4756514193236789
 31
0.0
  0
LINE
  5
295
  8
0
  6
CONTINUOUS
 62
     7
 10
-115.3782511527194004
 20
-30.4756514193236789
 30
0.0
 11
-115.3782511527194004
 21
-36.3456518785774705
 31
0.0
  0
LINE
  5
296
  8
0
  6
CONTINUOUS
 62
     7
 10
-114.0182519728793977
 20
-36.3456518785774705
 30
0.0
 11
-115.3782511527194004
 21
-36.3456518785774705
 31
0.0
  0
LINE
  5
297
  8
0
  6
CONTINUOUS
 62
     7
 10
-113.4982517386331011
 20
-36.8606518419206068
 30
0.0
 11
-114.0182519728793977
 21
-36.3456518785774705
 31
0.0
  0
LINE
  5
298
  8
0
  6
CONTINUOUS
 62
     7
 10
-112.2782508308544038
 20
-36.8606518419206068
 30
0.0
 11
-113.4982517386331011
 21
-36.8606518419206068
 31
0.0
  0
LINE
  5
299
  8
0
  6
CONTINUOUS
 62
     7
 10
-112.2782508308544038
 20
-36.8606518419206068
 30
0.0
 11
-112.2782508308544038
 21
-29.9606523873031101
 31
0.0
  0
LINE
  5
29A
  8
0
  6
CONTINUOUS
 62
     7
 10
-113.4982517386331011
 20
-29.9606523873031101
 30
0.0
 11
-112.2782508308544038
 21
-29.9606523873031101
 31
0.0
  0
LINE
  5
29B
  8
0
  6
CONTINUOUS
 62
     7
 10
-114.0182519728793977
 20
-30.4756514193236789
 30
0.0
 11
-113.4982517386331011
 21
-29.9606523873031101
 31
0.0
  0
LINE
  5
29C
  8
0
  6
CONTINUOUS
 62
     7
 10
-114.1828054959430006
 20
-30.0756520988166294
 30
0.0
 11
-113.6628071243418958
 21
-29.5606512041509113
 31
0.0
  0
LINE
  5
29D
  8
0
  6
CONTINUOUS
 62
     7
 10
-111.8782515103472974
 20
-29.5606512041509113
 30
0.0
 11
-111.8782515103472974
 21
-37.2606511624276635
 31
0.0
  0
LINE
  5
29E
  8
0
  6
CONTINUOUS
 62
     7
 10
-111.8782515103472974
 20
-37.2606511624276635
 30
0.0
 11
-113.6628071243418958
 21
-37.2606511624276635
 31
0.0
  0
LINE
  5
29F
  8
0
  6
CONTINUOUS
 62
     7
 10
-113.6628071243418958
 20
-37.2606511624276635
 30
0.0
 11
-114.1828054959430006
 21
-36.7456511990845271
 31
0.0
  0
LINE
  5
2A0
  8
0
  6
CONTINUOUS
 62
     7
 10
-114.1828054959430006
 20
-36.7456511990845271
 30
0.0
 11
-115.7782523358715991
 21
-36.7456511990845271
 31
0.0
  0
LINE
  5
2A1
  8
0
  6
CONTINUOUS
 62
     7
 10
-115.7782523358715991
 20
-36.7456511990845271
 30
0.0
 11
-115.7782523358715991
 21
-30.0756520988166294
 31
0.0
  0
LINE
  5
2A2
  8
0
  6
CONTINUOUS
 62
     7
 10
-115.7782523358715991
 20
-30.0756520988166294
 30
0.0
 11
-114.1828054959430006
 21
-30.0756520988166294
 31
0.0
  0
LINE
  5
2A3
  8
0
  6
CONTINUOUS
 62
     7
 10
-113.6628071243418958
 20
-29.5606512041509113
 30
0.0
 11
-111.8782515103472974
 21
-29.5606512041509113
 31
0.0
  0
LINE
  5
2A4
  8
0
  6
CONTINUOUS
 62
     7
 10
-114.1782513285531024
 20
-35.7106519328176972
 30
0.0
 11
-113.3282518411531044
 21
-35.7106519328176972
 31
0.0
  0
LINE
  5
2A5
  8
0
  6
CONTINUOUS
 62
     7
 10
-114.928250985826395
 20
-35.1656512753784725
 30
0.0
 11
-114.1782513285531024
 21
-35.7106519328176972
 31
0.0
  0
LINE
  5
2A6
  8
0
  6
CONTINUOUS
 62
     7
 10
-114.928250985826395
 20
-31.6556520225226912
 30
0.0
 11
-114.928250985826395
 21
-35.1656512753784725
 31
0.0
  0
LINE
  5
2A7
  8
0
  6
CONTINUOUS
 62
     7
 10
-113.3282518411531044
 20
-31.1106513650834593
 30
0.0
 11
-114.1782513285531024
 21
-31.1106513650834593
 31
0.0
  0
LINE
  5
2A8
  8
0
  6
CONTINUOUS
 62
     7
 10
-114.1782513285531024
 20
-31.1106513650834593
 30
0.0
 11
-114.928250985826395
 21
-31.6556520225226912
 31
0.0
  0
LINE
  5
2A9
  8
0
  6
CONTINUOUS
 62
     7
 10
-113.3282518411531044
 20
-35.7106519328176972
 30
0.0
 11
-113.3282518411531044
 21
-31.1106513650834593
 31
0.0
  0
LINE
  5
2AA
  8
0
  6
CONTINUOUS
 62
     7
 10
-115.7782523358715991
 20
-29.9606523873031101
 30
0.0
 11
-114.8282511556997036
 21
-29.9606523873031101
 31
0.0
  0
LINE
  5
2AB
  8
0
  6
CONTINUOUS
 62
     7
 10
-114.8282511556997036
 20
-30.0756520988166294
 30
0.0
 11
-114.8282511556997036
 21
-29.9606523873031101
 31
0.0
  0
LINE
  5
2AC
  8
0
  6
CONTINUOUS
 62
     7
 10
-115.3782511527194004
 20
-30.66481793538928
 30
0.0
 11
-115.1718886966361026
 21
-30.4756514193236789
 31
0.0
  0
LINE
  5
2AD
  8
0
  6
CONTINUOUS
 62
     7
 10
-115.3782511527194004
 20
-36.1564853625118729
 30
0.0
 11
-115.1718886966361026
 21
-36.3456518785774705
 31
0.0
  0
LINE
  5
2AE
  8
0
  6
CONTINUOUS
 62
     7
 10
-114.8282511556997036
 20
-36.7456511990845271
 30
0.0
 11
-114.8282511556997036
 21
-36.8606518419206068
 31
0.0
  0
LINE
  5
2AF
  8
0
  6
CONTINUOUS
 62
     7
 10
-114.8282511556997036
 20
-36.8606518419206068
 30
0.0
 11
-115.7782523358715991
 21
-36.8606518419206068
 31
0.0
  0
LINE
  5
2B0
  8
0
  6
CONTINUOUS
 62
     7
 10
-115.3782511527194004
 20
-29.5606512041509113
 30
0.0
 11
-115.3782511527194004
 21
-28.8106515468776188
 31
0.0
  0
LINE
  5
2B1
  8
0
  6
CONTINUOUS
 62
     7
 10
-114.8282511556997036
 20
-29.9606523873031101
 30
0.0
 11
-114.0666900599851061
 21
-29.9606523873031101
 31
0.0
  0
LINE
  5
2B2
  8
0
  6
CONTINUOUS
 62
     7
 10
-115.3782511527194004
 20
-29.5606512041509113
 30
0.0
 11
-113.6628071243418958
 21
-29.5606512041509113
 31
0.0
  0
LINE
  5
2B3
  8
0
  6
CONTINUOUS
 62
     7
 10
-115.3782511527194004
 20
-38.0106517510235307
 30
0.0
 11
-115.3782511527194004
 21
-37.2606511624276635
 31
0.0
  0
LINE
  5
2B4
  8
0
  6
CONTINUOUS
 62
     7
 10
-114.0666900599851061
 20
-36.8606518419206068
 30
0.0
 11
-114.8282511556997036
 21
-36.8606518419206068
 31
0.0
  0
LINE
  5
2B5
  8
0
  6
CONTINUOUS
 62
     7
 10
-113.6628071243418958
 20
-37.2606511624276635
 30
0.0
 11
-115.3782511527194004
 21
-37.2606511624276635
 31
0.0
  0
LINE
  5
2B6
  8
0
  6
CONTINUOUS
 62
     7
 10
-112.1782510007275988
 20
-7.6606530161321293
 30
0.0
 11
-112.5782521838797976
 21
-7.6606530161321293
 31
0.0
  0
ARC
  5
2B7
  8
0
  6
CONTINUOUS
 62
     7
 10
-112.5782515997543953
 20
-20.2606516154229013
 30
0.0
 40
0.6000000000000086
 50
90.0
 51
180.0
  0
ARC
  5
2B8
  8
0
  6
CONTINUOUS
 62
     7
 10
-112.1782515997545033
 20
-6.2606516154228871
 30
0.0
 40
0.6000000000000086
 50
0.0
 51
90.0
  0
ARC
  5
2B9
  8
0
  6
CONTINUOUS
 62
     7
 10
-112.1782515997544039
 20
-24.5606516154228984
 30
0.0
 40
0.5999999999999944
 50
270.0000000000013074
 51
0.0
  0
LINE
  5
2BA
  8
0
  6
CONTINUOUS
 62
     7
 10
-111.578252019966996
 20
-6.2606516690671574
 30
0.0
 11
-111.578252019966996
 21
-7.0606503100812574
 31
0.0
  0
ARC
  5
2BB
  8
0
  6
CONTINUOUS
 62
     7
 10
-112.5782515997544948
 20
-7.0606516154228967
 30
0.0
 40
0.5999999999999944
 50
180.0
 51
270.0000000000026716
  0
LINE
  5
2BC
  8
0
  6
CONTINUOUS
 62
     7
 10
-113.1782511646404004
 20
-7.0606503100812574
 30
0.0
 11
-113.1782511646404004
 21
-6.2606516690671574
 31
0.0
  0
LINE
  5
2BD
  8
0
  6
CONTINUOUS
 62
     7
 10
-111.578252019966996
 20
-23.7606517435729501
 30
0.0
 11
-111.578252019966996
 21
-24.5606522472321984
 31
0.0
  0
ARC
  5
2BE
  8
0
  6
CONTINUOUS
 62
     7
 10
-112.5782515997544948
 20
-6.2606516154228871
 30
0.0
 40
0.5999999999999944
 50
90.0
 51
180.0
  0
LINE
  5
2BF
  8
0
  6
CONTINUOUS
 62
     7
 10
-113.1782511646404004
 20
-21.0606507422149214
 30
0.0
 11
-113.1782511646404004
 21
-20.2606521012008187
 31
0.0
  0
LINE
  5
2C0
  8
0
  6
CONTINUOUS
 62
     7
 10
-112.5782521838797976
 20
-5.6606526883065831
 30
0.0
 11
-112.1782510007275988
 21
-5.6606526883065831
 31
0.0
  0
ARC
  5
2C1
  8
0
  6
CONTINUOUS
 62
     7
 10
-112.5782515997544948
 20
-13.2606516154228906
 30
0.0
 40
0.5999999999999944
 50
90.0
 51
180.0
  0
LINE
  5
2C2
  8
0
  6
CONTINUOUS
 62
     7
 10
-112.1782510007275988
 20
-14.6606523008763894
 30
0.0
 11
-112.5782521838797976
 21
-14.6606523008763894
 31
0.0
  0
LINE
  5
2C3
  8
0
  6
CONTINUOUS
 62
     7
 10
-111.578252019966996
 20
-16.7606524588287016
 30
0.0
 11
-111.578252019966996
 21
-17.5606510998428007
 31
0.0
  0
LINE
  5
2C4
  8
0
  6
CONTINUOUS
 62
     7
 10
-112.1782510007275988
 20
-25.1606512279927692
 30
0.0
 11
-112.5782521838797976
 21
-25.1606512279927692
 31
0.0
  0
LINE
  5
2C5
  8
0
  6
CONTINUOUS
 62
     7
 10
-113.1782511646404004
 20
-14.0606533201158204
 30
0.0
 11
-113.1782511646404004
 21
-13.2606509538114192
 31
0.0
  0
ARC
  5
2C6
  8
0
  6
CONTINUOUS
 62
     7
 10
-112.1782515997545033
 20
-9.7606516154228871
 30
0.0
 40
0.6000000000000228
 50
0.0
 51
90.00000000000135
  0
LINE
  5
2C7
  8
0
  6
CONTINUOUS
 62
     7
 10
-112.5782521838797976
 20
-19.6606512577951094
 30
0.0
 11
-112.1782510007275988
 21
-19.6606512577951094
 31
0.0
  0
LINE
  5
2C8
  8
0
  6
CONTINUOUS
 62
     7
 10
-113.1782511646404004
 20
-24.5606522472321984
 30
0.0
 11
-113.1782511646404004
 21
-23.7606517435729501
 31
0.0
  0
ARC
  5
2C9
  8
0
  6
CONTINUOUS
 62
     7
 10
-112.5782515997543953
 20
-21.0606516154228984
 30
0.0
 40
0.5999999999999944
 50
180.0
 51
270.0000000000013074
  0
ARC
  5
2CA
  8
0
  6
CONTINUOUS
 62
     7
 10
-112.1782515997544039
 20
-20.2606516154229013
 30
0.0
 40
0.6000000000000086
 50
0.0
 51
90.00000000000135
  0
ARC
  5
2CB
  8
0
  6
CONTINUOUS
 62
     7
 10
-112.1782515997545033
 20
-13.2606516154228906
 30
0.0
 40
0.5999999999999944
 50
0.0
 51
90.00000000000135
  0
ARC
  5
2CC
  8
0
  6
CONTINUOUS
 62
     7
 10
-112.1782515997545033
 20
-10.5606516154229002
 30
0.0
 40
0.5999999999999944
 50
270.0000000000013074
 51
0.0
  0
ARC
  5
2CD
  8
0
  6
CONTINUOUS
 62
     7
 10
-112.1782515997544039
 20
-17.5606516154228984
 30
0.0
 40
0.5999999999999944
 50
270.0
 51
0.0
  0
LINE
  5
2CE
  8
0
  6
CONTINUOUS
 62
     7
 10
-112.5782521838797976
 20
-12.6606519730508502
 30
0.0
 11
-112.1782510007275988
 21
-12.6606519730508502
 31
0.0
  0
LINE
  5
2CF
  8
0
  6
CONTINUOUS
 62
     7
 10
-112.5782521838797976
 20
-9.1606523306787171
 30
0.0
 11
-112.1782510007275988
 21
-9.1606523306787171
 31
0.0
  0
LINE
  5
2D0
  8
0
  6
CONTINUOUS
 62
     7
 10
-112.1782510007275988
 20
-11.1606526585042598
 30
0.0
 11
-112.5782521838797976
 21
-11.1606526585042598
 31
0.0
  0
LINE
  5
2D1
  8
0
  6
CONTINUOUS
 62
     7
 10
-111.578252019966996
 20
-9.7606513114392897
 30
0.0
 11
-111.578252019966996
 21
-10.5606499524533906
 31
0.0
  0
ARC
  5
2D2
  8
0
  6
CONTINUOUS
 62
     7
 10
-112.1782515997544039
 20
-23.7606516154228906
 30
0.0
 40
0.5999999999999944
 50
0.0
 51
90.00000000000135
  0
ARC
  5
2D3
  8
0
  6
CONTINUOUS
 62
     7
 10
-112.1782515997545033
 20
-16.7606516154228906
 30
0.0
 40
0.5999999999999944
 50
0.0
 51
90.0
  0
ARC
  5
2D4
  8
0
  6
CONTINUOUS
 62
     7
 10
-112.5782515997544948
 20
-10.5606516154229002
 30
0.0
 40
0.5999999999999944
 50
180.0
 51
270.0000000000013074
  0
LINE
  5
2D5
  8
0
  6
CONTINUOUS
 62
     7
 10
-111.578252019966996
 20
-13.2606509538114192
 30
0.0
 11
-111.578252019966996
 21
-14.0606533201158204
 31
0.0
  0
LINE
  5
2D6
  8
0
  6
CONTINUOUS
 62
     7
 10
-113.1782511646404004
 20
-10.5606499524533906
 30
0.0
 11
-113.1782511646404004
 21
-9.7606513114392897
 31
0.0
  0
ARC
  5
2D7
  8
0
  6
CONTINUOUS
 62
     7
 10
-112.5782515997544948
 20
-14.0606516154229002
 30
0.0
 40
0.5999999999999944
 50
180.0
 51
270.0000000000026716
  0
ARC
  5
2D8
  8
0
  6
CONTINUOUS
 62
     7
 10
-112.1782515997545033
 20
-7.0606516154228967
 30
0.0
 40
0.6000000000000086
 50
270.0000000000013074
 51
0.0
  0
LINE
  5
2D9
  8
0
  6
CONTINUOUS
 62
     7
 10
-112.5782521838797976
 20
-23.16065090016723
 30
0.0
 11
-112.1782510007275988
 21
-23.16065090016723
 31
0.0
  0
ARC
  5
2DA
  8
0
  6
CONTINUOUS
 62
     7
 10
-112.1782515997545033
 20
-14.0606516154229002
 30
0.0
 40
0.5999999999999944
 50
270.0000000000013074
 51
0.0
  0
ARC
  5
2DB
  8
0
  6
CONTINUOUS
 62
     7
 10
-112.5782515997544948
 20
-16.7606516154228906
 30
0.0
 40
0.5999999999999944
 50
90.0
 51
180.0
  0
LINE
  5
2DC
  8
0
  6
CONTINUOUS
 62
     7
 10
-111.578252019966996
 20
-20.2606521012008187
 30
0.0
 11
-111.578252019966996
 21
-21.0606507422149214
 31
0.0
  0
ARC
  5
2DD
  8
0
  6
CONTINUOUS
 62
     7
 10
-112.5782515997543953
 20
-24.5606516154228984
 30
0.0
 40
0.6000000000000086
 50
180.0
 51
270.0000000000013074
  0
LINE
  5
2DE
  8
0
  6
CONTINUOUS
 62
     7
 10
-112.1782510007275988
 20
-18.1606519432485207
 30
0.0
 11
-112.5782521838797976
 21
-18.1606519432485207
 31
0.0
  0
ARC
  5
2DF
  8
0
  6
CONTINUOUS
 62
     7
 10
-112.5782515997544948
 20
-17.5606516154228984
 30
0.0
 40
0.5999999999999944
 50
180.0
 51
270.0000000000026716
  0
ARC
  5
2E0
  8
0
  6
CONTINUOUS
 62
     7
 10
-112.5782515997543953
 20
-23.7606516154229013
 30
0.0
 40
0.6000000000000086
 50
90.0
 51
180.0
  0
LINE
  5
2E1
  8
0
  6
CONTINUOUS
 62
     7
 10
-112.1782510007275988
 20
-21.6606515856206414
 30
0.0
 11
-112.5782521838797976
 21
-21.6606515856206414
 31
0.0
  0
ARC
  5
2E2
  8
0
  6
CONTINUOUS
 62
     7
 10
-112.1782515997544039
 20
-21.0606516154228984
 30
0.0
 40
0.5999999999999944
 50
270.0000000000013074
 51
0.0
  0
LINE
  5
2E3
  8
0
  6
CONTINUOUS
 62
     7
 10
-113.1782511646404004
 20
-17.5606510998428007
 30
0.0
 11
-113.1782511646404004
 21
-16.7606524588287016
 31
0.0
  0
LINE
  5
2E4
  8
0
  6
CONTINUOUS
 62
     7
 10
-112.5782521838797976
 20
-16.1606516154229816
 30
0.0
 11
-112.1782510007275988
 21
-16.1606516154229816
 31
0.0
  0
ARC
  5
2E5
  8
0
  6
CONTINUOUS
 62
     7
 10
-112.5782515997544948
 20
-9.7606516154228871
 30
0.0
 40
0.6000000000000228
 50
89.9999999999986642
 51
180.0
  0
LINE
  5
2E6
  8
0
  6
CONTINUOUS
 62
     7
 10
-111.578252019966996
 20
-5.9000957222402217
 30
0.0
 11
-111.578252019966996
 21
-6.2606516690671574
 31
0.0
  0
LINE
  5
2E7
  8
0
  6
CONTINUOUS
 62
     7
 10
-112.1782510007275988
 20
-5.6606526883065831
 30
0.0
 11
-111.817696916545799
 21
-5.6606526883065831
 31
0.0
  0
LINE
  5
2E8
  8
0
  6
CONTINUOUS
 62
     7
 10
-113.1782511646404004
 20
-5.9000957222402217
 30
0.0
 11
-113.1782511646404004
 21
-6.2606516690671574
 31
0.0
  0
LINE
  5
2E9
  8
0
  6
CONTINUOUS
 62
     7
 10
-112.9388062680615974
 20
-5.6606526883065831
 30
0.0
 11
-112.5782521838797976
 21
-5.6606526883065831
 31
0.0
  0
LINE
  5
2EA
  8
0
  6
CONTINUOUS
 62
     7
 10
-112.1782510007275988
 20
-7.6606530161321293
 30
0.0
 11
-111.817696916545799
 21
-7.6606530161321293
 31
0.0
  0
LINE
  5
2EB
  8
0
  6
CONTINUOUS
 62
     7
 10
-111.578252019966996
 20
-7.0606503100812574
 30
0.0
 11
-111.578252019966996
 21
-7.4212062569081922
 31
0.0
  0
LINE
  5
2EC
  8
0
  6
CONTINUOUS
 62
     7
 10
-112.1782510007275988
 20
-9.1606523306787171
 30
0.0
 11
-112.1782510007275988
 21
-9.0606506379068055
 31
0.0
  0
LINE
  5
2ED
  8
0
  6
CONTINUOUS
 62
     7
 10
-112.1782510007275988
 20
-7.7606509836137416
 30
0.0
 11
-112.1782510007275988
 21
-7.6606530161321293
 31
0.0
  0
LINE
  5
2EE
  8
0
  6
CONTINUOUS
 62
     7
 10
-113.1782511646404004
 20
-7.0606503100812574
 30
0.0
 11
-113.1782511646404004
 21
-7.4212062569081922
 31
0.0
  0
LINE
  5
2EF
  8
0
  6
CONTINUOUS
 62
     7
 10
-113.1782511646404004
 20
-9.4000953646123548
 30
0.0
 11
-113.1782511646404004
 21
-9.7606513114392897
 31
0.0
  0
LINE
  5
2F0
  8
0
  6
CONTINUOUS
 62
     7
 10
-112.1782510007275988
 20
-19.6606512577951094
 30
0.0
 11
-112.1782510007275988
 21
-19.5606514276683505
 31
0.0
  0
LINE
  5
2F1
  8
0
  6
CONTINUOUS
 62
     7
 10
-112.1782510007275988
 20
-18.2606517733752902
 30
0.0
 11
-112.1782510007275988
 21
-18.1606519432485207
 31
0.0
  0
LINE
  5
2F2
  8
0
  6
CONTINUOUS
 62
     7
 10
-113.1782511646404004
 20
-17.5606510998428007
 30
0.0
 11
-113.1782511646404004
 21
-17.9212070466697391
 31
0.0
  0
LINE
  5
2F3
  8
0
  6
CONTINUOUS
 62
     7
 10
-113.1782511646404004
 20
-19.9000961543739017
 30
0.0
 11
-113.1782511646404004
 21
-20.2606521012008187
 31
0.0
  0
LINE
  5
2F4
  8
0
  6
CONTINUOUS
 62
     7
 10
-112.1782510007275988
 20
-16.1606516154229816
 30
0.0
 11
-111.817696916545799
 21
-16.1606516154229816
 31
0.0
  0
LINE
  5
2F5
  8
0
  6
CONTINUOUS
 62
     7
 10
-111.578252019966996
 20
-16.4000965120017703
 30
0.0
 11
-111.578252019966996
 21
-16.7606524588287016
 31
0.0
  0
LINE
  5
2F6
  8
0
  6
CONTINUOUS
 62
     7
 10
-112.1782510007275988
 20
-16.1606516154229816
 30
0.0
 11
-112.1782510007275988
 21
-16.0606499226510699
 31
0.0
  0
LINE
  5
2F7
  8
0
  6
CONTINUOUS
 62
     7
 10
-112.1782510007275988
 20
-14.7606502683580096
 30
0.0
 11
-112.1782510007275988
 21
-14.6606523008763894
 31
0.0
  0
LINE
  5
2F8
  8
0
  6
CONTINUOUS
 62
     7
 10
-113.1782511646404004
 20
-14.0606533201158204
 30
0.0
 11
-113.1782511646404004
 21
-14.4212055416524496
 31
0.0
  0
LINE
  5
2F9
  8
0
  6
CONTINUOUS
 62
     7
 10
-113.1782511646404004
 20
-16.4000965120017703
 30
0.0
 11
-113.1782511646404004
 21
-16.7606524588287016
 31
0.0
  0
LINE
  5
2FA
  8
0
  6
CONTINUOUS
 62
     7
 10
-112.1782510007275988
 20
-21.6606515856206414
 30
0.0
 11
-111.817696916545799
 21
-21.6606515856206414
 31
0.0
  0
LINE
  5
2FB
  8
0
  6
CONTINUOUS
 62
     7
 10
-111.578252019966996
 20
-21.0606507422149214
 30
0.0
 11
-111.578252019966996
 21
-21.4212066890418491
 31
0.0
  0
LINE
  5
2FC
  8
0
  6
CONTINUOUS
 62
     7
 10
-112.1782510007275988
 20
-12.6606519730508502
 30
0.0
 11
-111.817696916545799
 21
-12.6606519730508502
 31
0.0
  0
LINE
  5
2FD
  8
0
  6
CONTINUOUS
 62
     7
 10
-111.578252019966996
 20
-12.9000950069844897
 30
0.0
 11
-111.578252019966996
 21
-13.2606509538114192
 31
0.0
  0
LINE
  5
2FE
  8
0
  6
CONTINUOUS
 62
     7
 10
-112.1782510007275988
 20
-11.1606526585042598
 30
0.0
 11
-111.817696916545799
 21
-11.1606526585042598
 31
0.0
  0
LINE
  5
2FF
  8
0
  6
CONTINUOUS
 62
     7
 10
-111.578252019966996
 20
-10.5606499524533906
 30
0.0
 11
-111.578252019966996
 21
-10.92120589928032
 31
0.0
  0
LINE
  5
300
  8
0
  6
CONTINUOUS
 62
     7
 10
-112.1782510007275988
 20
-25.1606512279927692
 30
0.0
 11
-111.817696916545799
 21
-25.1606512279927692
 31
0.0
  0
LINE
  5
301
  8
0
  6
CONTINUOUS
 62
     7
 10
-111.578252019966996
 20
-24.5606522472321984
 30
0.0
 11
-111.578252019966996
 21
-24.9212063314139805
 31
0.0
  0
LINE
  5
302
  8
0
  6
CONTINUOUS
 62
     7
 10
-112.1782510007275988
 20
-19.6606512577951094
 30
0.0
 11
-111.817696916545799
 21
-19.6606512577951094
 31
0.0
  0
LINE
  5
303
  8
0
  6
CONTINUOUS
 62
     7
 10
-111.578252019966996
 20
-19.9000961543739017
 30
0.0
 11
-111.578252019966996
 21
-20.2606521012008187
 31
0.0
  0
LINE
  5
304
  8
0
  6
CONTINUOUS
 62
     7
 10
-112.9388062680615974
 20
-25.1606512279927692
 30
0.0
 11
-112.5782521838797976
 21
-25.1606512279927692
 31
0.0
  0
LINE
  5
305
  8
0
  6
CONTINUOUS
 62
     7
 10
-113.1782511646404004
 20
-24.5606522472321984
 30
0.0
 11
-113.1782511646404004
 21
-24.9212063314139805
 31
0.0
  0
LINE
  5
306
  8
0
  6
CONTINUOUS
 62
     7
 10
-112.1782510007275988
 20
-18.1606519432485207
 30
0.0
 11
-111.817696916545799
 21
-18.1606519432485207
 31
0.0
  0
LINE
  5
307
  8
0
  6
CONTINUOUS
 62
     7
 10
-111.578252019966996
 20
-17.5606510998428007
 30
0.0
 11
-111.578252019966996
 21
-17.9212070466697391
 31
0.0
  0
LINE
  5
308
  8
0
  6
CONTINUOUS
 62
     7
 10
-112.1782510007275988
 20
-23.16065090016723
 30
0.0
 11
-112.1782510007275988
 21
-23.0606510700404606
 31
0.0
  0
LINE
  5
309
  8
0
  6
CONTINUOUS
 62
     7
 10
-112.1782510007275988
 20
-21.7606514157474003
 30
0.0
 11
-112.1782510007275988
 21
-21.6606515856206414
 31
0.0
  0
LINE
  5
30A
  8
0
  6
CONTINUOUS
 62
     7
 10
-113.1782511646404004
 20
-21.0606507422149214
 30
0.0
 11
-113.1782511646404004
 21
-21.4212066890418491
 31
0.0
  0
LINE
  5
30B
  8
0
  6
CONTINUOUS
 62
     7
 10
-113.1782511646404004
 20
-23.4000957967460188
 30
0.0
 11
-113.1782511646404004
 21
-23.7606517435729501
 31
0.0
  0
LINE
  5
30C
  8
0
  6
CONTINUOUS
 62
     7
 10
-112.1782510007275988
 20
-12.6606519730508502
 30
0.0
 11
-112.1782510007275988
 21
-12.5606502802789404
 31
0.0
  0
LINE
  5
30D
  8
0
  6
CONTINUOUS
 62
     7
 10
-112.1782510007275988
 20
-11.2606506259858694
 30
0.0
 11
-112.1782510007275988
 21
-11.1606526585042598
 31
0.0
  0
LINE
  5
30E
  8
0
  6
CONTINUOUS
 62
     7
 10
-113.1782511646404004
 20
-10.5606499524533906
 30
0.0
 11
-113.1782511646404004
 21
-10.92120589928032
 31
0.0
  0
LINE
  5
30F
  8
0
  6
CONTINUOUS
 62
     7
 10
-113.1782511646404004
 20
-12.9000950069844897
 30
0.0
 11
-113.1782511646404004
 21
-13.2606509538114192
 31
0.0
  0
LINE
  5
310
  8
0
  6
CONTINUOUS
 62
     7
 10
-112.1782510007275988
 20
-9.1606523306787171
 30
0.0
 11
-111.817696916545799
 21
-9.1606523306787171
 31
0.0
  0
LINE
  5
311
  8
0
  6
CONTINUOUS
 62
     7
 10
-111.578252019966996
 20
-9.4000953646123548
 30
0.0
 11
-111.578252019966996
 21
-9.7606513114392897
 31
0.0
  0
LINE
  5
312
  8
0
  6
CONTINUOUS
 62
     7
 10
-112.1782510007275988
 20
-14.6606523008763894
 30
0.0
 11
-111.817696916545799
 21
-14.6606523008763894
 31
0.0
  0
LINE
  5
313
  8
0
  6
CONTINUOUS
 62
     7
 10
-111.578252019966996
 20
-14.0606533201158204
 30
0.0
 11
-111.578252019966996
 21
-14.4212055416524496
 31
0.0
  0
LINE
  5
314
  8
0
  6
CONTINUOUS
 62
     7
 10
-112.1782510007275988
 20
-23.16065090016723
 30
0.0
 11
-111.817696916545799
 21
-23.16065090016723
 31
0.0
  0
LINE
  5
315
  8
0
  6
CONTINUOUS
 62
     7
 10
-111.578252019966996
 20
-23.4000957967460188
 30
0.0
 11
-111.578252019966996
 21
-23.7606517435729501
 31
0.0
  0
LINE
  5
316
  8
0
  6
CONTINUOUS
 62
     7
 10
-115.7782523358715991
 20
-28.8156639249741993
 30
0.0
 11
-115.7782523358715991
 21
-30.0756520988166294
 31
0.0
  0
LINE
  5
317
  8
0
  6
CONTINUOUS
 62
     7
 10
-115.7782523358715991
 20
-36.7456511990845271
 30
0.0
 11
-115.7782523358715991
 21
-38.0056393729269573
 31
0.0
  0
LINE
  5
318
  8
0
  6
CONTINUOUS
 62
     7
 10
-115.7782523358715991
 20
-45.910651602384462
 30
0.0
 11
-115.7782523358715991
 21
-48.9106516284614727
 31
0.0
  0
LINE
  5
319
  8
0
  6
CONTINUOUS
 62
     7
 10
-115.7782523358715991
 20
-71.9567123265683506
 30
0.0
 11
-115.7782523358715991
 21
-72.4106501253068444
 31
0.0
  0
LINE
  5
31A
  8
0
  6
CONTINUOUS
 62
     7
 10
-115.7782523358715991
 20
-87.4106507213533064
 30
0.0
 11
-115.7782523358715991
 21
-87.864592245382056
 31
0.0
  0
LINE
  5
31B
  8
0
  6
CONTINUOUS
 62
     7
 10
-111.7782516802205066
 20
-48.410651662920408
 30
0.0
 11
-111.4869637812032011
 21
-48.410651662920408
 31
0.0
  0
ARC
  5
31C
  8
0
  6
CONTINUOUS
 62
     7
 10
-123.8782515997548046
 20
-98.4106516154232338
 30
0.0
 40
1.5
 50
179.9999999999988916
 51
270.0
  0
LINE
  5
31D
  8
0
  6
CONTINUOUS
 62
     7
 10
-125.3782522852076937
 20
-98.4106533737599705
 30
0.0
 11
-125.3782522852076937
 21
3.589350142914042
 31
0.0
  0
ARC
  5
31E
  8
0
  6
CONTINUOUS
 62
     7
 10
-123.8782515997537956
 20
3.5893483845767649
 30
0.0
 40
1.5
 50
89.99999999999946
 51
180.0
  0
ARC
  5
31F
  8
0
  6
CONTINUOUS
 62
     7
 10
-112.178251599754006
 20
-23.7606516154233596
 30
0.0
 40
0.7000000000000172
 50
0.0
 51
89.9999999999988347
  0
LINE
  5
320
  8
0
  6
CONTINUOUS
 62
     7
 10
-112.1782510007275988
 20
-23.0606510700404606
 30
0.0
 11
-112.5782521838797976
 21
-23.0606510700404606
 31
0.0
  0
ARC
  5
321
  8
0
  6
CONTINUOUS
 62
     7
 10
-112.5782515997539974
 20
-23.7606516154233383
 30
0.0
 40
0.7000000000000172
 50
89.9999999999988347
 51
180.0
  0
LINE
  5
322
  8
0
  6
CONTINUOUS
 62
     7
 10
-113.2782509947671059
 20
-23.7606517435729501
 30
0.0
 11
-113.2782509947671059
 21
-24.5606522472321984
 31
0.0
  0
ARC
  5
323
  8
0
  6
CONTINUOUS
 62
     7
 10
-112.5782515997539974
 20
-24.5606516154233496
 30
0.0
 40
0.700000000000003
 50
180.0
 51
270.00000000000108
  0
LINE
  5
324
  8
0
  6
CONTINUOUS
 62
     7
 10
-112.5782521838797976
 20
-25.2606510581195387
 30
0.0
 11
-112.1782510007275988
 21
-25.2606510581195387
 31
0.0
  0
ARC
  5
325
  8
0
  6
CONTINUOUS
 62
     7
 10
-112.178251599754006
 20
-24.5606516154233496
 30
0.0
 40
0.700000000000003
 50
270.0
 51
0.0
  0
LINE
  5
326
  8
0
  6
CONTINUOUS
 62
     7
 10
-111.4782521898403047
 20
-24.5606522472321984
 30
0.0
 11
-111.4782521898403047
 21
-23.7606517435729501
 31
0.0
  0
ARC
  5
327
  8
0
  6
CONTINUOUS
 62
     7
 10
-112.178251599754006
 20
-20.2606516154233383
 30
0.0
 40
0.6999999999999887
 50
0.0
 51
89.9999999999988347
  0
LINE
  5
328
  8
0
  6
CONTINUOUS
 62
     7
 10
-112.1782510007275988
 20
-19.5606514276683505
 30
0.0
 11
-112.5782521838797976
 21
-19.5606514276683505
 31
0.0
  0
ARC
  5
329
  8
0
  6
CONTINUOUS
 62
     7
 10
-112.5782515997539974
 20
-20.2606516154233383
 30
0.0
 40
0.7000000000000172
 50
90.0
 51
179.9999999999976126
  0
LINE
  5
32A
  8
0
  6
CONTINUOUS
 62
     7
 10
-113.2782509947671059
 20
-20.2606521012008187
 30
0.0
 11
-113.2782509947671059
 21
-21.0606507422149214
 31
0.0
  0
ARC
  5
32B
  8
0
  6
CONTINUOUS
 62
     7
 10
-112.5782515997539974
 20
-21.060651615423339
 30
0.0
 40
0.7000000000000172
 50
180.0
 51
270.0
  0
LINE
  5
32C
  8
0
  6
CONTINUOUS
 62
     7
 10
-112.5782521838797976
 20
-21.7606514157474003
 30
0.0
 11
-112.1782510007275988
 21
-21.7606514157474003
 31
0.0
  0
ARC
  5
32D
  8
0
  6
CONTINUOUS
 62
     7
 10
-112.178251599754006
 20
-21.060651615423339
 30
0.0
 40
0.7000000000000172
 50
270.00000000000108
 51
359.9999999999988063
  0
LINE
  5
32E
  8
0
  6
CONTINUOUS
 62
     7
 10
-111.4782521898403047
 20
-21.0606507422149214
 30
0.0
 11
-111.4782521898403047
 21
-20.2606521012008187
 31
0.0
  0
ARC
  5
32F
  8
0
  6
CONTINUOUS
 62
     7
 10
-112.1782515997539065
 20
-16.7606516154233383
 30
0.0
 40
0.7000000000000172
 50
0.0
 51
90.0
  0
LINE
  5
330
  8
0
  6
CONTINUOUS
 62
     7
 10
-112.1782510007275988
 20
-16.0606499226510699
 30
0.0
 11
-112.5782521838797976
 21
-16.0606499226510699
 31
0.0
  0
ARC
  5
331
  8
0
  6
CONTINUOUS
 62
     7
 10
-112.5782515997539974
 20
-16.7606516154233383
 30
0.0
 40
0.7000000000000172
 50
89.9999999999988347
 51
180.0
  0
LINE
  5
332
  8
0
  6
CONTINUOUS
 62
     7
 10
-113.2782509947671059
 20
-16.7606524588287016
 30
0.0
 11
-113.2782509947671059
 21
-17.5606510998428007
 31
0.0
  0
ARC
  5
333
  8
0
  6
CONTINUOUS
 62
     7
 10
-112.5782515997539974
 20
-17.5606516154233496
 30
0.0
 40
0.700000000000003
 50
180.0
 51
270.00000000000108
  0
LINE
  5
334
  8
0
  6
CONTINUOUS
 62
     7
 10
-112.5782521838797976
 20
-18.2606517733752902
 30
0.0
 11
-112.1782510007275988
 21
-18.2606517733752902
 31
0.0
  0
ARC
  5
335
  8
0
  6
CONTINUOUS
 62
     7
 10
-112.178251599754006
 20
-17.5606516154233496
 30
0.0
 40
0.6999999999999887
 50
270.0
 51
359.9999999999977263
  0
LINE
  5
336
  8
0
  6
CONTINUOUS
 62
     7
 10
-111.4782521898403047
 20
-17.5606510998428007
 30
0.0
 11
-111.4782521898403047
 21
-16.7606524588287016
 31
0.0
  0
ARC
  5
337
  8
0
  6
CONTINUOUS
 62
     7
 10
-112.1782515997539065
 20
-13.2606516154233702
 30
0.0
 40
0.7000000000000172
 50
0.0
 51
90.0
  0
LINE
  5
338
  8
0
  6
CONTINUOUS
 62
     7
 10
-112.1782510007275988
 20
-12.5606502802789404
 30
0.0
 11
-112.5782521838797976
 21
-12.5606502802789404
 31
0.0
  0
ARC
  5
339
  8
0
  6
CONTINUOUS
 62
     7
 10
-112.5782515997538979
 20
-13.26065161542334
 30
0.0
 40
0.7000000000000172
 50
89.9999999999988347
 51
180.0
  0
LINE
  5
33A
  8
0
  6
CONTINUOUS
 62
     7
 10
-113.2782509947671059
 20
-13.2606509538114192
 30
0.0
 11
-113.2782509947671059
 21
-14.0606533201158204
 31
0.0
  0
ARC
  5
33B
  8
0
  6
CONTINUOUS
 62
     7
 10
-112.5782515997538979
 20
-14.0606516154233496
 30
0.0
 40
0.700000000000003
 50
179.9999999999976126
 51
270.00000000000108
  0
LINE
  5
33C
  8
0
  6
CONTINUOUS
 62
     7
 10
-112.5782521838797976
 20
-14.7606502683580096
 30
0.0
 11
-112.1782510007275988
 21
-14.7606502683580096
 31
0.0
  0
ARC
  5
33D
  8
0
  6
CONTINUOUS
 62
     7
 10
-112.1782515997539065
 20
-14.0606516154233496
 30
0.0
 40
0.7000000000000172
 50
270.0
 51
359.9999999999977263
  0
LINE
  5
33E
  8
0
  6
CONTINUOUS
 62
     7
 10
-111.4782521898403047
 20
-14.0606533201158204
 30
0.0
 11
-111.4782521898403047
 21
-13.2606509538114192
 31
0.0
  0
ARC
  5
33F
  8
0
  6
CONTINUOUS
 62
     7
 10
-112.1782515997539065
 20
-9.7606516154233702
 30
0.0
 40
0.7000000000000172
 50
0.0
 51
90.0
  0
LINE
  5
340
  8
0
  6
CONTINUOUS
 62
     7
 10
-112.1782510007275988
 20
-9.0606506379068055
 30
0.0
 11
-112.5782521838797976
 21
-9.0606506379068055
 31
0.0
  0
ARC
  5
341
  8
0
  6
CONTINUOUS
 62
     7
 10
-112.5782515997538979
 20
-9.7606516154233418
 30
0.0
 40
0.6999999999999887
 50
89.9999999999988347
 51
180.0
  0
LINE
  5
342
  8
0
  6
CONTINUOUS
 62
     7
 10
-113.2782509947671059
 20
-9.7606513114392897
 30
0.0
 11
-113.2782509947671059
 21
-10.5606499524533906
 31
0.0
  0
ARC
  5
343
  8
0
  6
CONTINUOUS
 62
     7
 10
-112.5782515997538979
 20
-10.5606516154233496
 30
0.0
 40
0.6999999999999887
 50
179.9999999999976126
 51
270.00000000000108
  0
LINE
  5
344
  8
0
  6
CONTINUOUS
 62
     7
 10
-112.5782521838797976
 20
-11.2606506259858694
 30
0.0
 11
-112.1782510007275988
 21
-11.2606506259858694
 31
0.0
  0
ARC
  5
345
  8
0
  6
CONTINUOUS
 62
     7
 10
-112.1782515997539065
 20
-10.5606516154233496
 30
0.0
 40
0.7000000000000172
 50
270.00000000000108
 51
359.9999999999977263
  0
LINE
  5
346
  8
0
  6
CONTINUOUS
 62
     7
 10
-111.4782521898403047
 20
-10.5606499524533906
 30
0.0
 11
-111.4782521898403047
 21
-9.7606513114392897
 31
0.0
  0
ARC
  5
347
  8
0
  6
CONTINUOUS
 62
     7
 10
-112.178251599753807
 20
-6.2606516154233702
 30
0.0
 40
0.7000000000000172
 50
0.0
 51
89.9999999999988347
  0
LINE
  5
348
  8
0
  6
CONTINUOUS
 62
     7
 10
-112.1782510007275988
 20
-5.5606509955346706
 30
0.0
 11
-112.5782521838797976
 21
-5.5606509955346706
 31
0.0
  0
ARC
  5
349
  8
0
  6
CONTINUOUS
 62
     7
 10
-112.5782515997538979
 20
-6.2606516154233427
 30
0.0
 40
0.700000000000003
 50
90.0
 51
180.0
  0
LINE
  5
34A
  8
0
  6
CONTINUOUS
 62
     7
 10
-113.2782509947671059
 20
-6.2606516690671574
 30
0.0
 11
-113.2782509947671059
 21
-7.0606503100812574
 31
0.0
  0
ARC
  5
34B
  8
0
  6
CONTINUOUS
 62
     7
 10
-112.5782515997538979
 20
-7.0606516154233523
 30
0.0
 40
0.7000000000000172
 50
179.9999999999976126
 51
270.00000000000108
  0
LINE
  5
34C
  8
0
  6
CONTINUOUS
 62
     7
 10
-112.5782521838797976
 20
-7.7606509836137416
 30
0.0
 11
-112.1782510007275988
 21
-7.7606509836137416
 31
0.0
  0
ARC
  5
34D
  8
0
  6
CONTINUOUS
 62
     7
 10
-112.178251599753807
 20
-7.0606516154233523
 30
0.0
 40
0.7000000000000172
 50
270.0
 51
359.9999999999977263
  0
LINE
  5
34E
  8
0
  6
CONTINUOUS
 62
     7
 10
-111.4782521898403047
 20
-7.0606503100812574
 30
0.0
 11
-111.4782521898403047
 21
-6.2606516690671574
 31
0.0
  0
CIRCLE
  5
361
  8
0
  6
CONTINUOUS
 62
     7
 10
-113.7782515997542987
 20
-47.4106516154233333
 30
0.0
 40
5.0
  0
ARC
  5
362
  8
0
  6
CONTINUOUS
 62
     7
 10
-115.6782515997541054
 20
-29.8106516154233212
 30
0.0
 40
1.0
 50
89.9999999999991758
 51
179.9999999999992042
  0
LINE
  5
363
  8
0
  6
CONTINUOUS
 62
     7
 10
-116.6782508070125033
 20
-29.810651710790399
 30
0.0
 11
-116.6782508070125033
 21
-37.0106515871107575
 31
0.0
  0
ARC
  5
364
  8
0
  6
CONTINUOUS
 62
     7
 10
-115.6782515997542049
 20
-37.0106516154233134
 30
0.0
 40
1.0
 50
179.9999999999992042
 51
270.0000000000007958
  0
LINE
  5
365
  8
0
  6
CONTINUOUS
 62
     7
 10
-115.6782525057448936
 20
-38.0106517510235307
 30
0.0
 11
-112.0782511706007938
 21
-38.0106517510235307
 31
0.0
  0
ARC
  5
366
  8
0
  6
CONTINUOUS
 62
     7
 10
-112.0782515997541964
 20
-37.0106516154233489
 30
0.0
 40
1.0000000000000131
 50
270.0
 51
0.0
  0
LINE
  5
367
  8
0
  6
CONTINUOUS
 62
     7
 10
-111.0782510066881059
 20
-37.0106515871107575
 30
0.0
 11
-111.0782510066881059
 21
-29.810651710790399
 31
0.0
  0
ARC
  5
368
  8
0
  6
CONTINUOUS
 62
     7
 10
-112.0782515997540969
 20
-29.8106516154233496
 30
0.0
 40
1.0000000000000131
 50
0.0
 51
89.99999999999838
  0
LINE
  5
369
  8
0
  6
CONTINUOUS
 62
     7
 10
-112.0782511706007938
 20
-28.8106515468776188
 30
0.0
 11
-115.6782525057448936
 21
-28.8106515468776188
 31
0.0
  0
ARC
  5
36A
  8
0
  6
CONTINUOUS
 62
     7
 10
-107.6782515997545033
 20
-72.9106516154234043
 30
0.0
 40
1.0
 50
30.0000000000293312
 51
90.0
  0
LINE
  5
36B
  8
0
  6
CONTINUOUS
 62
     7
 10
-107.6782511944426943
 20
-71.9106509746730325
 30
0.0
 11
-115.4782509828462054
 21
-71.9106509746730325
 31
0.0
  0
ARC
  5
36C
  8
0
  6
CONTINUOUS
 62
     7
 10
-115.4782515997545005
 20
-72.9106516154233191
 30
0.0
 40
1.0
 50
89.9999999999991758
 51
179.9999999999992042
  0
LINE
  5
36D
  8
0
  6
CONTINUOUS
 62
     7
 10
-116.4782511467590069
 20
-72.9106511385857914
 30
0.0
 11
-116.4782511467590069
 21
-86.9106534333646152
 31
0.0
  0
ARC
  5
36E
  8
0
  6
CONTINUOUS
 62
     7
 10
-115.4782515997546994
 20
-86.9106516154233049
 30
0.0
 40
1.0
 50
179.9999999999988063
 51
270.0000000000007958
  0
LINE
  5
36F
  8
0
  6
CONTINUOUS
 62
     7
 10
-115.4782509828462054
 20
-87.9106517346322249
 30
0.0
 11
-107.6782511944426943
 21
-87.9106517346322249
 31
0.0
  0
ARC
  5
370
  8
0
  6
CONTINUOUS
 62
     7
 10
-107.6782515997547023
 20
-86.9106516154233759
 30
0.0
 40
1.0000000000000171
 50
270.0
 51
330.000000000029388
  0
LINE
  5
371
  8
0
  6
CONTINUOUS
 62
     7
 10
-66.8782520914925698
 20
-99.9106526883065555
 30
0.0
 11
-123.878251108016002
 21
-99.9106526883065555
 31
0.0
  0
LINE
  5
372
  8
0
  6
CONTINUOUS
 62
     7
 10
-123.878251108016002
 20
5.0893494574606271
 30
0.0
 11
-87.0782517293943812
 21
5.0893494574606271
 31
0.0
  0
LINE
  5
373
  8
0
  6
CONTINUOUS
 62
     7
 10
-87.0782517293943812
 20
5.0893494574606271
 30
0.0
 11
-66.8782520914925698
 21
5.0893494574606271
 31
0.0
  0
ARC
  5
374
  8
0
  6
CONTINUOUS
 62
     7
 10
-66.878251599753753
 20
3.589348384576168
 30
0.0
 40
1.5
 50
0.0
 51
89.9999999999989058
  0
ARC
  5
375
  8
0
  6
CONTINUOUS
 62
     7
 10
-66.8782515997547762
 20
-98.4106516154238165
 30
0.0
 40
1.5
 50
270.0
 51
0.0000000000002544
  0
LINE
  5
376
  8
0
  6
CONTINUOUS
 62
     7
 10
-65.3782509143008497
 20
3.589350142914042
 30
0.0
 11
-65.3782509143008497
 21
-98.4106533737599705
 31
0.0
  0
CIRCLE
  5
377
  8
0
  6
CONTINUOUS
 62
     7
 10
-113.7782515997542987
 20
-47.4106516154233333
 30
0.0
 40
2.4999999999999849
  0
LINE
  5
38B
  8
0
  6
CONTINUOUS
 62
     7
 10
33.8352254690225607
 20
-53.3106518374502727
 30
0.0
 11
35.3352285088594371
 21
-53.3106518374502727
 31
0.0
  0
LINE
  5
38C
  8
0
  6
CONTINUOUS
 62
     7
 10
35.3352285088594371
 20
-41.5106513933956478
 30
0.0
 11
33.8352254690225607
 21
-41.5106513933956478
 31
0.0
  0
LINE
  5
38D
  8
0
  6
CONTINUOUS
 62
     7
 10
43.8352233828599935
 20
-41.5106513933956478
 30
0.0
 11
42.8352288068826681
 21
-41.5106513933956478
 31
0.0
  0
LINE
  5
38E
  8
0
  6
CONTINUOUS
 62
     7
 10
42.8352288068826681
 20
-53.3106518374502727
 30
0.0
 11
43.8352233828599935
 21
-53.3106518374502727
 31
0.0
  0
LINE
  5
38F
  8
0
  6
CONTINUOUS
 62
     7
 10
45.8352274359758383
 20
-52.4106515036642406
 30
0.0
 11
46.3352284492547923
 21
-52.4106515036642406
 31
0.0
  0
LINE
  5
390
  8
0
  6
CONTINUOUS
 62
     7
 10
46.3352284492547923
 20
-42.4106517271816728
 30
0.0
 11
45.8352274359758383
 21
-42.4106517271816728
 31
0.0
  0
ARC
  5
391
  8
0
  6
CONTINUOUS
 62
     7
 10
46.1352266611154604
 20
-26.9606516154229006
 30
0.0
 40
0.2000000000000028
 50
180.0
 51
270.0
  0
ARC
  5
392
  8
0
  6
CONTINUOUS
 62
     7
 10
46.1352266611154604
 20
-25.8606516154228814
 30
0.0
 40
0.1999999999999886
 50
90.0
 51
180.0
  0
ARC
  5
393
  8
0
  6
CONTINUOUS
 62
     7
 10
46.1352266611154604
 20
-24.4606516154229006
 30
0.0
 40
0.1999999999999886
 50
180.0
 51
270.0
  0
ARC
  5
394
  8
0
  6
CONTINUOUS
 62
     7
 10
46.1352266611154604
 20
-23.3606516154228814
 30
0.0
 40
0.1999999999999886
 50
90.0
 51
180.0
  0
LINE
  5
395
  8
0
  6
CONTINUOUS
 62
     7
 10
46.3352284492547923
 20
-25.6606522412717304
 30
0.0
 11
46.1352250637109691
 21
-25.6606522412717304
 31
0.0
  0
LINE
  5
396
  8
0
  6
CONTINUOUS
 62
     7
 10
46.1352250637109691
 20
-27.160651555818319
 30
0.0
 11
46.3352284492547923
 21
-27.160651555818319
 31
0.0
  0
LINE
  5
397
  8
0
  6
CONTINUOUS
 62
     7
 10
46.3352284492547923
 20
-23.16065090016723
 30
0.0
 11
46.1352250637109691
 21
-23.16065090016723
 31
0.0
  0
LINE
  5
398
  8
0
  6
CONTINUOUS
 62
     7
 10
46.1352250637109691
 20
-24.6606520773589608
 30
0.0
 11
46.3352284492547923
 21
-24.6606520773589608
 31
0.0
  0
ARC
  5
399
  8
0
  6
CONTINUOUS
 62
     7
 10
46.1352266611154604
 20
-21.9606516154228899
 30
0.0
 40
0.2000000000000028
 50
180.0
 51
270.0
  0
ARC
  5
39A
  8
0
  6
CONTINUOUS
 62
     7
 10
46.1352266611154604
 20
-20.8606516154228991
 30
0.0
 40
0.2000000000000028
 50
90.0
 51
180.0
  0
LINE
  5
39B
  8
0
  6
CONTINUOUS
 62
     7
 10
46.3352284492547923
 20
-20.6606514217078683
 30
0.0
 11
46.1352250637109691
 21
-20.6606514217078683
 31
0.0
  0
LINE
  5
39C
  8
0
  6
CONTINUOUS
 62
     7
 10
46.1352250637109691
 20
-22.1606507362544498
 30
0.0
 11
46.3352284492547923
 21
-22.1606507362544498
 31
0.0
  0
ARC
  5
39D
  8
0
  6
CONTINUOUS
 62
     7
 10
46.1352266611154604
 20
-19.4606516154228792
 30
0.0
 40
0.2000000000000171
 50
180.0
 51
270.0
  0
ARC
  5
39E
  8
0
  6
CONTINUOUS
 62
     7
 10
46.1352266611154604
 20
-18.3606516154228814
 30
0.0
 40
0.1999999999999886
 50
90.0
 51
180.0
  0
LINE
  5
39F
  8
0
  6
CONTINUOUS
 62
     7
 10
46.3352284492547923
 20
-18.1606519432485207
 30
0.0
 11
46.1352250637109691
 21
-18.1606519432485207
 31
0.0
  0
LINE
  5
3A0
  8
0
  6
CONTINUOUS
 62
     7
 10
46.1352250637109691
 20
-19.6606512577951094
 30
0.0
 11
46.3352284492547923
 21
-19.6606512577951094
 31
0.0
  0
ARC
  5
3A1
  8
0
  6
CONTINUOUS
 62
     7
 10
46.1352266611154604
 20
-16.9606516154228792
 30
0.0
 40
0.2000000000000171
 50
180.0
 51
270.0
  0
ARC
  5
3A2
  8
0
  6
CONTINUOUS
 62
     7
 10
46.1352266611154604
 20
-15.8606516154228796
 30
0.0
 40
0.1999999999999886
 50
90.0
 51
180.0
  0
LINE
  5
3A3
  8
0
  6
CONTINUOUS
 62
     7
 10
46.3352284492547923
 20
-15.6606506021440204
 30
0.0
 11
46.1352250637109691
 21
-15.6606506021440204
 31
0.0
  0
LINE
  5
3A4
  8
0
  6
CONTINUOUS
 62
     7
 10
46.1352250637109691
 20
-17.1606517793357511
 30
0.0
 11
46.3352284492547923
 21
-17.1606517793357511
 31
0.0
  0
ARC
  5
3A5
  8
0
  6
CONTINUOUS
 62
     7
 10
46.1352266611154604
 20
-14.4606516154228792
 30
0.0
 40
0.2000000000000171
 50
180.0
 51
270.0
  0
ARC
  5
3A6
  8
0
  6
CONTINUOUS
 62
     7
 10
46.1352266611154604
 20
-13.3606516154228796
 30
0.0
 40
0.1999999999999886
 50
90.0
 51
180.0
  0
LINE
  5
3A7
  8
0
  6
CONTINUOUS
 62
     7
 10
46.3352284492547923
 20
-13.1606529863298096
 30
0.0
 11
46.1352250637109691
 21
-13.1606529863298096
 31
0.0
  0
LINE
  5
3A8
  8
0
  6
CONTINUOUS
 62
     7
 10
46.1352250637109691
 20
-14.6606523008763894
 30
0.0
 11
46.3352284492547923
 21
-14.6606523008763894
 31
0.0
  0
LINE
  5
3A9
  8
0
  6
CONTINUOUS
 62
     7
 10
46.3352284492547923
 20
-10.6606516452253004
 30
0.0
 11
46.1352250637109691
 21
-10.6606516452253004
 31
0.0
  0
LINE
  5
3AA
  8
0
  6
CONTINUOUS
 62
     7
 10
46.1352250637109691
 20
-12.1606509597718908
 30
0.0
 11
46.3352284492547923
 21
-12.1606509597718908
 31
0.0
  0
ARC
  5
3AB
  8
0
  6
CONTINUOUS
 62
     7
 10
46.1352266611154604
 20
-11.9606516154228792
 30
0.0
 40
0.2000000000000171
 50
180.0
 51
270.0
  0
ARC
  5
3AC
  8
0
  6
CONTINUOUS
 62
     7
 10
46.1352266611154604
 20
-10.8606516154228796
 30
0.0
 40
0.2000000000000171
 50
90.0
 51
180.0
  0
ARC
  5
3AD
  8
0
  6
CONTINUOUS
 62
     7
 10
46.1352266611154604
 20
-9.4606516154228775
 30
0.0
 40
0.1999999999999886
 50
180.0
 51
270.0
  0
ARC
  5
3AE
  8
0
  6
CONTINUOUS
 62
     7
 10
46.1352266611154604
 20
-8.3606516154228814
 30
0.0
 40
0.2000000000000171
 50
90.0
 51
180.0
  0
LINE
  5
3AF
  8
0
  6
CONTINUOUS
 62
     7
 10
46.3352284492547923
 20
-8.1606503041207912
 30
0.0
 11
46.1352250637109691
 21
-8.1606503041207912
 31
0.0
  0
LINE
  5
3B0
  8
0
  6
CONTINUOUS
 62
     7
 10
46.1352250637109691
 20
-9.6606533439576765
 30
0.0
 11
46.3352284492547923
 21
-9.6606533439576765
 31
0.0
  0
ARC
  5
3B1
  8
0
  6
CONTINUOUS
 62
     7
 10
46.1352266611154604
 20
-6.9606516154229032
 30
0.0
 40
0.1999999999999886
 50
180.0
 51
270.0
  0
ARC
  5
3B2
  8
0
  6
CONTINUOUS
 62
     7
 10
46.1352266611154604
 20
-5.8606516154228796
 30
0.0
 40
0.2000000000000171
 50
90.0
 51
180.0
  0
LINE
  5
3B3
  8
0
  6
CONTINUOUS
 62
     7
 10
46.3352284492547923
 20
-5.6606526883065831
 30
0.0
 11
46.1352250637109691
 21
-5.6606526883065831
 31
0.0
  0
LINE
  5
3B4
  8
0
  6
CONTINUOUS
 62
     7
 10
46.1352250637109691
 20
-7.1606520028531691
 30
0.0
 11
46.3352284492547923
 21
-7.1606520028531691
 31
0.0
  0
LINE
  5
3B9
  8
0
  6
CONTINUOUS
 62
     7
 10
33.8352254690225607
 20
-47.4106516154237383
 30
0.0
 11
33.8352254690225607
 21
-41.5106513933956478
 31
0.0
  0
LINE
  5
3BA
  8
0
  6
CONTINUOUS
 62
     7
 10
33.8352254690225607
 20
-53.3106518374502727
 30
0.0
 11
33.8352254690225607
 21
-47.4106516154237383
 31
0.0
  0
LINE
  5
3BD
  8
0
  6
CONTINUOUS
 62
     7
 10
35.3352285088594371
 20
-47.3987786441235031
 30
0.0
 11
42.8352288068826681
 21
-47.3987786441235031
 31
0.0
  0
LINE
  5
3BE
  8
0
  6
CONTINUOUS
 62
     7
 10
42.8352288068826681
 20
-47.4225245867224174
 30
0.0
 11
35.3352285088594371
 21
-47.4225245867224174
 31
0.0
  0
LINE
  5
3BF
  8
0
  6
CONTINUOUS
 62
     7
 10
42.8352288068826681
 20
-47.3987786441235031
 30
0.0
 11
42.8352288068826681
 21
-47.4225245867224174
 31
0.0
  0
LINE
  5
3C0
  8
0
  6
CONTINUOUS
 62
     7
 10
35.3352285088594371
 20
-47.4225245867224174
 30
0.0
 11
35.3352285088594371
 21
-47.3987786441235031
 31
0.0
  0
LINE
  5
3C1
  8
0
  6
CONTINUOUS
 62
     7
 10
35.3352285088594371
 20
-47.787394734400138
 30
0.0
 11
42.8352288068826681
 21
-47.787394734400138
 31
0.0
  0
LINE
  5
3C2
  8
0
  6
CONTINUOUS
 62
     7
 10
42.8352288068826681
 20
-47.4225245867224174
 30
0.0
 11
42.8352288068826681
 21
-47.787394734400138
 31
0.0
  0
LINE
  5
3C3
  8
0
  6
CONTINUOUS
 62
     7
 10
35.3352285088594371
 20
-47.787394734400138
 30
0.0
 11
35.3352285088594371
 21
-47.4225245867224174
 31
0.0
  0
LINE
  5
3C4
  8
0
  6
CONTINUOUS
 62
     7
 10
35.3352285088594371
 20
-47.0339084964457896
 30
0.0
 11
42.8352288068826681
 21
-47.0339084964457896
 31
0.0
  0
LINE
  5
3C5
  8
0
  6
CONTINUOUS
 62
     7
 10
42.8352288068826681
 20
-47.0339084964457896
 30
0.0
 11
42.8352288068826681
 21
-47.3987786441235031
 31
0.0
  0
LINE
  5
3C6
  8
0
  6
CONTINUOUS
 62
     7
 10
35.3352285088594371
 20
-47.0339084964457896
 30
0.0
 11
35.3352285088594371
 21
-47.3987786441235031
 31
0.0
  0
LINE
  5
3C7
  8
0
  6
CONTINUOUS
 62
     7
 10
35.3352285088594371
 20
-46.5842076042413709
 30
0.0
 11
42.8352288068826681
 21
-46.5842076042413709
 31
0.0
  0
LINE
  5
3C8
  8
0
  6
CONTINUOUS
 62
     7
 10
42.8352288068826681
 20
-46.6077662818811831
 30
0.0
 11
35.3352285088594371
 21
-46.6077662818811831
 31
0.0
  0
LINE
  5
3C9
  8
0
  6
CONTINUOUS
 62
     7
 10
42.8352288068826681
 20
-46.5842076042413709
 30
0.0
 11
42.8352288068826681
 21
-46.6077662818811831
 31
0.0
  0
LINE
  5
3CA
  8
0
  6
CONTINUOUS
 62
     7
 10
35.3352285088594371
 20
-46.6077662818811831
 30
0.0
 11
35.3352285088594371
 21
-46.5842076042413709
 31
0.0
  0
LINE
  5
3CB
  8
0
  6
CONTINUOUS
 62
     7
 10
42.8352288068826681
 20
-46.6077662818811831
 30
0.0
 11
42.8352288068826681
 21
-47.0339084964457896
 31
0.0
  0
LINE
  5
3CC
  8
0
  6
CONTINUOUS
 62
     7
 10
35.3352285088594371
 20
-47.0339084964457896
 30
0.0
 11
35.3352285088594371
 21
-46.6077662818811831
 31
0.0
  0
LINE
  5
3CD
  8
0
  6
CONTINUOUS
 62
     7
 10
35.3352285088594371
 20
-48.2135369489647303
 30
0.0
 11
42.8352288068826681
 21
-48.2135369489647303
 31
0.0
  0
LINE
  5
3CE
  8
0
  6
CONTINUOUS
 62
     7
 10
42.8352288068826681
 20
-47.787394734400138
 30
0.0
 11
42.8352288068826681
 21
-48.2135369489647303
 31
0.0
  0
LINE
  5
3CF
  8
0
  6
CONTINUOUS
 62
     7
 10
35.3352285088594371
 20
-47.787394734400138
 30
0.0
 11
35.3352285088594371
 21
-48.2135369489647303
 31
0.0
  0
LINE
  5
3D0
  8
0
  6
CONTINUOUS
 62
     7
 10
42.8352288068826681
 20
-48.2370956266045567
 30
0.0
 11
35.3352285088594371
 21
-48.2370956266045567
 31
0.0
  0
LINE
  5
3D1
  8
0
  6
CONTINUOUS
 62
     7
 10
42.8352288068826681
 20
-48.2135369489647303
 30
0.0
 11
42.8352288068826681
 21
-48.2370956266045567
 31
0.0
  0
LINE
  5
3D2
  8
0
  6
CONTINUOUS
 62
     7
 10
35.3352285088594371
 20
-48.2370956266045567
 30
0.0
 11
35.3352285088594371
 21
-48.2135369489647303
 31
0.0
  0
LINE
  5
3D3
  8
0
  6
CONTINUOUS
 62
     7
 10
35.3352285088594371
 20
-46.286363776375353
 30
0.0
 11
42.8352288068826681
 21
-46.286363776375353
 31
0.0
  0
LINE
  5
3D4
  8
0
  6
CONTINUOUS
 62
     7
 10
42.8352288068826681
 20
-46.286363776375353
 30
0.0
 11
42.8352288068826681
 21
-46.5842076042413709
 31
0.0
  0
LINE
  5
3D5
  8
0
  6
CONTINUOUS
 62
     7
 10
35.3352285088594371
 20
-46.286363776375353
 30
0.0
 11
35.3352285088594371
 21
-46.5842076042413709
 31
0.0
  0
LINE
  5
3D6
  8
0
  6
CONTINUOUS
 62
     7
 10
35.3352285088594371
 20
-48.5349394544705603
 30
0.0
 11
42.8352288068826681
 21
-48.5349394544705603
 31
0.0
  0
LINE
  5
3D7
  8
0
  6
CONTINUOUS
 62
     7
 10
42.8352288068826681
 20
-48.2370956266045567
 30
0.0
 11
42.8352288068826681
 21
-48.5349394544705603
 31
0.0
  0
LINE
  5
3D8
  8
0
  6
CONTINUOUS
 62
     7
 10
35.3352285088594371
 20
-48.5349394544705603
 30
0.0
 11
35.3352285088594371
 21
-48.2370956266045567
 31
0.0
  0
LINE
  5
3D9
  8
0
  6
CONTINUOUS
 62
     7
 10
35.3352285088594371
 20
-45.7826700690880415
 30
0.0
 11
42.8352288068826681
 21
-45.7826700690880415
 31
0.0
  0
LINE
  5
3DA
  8
0
  6
CONTINUOUS
 62
     7
 10
42.8352288068826681
 20
-45.8056700113907524
 30
0.0
 11
35.3352285088594371
 21
-45.8056700113907524
 31
0.0
  0
LINE
  5
3DB
  8
0
  6
CONTINUOUS
 62
     7
 10
42.8352288068826681
 20
-45.7826700690880415
 30
0.0
 11
42.8352288068826681
 21
-45.8056700113907524
 31
0.0
  0
LINE
  5
3DC
  8
0
  6
CONTINUOUS
 62
     7
 10
35.3352285088594371
 20
-45.8056700113907524
 30
0.0
 11
35.3352285088594371
 21
-45.7826700690880415
 31
0.0
  0
LINE
  5
3DD
  8
0
  6
CONTINUOUS
 62
     7
 10
42.8352288068826681
 20
-45.8056700113907524
 30
0.0
 11
42.8352288068826681
 21
-46.286363776375353
 31
0.0
  0
LINE
  5
3DE
  8
0
  6
CONTINUOUS
 62
     7
 10
35.3352285088594371
 20
-46.286363776375353
 30
0.0
 11
35.3352285088594371
 21
-45.8056700113907524
 31
0.0
  0
LINE
  5
3DF
  8
0
  6
CONTINUOUS
 62
     7
 10
35.3352285088594371
 20
-49.015633219455168
 30
0.0
 11
42.8352288068826681
 21
-49.015633219455168
 31
0.0
  0
LINE
  5
3E0
  8
0
  6
CONTINUOUS
 62
     7
 10
42.8352288068826681
 20
-48.5349394544705603
 30
0.0
 11
42.8352288068826681
 21
-49.015633219455168
 31
0.0
  0
LINE
  5
3E1
  8
0
  6
CONTINUOUS
 62
     7
 10
35.3352285088594371
 20
-48.5349394544705603
 30
0.0
 11
35.3352285088594371
 21
-49.015633219455168
 31
0.0
  0
LINE
  5
3E2
  8
0
  6
CONTINUOUS
 62
     7
 10
42.8352288068826681
 20
-49.038633161757879
 30
0.0
 11
35.3352285088594371
 21
-49.038633161757879
 31
0.0
  0
LINE
  5
3E3
  8
0
  6
CONTINUOUS
 62
     7
 10
42.8352288068826681
 20
-49.015633219455168
 30
0.0
 11
42.8352288068826681
 21
-49.038633161757879
 31
0.0
  0
LINE
  5
3E4
  8
0
  6
CONTINUOUS
 62
     7
 10
35.3352285088594371
 20
-49.038633161757879
 30
0.0
 11
35.3352285088594371
 21
-49.015633219455168
 31
0.0
  0
LINE
  5
3E5
  8
0
  6
CONTINUOUS
 62
     7
 10
35.3352285088594371
 20
-45.5565496045842835
 30
0.0
 11
42.8352288068826681
 21
-45.5565496045842835
 31
0.0
  0
LINE
  5
3E6
  8
0
  6
CONTINUOUS
 62
     7
 10
42.8352288068826681
 20
-45.5565496045842835
 30
0.0
 11
42.8352288068826681
 21
-45.7826700690880415
 31
0.0
  0
LINE
  5
3E7
  8
0
  6
CONTINUOUS
 62
     7
 10
35.3352285088594371
 20
-45.5565496045842835
 30
0.0
 11
35.3352285088594371
 21
-45.7826700690880415
 31
0.0
  0
LINE
  5
3E8
  8
0
  6
CONTINUOUS
 62
     7
 10
35.3352285088594371
 20
-49.264753626261637
 30
0.0
 11
42.8352288068826681
 21
-49.264753626261637
 31
0.0
  0
LINE
  5
3E9
  8
0
  6
CONTINUOUS
 62
     7
 10
42.8352288068826681
 20
-49.038633161757879
 30
0.0
 11
42.8352288068826681
 21
-49.264753626261637
 31
0.0
  0
LINE
  5
3EA
  8
0
  6
CONTINUOUS
 62
     7
 10
35.3352285088594371
 20
-49.264753626261637
 30
0.0
 11
35.3352285088594371
 21
-49.038633161757879
 31
0.0
  0
LINE
  5
3EB
  8
0
  6
CONTINUOUS
 62
     7
 10
35.3352285088594371
 20
-45.0068067690104101
 30
0.0
 11
42.8352288068826681
 21
-45.0068067690104101
 31
0.0
  0
LINE
  5
3EC
  8
0
  6
CONTINUOUS
 62
     7
 10
42.8352288068826681
 20
-45.0288851676255533
 30
0.0
 11
35.3352285088594371
 21
-45.0288851676255533
 31
0.0
  0
LINE
  5
3ED
  8
0
  6
CONTINUOUS
 62
     7
 10
42.8352288068826681
 20
-45.0068067690104101
 30
0.0
 11
42.8352288068826681
 21
-45.0288851676255533
 31
0.0
  0
LINE
  5
3EE
  8
0
  6
CONTINUOUS
 62
     7
 10
35.3352285088594371
 20
-45.0288851676255533
 30
0.0
 11
35.3352285088594371
 21
-45.0068067690104101
 31
0.0
  0
LINE
  5
3EF
  8
0
  6
CONTINUOUS
 62
     7
 10
42.8352288068826681
 20
-45.0288851676255533
 30
0.0
 11
42.8352288068826681
 21
-45.5565496045842835
 31
0.0
  0
LINE
  5
3F0
  8
0
  6
CONTINUOUS
 62
     7
 10
35.3352285088594371
 20
-45.5565496045842835
 30
0.0
 11
35.3352285088594371
 21
-45.0288851676255533
 31
0.0
  0
LINE
  5
3F1
  8
0
  6
CONTINUOUS
 62
     7
 10
35.3352285088594371
 20
-49.7924180632203885
 30
0.0
 11
42.8352288068826681
 21
-49.7924180632203885
 31
0.0
  0
LINE
  5
3F2
  8
0
  6
CONTINUOUS
 62
     7
 10
42.8352288068826681
 20
-49.264753626261637
 30
0.0
 11
42.8352288068826681
 21
-49.7924180632203885
 31
0.0
  0
LINE
  5
3F3
  8
0
  6
CONTINUOUS
 62
     7
 10
35.3352285088594371
 20
-49.264753626261637
 30
0.0
 11
35.3352285088594371
 21
-49.7924180632203885
 31
0.0
  0
LINE
  5
3F4
  8
0
  6
CONTINUOUS
 62
     7
 10
42.8352288068826681
 20
-49.8144964618354891
 30
0.0
 11
35.3352285088594371
 21
-49.8144964618354891
 31
0.0
  0
LINE
  5
3F5
  8
0
  6
CONTINUOUS
 62
     7
 10
42.8352288068826681
 20
-49.7924180632203885
 30
0.0
 11
42.8352288068826681
 21
-49.8144964618354891
 31
0.0
  0
LINE
  5
3F6
  8
0
  6
CONTINUOUS
 62
     7
 10
35.3352285088594371
 20
-49.8144964618354891
 30
0.0
 11
35.3352285088594371
 21
-49.7924180632203885
 31
0.0
  0
LINE
  5
3F7
  8
0
  6
CONTINUOUS
 62
     7
 10
35.3352285088594371
 20
-44.8559758184224435
 30
0.0
 11
42.8352288068826681
 21
-44.8559758184224435
 31
0.0
  0
LINE
  5
3F8
  8
0
  6
CONTINUOUS
 62
     7
 10
42.8352288068826681
 20
-44.8559758184224435
 30
0.0
 11
42.8352288068826681
 21
-45.0068067690104101
 31
0.0
  0
LINE
  5
3F9
  8
0
  6
CONTINUOUS
 62
     7
 10
35.3352285088594371
 20
-44.8559758184224435
 30
0.0
 11
35.3352285088594371
 21
-45.0068067690104101
 31
0.0
  0
LINE
  5
3FA
  8
0
  6
CONTINUOUS
 62
     7
 10
35.3352285088594371
 20
-49.9653274124234983
 30
0.0
 11
42.8352288068826681
 21
-49.9653274124234983
 31
0.0
  0
LINE
  5
3FB
  8
0
  6
CONTINUOUS
 62
     7
 10
42.8352288068826681
 20
-49.8144964618354891
 30
0.0
 11
42.8352288068826681
 21
-49.9653274124234983
 31
0.0
  0
LINE
  5
3FC
  8
0
  6
CONTINUOUS
 62
     7
 10
35.3352285088594371
 20
-49.9653274124234983
 30
0.0
 11
35.3352285088594371
 21
-49.8144964618354891
 31
0.0
  0
LINE
  5
3FD
  8
0
  6
CONTINUOUS
 62
     7
 10
43.8352233828599935
 20
-41.5106513933956478
 30
0.0
 11
43.8352233828599935
 21
-53.3106518374502727
 31
0.0
  0
LINE
  5
3FE
  8
0
  6
CONTINUOUS
 62
     7
 10
42.8352288068826681
 20
-44.2896623095244166
 30
0.0
 11
35.3352285088594371
 21
-44.2896623095244166
 31
0.0
  0
LINE
  5
3FF
  8
0
  6
CONTINUOUS
 62
     7
 10
42.8352288068826681
 20
-44.2896623095244166
 30
0.0
 11
42.8352288068826681
 21
-44.8559758184224435
 31
0.0
  0
LINE
  5
400
  8
0
  6
CONTINUOUS
 62
     7
 10
35.3352285088594371
 20
-44.8559758184224435
 30
0.0
 11
35.3352285088594371
 21
-44.2896623095244166
 31
0.0
  0
LINE
  5
401
  8
0
  6
CONTINUOUS
 62
     7
 10
35.3352285088594371
 20
-44.2688535364091393
 30
0.0
 11
42.8352288068826681
 21
-44.2688535364091393
 31
0.0
  0
LINE
  5
402
  8
0
  6
CONTINUOUS
 62
     7
 10
42.8352288068826681
 20
-44.2688535364091393
 30
0.0
 11
42.8352288068826681
 21
-44.2896623095244166
 31
0.0
  0
LINE
  5
403
  8
0
  6
CONTINUOUS
 62
     7
 10
35.3352285088594371
 20
-44.2896623095244166
 30
0.0
 11
35.3352285088594371
 21
-44.2688535364091393
 31
0.0
  0
LINE
  5
404
  8
0
  6
CONTINUOUS
 62
     7
 10
35.3352285088594371
 20
-50.5316409213214968
 30
0.0
 11
42.8352288068826681
 21
-50.5316409213214968
 31
0.0
  0
LINE
  5
405
  8
0
  6
CONTINUOUS
 62
     7
 10
42.8352288068826681
 20
-49.9653274124234983
 30
0.0
 11
42.8352288068826681
 21
-50.5316409213214968
 31
0.0
  0
LINE
  5
406
  8
0
  6
CONTINUOUS
 62
     7
 10
35.3352285088594371
 20
-49.9653274124234983
 30
0.0
 11
35.3352285088594371
 21
-50.5316409213214968
 31
0.0
  0
LINE
  5
407
  8
0
  6
CONTINUOUS
 62
     7
 10
42.8352288068826681
 20
-50.5524496944367883
 30
0.0
 11
35.3352285088594371
 21
-50.5524496944367883
 31
0.0
  0
LINE
  5
408
  8
0
  6
CONTINUOUS
 62
     7
 10
42.8352288068826681
 20
-50.5316409213214968
 30
0.0
 11
42.8352288068826681
 21
-50.5524496944367883
 31
0.0
  0
LINE
  5
409
  8
0
  6
CONTINUOUS
 62
     7
 10
35.3352285088594371
 20
-50.5524496944367883
 30
0.0
 11
35.3352285088594371
 21
-50.5316409213214968
 31
0.0
  0
LINE
  5
40A
  8
0
  6
CONTINUOUS
 62
     7
 10
35.3352285088594371
 20
-44.1956909304231473
 30
0.0
 11
42.8352288068826681
 21
-44.1956909304231473
 31
0.0
  0
LINE
  5
40B
  8
0
  6
CONTINUOUS
 62
     7
 10
42.8352288068826681
 20
-44.1956909304231473
 30
0.0
 11
42.8352288068826681
 21
-44.2688535364091393
 31
0.0
  0
LINE
  5
40C
  8
0
  6
CONTINUOUS
 62
     7
 10
35.3352285088594371
 20
-44.1956909304231473
 30
0.0
 11
35.3352285088594371
 21
-44.2688535364091393
 31
0.0
  0
LINE
  5
40D
  8
0
  6
CONTINUOUS
 62
     7
 10
35.3352285088594371
 20
-50.6256123004227874
 30
0.0
 11
42.8352288068826681
 21
-50.6256123004227874
 31
0.0
  0
LINE
  5
40E
  8
0
  6
CONTINUOUS
 62
     7
 10
42.8352288068826681
 20
-50.5524496944367883
 30
0.0
 11
42.8352288068826681
 21
-50.6256123004227874
 31
0.0
  0
LINE
  5
40F
  8
0
  6
CONTINUOUS
 62
     7
 10
35.3352285088594371
 20
-50.6256123004227874
 30
0.0
 11
35.3352285088594371
 21
-50.5524496944367883
 31
0.0
  0
LINE
  5
410
  8
0
  6
CONTINUOUS
 62
     7
 10
35.3352285088594371
 20
-43.5804485274225399
 30
0.0
 11
42.8352288068826681
 21
-43.5804485274225399
 31
0.0
  0
LINE
  5
411
  8
0
  6
CONTINUOUS
 62
     7
 10
42.8352288068826681
 20
-43.599659383830442
 30
0.0
 11
35.3352285088594371
 21
-43.599659383830442
 31
0.0
  0
LINE
  5
412
  8
0
  6
CONTINUOUS
 62
     7
 10
42.8352288068826681
 20
-43.5804485274225399
 30
0.0
 11
42.8352288068826681
 21
-43.599659383830442
 31
0.0
  0
LINE
  5
413
  8
0
  6
CONTINUOUS
 62
     7
 10
35.3352285088594371
 20
-43.599659383830442
 30
0.0
 11
35.3352285088594371
 21
-43.5804485274225399
 31
0.0
  0
LINE
  5
414
  8
0
  6
CONTINUOUS
 62
     7
 10
42.8352288068826681
 20
-43.599659383830442
 30
0.0
 11
42.8352288068826681
 21
-44.1956909304231473
 31
0.0
  0
LINE
  5
415
  8
0
  6
CONTINUOUS
 62
     7
 10
35.3352285088594371
 20
-44.1956909304231473
 30
0.0
 11
35.3352285088594371
 21
-43.599659383830442
 31
0.0
  0
LINE
  5
416
  8
0
  6
CONTINUOUS
 62
     7
 10
35.3352285088594371
 20
-51.2216438470154927
 30
0.0
 11
42.8352288068826681
 21
-51.2216438470154927
 31
0.0
  0
LINE
  5
417
  8
0
  6
CONTINUOUS
 62
     7
 10
42.8352288068826681
 20
-50.6256123004227874
 30
0.0
 11
42.8352288068826681
 21
-51.2216438470154927
 31
0.0
  0
LINE
  5
418
  8
0
  6
CONTINUOUS
 62
     7
 10
35.3352285088594371
 20
-50.6256123004227874
 30
0.0
 11
35.3352285088594371
 21
-51.2216438470154927
 31
0.0
  0
LINE
  5
419
  8
0
  6
CONTINUOUS
 62
     7
 10
42.8352288068826681
 20
-51.2408547034233877
 30
0.0
 11
35.3352285088594371
 21
-51.2408547034233877
 31
0.0
  0
LINE
  5
41A
  8
0
  6
CONTINUOUS
 62
     7
 10
42.8352288068826681
 20
-51.2216438470154927
 30
0.0
 11
42.8352288068826681
 21
-51.2408547034233877
 31
0.0
  0
LINE
  5
41B
  8
0
  6
CONTINUOUS
 62
     7
 10
35.3352285088594371
 20
-51.2408547034233877
 30
0.0
 11
35.3352285088594371
 21
-51.2216438470154927
 31
0.0
  0
LINE
  5
41C
  8
0
  6
CONTINUOUS
 62
     7
 10
35.3352285088594371
 20
-42.9524477036416528
 30
0.0
 11
42.8352288068826681
 21
-42.9524477036416528
 31
0.0
  0
LINE
  5
41D
  8
0
  6
CONTINUOUS
 62
     7
 10
42.8352288068826681
 20
-42.9697577306747434
 30
0.0
 11
35.3352285088594371
 21
-42.9697577306747434
 31
0.0
  0
LINE
  5
41E
  8
0
  6
CONTINUOUS
 62
     7
 10
42.8352288068826681
 20
-42.9524477036416528
 30
0.0
 11
42.8352288068826681
 21
-42.9697577306747434
 31
0.0
  0
LINE
  5
41F
  8
0
  6
CONTINUOUS
 62
     7
 10
35.3352285088594371
 20
-42.9697577306747434
 30
0.0
 11
35.3352285088594371
 21
-42.9524477036416528
 31
0.0
  0
LINE
  5
420
  8
0
  6
CONTINUOUS
 62
     7
 10
42.8352288068826681
 20
-42.9697577306747434
 30
0.0
 11
42.8352288068826681
 21
-43.5804485274225399
 31
0.0
  0
LINE
  5
421
  8
0
  6
CONTINUOUS
 62
     7
 10
35.3352285088594371
 20
-43.5804485274225399
 30
0.0
 11
35.3352285088594371
 21
-42.9697577306747434
 31
0.0
  0
LINE
  5
422
  8
0
  6
CONTINUOUS
 62
     7
 10
35.3352285088594371
 20
-51.85154550017117
 30
0.0
 11
42.8352288068826681
 21
-51.85154550017117
 31
0.0
  0
LINE
  5
423
  8
0
  6
CONTINUOUS
 62
     7
 10
42.8352288068826681
 20
-51.2408547034233877
 30
0.0
 11
42.8352288068826681
 21
-51.85154550017117
 31
0.0
  0
LINE
  5
424
  8
0
  6
CONTINUOUS
 62
     7
 10
35.3352285088594371
 20
-51.2408547034233877
 30
0.0
 11
35.3352285088594371
 21
-51.85154550017117
 31
0.0
  0
LINE
  5
425
  8
0
  6
CONTINUOUS
 62
     7
 10
42.8352288068826681
 20
-51.8688555272042677
 30
0.0
 11
35.3352285088594371
 21
-51.8688555272042677
 31
0.0
  0
LINE
  5
426
  8
0
  6
CONTINUOUS
 62
     7
 10
42.8352288068826681
 20
-51.85154550017117
 30
0.0
 11
42.8352288068826681
 21
-51.8688555272042677
 31
0.0
  0
LINE
  5
427
  8
0
  6
CONTINUOUS
 62
     7
 10
35.3352285088594371
 20
-51.8688555272042677
 30
0.0
 11
35.3352285088594371
 21
-51.85154550017117
 31
0.0
  0
LINE
  5
428
  8
0
  6
CONTINUOUS
 62
     7
 10
35.3352285088594371
 20
-42.3947559134781429
 30
0.0
 11
42.8352288068826681
 21
-42.3947559134781429
 31
0.0
  0
LINE
  5
429
  8
0
  6
CONTINUOUS
 62
     7
 10
42.8352288068826681
 20
-42.4098922336220596
 30
0.0
 11
35.3352285088594371
 21
-42.4098922336220596
 31
0.0
  0
LINE
  5
42A
  8
0
  6
CONTINUOUS
 62
     7
 10
42.8352288068826681
 20
-42.3947559134781429
 30
0.0
 11
42.8352288068826681
 21
-42.4098922336220596
 31
0.0
  0
LINE
  5
42B
  8
0
  6
CONTINUOUS
 62
     7
 10
35.3352285088594371
 20
-42.4098922336220596
 30
0.0
 11
35.3352285088594371
 21
-42.3947559134781429
 31
0.0
  0
LINE
  5
42C
  8
0
  6
CONTINUOUS
 62
     7
 10
42.8352288068826681
 20
-42.4098922336220596
 30
0.0
 11
42.8352288068826681
 21
-42.9524477036416528
 31
0.0
  0
LINE
  5
42D
  8
0
  6
CONTINUOUS
 62
     7
 10
35.3352285088594371
 20
-42.9524477036416528
 30
0.0
 11
35.3352285088594371
 21
-42.4098922336220596
 31
0.0
  0
LINE
  5
42E
  8
0
  6
CONTINUOUS
 62
     7
 10
35.3352285088594371
 20
-52.4114109972238467
 30
0.0
 11
42.8352288068826681
 21
-52.4114109972238467
 31
0.0
  0
LINE
  5
42F
  8
0
  6
CONTINUOUS
 62
     7
 10
42.8352288068826681
 20
-51.8688555272042677
 30
0.0
 11
42.8352288068826681
 21
-52.4114109972238467
 31
0.0
  0
LINE
  5
430
  8
0
  6
CONTINUOUS
 62
     7
 10
35.3352285088594371
 20
-51.8688555272042677
 30
0.0
 11
35.3352285088594371
 21
-52.4114109972238467
 31
0.0
  0
LINE
  5
431
  8
0
  6
CONTINUOUS
 62
     7
 10
42.8352288068826681
 20
-52.4265473173677918
 30
0.0
 11
35.3352285088594371
 21
-52.4265473173677918
 31
0.0
  0
LINE
  5
432
  8
0
  6
CONTINUOUS
 62
     7
 10
42.8352288068826681
 20
-52.4114109972238467
 30
0.0
 11
42.8352288068826681
 21
-52.4265473173677918
 31
0.0
  0
LINE
  5
433
  8
0
  6
CONTINUOUS
 62
     7
 10
35.3352285088594371
 20
-52.4265473173677918
 30
0.0
 11
35.3352285088594371
 21
-52.4114109972238467
 31
0.0
  0
LINE
  5
436
  8
0
  6
CONTINUOUS
 62
     7
 10
42.8352288068826681
 20
-41.928891132187843
 30
0.0
 11
35.3352285088594371
 21
-41.928891132187843
 31
0.0
  0
LINE
  5
437
  8
0
  6
CONTINUOUS
 62
     7
 10
42.8352288068826681
 20
-41.928891132187843
 30
0.0
 11
42.8352288068826681
 21
-42.3947559134781429
 31
0.0
  0
LINE
  5
438
  8
0
  6
CONTINUOUS
 62
     7
 10
35.3352285088594371
 20
-42.3947559134781429
 30
0.0
 11
35.3352285088594371
 21
-41.928891132187843
 31
0.0
  0
LINE
  5
439
  8
0
  6
CONTINUOUS
 62
     7
 10
35.3352285088594371
 20
-52.8924120986580704
 30
0.0
 11
42.8352288068826681
 21
-52.8924120986580704
 31
0.0
  0
LINE
  5
43A
  8
0
  6
CONTINUOUS
 62
     7
 10
42.8352288068826681
 20
-52.4265473173677918
 30
0.0
 11
42.8352288068826681
 21
-52.8924120986580704
 31
0.0
  0
LINE
  5
43B
  8
0
  6
CONTINUOUS
 62
     7
 10
35.3352285088594371
 20
-52.4265473173677918
 30
0.0
 11
35.3352285088594371
 21
-52.8924120986580704
 31
0.0
  0
LINE
  5
43C
  8
0
  6
CONTINUOUS
 62
     7
 10
35.3352285088594371
 20
-41.9161674031734535
 30
0.0
 11
42.8352288068826681
 21
-41.9161674031734535
 31
0.0
  0
LINE
  5
43D
  8
0
  6
CONTINUOUS
 62
     7
 10
42.8352288068826681
 20
-41.9161674031734535
 30
0.0
 11
42.8352288068826681
 21
-41.928891132187843
 31
0.0
  0
LINE
  5
43E
  8
0
  6
CONTINUOUS
 62
     7
 10
35.3352285088594371
 20
-41.928891132187843
 30
0.0
 11
35.3352285088594371
 21
-41.9161674031734535
 31
0.0
  0
LINE
  5
43F
  8
0
  6
CONTINUOUS
 62
     7
 10
42.8352288068826681
 20
-52.905135827672467
 30
0.0
 11
35.3352285088594371
 21
-52.905135827672467
 31
0.0
  0
LINE
  5
440
  8
0
  6
CONTINUOUS
 62
     7
 10
42.8352288068826681
 20
-52.8924120986580704
 30
0.0
 11
42.8352288068826681
 21
-52.905135827672467
 31
0.0
  0
LINE
  5
441
  8
0
  6
CONTINUOUS
 62
     7
 10
35.3352285088594371
 20
-52.905135827672467
 30
0.0
 11
35.3352285088594371
 21
-52.8924120986580704
 31
0.0
  0
LINE
  5
442
  8
0
  6
CONTINUOUS
 62
     7
 10
42.8352288068826681
 20
-41.5343409800648686
 30
0.0
 11
35.3352285088594371
 21
-41.5343409800648686
 31
0.0
  0
LINE
  5
443
  8
0
  6
CONTINUOUS
 62
     7
 10
42.8352288068826681
 20
-41.5343409800648686
 30
0.0
 11
42.8352288068826681
 21
-41.9161674031734535
 31
0.0
  0
LINE
  5
444
  8
0
  6
CONTINUOUS
 62
     7
 10
35.3352285088594371
 20
-41.9161674031734535
 30
0.0
 11
35.3352285088594371
 21
-41.5343409800648686
 31
0.0
  0
LINE
  5
445
  8
0
  6
CONTINUOUS
 62
     7
 10
35.3352285088594371
 20
-53.286962250781059
 30
0.0
 11
42.8352288068826681
 21
-53.286962250781059
 31
0.0
  0
LINE
  5
446
  8
0
  6
CONTINUOUS
 62
     7
 10
42.8352288068826681
 20
-52.905135827672467
 30
0.0
 11
42.8352288068826681
 21
-53.286962250781059
 31
0.0
  0
LINE
  5
447
  8
0
  6
CONTINUOUS
 62
     7
 10
35.3352285088594371
 20
-52.905135827672467
 30
0.0
 11
35.3352285088594371
 21
-53.286962250781059
 31
0.0
  0
LINE
  5
448
  8
0
  6
CONTINUOUS
 62
     7
 10
35.3352285088594371
 20
-41.524230542194843
 30
0.0
 11
42.8352288068826681
 21
-41.524230542194843
 31
0.0
  0
LINE
  5
449
  8
0
  6
CONTINUOUS
 62
     7
 10
42.8352288068826681
 20
-41.524230542194843
 30
0.0
 11
42.8352288068826681
 21
-41.5343409800648686
 31
0.0
  0
LINE
  5
44A
  8
0
  6
CONTINUOUS
 62
     7
 10
35.3352285088594371
 20
-41.5343409800648686
 30
0.0
 11
35.3352285088594371
 21
-41.524230542194843
 31
0.0
  0
LINE
  5
44B
  8
0
  6
CONTINUOUS
 62
     7
 10
42.8352288068826681
 20
-53.2970726886510704
 30
0.0
 11
35.3352285088594371
 21
-53.2970726886510704
 31
0.0
  0
LINE
  5
44C
  8
0
  6
CONTINUOUS
 62
     7
 10
42.8352288068826681
 20
-53.286962250781059
 30
0.0
 11
42.8352288068826681
 21
-53.2970726886510704
 31
0.0
  0
LINE
  5
44D
  8
0
  6
CONTINUOUS
 62
     7
 10
35.3352285088594371
 20
-53.2970726886510704
 30
0.0
 11
35.3352285088594371
 21
-53.286962250781059
 31
0.0
  0
LINE
  5
44E
  8
0
  6
CONTINUOUS
 62
     7
 10
42.8352288068826681
 20
-41.2324634777128622
 30
0.0
 11
35.3352285088594371
 21
-41.2324634777128622
 31
0.0
  0
LINE
  5
44F
  8
0
  6
CONTINUOUS
 62
     7
 10
42.8352288068826681
 20
-41.2324634777128622
 30
0.0
 11
42.8352288068826681
 21
-41.524230542194843
 31
0.0
  0
LINE
  5
450
  8
0
  6
CONTINUOUS
 62
     7
 10
35.3352285088594371
 20
-41.524230542194843
 30
0.0
 11
35.3352285088594371
 21
-41.2324634777128622
 31
0.0
  0
LINE
  5
451
  8
0
  6
CONTINUOUS
 62
     7
 10
35.3352285088594371
 20
-53.5888397531330583
 30
0.0
 11
42.8352288068826681
 21
-53.5888397531330583
 31
0.0
  0
LINE
  5
452
  8
0
  6
CONTINUOUS
 62
     7
 10
42.8352288068826681
 20
-53.2970726886510704
 30
0.0
 11
42.8352288068826681
 21
-53.5888397531330583
 31
0.0
  0
LINE
  5
453
  8
0
  6
CONTINUOUS
 62
     7
 10
35.3352285088594371
 20
-53.2970726886510704
 30
0.0
 11
35.3352285088594371
 21
-53.5888397531330583
 31
0.0
  0
LINE
  5
454
  8
0
  6
CONTINUOUS
 62
     7
 10
35.3352285088594371
 20
-41.2251255871474598
 30
0.0
 11
42.8352288068826681
 21
-41.2251255871474598
 31
0.0
  0
LINE
  5
455
  8
0
  6
CONTINUOUS
 62
     7
 10
42.8352288068826681
 20
-41.2251255871474598
 30
0.0
 11
42.8352288068826681
 21
-41.2324634777128622
 31
0.0
  0
LINE
  5
456
  8
0
  6
CONTINUOUS
 62
     7
 10
35.3352285088594371
 20
-41.2324634777128622
 30
0.0
 11
35.3352285088594371
 21
-41.2251255871474598
 31
0.0
  0
LINE
  5
457
  8
0
  6
CONTINUOUS
 62
     7
 10
42.8352288068826681
 20
-53.5961776436984465
 30
0.0
 11
35.3352285088594371
 21
-53.5961776436984465
 31
0.0
  0
LINE
  5
458
  8
0
  6
CONTINUOUS
 62
     7
 10
42.8352288068826681
 20
-53.5888397531330583
 30
0.0
 11
42.8352288068826681
 21
-53.5961776436984465
 31
0.0
  0
LINE
  5
459
  8
0
  6
CONTINUOUS
 62
     7
 10
35.3352285088594371
 20
-53.5961776436984465
 30
0.0
 11
35.3352285088594371
 21
-53.5888397531330583
 31
0.0
  0
LINE
  5
45A
  8
0
  6
CONTINUOUS
 62
     7
 10
42.8352288068826681
 20
-41.0280200117945668
 30
0.0
 11
35.3352285088594371
 21
-41.0280200117945668
 31
0.0
  0
LINE
  5
45B
  8
0
  6
CONTINUOUS
 62
     7
 10
42.8352288068826681
 20
-41.0280200117945668
 30
0.0
 11
42.8352288068826681
 21
-41.2251255871474598
 31
0.0
  0
LINE
  5
45C
  8
0
  6
CONTINUOUS
 62
     7
 10
35.3352285088594371
 20
-41.2251255871474598
 30
0.0
 11
35.3352285088594371
 21
-41.0280200117945668
 31
0.0
  0
LINE
  5
45D
  8
0
  6
CONTINUOUS
 62
     7
 10
35.3352285088594371
 20
-53.7932832190513608
 30
0.0
 11
42.8352288068826681
 21
-53.7932832190513608
 31
0.0
  0
LINE
  5
45E
  8
0
  6
CONTINUOUS
 62
     7
 10
42.8352288068826681
 20
-53.5961776436984465
 30
0.0
 11
42.8352288068826681
 21
-53.7932832190513608
 31
0.0
  0
LINE
  5
45F
  8
0
  6
CONTINUOUS
 62
     7
 10
35.3352285088594371
 20
-53.5961776436984465
 30
0.0
 11
35.3352285088594371
 21
-53.7932832190513608
 31
0.0
  0
LINE
  5
460
  8
0
  6
CONTINUOUS
 62
     7
 10
35.3352285088594371
 20
-41.0235701525330398
 30
0.0
 11
42.8352288068826681
 21
-41.0235701525330398
 31
0.0
  0
LINE
  5
461
  8
0
  6
CONTINUOUS
 62
     7
 10
42.8352288068826681
 20
-41.0235701525330398
 30
0.0
 11
42.8352288068826681
 21
-41.0280200117945668
 31
0.0
  0
LINE
  5
462
  8
0
  6
CONTINUOUS
 62
     7
 10
35.3352285088594371
 20
-41.0280200117945668
 30
0.0
 11
35.3352285088594371
 21
-41.0235701525330398
 31
0.0
  0
LINE
  5
463
  8
0
  6
CONTINUOUS
 62
     7
 10
42.8352288068826681
 20
-53.7977330783128593
 30
0.0
 11
35.3352285088594371
 21
-53.7977330783128593
 31
0.0
  0
LINE
  5
464
  8
0
  6
CONTINUOUS
 62
     7
 10
42.8352288068826681
 20
-53.7932832190513608
 30
0.0
 11
42.8352288068826681
 21
-53.7977330783128593
 31
0.0
  0
LINE
  5
465
  8
0
  6
CONTINUOUS
 62
     7
 10
35.3352285088594371
 20
-53.7977330783128593
 30
0.0
 11
35.3352285088594371
 21
-53.7932832190513608
 31
0.0
  0
LINE
  5
466
  8
0
  6
CONTINUOUS
 62
     7
 10
42.8352288068826681
 20
-40.9242343554019925
 30
0.0
 11
35.3352285088594371
 21
-40.9242343554019925
 31
0.0
  0
LINE
  5
467
  8
0
  6
CONTINUOUS
 62
     7
 10
42.8352288068826681
 20
-40.9242343554019925
 30
0.0
 11
42.8352288068826681
 21
-41.0235701525330398
 31
0.0
  0
LINE
  5
468
  8
0
  6
CONTINUOUS
 62
     7
 10
35.3352285088594371
 20
-41.0235701525330398
 30
0.0
 11
35.3352285088594371
 21
-40.9242343554019925
 31
0.0
  0
LINE
  5
469
  8
0
  6
CONTINUOUS
 62
     7
 10
35.3352285088594371
 20
-53.897068875443928
 30
0.0
 11
42.8352288068826681
 21
-53.897068875443928
 31
0.0
  0
LINE
  5
46A
  8
0
  6
CONTINUOUS
 62
     7
 10
42.8352288068826681
 20
-53.7977330783128593
 30
0.0
 11
42.8352288068826681
 21
-53.897068875443928
 31
0.0
  0
LINE
  5
46B
  8
0
  6
CONTINUOUS
 62
     7
 10
35.3352285088594371
 20
-53.7977330783128593
 30
0.0
 11
35.3352285088594371
 21
-53.897068875443928
 31
0.0
  0
LINE
  5
46C
  8
0
  6
CONTINUOUS
 62
     7
 10
35.3352285088594371
 20
-40.9227433079600331
 30
0.0
 11
42.8352288068826681
 21
-40.9227433079600331
 31
0.0
  0
LINE
  5
46D
  8
0
  6
CONTINUOUS
 62
     7
 10
42.8352288068826681
 20
-40.9227433079600331
 30
0.0
 11
42.8352288068826681
 21
-40.9242343554019925
 31
0.0
  0
LINE
  5
46E
  8
0
  6
CONTINUOUS
 62
     7
 10
35.3352285088594371
 20
-40.9242343554019925
 30
0.0
 11
35.3352285088594371
 21
-40.9227433079600331
 31
0.0
  0
LINE
  5
46F
  8
0
  6
CONTINUOUS
 62
     7
 10
42.8352288068826681
 20
-53.8985599228858874
 30
0.0
 11
35.3352285088594371
 21
-53.8985599228858874
 31
0.0
  0
LINE
  5
470
  8
0
  6
CONTINUOUS
 62
     7
 10
42.8352288068826681
 20
-53.897068875443928
 30
0.0
 11
42.8352288068826681
 21
-53.8985599228858874
 31
0.0
  0
LINE
  5
471
  8
0
  6
CONTINUOUS
 62
     7
 10
35.3352285088594371
 20
-53.8985599228858874
 30
0.0
 11
35.3352285088594371
 21
-53.897068875443928
 31
0.0
  0
LINE
  5
472
  8
0
  6
CONTINUOUS
 62
     7
 10
45.8352274359758383
 20
-42.7918495075523921
 30
0.0
 11
43.8352233828599935
 21
-42.7918495075523921
 31
0.0
  0
LINE
  5
473
  8
0
  6
CONTINUOUS
 62
     7
 10
45.8352274359758383
 20
-45.1012505614876673
 30
0.0
 11
43.8352233828599935
 21
-45.1012505614876673
 31
0.0
  0
LINE
  5
474
  8
0
  6
CONTINUOUS
 62
     7
 10
45.8352274359758383
 20
-49.7200526693582532
 30
0.0
 11
43.8352233828599935
 21
-49.7200526693582532
 31
0.0
  0
LINE
  5
475
  8
0
  6
CONTINUOUS
 62
     7
 10
45.8352274359758383
 20
-52.0294537232935426
 30
0.0
 11
43.8352233828599935
 21
-52.0294537232935426
 31
0.0
  0
LINE
  5
476
  8
0
  6
CONTINUOUS
 62
     7
 10
45.8352274359758383
 20
-42.4106517271816728
 30
0.0
 11
45.8352274359758383
 21
-52.4106515036642406
 31
0.0
  0
LINE
  5
477
  8
0
  6
CONTINUOUS
 62
     7
 10
151.5955995978411011
 20
-64.9106516899287698
 30
0.0
 11
147.33522722735961
 21
-64.9106516899287698
 31
0.0
  0
LINE
  5
478
  8
0
  6
CONTINUOUS
 62
     7
 10
153.3352263481910995
 20
-67.3950962187469003
 30
0.0
 11
151.5955995978411011
 21
-64.9106516899287698
 31
0.0
  0
LINE
  5
479
  8
0
  6
CONTINUOUS
 62
     7
 10
153.3352263481910995
 20
-98.9106516750275944
 30
0.0
 11
147.33522722735961
 21
-98.9106516750275944
 31
0.0
  0
LINE
  5
47A
  8
0
  6
CONTINUOUS
 62
     7
 10
153.3352263481910995
 20
-98.9106516750275944
 30
0.0
 11
153.3352263481910995
 21
-67.3950962187469003
 31
0.0
  0
LINE
  5
47B
  8
0
  6
CONTINUOUS
 62
     7
 10
149.1352260322865106
 20
-63.1106510223567483
 30
0.0
 11
150.3352258564528086
 21
-63.1106510223567483
 31
0.0
  0
LINE
  5
47C
  8
0
  6
CONTINUOUS
 62
     7
 10
149.1352260322865106
 20
-63.1106510223567483
 30
0.0
 11
149.1352260322865106
 21
-64.9106516899287698
 31
0.0
  0
LINE
  5
47D
  8
0
  6
CONTINUOUS
 62
     7
 10
150.3352258564528086
 20
-63.1106510223567483
 30
0.0
 11
151.5955995978411011
 21
-64.9106516899287698
 31
0.0
  0
LINE
  5
47E
  8
0
  6
CONTINUOUS
 62
     7
 10
148.8352265419061951
 20
-103.9106543870389032
 30
0.0
 11
148.8352265419061951
 21
-98.9106516750275944
 31
0.0
  0
LINE
  5
47F
  8
0
  6
CONTINUOUS
 62
     7
 10
153.3352263481910995
 20
-98.9106516750275944
 30
0.0
 11
153.3352263481910995
 21
-103.9106543870389032
 31
0.0
  0
LINE
  5
480
  8
0
  6
CONTINUOUS
 62
     7
 10
153.3352263481910995
 20
-104.9106526883065982
 30
0.0
 11
148.8352265419061951
 21
-104.9106526883065982
 31
0.0
  0
LINE
  5
481
  8
0
  6
CONTINUOUS
 62
     7
 10
148.8352265419061951
 20
-104.9106526883065982
 30
0.0
 11
148.8352265419061951
 21
-103.9106543870389032
 31
0.0
  0
LINE
  5
482
  8
0
  6
CONTINUOUS
 62
     7
 10
153.3352263481910995
 20
-103.9106543870389032
 30
0.0
 11
153.3352263481910995
 21
-104.9106526883065982
 31
0.0
  0
LINE
  5
483
  8
0
  6
CONTINUOUS
 62
     7
 10
151.167573055773488
 20
3.0759092955171909
 30
0.0
 11
153.3352263481910995
 21
-14.5782153518617292
 31
0.0
  0
LINE
  5
484
  8
0
  6
CONTINUOUS
 62
     7
 10
147.33522722735961
 20
3.3393469242632241
 30
0.0
 11
150.8698087395723064
 21
3.3393469242632241
 31
0.0
  0
ARC
  5
485
  8
0
  6
CONTINUOUS
 62
     7
 10
150.8698090817485138
 20
3.0393483845767828
 30
0.0
 40
0.3000000000000028
 50
7.000000000002637
 51
90.0
  0
LINE
  5
486
  8
0
  6
CONTINUOUS
 62
     7
 10
153.3352263481910995
 20
-14.5782153518617292
 30
0.0
 11
153.3352263481910995
 21
-23.7869131775319609
 31
0.0
  0
LINE
  5
487
  8
0
  6
CONTINUOUS
 62
     7
 10
152.1352265240248016
 20
-30.1606520475566384
 30
0.0
 11
147.33522722735961
 21
-30.1606520475566384
 31
0.0
  0
LINE
  5
488
  8
0
  6
CONTINUOUS
 62
     7
 10
149.551691135912705
 20
-31.9606517838060888
 30
0.0
 11
150.3352258564528086
 21
-31.9606517838060888
 31
0.0
  0
ARC
  5
489
  8
0
  6
CONTINUOUS
 62
     7
 10
149.551691154309907
 20
-31.4606516154230995
 30
0.0
 40
0.5000000000000226
 50
189.9999999996028919
 51
270.0
  0
LINE
  5
48A
  8
0
  6
CONTINUOUS
 62
     7
 10
148.8147523464257915
 20
-30.1606520475566384
 30
0.0
 11
149.0592878521975138
 21
-31.5474751801908013
 31
0.0
  0
LINE
  5
48B
  8
0
  6
CONTINUOUS
 62
     7
 10
150.3352258564528086
 20
-31.9606517838060888
 30
0.0
 11
151.4352258504922872
 21
-30.8606508584439787
 31
0.0
  0
LINE
  5
48C
  8
0
  6
CONTINUOUS
 62
     7
 10
153.3352263481910995
 20
-23.7869131775319609
 30
0.0
 11
153.8352273614700039
 21
-25.1606512279927692
 31
0.0
  0
LINE
  5
48D
  8
0
  6
CONTINUOUS
 62
     7
 10
153.0352268578108124
 20
-28.83638771490455
 30
0.0
 11
153.0352268578108124
 21
-23.8398104371249708
 31
0.0
  0
LINE
  5
48E
  8
0
  6
CONTINUOUS
 62
     7
 10
152.0109620155390076
 20
-29.8606506945311985
 30
0.0
 11
153.0352268578108124
 21
-28.83638771490455
 31
0.0
  0
LINE
  5
48F
  8
0
  6
CONTINUOUS
 62
     7
 10
153.8352273614700039
 20
-25.1606512279927692
 30
0.0
 11
153.8352273614700039
 21
-29.8606506945311985
 31
0.0
  0
LINE
  5
490
  8
0
  6
CONTINUOUS
 62
     7
 10
153.5352260084445959
 20
-30.1606520475566384
 30
0.0
 11
152.1352265240248016
 21
-30.1606520475566384
 31
0.0
  0
ARC
  5
491
  8
0
  6
CONTINUOUS
 62
     7
 10
153.535226661115388
 20
-29.8606516154232189
 30
0.0
 40
0.3000000000000114
 50
270.0
 51
0.0
  0
ARC
  5
492
  8
0
  6
CONTINUOUS
 62
     7
 10
153.335226661115513
 20
-31.460651615423199
 30
0.0
 40
0.5
 50
270.0
 51
0.0
  0
LINE
  5
493
  8
0
  6
CONTINUOUS
 62
     7
 10
153.3352263481910995
 20
-31.9606517838060888
 30
0.0
 11
151.4352258504922872
 21
-31.9606517838060888
 31
0.0
  0
LINE
  5
494
  8
0
  6
CONTINUOUS
 62
     7
 10
151.4352258504922872
 20
-31.9606517838060888
 30
0.0
 11
151.4352258504922872
 21
-30.1606520475566384
 31
0.0
  0
LINE
  5
495
  8
0
  6
CONTINUOUS
 62
     7
 10
153.8352273614700039
 20
-29.8606506945311985
 30
0.0
 11
153.8352273614700039
 21
-31.4606517018496987
 31
0.0
  0
LINE
  5
496
  8
0
  6
CONTINUOUS
 62
     7
 10
150.3352258564528086
 20
-31.9606517838060888
 30
0.0
 11
151.4352258504922872
 21
-31.9606517838060888
 31
0.0
  0
LINE
  5
497
  8
0
  6
CONTINUOUS
 62
     7
 10
49.9519414366777426
 20
-20.81065209822059
 30
0.0
 11
49.9519414366777426
 21
-21.4106510789811608
 31
0.0
  0
LINE
  5
498
  8
0
  6
CONTINUOUS
 62
     7
 10
49.9519414366777426
 20
-20.81065209822059
 30
0.0
 11
51.3352236808832103
 21
-20.81065209822059
 31
0.0
  0
LINE
  5
499
  8
0
  6
CONTINUOUS
 62
     7
 10
49.9519414366777426
 20
-13.41064976767899
 30
0.0
 11
49.9519414366777426
 21
-14.4106517942369106
 31
0.0
  0
LINE
  5
49A
  8
0
  6
CONTINUOUS
 62
     7
 10
45.9352291287477428
 20
-26.9606518955647907
 30
0.0
 11
45.9352291287477428
 21
-25.8606519015252587
 31
0.0
  0
LINE
  5
49B
  8
0
  6
CONTINUOUS
 62
     7
 10
45.9352291287477428
 20
-24.4606524171054396
 30
0.0
 11
45.9352291287477428
 21
-23.3606524230659005
 31
0.0
  0
LINE
  5
49C
  8
0
  6
CONTINUOUS
 62
     7
 10
45.9352291287477428
 20
-21.9606510760009286
 30
0.0
 11
45.9352291287477428
 21
-20.8606510819613895
 31
0.0
  0
LINE
  5
49D
  8
0
  6
CONTINUOUS
 62
     7
 10
45.9352291287477428
 20
-19.460651597541581
 30
0.0
 11
45.9352291287477428
 21
-18.3606516035020491
 31
0.0
  0
LINE
  5
49E
  8
0
  6
CONTINUOUS
 62
     7
 10
45.9352291287477428
 20
-16.9606521190822299
 30
0.0
 11
45.9352291287477428
 21
-15.8606502623975398
 31
0.0
  0
LINE
  5
49F
  8
0
  6
CONTINUOUS
 62
     7
 10
45.9352291287477428
 20
-14.4606526406228699
 30
0.0
 11
45.9352291287477428
 21
-13.3606526465833308
 31
0.0
  0
LINE
  5
4A0
  8
0
  6
CONTINUOUS
 62
     7
 10
45.9352291287477428
 20
-11.9606512995183607
 30
0.0
 11
45.9352291287477428
 21
-10.8606513054788305
 31
0.0
  0
LINE
  5
4A1
  8
0
  6
CONTINUOUS
 62
     7
 10
45.9352291287477428
 20
-9.4606499584138515
 30
0.0
 11
45.9352291287477428
 21
-8.3606499643743177
 31
0.0
  0
LINE
  5
4A2
  8
0
  6
CONTINUOUS
 62
     7
 10
45.9352291287477428
 20
-6.9606523425996434
 30
0.0
 11
45.9352291287477428
 21
-5.860652348560107
 31
0.0
  0
LINE
  5
4A3
  8
0
  6
CONTINUOUS
 62
     7
 10
49.8352280916269308
 20
-20.81065209822059
 30
0.0
 11
49.9519414366777426
 21
-20.81065209822059
 31
0.0
  0
LINE
  5
4A4
  8
0
  6
CONTINUOUS
 62
     7
 10
49.8352280916269308
 20
-20.6606514217078683
 30
0.0
 11
51.3352236808832103
 21
-20.6606514217078683
 31
0.0
  0
LINE
  5
4A5
  8
0
  6
CONTINUOUS
 62
     7
 10
50.2352274121339804
 20
-20.6606514217078683
 30
0.0
 11
50.2352274121339804
 21
-20.81065209822059
 31
0.0
  0
LINE
  5
4A6
  8
0
  6
CONTINUOUS
 62
     7
 10
127.8352267086128933
 20
1.089349815088497
 30
0.0
 11
118.3352261991795018
 21
1.089349815088497
 31
0.0
  0
LINE
  5
4A7
  8
0
  6
CONTINUOUS
 62
     7
 10
110.3352267505223949
 20
1.089349815088497
 30
0.0
 11
109.8352257372435048
 21
1.089349815088497
 31
0.0
  0
LINE
  5
4A8
  8
0
  6
CONTINUOUS
 62
     7
 10
82.3352258862550599
 20
1.089349815088497
 30
0.0
 11
72.8352252604062897
 21
1.089349815088497
 31
0.0
  0
LINE
  5
4A9
  8
0
  6
CONTINUOUS
 62
     7
 10
64.8352276743944316
 20
1.089349815088497
 30
0.0
 11
64.3352266611154704
 21
1.089349815088497
 31
0.0
  0
LINE
  5
4AA
  8
0
  6
CONTINUOUS
 62
     7
 10
131.7352267192300133
 20
-0.3038305254399916
 30
0.0
 11
131.7352267192300133
 21
-5.4106521816671034
 31
0.0
  0
ARC
  5
4AB
  8
0
  6
CONTINUOUS
 62
     7
 10
132.2352266611154903
 20
-5.4106516154229487
 30
0.0
 40
0.5
 50
180.0
 51
270.0
  0
LINE
  5
4AC
  8
0
  6
CONTINUOUS
 62
     7
 10
132.2352268011863998
 20
-5.9106531949460637
 30
0.0
 11
134.2352266633506019
 21
-5.9106531949460637
 31
0.0
  0
ARC
  5
4AD
  8
0
  6
CONTINUOUS
 62
     7
 10
134.2352266611154903
 20
-5.4106516154229487
 30
0.0
 40
0.5
 50
270.0
 51
0.0
  0
LINE
  5
4AE
  8
0
  6
CONTINUOUS
 62
     7
 10
134.7352262796457012
 20
-5.4106521816671034
 30
0.0
 11
134.7352262796457012
 21
-4.9106511683881413
 31
0.0
  0
LINE
  5
4AF
  8
0
  6
CONTINUOUS
 62
     7
 10
134.7352262796457012
 20
-2.9106508405625959
 30
0.0
 11
134.7352262796457012
 21
-2.7106511803090712
 31
0.0
  0
LINE
  5
4B0
  8
0
  6
CONTINUOUS
 62
     7
 10
134.7352262796457012
 20
-2.7106511803090712
 30
0.0
 11
136.2352265255148893
 21
-2.7106511803090712
 31
0.0
  0
LINE
  5
4B1
  8
0
  6
CONTINUOUS
 62
     7
 10
136.2352265255148893
 20
-2.7106511803090712
 30
0.0
 11
136.7847217456991871
 21
-2.9106508405625959
 31
0.0
  0
ARC
  5
4B2
  8
0
  6
CONTINUOUS
 62
     7
 10
138.835226661115513
 20
-6.8495075419428124
 30
0.0
 40
3.000000000000004
 50
8.4117156629700371
 51
40.2621120493566309
  0
ARC
  5
4B3
  8
0
  6
CONTINUOUS
 62
     7
 10
138.8352266611153993
 20
-87.9717956889031001
 30
0.0
 40
3.0000000000000151
 50
319.737887950642687
 51
351.588284337029279
  0
LINE
  5
4B4
  8
0
  6
CONTINUOUS
 62
     7
 10
136.2352265255148893
 20
-92.1106520505368849
 30
0.0
 11
136.7847217456991871
 21
-91.9106523902833601
 31
0.0
  0
LINE
  5
4B5
  8
0
  6
CONTINUOUS
 62
     7
 10
134.7352262796457012
 20
-92.1106520505368849
 30
0.0
 11
136.2352265255148893
 21
-92.1106520505368849
 31
0.0
  0
LINE
  5
4B6
  8
0
  6
CONTINUOUS
 62
     7
 10
134.7352262796457012
 20
-89.4106510491788526
 30
0.0
 11
134.7352262796457012
 21
-89.9106520624577854
 31
0.0
  0
LINE
  5
4B7
  8
0
  6
CONTINUOUS
 62
     7
 10
134.7352262796457012
 20
-91.9106523902833601
 30
0.0
 11
134.7352262796457012
 21
-92.1106520505368849
 31
0.0
  0
ARC
  5
4B8
  8
0
  6
CONTINUOUS
 62
     7
 10
134.235226661115405
 20
-89.4106516154229638
 30
0.0
 40
0.5
 50
359.9999999999992042
 51
90.0
  0
LINE
  5
4B9
  8
0
  6
CONTINUOUS
 62
     7
 10
132.2352268011863998
 20
-88.910650035899863
 30
0.0
 11
134.2352266633506019
 21
-88.910650035899863
 31
0.0
  0
ARC
  5
4BA
  8
0
  6
CONTINUOUS
 62
     7
 10
132.235226661115405
 20
-89.4106516154229638
 30
0.0
 40
0.5
 50
90.0
 51
179.9999999999992042
  0
LINE
  5
4BB
  8
0
  6
CONTINUOUS
 62
     7
 10
131.7352267192300133
 20
-94.5174727054059645
 30
0.0
 11
131.7352267192300133
 21
-89.4106510491788526
 31
0.0
  0
LINE
  5
4BC
  8
0
  6
CONTINUOUS
 62
     7
 10
64.3352266611154704
 20
-95.9106530459344242
 30
0.0
 11
64.8352276743944316
 21
-95.9106530459344242
 31
0.0
  0
LINE
  5
4BD
  8
0
  6
CONTINUOUS
 62
     7
 10
72.8352252604062897
 20
-95.9106530459344242
 30
0.0
 11
82.3352258862550599
 21
-95.9106530459344242
 31
0.0
  0
LINE
  5
4BE
  8
0
  6
CONTINUOUS
 62
     7
 10
109.8352257372435048
 20
-95.9106530459344242
 30
0.0
 11
110.3352267505223949
 21
-95.9106530459344242
 31
0.0
  0
LINE
  5
4BF
  8
0
  6
CONTINUOUS
 62
     7
 10
118.3352261991795018
 20
-95.9106530459344242
 30
0.0
 11
127.8352267086128933
 21
-95.9106530459344242
 31
0.0
  0
CIRCLE
  5
4C0
  8
0
  6
CONTINUOUS
 62
     7
 10
40.7652266611155483
 20
-84.9106516154229354
 30
0.0
 40
1.9999999999999929
  0
CIRCLE
  5
4C1
  8
0
  6
CONTINUOUS
 62
     7
 10
40.7652266611155483
 20
-79.9106516154229354
 30
0.0
 40
2.0
  0
CIRCLE
  5
4C2
  8
0
  6
CONTINUOUS
 62
     7
 10
40.7652266611155483
 20
-74.9106516154229354
 30
0.0
 40
2.0
  0
LINE
  5
4C3
  8
0
  6
CONTINUOUS
 62
     7
 10
43.7652251781518871
 20
-72.4106519879520079
 30
0.0
 11
36.3394326628740316
 21
-72.4106519879520079
 31
0.0
  0
LINE
  5
4C4
  8
0
  6
CONTINUOUS
 62
     7
 10
36.3394326628740316
 20
-87.4106507213533064
 30
0.0
 11
43.7652251781518871
 21
-87.4106507213533064
 31
0.0
  0
LINE
  5
4C5
  8
0
  6
CONTINUOUS
 62
     7
 10
36.1396229924257284
 20
-72.4106519879520079
 30
0.0
 11
36.3394326628740316
 21
-72.4106519879520079
 31
0.0
  0
LINE
  5
4C6
  8
0
  6
CONTINUOUS
 62
     7
 10
36.1396229924257284
 20
-87.4106507213533064
 30
0.0
 11
36.3394326628740316
 21
-87.4106507213533064
 31
0.0
  0
LINE
  5
4C7
  8
0
  6
CONTINUOUS
 62
     7
 10
43.7652251781518871
 20
-87.4106507213533064
 30
0.0
 11
44.365227884202767
 21
-87.4106507213533064
 31
0.0
  0
LINE
  5
4C8
  8
0
  6
CONTINUOUS
 62
     7
 10
44.365227884202767
 20
-72.4106519879520079
 30
0.0
 11
44.365227884202767
 21
-87.4106507213533064
 31
0.0
  0
LINE
  5
4C9
  8
0
  6
CONTINUOUS
 62
     7
 10
43.7652251781518871
 20
-72.4106519879520079
 30
0.0
 11
44.365227884202767
 21
-72.4106519879520079
 31
0.0
  0
LINE
  5
4CA
  8
0
  6
CONTINUOUS
 62
     7
 10
36.1152297915513998
 20
-87.4106507213533064
 30
0.0
 11
36.1152297915513998
 21
-72.4106519879520079
 31
0.0
  0
LINE
  5
4CB
  8
0
  6
CONTINUOUS
 62
     7
 10
36.1396229924257284
 20
-87.4106507213533064
 30
0.0
 11
36.1152297915513998
 21
-87.4106507213533064
 31
0.0
  0
LINE
  5
4CC
  8
0
  6
CONTINUOUS
 62
     7
 10
36.1152297915513998
 20
-72.4106519879520079
 30
0.0
 11
36.1396229924257284
 21
-72.4106519879520079
 31
0.0
  0
LINE
  5
4CD
  8
0
  6
CONTINUOUS
 62
     7
 10
35.6352261365945822
 20
-72.4106519879520079
 30
0.0
 11
35.6352261365945822
 21
-87.4106507213533064
 31
0.0
  0
LINE
  5
4CE
  8
0
  6
CONTINUOUS
 62
     7
 10
35.6352261365945822
 20
-87.4106507213533064
 30
0.0
 11
36.1152297915513998
 21
-87.4106507213533064
 31
0.0
  0
LINE
  5
4CF
  8
0
  6
CONTINUOUS
 62
     7
 10
36.1152297915513998
 20
-72.4106519879520079
 30
0.0
 11
35.6352261365945822
 21
-72.4106519879520079
 31
0.0
  0
LINE
  5
4D0
  8
0
  6
CONTINUOUS
 62
     7
 10
39.6983257593210226
 20
-78.3487796248614927
 30
0.0
 11
42.327099210172463
 21
-80.9775512130677697
 31
0.0
  0
ARC
  5
4D1
  8
0
  6
CONTINUOUS
 62
     7
 10
40.7652266611155483
 20
-79.9106516154229354
 30
0.0
 40
1.891485421551298
 50
325.6634502400755196
 51
124.3365497599264984
  0
ARC
  5
4D2
  8
0
  6
CONTINUOUS
 62
     7
 10
40.7652266611155483
 20
-74.9106516154229354
 30
0.0
 40
1.891485421551317
 50
325.6634502400759175
 51
124.3365497599250062
  0
LINE
  5
4D3
  8
0
  6
CONTINUOUS
 62
     7
 10
42.327099210172463
 20
-75.977550393503904
 30
0.0
 11
39.6983257593210226
 21
-73.3487788052976128
 31
0.0
  0
LINE
  5
4D4
  8
0
  6
CONTINUOUS
 62
     7
 10
39.2033538879449779
 20
-73.8437544019639489
 30
0.0
 11
41.8321273387964325
 21
-76.4725241275250909
 31
0.0
  0
ARC
  5
4D5
  8
0
  6
CONTINUOUS
 62
     7
 10
40.7652266611155483
 20
-74.9106516154229354
 30
0.0
 40
1.8914854215513131
 50
145.6634502400744111
 51
304.3365497599260152
  0
LINE
  5
4D6
  8
0
  6
CONTINUOUS
 62
     7
 10
41.8321273387964325
 20
-81.4725230844438215
 30
0.0
 11
39.2033538879449779
 21
-78.8437533588826795
 31
0.0
  0
ARC
  5
4D7
  8
0
  6
CONTINUOUS
 62
     7
 10
40.7652266611155483
 20
-79.9106516154229354
 30
0.0
 40
1.8914854215513031
 50
145.6634502400762869
 51
304.3365497599252762
  0
LINE
  5
4D8
  8
0
  6
CONTINUOUS
 62
     7
 10
41.8321273387964325
 20
-86.4725257666527938
 30
0.0
 11
39.2033538879449779
 21
-83.8437523158013533
 31
0.0
  0
ARC
  5
4D9
  8
0
  6
CONTINUOUS
 62
     7
 10
40.7652266611155483
 20
-84.9106516154229354
 30
0.0
 40
1.8914854215512991
 50
145.6634502400764859
 51
304.3365497599241962
  0
LINE
  5
4DA
  8
0
  6
CONTINUOUS
 62
     7
 10
39.6983257593210226
 20
-83.3487804444253442
 30
0.0
 11
42.327099210172463
 21
-85.9775501699864719
 31
0.0
  0
ARC
  5
4DB
  8
0
  6
CONTINUOUS
 62
     7
 10
40.7652266611155483
 20
-84.9106516154229354
 30
0.0
 40
1.8914854215512911
 50
325.663450240075008
 51
124.3365497599265979
  0
ARC
  5
4DC
  8
0
  6
CONTINUOUS
 62
     7
 10
40.7652266611155483
 20
-79.9106516154229354
 30
0.0
 40
1.89148542155129
 50
304.3365497599236278
 51
325.6634502400751217
  0
ARC
  5
4DD
  8
0
  6
CONTINUOUS
 62
     7
 10
40.7652266611155483
 20
-79.9106516154229354
 30
0.0
 40
1.8914854215513031
 50
124.3365497599264984
 51
145.6634502400762869
  0
ARC
  5
4DE
  8
0
  6
CONTINUOUS
 62
     7
 10
40.7652266611155483
 20
-74.9106516154229354
 30
0.0
 40
1.8914854215513051
 50
124.3365497599253047
 51
145.663450240074809
  0
ARC
  5
4DF
  8
0
  6
CONTINUOUS
 62
     7
 10
40.7652266611155483
 20
-74.9106516154229354
 30
0.0
 40
1.891485421551276
 50
304.3365497599256742
 51
325.6634502400758038
  0
ARC
  5
4E0
  8
0
  6
CONTINUOUS
 62
     7
 10
40.7652266611155483
 20
-84.9106516154229354
 30
0.0
 40
1.89148542155129
 50
304.3365497599236278
 51
325.663450240075008
  0
ARC
  5
4E1
  8
0
  6
CONTINUOUS
 62
     7
 10
40.7652266611155483
 20
-84.9106516154229354
 30
0.0
 40
1.8914854215512911
 50
124.3365497599265979
 51
145.6634502400756901
  0
LINE
  5
4E2
  8
0
  6
CONTINUOUS
 62
     7
 10
44.7352833212907726
 20
-72.4106519879520079
 30
0.0
 11
44.7352833212907726
 21
-87.4106507213533064
 31
0.0
  0
LINE
  5
4E3
  8
0
  6
CONTINUOUS
 62
     7
 10
44.7352833212907726
 20
-87.4106507213533064
 30
0.0
 11
44.365227884202767
 21
-87.4106507213533064
 31
0.0
  0
LINE
  5
4E4
  8
0
  6
CONTINUOUS
 62
     7
 10
44.365227884202767
 20
-72.4106519879520079
 30
0.0
 11
44.7352833212907726
 21
-72.4106519879520079
 31
0.0
  0
LINE
  5
4E5
  8
0
  6
CONTINUOUS
 62
     7
 10
44.7352237166459972
 20
-82.4106517644345757
 30
0.0
 11
44.7671569050844127
 21
-82.4106517644345757
 31
0.0
  0
LINE
  5
4E6
  8
0
  6
CONTINUOUS
 62
     7
 10
44.7352237166459972
 20
-84.010652771753044
 30
0.0
 11
44.7671569050844127
 21
-84.010652771753044
 31
0.0
  0
LINE
  5
4E7
  8
0
  6
CONTINUOUS
 62
     7
 10
44.7352237166459972
 20
-75.8106518001973626
 30
0.0
 11
44.7671569050844127
 21
-75.8106518001973626
 31
0.0
  0
LINE
  5
4E8
  8
0
  6
CONTINUOUS
 62
     7
 10
44.7352237166459972
 20
-77.4106509448706959
 30
0.0
 11
44.7671569050844127
 21
-77.4106509448706959
 31
0.0
  0
LINE
  5
4E9
  8
0
  6
CONTINUOUS
 62
     7
 10
44.9925444187219625
 20
-84.010652771753044
 30
0.0
 11
44.9925444187219625
 21
-82.4106517644345757
 31
0.0
  0
LINE
  5
4EA
  8
0
  6
CONTINUOUS
 62
     7
 10
44.7671569050844127
 20
-82.4106517644345757
 30
0.0
 11
44.9925444187219625
 21
-82.4106517644345757
 31
0.0
  0
LINE
  5
4EB
  8
0
  6
CONTINUOUS
 62
     7
 10
44.9925444187219625
 20
-84.010652771753044
 30
0.0
 11
44.7671569050844127
 21
-84.010652771753044
 31
0.0
  0
LINE
  5
4EC
  8
0
  6
CONTINUOUS
 62
     7
 10
44.9925444187219625
 20
-75.8106518001973626
 30
0.0
 11
44.9925444187219625
 21
-77.4106509448706959
 31
0.0
  0
LINE
  5
4ED
  8
0
  6
CONTINUOUS
 62
     7
 10
44.7671569050844127
 20
-75.8106518001973626
 30
0.0
 11
44.9925444187219625
 21
-75.8106518001973626
 31
0.0
  0
LINE
  5
4EE
  8
0
  6
CONTINUOUS
 62
     7
 10
44.9925444187219625
 20
-77.4106509448706959
 30
0.0
 11
44.7671569050844127
 21
-77.4106509448706959
 31
0.0
  0
LINE
  5
4EF
  8
0
  6
CONTINUOUS
 62
     7
 10
44.9925444187219625
 20
-75.8106518001973626
 30
0.0
 11
46.3352284492547923
 21
-75.8106518001973626
 31
0.0
  0
LINE
  5
4F0
  8
0
  6
CONTINUOUS
 62
     7
 10
44.9925444187219625
 20
-77.4106509448706959
 30
0.0
 11
46.3352284492547923
 21
-77.4106509448706959
 31
0.0
  0
LINE
  5
4F1
  8
0
  6
CONTINUOUS
 62
     7
 10
44.9925444187219625
 20
-82.4106517644345757
 30
0.0
 11
46.3352284492547923
 21
-82.4106517644345757
 31
0.0
  0
LINE
  5
4F2
  8
0
  6
CONTINUOUS
 62
     7
 10
44.9925444187219625
 20
-84.010652771753044
 30
0.0
 11
46.3352284492547923
 21
-84.010652771753044
 31
0.0
  0
LINE
  5
4F3
  8
0
  6
CONTINUOUS
 62
     7
 10
35.6352261365945822
 20
-87.4106507213533064
 30
0.0
 11
35.5352244438226705
 21
-87.4106507213533064
 31
0.0
  0
LINE
  5
4F4
  8
0
  6
CONTINUOUS
 62
     7
 10
35.5352244438226705
 20
-72.4106519879520079
 30
0.0
 11
35.6352261365945822
 21
-72.4106519879520079
 31
0.0
  0
LINE
  5
4F5
  8
0
  6
CONTINUOUS
 62
     7
 10
35.3352285088594371
 20
-87.4106507213533064
 30
0.0
 11
35.3352285088594371
 21
-72.4106519879520079
 31
0.0
  0
LINE
  5
4F6
  8
0
  6
CONTINUOUS
 62
     7
 10
35.3352285088594371
 20
-87.4106507213533064
 30
0.0
 11
35.5352244438226705
 21
-87.4106507213533064
 31
0.0
  0
LINE
  5
4F7
  8
0
  6
CONTINUOUS
 62
     7
 10
35.3352285088594371
 20
-72.4106519879520079
 30
0.0
 11
35.5352244438226705
 21
-72.4106519879520079
 31
0.0
  0
LINE
  5
4F8
  8
0
  6
CONTINUOUS
 62
     7
 10
45.2352247299249584
 20
-86.1656512530266951
 30
0.0
 11
45.2352247299249584
 21
-87.4106507213533064
 31
0.0
  0
LINE
  5
4F9
  8
0
  6
CONTINUOUS
 62
     7
 10
45.2352247299249584
 20
-84.010652771753044
 30
0.0
 11
45.2352247299249584
 21
-86.1656512530266951
 31
0.0
  0
LINE
  5
4FA
  8
0
  6
CONTINUOUS
 62
     7
 10
45.2352247299249584
 20
-87.4106507213533064
 30
0.0
 11
44.7352833212907726
 21
-87.4106507213533064
 31
0.0
  0
LINE
  5
4FB
  8
0
  6
CONTINUOUS
 62
     7
 10
45.2352247299249584
 20
-77.4106509448706959
 30
0.0
 11
45.2352247299249584
 21
-78.6556522758424421
 31
0.0
  0
LINE
  5
4FC
  8
0
  6
CONTINUOUS
 62
     7
 10
45.2352247299249584
 20
-78.6556522758424421
 30
0.0
 11
45.2352247299249584
 21
-81.1656522961080213
 31
0.0
  0
LINE
  5
4FD
  8
0
  6
CONTINUOUS
 62
     7
 10
45.2352247299249584
 20
-82.4106517644345757
 30
0.0
 11
45.2352247299249584
 21
-81.1656522961080213
 31
0.0
  0
LINE
  5
4FE
  8
0
  6
CONTINUOUS
 62
     7
 10
45.2352247299249584
 20
-72.4106519879520079
 30
0.0
 11
45.2352247299249584
 21
-73.6556514562785623
 31
0.0
  0
LINE
  5
4FF
  8
0
  6
CONTINUOUS
 62
     7
 10
45.2352247299249584
 20
-73.6556514562785623
 30
0.0
 11
45.2352247299249584
 21
-75.8106518001973626
 31
0.0
  0
LINE
  5
500
  8
0
  6
CONTINUOUS
 62
     7
 10
44.7352833212907726
 20
-72.4106519879520079
 30
0.0
 11
45.2352247299249584
 21
-72.4106519879520079
 31
0.0
  0
LINE
  5
501
  8
0
  6
CONTINUOUS
 62
     7
 10
45.3352264226968771
 20
-78.6556522758424421
 30
0.0
 11
45.2352247299249584
 21
-78.6556522758424421
 31
0.0
  0
LINE
  5
502
  8
0
  6
CONTINUOUS
 62
     7
 10
45.3352264226968771
 20
-81.1656522961080213
 30
0.0
 11
45.2352247299249584
 21
-81.1656522961080213
 31
0.0
  0
LINE
  5
503
  8
0
  6
CONTINUOUS
 62
     7
 10
45.2352247299249584
 20
-86.1656512530266951
 30
0.0
 11
45.3352264226968771
 21
-86.1656512530266951
 31
0.0
  0
LINE
  5
504
  8
0
  6
CONTINUOUS
 62
     7
 10
45.2352247299249584
 20
-87.4106507213533064
 30
0.0
 11
45.3352264226968771
 21
-87.4106507213533064
 31
0.0
  0
LINE
  5
505
  8
0
  6
CONTINUOUS
 62
     7
 10
45.2352247299249584
 20
-73.6556514562785623
 30
0.0
 11
45.3352264226968771
 21
-73.6556514562785623
 31
0.0
  0
LINE
  5
506
  8
0
  6
CONTINUOUS
 62
     7
 10
45.2352247299249584
 20
-72.4106519879520079
 30
0.0
 11
45.3352264226968771
 21
-72.4106519879520079
 31
0.0
  0
LINE
  5
507
  8
0
  6
CONTINUOUS
 62
     7
 10
45.3352264226968771
 20
-85.8856509836137434
 30
0.0
 11
46.3352284492547923
 21
-85.6010388048112247
 31
0.0
  0
LINE
  5
508
  8
0
  6
CONTINUOUS
 62
     7
 10
46.3352284492547923
 20
-84.2202674062669416
 30
0.0
 11
45.5987385572488719
 21
-84.010652771753044
 31
0.0
  0
LINE
  5
509
  8
0
  6
CONTINUOUS
 62
     7
 10
45.3352264226968771
 20
-82.4106517644345757
 30
0.0
 11
45.3352264226968771
 21
-80.8856520266950128
 31
0.0
  0
LINE
  5
50A
  8
0
  6
CONTINUOUS
 62
     7
 10
45.3352264226968771
 20
-80.8856520266950128
 30
0.0
 11
46.3352284492547923
 21
-80.6010361226021956
 31
0.0
  0
LINE
  5
50B
  8
0
  6
CONTINUOUS
 62
     7
 10
46.3352284492547923
 20
-79.2202647240578841
 30
0.0
 11
45.3352264226968771
 21
-78.9356525452554223
 31
0.0
  0
LINE
  5
50C
  8
0
  6
CONTINUOUS
 62
     7
 10
45.3352264226968771
 20
-78.9356525452554223
 30
0.0
 11
45.3352264226968771
 21
-77.4106509448706959
 31
0.0
  0
LINE
  5
50D
  8
0
  6
CONTINUOUS
 62
     7
 10
45.5987385572488719
 20
-75.8106518001973626
 30
0.0
 11
46.3352284492547923
 21
-75.6010371656835218
 31
0.0
  0
LINE
  5
50E
  8
0
  6
CONTINUOUS
 62
     7
 10
45.3352264226968771
 20
-73.9356517256915708
 30
0.0
 11
46.3352284492547923
 21
-74.2202676297843453
 31
0.0
  0
LINE
  5
50F
  8
0
  6
CONTINUOUS
 62
     7
 10
45.3352264226968771
 20
-72.4106519879520079
 30
0.0
 11
45.3352264226968771
 21
-73.9356517256915708
 31
0.0
  0
LINE
  5
510
  8
0
  6
CONTINUOUS
 62
     7
 10
46.3352284492547923
 20
-72.4106501253068444
 30
0.0
 11
45.3352264226968771
 21
-72.4106519879520079
 31
0.0
  0
LINE
  5
511
  8
0
  6
CONTINUOUS
 62
     7
 10
45.3352264226968771
 20
-87.4106544466436048
 30
0.0
 11
46.3352284492547923
 21
-87.4106544466436048
 31
0.0
  0
LINE
  5
512
  8
0
  6
CONTINUOUS
 62
     7
 10
45.3352264226968771
 20
-85.8856509836137434
 30
0.0
 11
45.3352264226968771
 21
-87.4106544466436048
 31
0.0
  0
LINE
  5
513
  8
0
  6
CONTINUOUS
 62
     7
 10
46.1352250637109691
 20
-7.6606530161321293
 30
0.0
 11
46.3352284492547923
 21
-7.6606530161321293
 31
0.0
  0
LINE
  5
514
  8
0
  6
CONTINUOUS
 62
     7
 10
46.1352250637109691
 20
-25.1606512279927692
 30
0.0
 11
46.3352284492547923
 21
-25.1606512279927692
 31
0.0
  0
LINE
  5
515
  8
0
  6
CONTINUOUS
 62
     7
 10
45.8352274359758383
 20
-24.5606522472321984
 30
0.0
 11
45.8352274359758383
 21
-23.7606517435729501
 31
0.0
  0
LINE
  5
516
  8
0
  6
CONTINUOUS
 62
     7
 10
45.8352274359758383
 20
-24.8606517376124891
 30
0.0
 11
45.8352274359758383
 21
-24.5606522472321984
 31
0.0
  0
ARC
  5
517
  8
0
  6
CONTINUOUS
 62
     7
 10
46.1352266611154604
 20
-24.8606516154228991
 30
0.0
 40
0.3000000000000114
 50
180.0
 51
270.0
  0
LINE
  5
518
  8
0
  6
CONTINUOUS
 62
     7
 10
45.8352274359758383
 20
-23.7606517435729501
 30
0.0
 11
45.8352274359758383
 21
-23.4606522531926593
 31
0.0
  0
ARC
  5
519
  8
0
  6
CONTINUOUS
 62
     7
 10
46.1352266611154604
 20
-23.4606516154229006
 30
0.0
 40
0.3000000000000114
 50
90.0
 51
180.0
  0
LINE
  5
51A
  8
0
  6
CONTINUOUS
 62
     7
 10
45.8352274359758383
 20
-21.3606520952403507
 30
0.0
 11
45.8352274359758383
 21
-21.0606507422149214
 31
0.0
  0
ARC
  5
51B
  8
0
  6
CONTINUOUS
 62
     7
 10
46.1352266611154604
 20
-21.3606516154228991
 30
0.0
 40
0.3000000000000114
 50
180.0
 51
228.189685104115398
  0
LINE
  5
51C
  8
0
  6
CONTINUOUS
 62
     7
 10
45.8352274359758383
 20
-21.0606507422149214
 30
0.0
 11
45.8352274359758383
 21
-20.2606521012008187
 31
0.0
  0
LINE
  5
51D
  8
0
  6
CONTINUOUS
 62
     7
 10
45.8352274359758383
 20
-20.2606521012008187
 30
0.0
 11
45.8352274359758383
 21
-19.9606507481754001
 31
0.0
  0
ARC
  5
51E
  8
0
  6
CONTINUOUS
 62
     7
 10
46.1352266611154604
 20
-19.9606516154229006
 30
0.0
 40
0.3000000000000114
 50
90.0
 51
180.0
  0
LINE
  5
51F
  8
0
  6
CONTINUOUS
 62
     7
 10
45.8352274359758383
 20
-17.86065245286823
 30
0.0
 11
45.8352274359758383
 21
-17.5606510998428007
 31
0.0
  0
ARC
  5
520
  8
0
  6
CONTINUOUS
 62
     7
 10
46.1352266611154604
 20
-17.8606516154228707
 30
0.0
 40
0.3000000000000114
 50
180.0
 51
270.0
  0
LINE
  5
521
  8
0
  6
CONTINUOUS
 62
     7
 10
45.8352274359758383
 20
-17.5606510998428007
 30
0.0
 11
45.8352274359758383
 21
-16.7606524588287016
 31
0.0
  0
LINE
  5
522
  8
0
  6
CONTINUOUS
 62
     7
 10
45.8352274359758383
 20
-16.7606524588287016
 30
0.0
 11
45.8352274359758383
 21
-16.4606511058032687
 31
0.0
  0
ARC
  5
523
  8
0
  6
CONTINUOUS
 62
     7
 10
46.1352266611154604
 20
-16.4606516154229006
 30
0.0
 40
0.3000000000000126
 50
131.8103148958828115
 51
180.0
  0
LINE
  5
524
  8
0
  6
CONTINUOUS
 62
     7
 10
46.1352250637109691
 20
-12.6606519730508502
 30
0.0
 11
46.3352284492547923
 21
-12.6606519730508502
 31
0.0
  0
LINE
  5
525
  8
0
  6
CONTINUOUS
 62
     7
 10
45.8352274359758383
 20
-14.0606533201158204
 30
0.0
 11
45.8352274359758383
 21
-13.2606509538114192
 31
0.0
  0
LINE
  5
526
  8
0
  6
CONTINUOUS
 62
     7
 10
45.8352274359758383
 20
-14.3606509478509601
 30
0.0
 11
45.8352274359758383
 21
-14.0606533201158204
 31
0.0
  0
ARC
  5
527
  8
0
  6
CONTINUOUS
 62
     7
 10
46.1352266611154604
 20
-14.3606516154228796
 30
0.0
 40
0.3000000000000114
 50
180.0
 51
270.0
  0
LINE
  5
528
  8
0
  6
CONTINUOUS
 62
     7
 10
45.8352274359758383
 20
-13.2606509538114192
 30
0.0
 11
45.8352274359758383
 21
-12.9606533260762795
 31
0.0
  0
ARC
  5
529
  8
0
  6
CONTINUOUS
 62
     7
 10
46.1352266611154604
 20
-12.9606516154229006
 30
0.0
 40
0.3000000000000114
 50
90.0
 51
180.0
  0
LINE
  5
52A
  8
0
  6
CONTINUOUS
 62
     7
 10
45.8352274359758383
 20
-10.8606513054788305
 30
0.0
 11
45.8352274359758383
 21
-10.5606499524533906
 31
0.0
  0
ARC
  5
52B
  8
0
  6
CONTINUOUS
 62
     7
 10
46.1352266611154604
 20
-10.8606516154228796
 30
0.0
 40
0.3000000000000126
 50
180.0000000000054001
 51
228.1896851041171885
  0
LINE
  5
52C
  8
0
  6
CONTINUOUS
 62
     7
 10
45.8352274359758383
 20
-9.7606513114392897
 30
0.0
 11
45.8352274359758383
 21
-9.4606499584138515
 31
0.0
  0
ARC
  5
52D
  8
0
  6
CONTINUOUS
 62
     7
 10
46.1352266611154604
 20
-9.4606516154229041
 30
0.0
 40
0.3000000000000126
 50
131.8103148958828115
 51
180.0
  0
LINE
  5
52E
  8
0
  6
CONTINUOUS
 62
     7
 10
45.8352274359758383
 20
-10.5606499524533906
 30
0.0
 11
45.8352274359758383
 21
-9.7606513114392897
 31
0.0
  0
LINE
  5
52F
  8
0
  6
CONTINUOUS
 62
     7
 10
45.8352274359758383
 20
-7.0606503100812574
 30
0.0
 11
45.8352274359758383
 21
-6.2606516690671574
 31
0.0
  0
LINE
  5
530
  8
0
  6
CONTINUOUS
 62
     7
 10
45.8352274359758383
 20
-7.3606516631066921
 30
0.0
 11
45.8352274359758383
 21
-7.0606503100812574
 31
0.0
  0
ARC
  5
531
  8
0
  6
CONTINUOUS
 62
     7
 10
46.1352266611154604
 20
-7.3606516154229098
 30
0.0
 40
0.3000000000000114
 50
180.0
 51
270.0
  0
LINE
  5
532
  8
0
  6
CONTINUOUS
 62
     7
 10
45.8352274359758383
 20
-6.2606516690671574
 30
0.0
 11
45.8352274359758383
 21
-5.960650316041721
 31
0.0
  0
ARC
  5
533
  8
0
  6
CONTINUOUS
 62
     7
 10
46.1352266611154604
 20
-5.9606516154229032
 30
0.0
 40
0.3000000000000114
 50
90.0
 51
180.0
  0
LINE
  5
534
  8
0
  6
CONTINUOUS
 62
     7
 10
54.3352297605569774
 20
5.0893494574606271
 30
0.0
 11
146.5352267237003048
 21
5.0893494574606271
 31
0.0
  0
LINE
  5
535
  8
0
  6
CONTINUOUS
 62
     7
 10
54.3352297605569774
 20
3.589350142914042
 30
0.0
 11
54.3352297605569774
 21
5.0893494574606271
 31
0.0
  0
ARC
  5
536
  8
0
  6
CONTINUOUS
 62
     7
 10
143.8352266611157972
 20
-88.9106516154229496
 30
0.0
 40
1.0
 50
270.0
 51
0.0000000000004071
  0
LINE
  5
537
  8
0
  6
CONTINUOUS
 62
     7
 10
144.8352258862551025
 20
-88.910650035899863
 30
0.0
 11
144.8352258862551025
 21
-88.4106527479112003
 31
0.0
  0
LINE
  5
538
  8
0
  6
CONTINUOUS
 62
     7
 10
144.8352258862551025
 20
-88.4106527479112003
 30
0.0
 11
133.3352267952259069
 21
-88.4106527479112003
 31
0.0
  0
ARC
  5
539
  8
0
  6
CONTINUOUS
 62
     7
 10
133.3352266611157972
 20
-90.9106516154229354
 30
0.0
 40
2.5
 50
90.0
 51
179.9999999999994031
  0
LINE
  5
53A
  8
0
  6
CONTINUOUS
 62
     7
 10
130.8352268511052898
 20
-90.9106503637253951
 30
0.0
 11
130.8352268511052898
 21
-92.8471419425428053
 31
0.0
  0
ARC
  5
53B
  8
0
  6
CONTINUOUS
 62
     7
 10
132.8352266611157972
 20
-92.8471432885266807
 30
0.0
 40
2.0
 50
179.9999999999994031
 51
255.5224878140701037
  0
ARC
  5
53C
  8
0
  6
CONTINUOUS
 62
     7
 10
133.3352266611157972
 20
-90.9106516154229354
 30
0.0
 40
4.0000000000000018
 50
255.5224878140708995
 51
277.6052421768816885
  0
LINE
  5
53D
  8
0
  6
CONTINUOUS
 62
     7
 10
133.8646147610243133
 20
-94.8754656525075575
 30
0.0
 11
144.8352258862551025
 21
-93.4106517048299168
 31
0.0
  0
LINE
  5
53E
  8
0
  6
CONTINUOUS
 62
     7
 10
144.8352258862551025
 20
-93.4106517048299168
 30
0.0
 11
144.8352258862551025
 21
-92.9106506915509556
 31
0.0
  0
ARC
  5
53F
  8
0
  6
CONTINUOUS
 62
     7
 10
143.8352266611157972
 20
-92.9106516154229496
 30
0.0
 40
1.0
 50
0.0000000000008142
 51
90.0
  0
LINE
  5
540
  8
0
  6
CONTINUOUS
 62
     7
 10
143.835227584987507
 20
-91.9106523902833601
 30
0.0
 11
134.0852264524991995
 21
-91.9106523902833601
 31
0.0
  0
ARC
  5
541
  8
0
  6
CONTINUOUS
 62
     7
 10
133.3352266611157972
 20
-90.9106516154229354
 30
0.0
 40
1.25
 50
53.1301023541557811
 51
306.8698976458442189
  0
LINE
  5
542
  8
0
  6
CONTINUOUS
 62
     7
 10
134.0852264524991995
 20
-89.9106520624577854
 30
0.0
 11
143.835227584987507
 21
-89.9106520624577854
 31
0.0
  0
LINE
  5
543
  8
0
  6
CONTINUOUS
 62
     7
 10
143.835227584987507
 20
-2.9106508405625959
 30
0.0
 11
134.0852264524991995
 21
-2.9106508405625959
 31
0.0
  0
ARC
  5
544
  8
0
  6
CONTINUOUS
 62
     7
 10
143.8352266611157972
 20
-1.910651615422978
 30
0.0
 40
1.0
 50
270.0
 51
0.0
  0
LINE
  5
545
  8
0
  6
CONTINUOUS
 62
     7
 10
144.8352258862551025
 20
-1.41065152601601
 30
0.0
 11
144.8352258862551025
 21
-1.9106525392949709
 31
0.0
  0
LINE
  5
546
  8
0
  6
CONTINUOUS
 62
     7
 10
133.8646147610243133
 20
0.0541624216616015
 30
0.0
 11
144.8352258862551025
 21
-1.41065152601601
 31
0.0
  0
ARC
  5
547
  8
0
  6
CONTINUOUS
 62
     7
 10
133.3352266611157972
 20
-3.910651615422978
 30
0.0
 40
4.0000000000000044
 50
82.39475782311915
 51
104.4775121859298963
  0
ARC
  5
548
  8
0
  6
CONTINUOUS
 62
     7
 10
132.8352266611157972
 20
-1.9741599423192611
 30
0.0
 40
2.0
 50
104.4775121859298963
 51
179.9999999999992042
  0
LINE
  5
549
  8
0
  6
CONTINUOUS
 62
     7
 10
130.8352268511052898
 20
-3.9106528671205179
 30
0.0
 11
130.8352268511052898
 21
-1.9741612883031501
 31
0.0
  0
ARC
  5
54A
  8
0
  6
CONTINUOUS
 62
     7
 10
133.3352266611157972
 20
-3.910651615422978
 30
0.0
 40
2.5
 50
179.9999999999994031
 51
270.0000000000013074
  0
LINE
  5
54B
  8
0
  6
CONTINUOUS
 62
     7
 10
144.8352258862551025
 20
-6.4106504829347273
 30
0.0
 11
133.3352267952259069
 21
-6.4106504829347273
 31
0.0
  0
LINE
  5
54C
  8
0
  6
CONTINUOUS
 62
     7
 10
144.8352258862551025
 20
-5.9106531949460637
 30
0.0
 11
144.8352258862551025
 21
-6.4106504829347273
 31
0.0
  0
ARC
  5
54D
  8
0
  6
CONTINUOUS
 62
     7
 10
143.8352266611157972
 20
-5.9106516154229771
 30
0.0
 40
1.0
 50
0.0
 51
90.0
  0
LINE
  5
54E
  8
0
  6
CONTINUOUS
 62
     7
 10
134.0852264524991995
 20
-4.9106511683881413
 30
0.0
 11
143.835227584987507
 21
-4.9106511683881413
 31
0.0
  0
ARC
  5
54F
  8
0
  6
CONTINUOUS
 62
     7
 10
133.3352266611157972
 20
-3.910651615422978
 30
0.0
 40
1.25
 50
53.1301023541559729
 51
306.8698976458447873
  0
LINE
  5
550
  8
0
  6
CONTINUOUS
 62
     7
 10
64.3352266611154704
 20
-2.4106498272836339
 30
0.0
 11
82.3352258862550599
 21
-2.4106498272836339
 31
0.0
  0
LINE
  5
551
  8
0
  6
CONTINUOUS
 62
     7
 10
82.3352258862550599
 20
-2.4106498272836339
 30
0.0
 11
82.3352258862550599
 21
2.0893481163561201
 31
0.0
  0
LINE
  5
552
  8
0
  6
CONTINUOUS
 62
     7
 10
82.3352258862550599
 20
2.0893481163561201
 30
0.0
 11
64.3352266611154704
 21
2.0893481163561201
 31
0.0
  0
LINE
  5
553
  8
0
  6
CONTINUOUS
 62
     7
 10
64.3352266611154704
 20
2.0893481163561201
 30
0.0
 11
64.3352266611154704
 21
-2.4106498272836339
 31
0.0
  0
LINE
  5
554
  8
0
  6
CONTINUOUS
 62
     7
 10
127.8352267086128933
 20
-92.4106534035622929
 30
0.0
 11
127.8352267086128933
 21
-96.9106513472020339
 31
0.0
  0
LINE
  5
555
  8
0
  6
CONTINUOUS
 62
     7
 10
109.8352257372435048
 20
-92.4106534035622929
 30
0.0
 11
127.8352267086128933
 21
-92.4106534035622929
 31
0.0
  0
LINE
  5
556
  8
0
  6
CONTINUOUS
 62
     7
 10
109.8352257372435048
 20
-96.9106513472020339
 30
0.0
 11
109.8352257372435048
 21
-92.4106534035622929
 31
0.0
  0
LINE
  5
557
  8
0
  6
CONTINUOUS
 62
     7
 10
127.8352267086128933
 20
-96.9106513472020339
 30
0.0
 11
109.8352257372435048
 21
-96.9106513472020339
 31
0.0
  0
LINE
  5
558
  8
0
  6
CONTINUOUS
 62
     7
 10
82.3352258862550599
 20
-92.4106534035622929
 30
0.0
 11
82.3352258862550599
 21
-96.9106513472020339
 31
0.0
  0
LINE
  5
559
  8
0
  6
CONTINUOUS
 62
     7
 10
64.3352266611154704
 20
-92.4106534035622929
 30
0.0
 11
82.3352258862550599
 21
-92.4106534035622929
 31
0.0
  0
LINE
  5
55A
  8
0
  6
CONTINUOUS
 62
     7
 10
64.3352266611154704
 20
-96.9106513472020339
 30
0.0
 11
64.3352266611154704
 21
-92.4106534035622929
 31
0.0
  0
LINE
  5
55B
  8
0
  6
CONTINUOUS
 62
     7
 10
82.3352258862550599
 20
-96.9106513472020339
 30
0.0
 11
64.3352266611154704
 21
-96.9106513472020339
 31
0.0
  0
LINE
  5
55C
  8
0
  6
CONTINUOUS
 62
     7
 10
54.3352297605569774
 20
-98.4106533737599705
 30
0.0
 11
54.3352297605569774
 21
-80.4106514366090295
 31
0.0
  0
LINE
  5
55D
  8
0
  6
CONTINUOUS
 62
     7
 10
54.3352297605569774
 20
-80.4106514366090295
 30
0.0
 11
55.3352243365343028
 21
-80.4106514366090295
 31
0.0
  0
LINE
  5
55E
  8
0
  6
CONTINUOUS
 62
     7
 10
55.3352243365343028
 20
-80.4106514366090295
 30
0.0
 11
55.3352243365343028
 21
-74.4106523157775541
 31
0.0
  0
LINE
  5
55F
  8
0
  6
CONTINUOUS
 62
     7
 10
54.3352297605569774
 20
-74.4106523157775541
 30
0.0
 11
55.3352243365343028
 21
-74.4106523157775541
 31
0.0
  0
LINE
  5
560
  8
0
  6
CONTINUOUS
 62
     7
 10
54.3352297605569774
 20
-74.4106523157775541
 30
0.0
 11
54.3352297605569774
 21
-20.4106509150683912
 31
0.0
  0
LINE
  5
561
  8
0
  6
CONTINUOUS
 62
     7
 10
54.3352297605569774
 20
-20.4106509150683912
 30
0.0
 11
55.3352243365343028
 21
-20.4106509150683912
 31
0.0
  0
LINE
  5
562
  8
0
  6
CONTINUOUS
 62
     7
 10
55.3352243365343028
 20
-14.4106517942369106
 30
0.0
 11
55.3352243365343028
 21
-20.4106509150683912
 31
0.0
  0
LINE
  5
563
  8
0
  6
CONTINUOUS
 62
     7
 10
54.3352297605569774
 20
-14.4106517942369106
 30
0.0
 11
55.3352243365343028
 21
-14.4106517942369106
 31
0.0
  0
LINE
  5
564
  8
0
  6
CONTINUOUS
 62
     7
 10
79.3352272571619039
 20
-10.4106511385858198
 30
0.0
 11
146.5352267237003048
 21
-10.4106511385858198
 31
0.0
  0
ARC
  5
565
  8
0
  6
CONTINUOUS
 62
     7
 10
79.3352266611157262
 20
-22.4106516154229816
 30
0.0
 40
12.0000000000000302
 50
89.99999999999946
 51
180.0000000000015064
  0
LINE
  5
566
  8
0
  6
CONTINUOUS
 62
     7
 10
67.3352252902086406
 20
-72.4106519879520079
 30
0.0
 11
67.3352252902086406
 21
-22.4106512428939304
 31
0.0
  0
ARC
  5
567
  8
0
  6
CONTINUOUS
 62
     7
 10
79.3352266611157262
 20
-72.410651615422978
 30
0.0
 40
12.0000000000000107
 50
179.9999999999992895
 51
270.0000000000013074
  0
LINE
  5
568
  8
0
  6
CONTINUOUS
 62
     7
 10
79.3352272571619039
 20
-84.410652092260122
 30
0.0
 11
146.5352267237003048
 21
-84.410652092260122
 31
0.0
  0
LINE
  5
569
  8
0
  6
CONTINUOUS
 62
     7
 10
109.8352257372435048
 20
-2.4106498272836339
 30
0.0
 11
127.8352267086128933
 21
-2.4106498272836339
 31
0.0
  0
LINE
  5
56A
  8
0
  6
CONTINUOUS
 62
     7
 10
127.8352267086128933
 20
-2.4106498272836339
 30
0.0
 11
127.8352267086128933
 21
2.0893481163561201
 31
0.0
  0
LINE
  5
56B
  8
0
  6
CONTINUOUS
 62
     7
 10
127.8352267086128933
 20
2.0893481163561201
 30
0.0
 11
109.8352257372435048
 21
2.0893481163561201
 31
0.0
  0
LINE
  5
56C
  8
0
  6
CONTINUOUS
 62
     7
 10
109.8352257372435048
 20
2.0893481163561201
 30
0.0
 11
109.8352257372435048
 21
-2.4106498272836339
 31
0.0
  0
LINE
  5
56D
  8
0
  6
CONTINUOUS
 62
     7
 10
54.3352297605569774
 20
-14.4106517942369106
 30
0.0
 11
54.3352297605569774
 21
3.589350142914042
 31
0.0
  0
POLYLINE
  8
0
  5
838
  62
7
  66
     1
 10
0.000000
 20
0.000000
 30
0.000000
  70
     8
  0
VERTEX
  8
0
  5
839
 10
147.277
 20
-12.4107
 30
0.000000
  70
    32
  0
VERTEX
  8
0
  5
83A
 10
147.277
 20
-12.4023
 30
0.000000
  70
    32
  0
VERTEX
  8
0
  5
83B
 10
147.277
 20
-12.3939
 30
0.000000
  70
    32
  0
VERTEX
  8
0
  5
83C
 10
147.276
 20
-12.3855
 30
0.000000
  70
    32
  0
VERTEX
  8
0
  5
83D
 10
147.276
 20
-12.3772
 30
0.000000
  70
    32
  0
VERTEX
  8
0
  5
83E
 10
147.276
 20
-12.3688
 30
0.000000
  70
    32
  0
VERTEX
  8
0
  5
83F
 10
147.276
 20
-12.3604
 30
0.000000
  70
    32
  0
VERTEX
  8
0
  5
840
 10
147.276
 20
-12.3521
 30
0.000000
  70
    32
  0
VERTEX
  8
0
  5
841
 10
147.276
 20
-12.3437
 30
0.000000
  70
    32
  0
VERTEX
  8
0
  5
842
 10
147.276
 20
-12.3353
 30
0.000000
  70
    32
  0
VERTEX
  8
0
  5
843
 10
147.275
 20
-12.3269
 30
0.000000
  70
    32
  0
VERTEX
  8
0
  5
844
 10
147.275
 20
-12.3186
 30
0.000000
  70
    32
  0
VERTEX
  8
0
  5
845
 10
147.275
 20
-12.3102
 30
0.000000
  70
    32
  0
VERTEX
  8
0
  5
846
 10
147.275
 20
-12.3018
 30
0.000000
  70
    32
  0
VERTEX
  8
0
  5
847
 10
147.275
 20
-12.2935
 30
0.000000
  70
    32
  0
VERTEX
  8
0
  5
848
 10
147.275
 20
-12.2851
 30
0.000000
  70
    32
  0
VERTEX
  8
0
  5
849
 10
147.275
 20
-12.2767
 30
0.000000
  70
    32
  0
VERTEX
  8
0
  5
84A
 10
147.274
 20
-12.2684
 30
0.000000
  70
    32
  0
VERTEX
  8
0
  5
84B
 10
147.274
 20
-12.2600
 30
0.000000
  70
    32
  0
VERTEX
  8
0
  5
84C
 10
147.274
 20
-12.2517
 30
0.000000
  70
    32
  0
VERTEX
  8
0
  5
84D
 10
147.274
 20
-12.2433
 30
0.000000
  70
    32
  0
VERTEX
  8
0
  5
84E
 10
147.274
 20
-12.2349
 30
0.000000
  70
    32
  0
VERTEX
  8
0
  5
84F
 10
147.274
 20
-12.2266
 30
0.000000
  70
    32
  0
VERTEX
  8
0
  5
850
 10
147.273
 20
-12.2182
 30
0.000000
  70
    32
  0
VERTEX
  8
0
  5
851
 10
147.273
 20
-12.2099
 30
0.000000
  70
    32
  0
VERTEX
  8
0
  5
852
 10
147.273
 20
-12.2015
 30
0.000000
  70
    32
  0
VERTEX
  8
0
  5
853
 10
147.273
 20
-12.1932
 30
0.000000
  70
    32
  0
VERTEX
  8
0
  5
854
 10
147.273
 20
-12.1848
 30
0.000000
  70
    32
  0
VERTEX
  8
0
  5
855
 10
147.273
 20
-12.1765
 30
0.000000
  70
    32
  0
VERTEX
  8
0
  5
856
 10
147.272
 20
-12.1681
 30
0.000000
  70
    32
  0
VERTEX
  8
0
  5
857
 10
147.272
 20
-12.1598
 30
0.000000
  70
    32
  0
VERTEX
  8
0
  5
858
 10
147.272
 20
-12.1514
 30
0.000000
  70
    32
  0
VERTEX
  8
0
  5
859
 10
147.272
 20
-12.1431
 30
0.000000
  70
    32
  0
VERTEX
  8
0
  5
85A
 10
147.272
 20
-12.1347
 30
0.000000
  70
    32
  0
VERTEX
  8
0
  5
85B
 10
147.271
 20
-12.1264
 30
0.000000
  70
    32
  0
VERTEX
  8
0
  5
85C
 10
147.271
 20
-12.1181
 30
0.000000
  70
    32
  0
VERTEX
  8
0
  5
85D
 10
147.271
 20
-12.1097
 30
0.000000
  70
    32
  0
VERTEX
  8
0
  5
85E
 10
147.271
 20
-12.1014
 30
0.000000
  70
    32
  0
VERTEX
  8
0
  5
85F
 10
147.270
 20
-12.0931
 30
0.000000
  70
    32
  0
VERTEX
  8
0
  5
860
 10
147.270
 20
-12.0847
 30
0.000000
  70
    32
  0
VERTEX
  8
0
  5
861
 10
147.270
 20
-12.0764
 30
0.000000
  70
    32
  0
VERTEX
  8
0
  5
862
 10
147.270
 20
-12.0681
 30
0.000000
  70
    32
  0
VERTEX
  8
0
  5
863
 10
147.269
 20
-12.0598
 30
0.000000
  70
    32
  0
VERTEX
  8
0
  5
864
 10
147.269
 20
-12.0514
 30
0.000000
  70
    32
  0
VERTEX
  8
0
  5
865
 10
147.269
 20
-12.0431
 30
0.000000
  70
    32
  0
VERTEX
  8
0
  5
866
 10
147.269
 20
-12.0348
 30
0.000000
  70
    32
  0
VERTEX
  8
0
  5
867
 10
147.268
 20
-12.0265
 30
0.000000
  70
    32
  0
VERTEX
  8
0
  5
868
 10
147.268
 20
-12.0182
 30
0.000000
  70
    32
  0
VERTEX
  8
0
  5
869
 10
147.268
 20
-12.0099
 30
0.000000
  70
    32
  0
VERTEX
  8
0
  5
86A
 10
147.267
 20
-12.0016
 30
0.000000
  70
    32
  0
VERTEX
  8
0
  5
86B
 10
147.267
 20
-11.9933
 30
0.000000
  70
    32
  0
VERTEX
  8
0
  5
86C
 10
147.267
 20
-11.9850
 30
0.000000
  70
    32
  0
VERTEX
  8
0
  5
86D
 10
147.266
 20
-11.9767
 30
0.000000
  70
    32
  0
VERTEX
  8
0
  5
86E
 10
147.266
 20
-11.9684
 30
0.000000
  70
    32
  0
VERTEX
  8
0
  5
86F
 10
147.266
 20
-11.9601
 30
0.000000
  70
    32
  0
VERTEX
  8
0
  5
870
 10
147.265
 20
-11.9518
 30
0.000000
  70
    32
  0
VERTEX
  8
0
  5
871
 10
147.265
 20
-11.9435
 30
0.000000
  70
    32
  0
VERTEX
  8
0
  5
872
 10
147.265
 20
-11.9353
 30
0.000000
  70
    32
  0
VERTEX
  8
0
  5
873
 10
147.264
 20
-11.9270
 30
0.000000
  70
    32
  0
VERTEX
  8
0
  5
874
 10
147.264
 20
-11.9187
 30
0.000000
  70
    32
  0
VERTEX
  8
0
  5
875
 10
147.264
 20
-11.9104
 30
0.000000
  70
    32
  0
VERTEX
  8
0
  5
876
 10
147.263
 20
-11.9022
 30
0.000000
  70
    32
  0
VERTEX
  8
0
  5
877
 10
147.263
 20
-11.8939
 30
0.000000
  70
    32
  0
VERTEX
  8
0
  5
878
 10
147.262
 20
-11.8857
 30
0.000000
  70
    32
  0
VERTEX
  8
0
  5
879
 10
147.262
 20
-11.8774
 30
0.000000
  70
    32
  0
VERTEX
  8
0
  5
87A
 10
147.261
 20
-11.8691
 30
0.000000
  70
    32
  0
VERTEX
  8
0
  5
87B
 10
147.261
 20
-11.8609
 30
0.000000
  70
    32
  0
VERTEX
  8
0
  5
87C
 10
147.261
 20
-11.8527
 30
0.000000
  70
    32
  0
VERTEX
  8
0
  5
87D
 10
147.260
 20
-11.8444
 30
0.000000
  70
    32
  0
VERTEX
  8
0
  5
87E
 10
147.260
 20
-11.8362
 30
0.000000
  70
    32
  0
VERTEX
  8
0
  5
87F
 10
147.259
 20
-11.8279
 30
0.000000
  70
    32
  0
VERTEX
  8
0
  5
880
 10
147.259
 20
-11.8197
 30
0.000000
  70
    32
  0
VERTEX
  8
0
  5
881
 10
147.258
 20
-11.8115
 30
0.000000
  70
    32
  0
VERTEX
  8
0
  5
882
 10
147.258
 20
-11.8033
 30
0.000000
  70
    32
  0
VERTEX
  8
0
  5
883
 10
147.257
 20
-11.7951
 30
0.000000
  70
    32
  0
VERTEX
  8
0
  5
884
 10
147.257
 20
-11.7869
 30
0.000000
  70
    32
  0
VERTEX
  8
0
  5
885
 10
147.256
 20
-11.7786
 30
0.000000
  70
    32
  0
VERTEX
  8
0
  5
886
 10
147.256
 20
-11.7704
 30
0.000000
  70
    32
  0
VERTEX
  8
0
  5
887
 10
147.255
 20
-11.7622
 30
0.000000
  70
    32
  0
VERTEX
  8
0
  5
888
 10
147.254
 20
-11.7541
 30
0.000000
  70
    32
  0
VERTEX
  8
0
  5
889
 10
147.254
 20
-11.7459
 30
0.000000
  70
    32
  0
VERTEX
  8
0
  5
88A
 10
147.253
 20
-11.7377
 30
0.000000
  70
    32
  0
VERTEX
  8
0
  5
88B
 10
147.253
 20
-11.7295
 30
0.000000
  70
    32
  0
VERTEX
  8
0
  5
88C
 10
147.252
 20
-11.7213
 30
0.000000
  70
    32
  0
VERTEX
  8
0
  5
88D
 10
147.251
 20
-11.7132
 30
0.000000
  70
    32
  0
VERTEX
  8
0
  5
88E
 10
147.251
 20
-11.7050
 30
0.000000
  70
    32
  0
VERTEX
  8
0
  5
88F
 10
147.250
 20
-11.6968
 30
0.000000
  70
    32
  0
VERTEX
  8
0
  5
890
 10
147.249
 20
-11.6887
 30
0.000000
  70
    32
  0
VERTEX
  8
0
  5
891
 10
147.249
 20
-11.6805
 30
0.000000
  70
    32
  0
VERTEX
  8
0
  5
892
 10
147.248
 20
-11.6724
 30
0.000000
  70
    32
  0
VERTEX
  8
0
  5
893
 10
147.247
 20
-11.6642
 30
0.000000
  70
    32
  0
VERTEX
  8
0
  5
894
 10
147.246
 20
-11.6561
 30
0.000000
  70
    32
  0
VERTEX
  8
0
  5
895
 10
147.246
 20
-11.6480
 30
0.000000
  70
    32
  0
VERTEX
  8
0
  5
896
 10
147.245
 20
-11.6399
 30
0.000000
  70
    32
  0
VERTEX
  8
0
  5
897
 10
147.244
 20
-11.6317
 30
0.000000
  70
    32
  0
VERTEX
  8
0
  5
898
 10
147.243
 20
-11.6236
 30
0.000000
  70
    32
  0
VERTEX
  8
0
  5
899
 10
147.243
 20
-11.6155
 30
0.000000
  70
    32
  0
VERTEX
  8
0
  5
89A
 10
147.242
 20
-11.6074
 30
0.000000
  70
    32
  0
VERTEX
  8
0
  5
89B
 10
147.241
 20
-11.5993
 30
0.000000
  70
    32
  0
VERTEX
  8
0
  5
89C
 10
147.240
 20
-11.5912
 30
0.000000
  70
    32
  0
VERTEX
  8
0
  5
89D
 10
147.239
 20
-11.5831
 30
0.000000
  70
    32
  0
VERTEX
  8
0
  5
89E
 10
147.238
 20
-11.5751
 30
0.000000
  70
    32
  0
VERTEX
  8
0
  5
89F
 10
147.238
 20
-11.5670
 30
0.000000
  70
    32
  0
VERTEX
  8
0
  5
8A0
 10
147.237
 20
-11.5589
 30
0.000000
  70
    32
  0
VERTEX
  8
0
  5
8A1
 10
147.236
 20
-11.5509
 30
0.000000
  70
    32
  0
VERTEX
  8
0
  5
8A2
 10
147.235
 20
-11.5428
 30
0.000000
  70
    32
  0
VERTEX
  8
0
  5
8A3
 10
147.234
 20
-11.5348
 30
0.000000
  70
    32
  0
VERTEX
  8
0
  5
8A4
 10
147.233
 20
-11.5267
 30
0.000000
  70
    32
  0
VERTEX
  8
0
  5
8A5
 10
147.232
 20
-11.5187
 30
0.000000
  70
    32
  0
VERTEX
  8
0
  5
8A6
 10
147.231
 20
-11.5106
 30
0.000000
  70
    32
  0
VERTEX
  8
0
  5
8A7
 10
147.230
 20
-11.5026
 30
0.000000
  70
    32
  0
VERTEX
  8
0
  5
8A8
 10
147.229
 20
-11.4946
 30
0.000000
  70
    32
  0
VERTEX
  8
0
  5
8A9
 10
147.228
 20
-11.4866
 30
0.000000
  70
    32
  0
VERTEX
  8
0
  5
8AA
 10
147.227
 20
-11.4786
 30
0.000000
  70
    32
  0
VERTEX
  8
0
  5
8AB
 10
147.226
 20
-11.4706
 30
0.000000
  70
    32
  0
VERTEX
  8
0
  5
8AC
 10
147.225
 20
-11.4626
 30
0.000000
  70
    32
  0
VERTEX
  8
0
  5
8AD
 10
147.224
 20
-11.4546
 30
0.000000
  70
    32
  0
VERTEX
  8
0
  5
8AE
 10
147.223
 20
-11.4466
 30
0.000000
  70
    32
  0
VERTEX
  8
0
  5
8AF
 10
147.221
 20
-11.4387
 30
0.000000
  70
    32
  0
VERTEX
  8
0
  5
8B0
 10
147.220
 20
-11.4307
 30
0.000000
  70
    32
  0
VERTEX
  8
0
  5
8B1
 10
147.219
 20
-11.4227
 30
0.000000
  70
    32
  0
VERTEX
  8
0
  5
8B2
 10
147.218
 20
-11.4148
 30
0.000000
  70
    32
  0
VERTEX
  8
0
  5
8B3
 10
147.217
 20
-11.4068
 30
0.000000
  70
    32
  0
VERTEX
  8
0
  5
8B4
 10
147.216
 20
-11.3989
 30
0.000000
  70
    32
  0
VERTEX
  8
0
  5
8B5
 10
147.214
 20
-11.3910
 30
0.000000
  70
    32
  0
VERTEX
  8
0
  5
8B6
 10
147.213
 20
-11.3830
 30
0.000000
  70
    32
  0
VERTEX
  8
0
  5
8B7
 10
147.212
 20
-11.3751
 30
0.000000
  70
    32
  0
VERTEX
  8
0
  5
8B8
 10
147.210
 20
-11.3672
 30
0.000000
  70
    32
  0
VERTEX
  8
0
  5
8B9
 10
147.209
 20
-11.3593
 30
0.000000
  70
    32
  0
VERTEX
  8
0
  5
8BA
 10
147.208
 20
-11.3514
 30
0.000000
  70
    32
  0
VERTEX
  8
0
  5
8BB
 10
147.206
 20
-11.3435
 30
0.000000
  70
    32
  0
VERTEX
  8
0
  5
8BC
 10
147.205
 20
-11.3357
 30
0.000000
  70
    32
  0
VERTEX
  8
0
  5
8BD
 10
147.204
 20
-11.3278
 30
0.000000
  70
    32
  0
VERTEX
  8
0
  5
8BE
 10
147.202
 20
-11.3199
 30
0.000000
  70
    32
  0
VERTEX
  8
0
  5
8BF
 10
147.201
 20
-11.3121
 30
0.000000
  70
    32
  0
VERTEX
  8
0
  5
8C0
 10
147.199
 20
-11.3042
 30
0.000000
  70
    32
  0
VERTEX
  8
0
  5
8C1
 10
147.198
 20
-11.2964
 30
0.000000
  70
    32
  0
VERTEX
  8
0
  5
8C2
 10
147.197
 20
-11.2885
 30
0.000000
  70
    32
  0
VERTEX
  8
0
  5
8C3
 10
147.195
 20
-11.2807
 30
0.000000
  70
    32
  0
VERTEX
  8
0
  5
8C4
 10
147.193
 20
-11.2729
 30
0.000000
  70
    32
  0
VERTEX
  8
0
  5
8C5
 10
147.192
 20
-11.2651
 30
0.000000
  70
    32
  0
VERTEX
  8
0
  5
8C6
 10
147.190
 20
-11.2573
 30
0.000000
  70
    32
  0
VERTEX
  8
0
  5
8C7
 10
147.189
 20
-11.2495
 30
0.000000
  70
    32
  0
VERTEX
  8
0
  5
8C8
 10
147.187
 20
-11.2417
 30
0.000000
  70
    32
  0
VERTEX
  8
0
  5
8C9
 10
147.186
 20
-11.2339
 30
0.000000
  70
    32
  0
VERTEX
  8
0
  5
8CA
 10
147.184
 20
-11.2262
 30
0.000000
  70
    32
  0
VERTEX
  8
0
  5
8CB
 10
147.182
 20
-11.2184
 30
0.000000
  70
    32
  0
VERTEX
  8
0
  5
8CC
 10
147.181
 20
-11.2107
 30
0.000000
  70
    32
  0
VERTEX
  8
0
  5
8CD
 10
147.179
 20
-11.2029
 30
0.000000
  70
    32
  0
VERTEX
  8
0
  5
8CE
 10
147.177
 20
-11.1952
 30
0.000000
  70
    32
  0
VERTEX
  8
0
  5
8CF
 10
147.175
 20
-11.1875
 30
0.000000
  70
    32
  0
VERTEX
  8
0
  5
8D0
 10
147.174
 20
-11.1798
 30
0.000000
  70
    32
  0
VERTEX
  8
0
  5
8D1
 10
147.172
 20
-11.1720
 30
0.000000
  70
    32
  0
VERTEX
  8
0
  5
8D2
 10
147.170
 20
-11.1643
 30
0.000000
  70
    32
  0
VERTEX
  8
0
  5
8D3
 10
147.168
 20
-11.1567
 30
0.000000
  70
    32
  0
VERTEX
  8
0
  5
8D4
 10
147.166
 20
-11.1490
 30
0.000000
  70
    32
  0
VERTEX
  8
0
  5
8D5
 10
147.164
 20
-11.1413
 30
0.000000
  70
    32
  0
VERTEX
  8
0
  5
8D6
 10
147.163
 20
-11.1336
 30
0.000000
  70
    32
  0
VERTEX
  8
0
  5
8D7
 10
147.161
 20
-11.1260
 30
0.000000
  70
    32
  0
VERTEX
  8
0
  5
8D8
 10
147.159
 20
-11.1183
 30
0.000000
  70
    32
  0
VERTEX
  8
0
  5
8D9
 10
147.157
 20
-11.1107
 30
0.000000
  70
    32
  0
VERTEX
  8
0
  5
8DA
 10
147.155
 20
-11.1031
 30
0.000000
  70
    32
  0
VERTEX
  8
0
  5
8DB
 10
147.153
 20
-11.0955
 30
0.000000
  70
    32
  0
VERTEX
  8
0
  5
8DC
 10
147.151
 20
-11.0879
 30
0.000000
  70
    32
  0
VERTEX
  8
0
  5
8DD
 10
147.149
 20
-11.0803
 30
0.000000
  70
    32
  0
VERTEX
  8
0
  5
8DE
 10
147.146
 20
-11.0727
 30
0.000000
  70
    32
  0
VERTEX
  8
0
  5
8DF
 10
147.144
 20
-11.0651
 30
0.000000
  70
    32
  0
VERTEX
  8
0
  5
8E0
 10
147.142
 20
-11.0576
 30
0.000000
  70
    32
  0
VERTEX
  8
0
  5
8E1
 10
147.140
 20
-11.0500
 30
0.000000
  70
    32
  0
VERTEX
  8
0
  5
8E2
 10
147.138
 20
-11.0425
 30
0.000000
  70
    32
  0
VERTEX
  8
0
  5
8E3
 10
147.135
 20
-11.0350
 30
0.000000
  70
    32
  0
VERTEX
  8
0
  5
8E4
 10
147.133
 20
-11.0274
 30
0.000000
  70
    32
  0
VERTEX
  8
0
  5
8E5
 10
147.131
 20
-11.0199
 30
0.000000
  70
    32
  0
VERTEX
  8
0
  5
8E6
 10
147.129
 20
-11.0124
 30
0.000000
  70
    32
  0
VERTEX
  8
0
  5
8E7
 10
147.126
 20
-11.0050
 30
0.000000
  70
    32
  0
VERTEX
  8
0
  5
8E8
 10
147.124
 20
-10.9975
 30
0.000000
  70
    32
  0
VERTEX
  8
0
  5
8E9
 10
147.121
 20
-10.9900
 30
0.000000
  70
    32
  0
VERTEX
  8
0
  5
8EA
 10
147.119
 20
-10.9826
 30
0.000000
  70
    32
  0
VERTEX
  8
0
  5
8EB
 10
147.116
 20
-10.9752
 30
0.000000
  70
    32
  0
VERTEX
  8
0
  5
8EC
 10
147.114
 20
-10.9677
 30
0.000000
  70
    32
  0
VERTEX
  8
0
  5
8ED
 10
147.111
 20
-10.9603
 30
0.000000
  70
    32
  0
VERTEX
  8
0
  5
8EE
 10
147.109
 20
-10.9530
 30
0.000000
  70
    32
  0
VERTEX
  8
0
  5
8EF
 10
147.106
 20
-10.9456
 30
0.000000
  70
    32
  0
VERTEX
  8
0
  5
8F0
 10
147.103
 20
-10.9382
 30
0.000000
  70
    32
  0
VERTEX
  8
0
  5
8F1
 10
147.101
 20
-10.9309
 30
0.000000
  70
    32
  0
VERTEX
  8
0
  5
8F2
 10
147.098
 20
-10.9235
 30
0.000000
  70
    32
  0
VERTEX
  8
0
  5
8F3
 10
147.095
 20
-10.9162
 30
0.000000
  70
    32
  0
VERTEX
  8
0
  5
8F4
 10
147.092
 20
-10.9089
 30
0.000000
  70
    32
  0
VERTEX
  8
0
  5
8F5
 10
147.089
 20
-10.9016
 30
0.000000
  70
    32
  0
VERTEX
  8
0
  5
8F6
 10
147.087
 20
-10.8943
 30
0.000000
  70
    32
  0
VERTEX
  8
0
  5
8F7
 10
147.084
 20
-10.8870
 30
0.000000
  70
    32
  0
VERTEX
  8
0
  5
8F8
 10
147.081
 20
-10.8798
 30
0.000000
  70
    32
  0
VERTEX
  8
0
  5
8F9
 10
147.078
 20
-10.8725
 30
0.000000
  70
    32
  0
VERTEX
  8
0
  5
8FA
 10
147.075
 20
-10.8653
 30
0.000000
  70
    32
  0
VERTEX
  8
0
  5
8FB
 10
147.071
 20
-10.8581
 30
0.000000
  70
    32
  0
VERTEX
  8
0
  5
8FC
 10
147.068
 20
-10.8509
 30
0.000000
  70
    32
  0
VERTEX
  8
0
  5
8FD
 10
147.065
 20
-10.8438
 30
0.000000
  70
    32
  0
VERTEX
  8
0
  5
8FE
 10
147.062
 20
-10.8366
 30
0.000000
  70
    32
  0
VERTEX
  8
0
  5
8FF
 10
147.059
 20
-10.8295
 30
0.000000
  70
    32
  0
VERTEX
  8
0
  5
900
 10
147.055
 20
-10.8224
 30
0.000000
  70
    32
  0
VERTEX
  8
0
  5
901
 10
147.052
 20
-10.8153
 30
0.000000
  70
    32
  0
VERTEX
  8
0
  5
902
 10
147.049
 20
-10.8082
 30
0.000000
  70
    32
  0
VERTEX
  8
0
  5
903
 10
147.045
 20
-10.8012
 30
0.000000
  70
    32
  0
VERTEX
  8
0
  5
904
 10
147.042
 20
-10.7941
 30
0.000000
  70
    32
  0
VERTEX
  8
0
  5
905
 10
147.038
 20
-10.7871
 30
0.000000
  70
    32
  0
VERTEX
  8
0
  5
906
 10
147.035
 20
-10.7802
 30
0.000000
  70
    32
  0
VERTEX
  8
0
  5
907
 10
147.031
 20
-10.7732
 30
0.000000
  70
    32
  0
VERTEX
  8
0
  5
908
 10
147.027
 20
-10.7663
 30
0.000000
  70
    32
  0
VERTEX
  8
0
  5
909
 10
147.024
 20
-10.7594
 30
0.000000
  70
    32
  0
VERTEX
  8
0
  5
90A
 10
147.020
 20
-10.7526
 30
0.000000
  70
    32
  0
VERTEX
  8
0
  5
90B
 10
147.016
 20
-10.7458
 30
0.000000
  70
    32
  0
VERTEX
  8
0
  5
90C
 10
147.012
 20
-10.7390
 30
0.000000
  70
    32
  0
VERTEX
  8
0
  5
90D
 10
147.008
 20
-10.7322
 30
0.000000
  70
    32
  0
VERTEX
  8
0
  5
90E
 10
147.004
 20
-10.7255
 30
0.000000
  70
    32
  0
VERTEX
  8
0
  5
90F
 10
147.000
 20
-10.7188
 30
0.000000
  70
    32
  0
VERTEX
  8
0
  5
910
 10
146.996
 20
-10.7122
 30
0.000000
  70
    32
  0
VERTEX
  8
0
  5
911
 10
146.992
 20
-10.7055
 30
0.000000
  70
    32
  0
VERTEX
  8
0
  5
912
 10
146.988
 20
-10.6989
 30
0.000000
  70
    32
  0
VERTEX
  8
0
  5
913
 10
146.984
 20
-10.6924
 30
0.000000
  70
    32
  0
VERTEX
  8
0
  5
914
 10
146.979
 20
-10.6859
 30
0.000000
  70
    32
  0
VERTEX
  8
0
  5
915
 10
146.975
 20
-10.6794
 30
0.000000
  70
    32
  0
VERTEX
  8
0
  5
916
 10
146.971
 20
-10.6730
 30
0.000000
  70
    32
  0
VERTEX
  8
0
  5
917
 10
146.966
 20
-10.6666
 30
0.000000
  70
    32
  0
VERTEX
  8
0
  5
918
 10
146.962
 20
-10.6603
 30
0.000000
  70
    32
  0
VERTEX
  8
0
  5
919
 10
146.957
 20
-10.6540
 30
0.000000
  70
    32
  0
VERTEX
  8
0
  5
91A
 10
146.952
 20
-10.6477
 30
0.000000
  70
    32
  0
VERTEX
  8
0
  5
91B
 10
146.948
 20
-10.6415
 30
0.000000
  70
    32
  0
VERTEX
  8
0
  5
91C
 10
146.943
 20
-10.6354
 30
0.000000
  70
    32
  0
VERTEX
  8
0
  5
91D
 10
146.938
 20
-10.6293
 30
0.000000
  70
    32
  0
VERTEX
  8
0
  5
91E
 10
146.933
 20
-10.6232
 30
0.000000
  70
    32
  0
VERTEX
  8
0
  5
91F
 10
146.928
 20
-10.6172
 30
0.000000
  70
    32
  0
VERTEX
  8
0
  5
920
 10
146.923
 20
-10.6112
 30
0.000000
  70
    32
  0
VERTEX
  8
0
  5
921
 10
146.918
 20
-10.6053
 30
0.000000
  70
    32
  0
VERTEX
  8
0
  5
922
 10
146.913
 20
-10.5994
 30
0.000000
  70
    32
  0
VERTEX
  8
0
  5
923
 10
146.908
 20
-10.5936
 30
0.000000
  70
    32
  0
VERTEX
  8
0
  5
924
 10
146.903
 20
-10.5878
 30
0.000000
  70
    32
  0
VERTEX
  8
0
  5
925
 10
146.897
 20
-10.5821
 30
0.000000
  70
    32
  0
VERTEX
  8
0
  5
926
 10
146.892
 20
-10.5765
 30
0.000000
  70
    32
  0
VERTEX
  8
0
  5
927
 10
146.886
 20
-10.5709
 30
0.000000
  70
    32
  0
VERTEX
  8
0
  5
928
 10
146.881
 20
-10.5654
 30
0.000000
  70
    32
  0
VERTEX
  8
0
  5
929
 10
146.875
 20
-10.5599
 30
0.000000
  70
    32
  0
VERTEX
  8
0
  5
92A
 10
146.870
 20
-10.5545
 30
0.000000
  70
    32
  0
VERTEX
  8
0
  5
92B
 10
146.864
 20
-10.5491
 30
0.000000
  70
    32
  0
VERTEX
  8
0
  5
92C
 10
146.858
 20
-10.5438
 30
0.000000
  70
    32
  0
VERTEX
  8
0
  5
92D
 10
146.852
 20
-10.5386
 30
0.000000
  70
    32
  0
VERTEX
  8
0
  5
92E
 10
146.846
 20
-10.5334
 30
0.000000
  70
    32
  0
VERTEX
  8
0
  5
92F
 10
146.840
 20
-10.5283
 30
0.000000
  70
    32
  0
VERTEX
  8
0
  5
930
 10
146.834
 20
-10.5233
 30
0.000000
  70
    32
  0
VERTEX
  8
0
  5
931
 10
146.828
 20
-10.5184
 30
0.000000
  70
    32
  0
VERTEX
  8
0
  5
932
 10
146.822
 20
-10.5135
 30
0.000000
  70
    32
  0
VERTEX
  8
0
  5
933
 10
146.815
 20
-10.5087
 30
0.000000
  70
    32
  0
VERTEX
  8
0
  5
934
 10
146.809
 20
-10.5040
 30
0.000000
  70
    32
  0
VERTEX
  8
0
  5
935
 10
146.802
 20
-10.4994
 30
0.000000
  70
    32
  0
VERTEX
  8
0
  5
936
 10
146.796
 20
-10.4948
 30
0.000000
  70
    32
  0
VERTEX
  8
0
  5
937
 10
146.789
 20
-10.4903
 30
0.000000
  70
    32
  0
VERTEX
  8
0
  5
938
 10
146.783
 20
-10.4860
 30
0.000000
  70
    32
  0
VERTEX
  8
0
  5
939
 10
146.776
 20
-10.4817
 30
0.000000
  70
    32
  0
VERTEX
  8
0
  5
93A
 10
146.769
 20
-10.4775
 30
0.000000
  70
    32
  0
VERTEX
  8
0
  5
93B
 10
146.762
 20
-10.4734
 30
0.000000
  70
    32
  0
VERTEX
  8
0
  5
93C
 10
146.755
 20
-10.4694
 30
0.000000
  70
    32
  0
VERTEX
  8
0
  5
93D
 10
146.748
 20
-10.4655
 30
0.000000
  70
    32
  0
VERTEX
  8
0
  5
93E
 10
146.741
 20
-10.4617
 30
0.000000
  70
    32
  0
VERTEX
  8
0
  5
93F
 10
146.733
 20
-10.4580
 30
0.000000
  70
    32
  0
VERTEX
  8
0
  5
940
 10
146.726
 20
-10.4544
 30
0.000000
  70
    32
  0
VERTEX
  8
0
  5
941
 10
146.719
 20
-10.4509
 30
0.000000
  70
    32
  0
VERTEX
  8
0
  5
942
 10
146.711
 20
-10.4476
 30
0.000000
  70
    32
  0
VERTEX
  8
0
  5
943
 10
146.704
 20
-10.4443
 30
0.000000
  70
    32
  0
VERTEX
  8
0
  5
944
 10
146.696
 20
-10.4412
 30
0.000000
  70
    32
  0
VERTEX
  8
0
  5
945
 10
146.688
 20
-10.4383
 30
0.000000
  70
    32
  0
VERTEX
  8
0
  5
946
 10
146.681
 20
-10.4355
 30
0.000000
  70
    32
  0
VERTEX
  8
0
  5
947
 10
146.673
 20
-10.4328
 30
0.000000
  70
    32
  0
VERTEX
  8
0
  5
948
 10
146.665
 20
-10.4303
 30
0.000000
  70
    32
  0
VERTEX
  8
0
  5
949
 10
146.657
 20
-10.4279
 30
0.000000
  70
    32
  0
VERTEX
  8
0
  5
94A
 10
146.649
 20
-10.4257
 30
0.000000
  70
    32
  0
VERTEX
  8
0
  5
94B
 10
146.641
 20
-10.4236
 30
0.000000
  70
    32
  0
VERTEX
  8
0
  5
94C
 10
146.633
 20
-10.4217
 30
0.000000
  70
    32
  0
VERTEX
  8
0
  5
94D
 10
146.625
 20
-10.4200
 30
0.000000
  70
    32
  0
VERTEX
  8
0
  5
94E
 10
146.617
 20
-10.4185
 30
0.000000
  70
    32
  0
VERTEX
  8
0
  5
94F
 10
146.609
 20
-10.4171
 30
0.000000
  70
    32
  0
VERTEX
  8
0
  5
950
 10
146.601
 20
-10.4159
 30
0.000000
  70
    32
  0
VERTEX
  8
0
  5
951
 10
146.593
 20
-10.4149
 30
0.000000
  70
    32
  0
VERTEX
  8
0
  5
952
 10
146.585
 20
-10.4140
 30
0.000000
  70
    32
  0
VERTEX
  8
0
  5
953
 10
146.577
 20
-10.4133
 30
0.000000
  70
    32
  0
VERTEX
  8
0
  5
954
 10
146.568
 20
-10.4126
 30
0.000000
  70
    32
  0
VERTEX
  8
0
  5
955
 10
146.560
 20
-10.4121
 30
0.000000
  70
    32
  0
VERTEX
  8
0
  5
956
 10
146.552
 20
-10.4116
 30
0.000000
  70
    32
  0
VERTEX
  8
0
  5
957
 10
146.544
 20
-10.4111
 30
0.000000
  70
    32
  0
VERTEX
  8
0
  5
958
 10
146.535
 20
-10.4107
 30
0.000000
  70
    32
  0
SEQEND
  8
0
  5
959
  0
ARC
  5
56F
  8
0
  6
CONTINUOUS
 62
     7
 10
85.3352266611157262
 20
-24.4106516154229816
 30
0.0
 40
7.0
 50
90.0
 51
179.9999999999994031
  0
ARC
  5
570
  8
0
  6
CONTINUOUS
 62
     7
 10
146.5352266611157859
 20
-33.160651615422978
 30
0.0
 40
1.5000000000000311
 50
330.0000000000014779
 51
29.9999999999999112
  0
LINE
  5
571
  8
0
  6
CONTINUOUS
 62
     7
 10
147.8342652530963903
 20
-33.9106512652456829
 30
0.0
 11
146.5352267237003048
 21
-33.9106512652456829
 31
0.0
  0
LINE
  5
572
  8
0
  6
CONTINUOUS
 62
     7
 10
147.8342652530963903
 20
-60.9106519656002519
 30
0.0
 11
146.5352267237003048
 21
-60.9106519656002519
 31
0.0
  0
ARC
  5
573
  8
0
  6
CONTINUOUS
 62
     7
 10
146.5352266611157859
 20
-61.6606516154229496
 30
0.0
 40
1.5000000000000251
 50
330.0000000000010232
 51
29.9999999999990017
  0
LINE
  5
574
  8
0
  6
CONTINUOUS
 62
     7
 10
146.5352267237003048
 20
-62.4106512801468369
 30
0.0
 11
147.8342652530963903
 21
-62.4106512801468369
 31
0.0
  0
LINE
  5
575
  8
0
  6
CONTINUOUS
 62
     7
 10
85.3352282406385427
 20
-77.4106509448706959
 30
0.0
 11
146.5352267237003048
 21
-77.4106509448706959
 31
0.0
  0
ARC
  5
576
  8
0
  6
CONTINUOUS
 62
     7
 10
85.3352266611157262
 20
-70.410651615422978
 30
0.0
 40
7.0
 50
179.9999999999994031
 51
270.0000000000009095
  0
LINE
  5
577
  8
0
  6
CONTINUOUS
 62
     7
 10
78.3352252306039816
 20
-70.4106516601264616
 30
0.0
 11
78.3352252306039816
 21
-24.4106515707194802
 31
0.0
  0
LINE
  5
578
  8
0
  6
CONTINUOUS
 62
     7
 10
85.3352282406385427
 20
-17.4106522859752317
 30
0.0
 11
146.5352267237003048
 21
-17.4106522859752317
 31
0.0
  0
LINE
  5
579
  8
0
  6
CONTINUOUS
 62
     7
 10
146.5352267237003048
 20
-32.4106519506990907
 30
0.0
 11
147.8342652530963903
 21
-32.4106519506990907
 31
0.0
  0
POLYLINE
  8
0
  5
95A
  62
7
  66
     1
 10
0.000000
 20
0.000000
 30
0.000000
  70
     8
  0
VERTEX
  8
0
  5
95B
 10
146.535
 20
-17.4107
 30
0.000000
  70
    32
  0
VERTEX
  8
0
  5
95C
 10
146.544
 20
-17.4099
 30
0.000000
  70
    32
  0
VERTEX
  8
0
  5
95D
 10
146.552
 20
-17.4091
 30
0.000000
  70
    32
  0
VERTEX
  8
0
  5
95E
 10
146.560
 20
-17.4083
 30
0.000000
  70
    32
  0
VERTEX
  8
0
  5
95F
 10
146.568
 20
-17.4074
 30
0.000000
  70
    32
  0
VERTEX
  8
0
  5
960
 10
146.577
 20
-17.4065
 30
0.000000
  70
    32
  0
VERTEX
  8
0
  5
961
 10
146.585
 20
-17.4056
 30
0.000000
  70
    32
  0
VERTEX
  8
0
  5
962
 10
146.593
 20
-17.4045
 30
0.000000
  70
    32
  0
VERTEX
  8
0
  5
963
 10
146.601
 20
-17.4034
 30
0.000000
  70
    32
  0
VERTEX
  8
0
  5
964
 10
146.610
 20
-17.4022
 30
0.000000
  70
    32
  0
VERTEX
  8
0
  5
965
 10
146.618
 20
-17.4009
 30
0.000000
  70
    32
  0
VERTEX
  8
0
  5
966
 10
146.626
 20
-17.3995
 30
0.000000
  70
    32
  0
VERTEX
  8
0
  5
967
 10
146.634
 20
-17.3980
 30
0.000000
  70
    32
  0
VERTEX
  8
0
  5
968
 10
146.642
 20
-17.3963
 30
0.000000
  70
    32
  0
VERTEX
  8
0
  5
969
 10
146.650
 20
-17.3945
 30
0.000000
  70
    32
  0
VERTEX
  8
0
  5
96A
 10
146.658
 20
-17.3925
 30
0.000000
  70
    32
  0
VERTEX
  8
0
  5
96B
 10
146.666
 20
-17.3904
 30
0.000000
  70
    32
  0
VERTEX
  8
0
  5
96C
 10
146.674
 20
-17.3881
 30
0.000000
  70
    32
  0
VERTEX
  8
0
  5
96D
 10
146.681
 20
-17.3856
 30
0.000000
  70
    32
  0
VERTEX
  8
0
  5
96E
 10
146.689
 20
-17.3829
 30
0.000000
  70
    32
  0
VERTEX
  8
0
  5
96F
 10
146.697
 20
-17.3800
 30
0.000000
  70
    32
  0
VERTEX
  8
0
  5
970
 10
146.704
 20
-17.3770
 30
0.000000
  70
    32
  0
VERTEX
  8
0
  5
971
 10
146.712
 20
-17.3739
 30
0.000000
  70
    32
  0
VERTEX
  8
0
  5
972
 10
146.719
 20
-17.3706
 30
0.000000
  70
    32
  0
VERTEX
  8
0
  5
973
 10
146.726
 20
-17.3671
 30
0.000000
  70
    32
  0
VERTEX
  8
0
  5
974
 10
146.734
 20
-17.3636
 30
0.000000
  70
    32
  0
VERTEX
  8
0
  5
975
 10
146.741
 20
-17.3599
 30
0.000000
  70
    32
  0
VERTEX
  8
0
  5
976
 10
146.748
 20
-17.3560
 30
0.000000
  70
    32
  0
VERTEX
  8
0
  5
977
 10
146.755
 20
-17.3521
 30
0.000000
  70
    32
  0
VERTEX
  8
0
  5
978
 10
146.762
 20
-17.3480
 30
0.000000
  70
    32
  0
VERTEX
  8
0
  5
979
 10
146.769
 20
-17.3439
 30
0.000000
  70
    32
  0
VERTEX
  8
0
  5
97A
 10
146.776
 20
-17.3396
 30
0.000000
  70
    32
  0
VERTEX
  8
0
  5
97B
 10
146.783
 20
-17.3353
 30
0.000000
  70
    32
  0
VERTEX
  8
0
  5
97C
 10
146.789
 20
-17.3308
 30
0.000000
  70
    32
  0
VERTEX
  8
0
  5
97D
 10
146.796
 20
-17.3263
 30
0.000000
  70
    32
  0
VERTEX
  8
0
  5
97E
 10
146.803
 20
-17.3217
 30
0.000000
  70
    32
  0
VERTEX
  8
0
  5
97F
 10
146.809
 20
-17.3171
 30
0.000000
  70
    32
  0
VERTEX
  8
0
  5
980
 10
146.816
 20
-17.3123
 30
0.000000
  70
    32
  0
VERTEX
  8
0
  5
981
 10
146.822
 20
-17.3075
 30
0.000000
  70
    32
  0
VERTEX
  8
0
  5
982
 10
146.828
 20
-17.3026
 30
0.000000
  70
    32
  0
VERTEX
  8
0
  5
983
 10
146.834
 20
-17.2976
 30
0.000000
  70
    32
  0
VERTEX
  8
0
  5
984
 10
146.840
 20
-17.2925
 30
0.000000
  70
    32
  0
VERTEX
  8
0
  5
985
 10
146.846
 20
-17.2874
 30
0.000000
  70
    32
  0
VERTEX
  8
0
  5
986
 10
146.852
 20
-17.2822
 30
0.000000
  70
    32
  0
VERTEX
  8
0
  5
987
 10
146.858
 20
-17.2770
 30
0.000000
  70
    32
  0
VERTEX
  8
0
  5
988
 10
146.864
 20
-17.2716
 30
0.000000
  70
    32
  0
VERTEX
  8
0
  5
989
 10
146.870
 20
-17.2663
 30
0.000000
  70
    32
  0
VERTEX
  8
0
  5
98A
 10
146.876
 20
-17.2608
 30
0.000000
  70
    32
  0
VERTEX
  8
0
  5
98B
 10
146.881
 20
-17.2553
 30
0.000000
  70
    32
  0
VERTEX
  8
0
  5
98C
 10
146.887
 20
-17.2497
 30
0.000000
  70
    32
  0
VERTEX
  8
0
  5
98D
 10
146.892
 20
-17.2441
 30
0.000000
  70
    32
  0
VERTEX
  8
0
  5
98E
 10
146.898
 20
-17.2384
 30
0.000000
  70
    32
  0
VERTEX
  8
0
  5
98F
 10
146.903
 20
-17.2327
 30
0.000000
  70
    32
  0
VERTEX
  8
0
  5
990
 10
146.908
 20
-17.2269
 30
0.000000
  70
    32
  0
VERTEX
  8
0
  5
991
 10
146.913
 20
-17.2210
 30
0.000000
  70
    32
  0
VERTEX
  8
0
  5
992
 10
146.919
 20
-17.2151
 30
0.000000
  70
    32
  0
VERTEX
  8
0
  5
993
 10
146.924
 20
-17.2092
 30
0.000000
  70
    32
  0
VERTEX
  8
0
  5
994
 10
146.929
 20
-17.2032
 30
0.000000
  70
    32
  0
VERTEX
  8
0
  5
995
 10
146.934
 20
-17.1972
 30
0.000000
  70
    32
  0
VERTEX
  8
0
  5
996
 10
146.939
 20
-17.1911
 30
0.000000
  70
    32
  0
VERTEX
  8
0
  5
997
 10
146.943
 20
-17.1850
 30
0.000000
  70
    32
  0
VERTEX
  8
0
  5
998
 10
146.948
 20
-17.1788
 30
0.000000
  70
    32
  0
VERTEX
  8
0
  5
999
 10
146.953
 20
-17.1726
 30
0.000000
  70
    32
  0
VERTEX
  8
0
  5
99A
 10
146.957
 20
-17.1663
 30
0.000000
  70
    32
  0
VERTEX
  8
0
  5
99B
 10
146.962
 20
-17.1600
 30
0.000000
  70
    32
  0
VERTEX
  8
0
  5
99C
 10
146.967
 20
-17.1537
 30
0.000000
  70
    32
  0
VERTEX
  8
0
  5
99D
 10
146.971
 20
-17.1473
 30
0.000000
  70
    32
  0
VERTEX
  8
0
  5
99E
 10
146.975
 20
-17.1409
 30
0.000000
  70
    32
  0
VERTEX
  8
0
  5
99F
 10
146.980
 20
-17.1344
 30
0.000000
  70
    32
  0
VERTEX
  8
0
  5
9A0
 10
146.984
 20
-17.1280
 30
0.000000
  70
    32
  0
VERTEX
  8
0
  5
9A1
 10
146.988
 20
-17.1214
 30
0.000000
  70
    32
  0
VERTEX
  8
0
  5
9A2
 10
146.992
 20
-17.1149
 30
0.000000
  70
    32
  0
VERTEX
  8
0
  5
9A3
 10
146.997
 20
-17.1083
 30
0.000000
  70
    32
  0
VERTEX
  8
0
  5
9A4
 10
147.001
 20
-17.1016
 30
0.000000
  70
    32
  0
VERTEX
  8
0
  5
9A5
 10
147.005
 20
-17.0950
 30
0.000000
  70
    32
  0
VERTEX
  8
0
  5
9A6
 10
147.009
 20
-17.0883
 30
0.000000
  70
    32
  0
VERTEX
  8
0
  5
9A7
 10
147.013
 20
-17.0815
 30
0.000000
  70
    32
  0
VERTEX
  8
0
  5
9A8
 10
147.016
 20
-17.0748
 30
0.000000
  70
    32
  0
VERTEX
  8
0
  5
9A9
 10
147.020
 20
-17.0680
 30
0.000000
  70
    32
  0
VERTEX
  8
0
  5
9AA
 10
147.024
 20
-17.0612
 30
0.000000
  70
    32
  0
VERTEX
  8
0
  5
9AB
 10
147.028
 20
-17.0543
 30
0.000000
  70
    32
  0
VERTEX
  8
0
  5
9AC
 10
147.031
 20
-17.0474
 30
0.000000
  70
    32
  0
VERTEX
  8
0
  5
9AD
 10
147.035
 20
-17.0405
 30
0.000000
  70
    32
  0
VERTEX
  8
0
  5
9AE
 10
147.038
 20
-17.0336
 30
0.000000
  70
    32
  0
VERTEX
  8
0
  5
9AF
 10
147.042
 20
-17.0266
 30
0.000000
  70
    32
  0
VERTEX
  8
0
  5
9B0
 10
147.045
 20
-17.0196
 30
0.000000
  70
    32
  0
VERTEX
  8
0
  5
9B1
 10
147.049
 20
-17.0126
 30
0.000000
  70
    32
  0
VERTEX
  8
0
  5
9B2
 10
147.052
 20
-17.0055
 30
0.000000
  70
    32
  0
VERTEX
  8
0
  5
9B3
 10
147.056
 20
-16.9984
 30
0.000000
  70
    32
  0
VERTEX
  8
0
  5
9B4
 10
147.059
 20
-16.9913
 30
0.000000
  70
    32
  0
VERTEX
  8
0
  5
9B5
 10
147.062
 20
-16.9842
 30
0.000000
  70
    32
  0
VERTEX
  8
0
  5
9B6
 10
147.065
 20
-16.9771
 30
0.000000
  70
    32
  0
VERTEX
  8
0
  5
9B7
 10
147.069
 20
-16.9699
 30
0.000000
  70
    32
  0
VERTEX
  8
0
  5
9B8
 10
147.072
 20
-16.9627
 30
0.000000
  70
    32
  0
VERTEX
  8
0
  5
9B9
 10
147.075
 20
-16.9555
 30
0.000000
  70
    32
  0
VERTEX
  8
0
  5
9BA
 10
147.078
 20
-16.9483
 30
0.000000
  70
    32
  0
VERTEX
  8
0
  5
9BB
 10
147.081
 20
-16.9411
 30
0.000000
  70
    32
  0
VERTEX
  8
0
  5
9BC
 10
147.084
 20
-16.9338
 30
0.000000
  70
    32
  0
VERTEX
  8
0
  5
9BD
 10
147.087
 20
-16.9265
 30
0.000000
  70
    32
  0
VERTEX
  8
0
  5
9BE
 10
147.090
 20
-16.9192
 30
0.000000
  70
    32
  0
VERTEX
  8
0
  5
9BF
 10
147.092
 20
-16.9119
 30
0.000000
  70
    32
  0
VERTEX
  8
0
  5
9C0
 10
147.095
 20
-16.9046
 30
0.000000
  70
    32
  0
VERTEX
  8
0
  5
9C1
 10
147.098
 20
-16.8972
 30
0.000000
  70
    32
  0
VERTEX
  8
0
  5
9C2
 10
147.101
 20
-16.8899
 30
0.000000
  70
    32
  0
VERTEX
  8
0
  5
9C3
 10
147.104
 20
-16.8825
 30
0.000000
  70
    32
  0
VERTEX
  8
0
  5
9C4
 10
147.106
 20
-16.8751
 30
0.000000
  70
    32
  0
VERTEX
  8
0
  5
9C5
 10
147.109
 20
-16.8677
 30
0.000000
  70
    32
  0
VERTEX
  8
0
  5
9C6
 10
147.112
 20
-16.8603
 30
0.000000
  70
    32
  0
VERTEX
  8
0
  5
9C7
 10
147.114
 20
-16.8529
 30
0.000000
  70
    32
  0
VERTEX
  8
0
  5
9C8
 10
147.117
 20
-16.8454
 30
0.000000
  70
    32
  0
VERTEX
  8
0
  5
9C9
 10
147.119
 20
-16.8380
 30
0.000000
  70
    32
  0
VERTEX
  8
0
  5
9CA
 10
147.122
 20
-16.8305
 30
0.000000
  70
    32
  0
VERTEX
  8
0
  5
9CB
 10
147.124
 20
-16.8230
 30
0.000000
  70
    32
  0
VERTEX
  8
0
  5
9CC
 10
147.127
 20
-16.8155
 30
0.000000
  70
    32
  0
VERTEX
  8
0
  5
9CD
 10
147.129
 20
-16.8080
 30
0.000000
  70
    32
  0
VERTEX
  8
0
  5
9CE
 10
147.132
 20
-16.8005
 30
0.000000
  70
    32
  0
VERTEX
  8
0
  5
9CF
 10
147.134
 20
-16.7930
 30
0.000000
  70
    32
  0
VERTEX
  8
0
  5
9D0
 10
147.136
 20
-16.7854
 30
0.000000
  70
    32
  0
VERTEX
  8
0
  5
9D1
 10
147.139
 20
-16.7779
 30
0.000000
  70
    32
  0
VERTEX
  8
0
  5
9D2
 10
147.141
 20
-16.7703
 30
0.000000
  70
    32
  0
VERTEX
  8
0
  5
9D3
 10
147.143
 20
-16.7627
 30
0.000000
  70
    32
  0
VERTEX
  8
0
  5
9D4
 10
147.145
 20
-16.7551
 30
0.000000
  70
    32
  0
VERTEX
  8
0
  5
9D5
 10
147.147
 20
-16.7475
 30
0.000000
  70
    32
  0
VERTEX
  8
0
  5
9D6
 10
147.150
 20
-16.7399
 30
0.000000
  70
    32
  0
VERTEX
  8
0
  5
9D7
 10
147.152
 20
-16.7323
 30
0.000000
  70
    32
  0
VERTEX
  8
0
  5
9D8
 10
147.154
 20
-16.7246
 30
0.000000
  70
    32
  0
VERTEX
  8
0
  5
9D9
 10
147.156
 20
-16.7170
 30
0.000000
  70
    32
  0
VERTEX
  8
0
  5
9DA
 10
147.158
 20
-16.7093
 30
0.000000
  70
    32
  0
VERTEX
  8
0
  5
9DB
 10
147.160
 20
-16.7016
 30
0.000000
  70
    32
  0
VERTEX
  8
0
  5
9DC
 10
147.162
 20
-16.6940
 30
0.000000
  70
    32
  0
VERTEX
  8
0
  5
9DD
 10
147.164
 20
-16.6863
 30
0.000000
  70
    32
  0
VERTEX
  8
0
  5
9DE
 10
147.166
 20
-16.6786
 30
0.000000
  70
    32
  0
VERTEX
  8
0
  5
9DF
 10
147.168
 20
-16.6708
 30
0.000000
  70
    32
  0
VERTEX
  8
0
  5
9E0
 10
147.170
 20
-16.6631
 30
0.000000
  70
    32
  0
VERTEX
  8
0
  5
9E1
 10
147.172
 20
-16.6554
 30
0.000000
  70
    32
  0
VERTEX
  8
0
  5
9E2
 10
147.173
 20
-16.6476
 30
0.000000
  70
    32
  0
VERTEX
  8
0
  5
9E3
 10
147.175
 20
-16.6399
 30
0.000000
  70
    32
  0
VERTEX
  8
0
  5
9E4
 10
147.177
 20
-16.6321
 30
0.000000
  70
    32
  0
VERTEX
  8
0
  5
9E5
 10
147.179
 20
-16.6243
 30
0.000000
  70
    32
  0
VERTEX
  8
0
  5
9E6
 10
147.180
 20
-16.6166
 30
0.000000
  70
    32
  0
VERTEX
  8
0
  5
9E7
 10
147.182
 20
-16.6088
 30
0.000000
  70
    32
  0
VERTEX
  8
0
  5
9E8
 10
147.184
 20
-16.6010
 30
0.000000
  70
    32
  0
VERTEX
  8
0
  5
9E9
 10
147.186
 20
-16.5931
 30
0.000000
  70
    32
  0
VERTEX
  8
0
  5
9EA
 10
147.187
 20
-16.5853
 30
0.000000
  70
    32
  0
VERTEX
  8
0
  5
9EB
 10
147.189
 20
-16.5775
 30
0.000000
  70
    32
  0
VERTEX
  8
0
  5
9EC
 10
147.190
 20
-16.5696
 30
0.000000
  70
    32
  0
VERTEX
  8
0
  5
9ED
 10
147.192
 20
-16.5618
 30
0.000000
  70
    32
  0
VERTEX
  8
0
  5
9EE
 10
147.193
 20
-16.5539
 30
0.000000
  70
    32
  0
VERTEX
  8
0
  5
9EF
 10
147.195
 20
-16.5461
 30
0.000000
  70
    32
  0
VERTEX
  8
0
  5
9F0
 10
147.196
 20
-16.5382
 30
0.000000
  70
    32
  0
VERTEX
  8
0
  5
9F1
 10
147.198
 20
-16.5303
 30
0.000000
  70
    32
  0
VERTEX
  8
0
  5
9F2
 10
147.199
 20
-16.5224
 30
0.000000
  70
    32
  0
VERTEX
  8
0
  5
9F3
 10
147.201
 20
-16.5145
 30
0.000000
  70
    32
  0
VERTEX
  8
0
  5
9F4
 10
147.202
 20
-16.5066
 30
0.000000
  70
    32
  0
VERTEX
  8
0
  5
9F5
 10
147.204
 20
-16.4987
 30
0.000000
  70
    32
  0
VERTEX
  8
0
  5
9F6
 10
147.205
 20
-16.4908
 30
0.000000
  70
    32
  0
VERTEX
  8
0
  5
9F7
 10
147.206
 20
-16.4828
 30
0.000000
  70
    32
  0
VERTEX
  8
0
  5
9F8
 10
147.208
 20
-16.4749
 30
0.000000
  70
    32
  0
VERTEX
  8
0
  5
9F9
 10
147.209
 20
-16.4669
 30
0.000000
  70
    32
  0
VERTEX
  8
0
  5
9FA
 10
147.210
 20
-16.4590
 30
0.000000
  70
    32
  0
VERTEX
  8
0
  5
9FB
 10
147.212
 20
-16.4510
 30
0.000000
  70
    32
  0
VERTEX
  8
0
  5
9FC
 10
147.213
 20
-16.4430
 30
0.000000
  70
    32
  0
VERTEX
  8
0
  5
9FD
 10
147.214
 20
-16.4351
 30
0.000000
  70
    32
  0
VERTEX
  8
0
  5
9FE
 10
147.215
 20
-16.4271
 30
0.000000
  70
    32
  0
VERTEX
  8
0
  5
9FF
 10
147.216
 20
-16.4191
 30
0.000000
  70
    32
  0
VERTEX
  8
0
  5
A00
 10
147.218
 20
-16.4111
 30
0.000000
  70
    32
  0
VERTEX
  8
0
  5
A01
 10
147.219
 20
-16.4031
 30
0.000000
  70
    32
  0
VERTEX
  8
0
  5
A02
 10
147.220
 20
-16.3951
 30
0.000000
  70
    32
  0
VERTEX
  8
0
  5
A03
 10
147.221
 20
-16.3871
 30
0.000000
  70
    32
  0
VERTEX
  8
0
  5
A04
 10
147.222
 20
-16.3790
 30
0.000000
  70
    32
  0
VERTEX
  8
0
  5
A05
 10
147.223
 20
-16.3710
 30
0.000000
  70
    32
  0
VERTEX
  8
0
  5
A06
 10
147.224
 20
-16.3630
 30
0.000000
  70
    32
  0
VERTEX
  8
0
  5
A07
 10
147.225
 20
-16.3549
 30
0.000000
  70
    32
  0
VERTEX
  8
0
  5
A08
 10
147.226
 20
-16.3469
 30
0.000000
  70
    32
  0
VERTEX
  8
0
  5
A09
 10
147.227
 20
-16.3388
 30
0.000000
  70
    32
  0
VERTEX
  8
0
  5
A0A
 10
147.228
 20
-16.3308
 30
0.000000
  70
    32
  0
VERTEX
  8
0
  5
A0B
 10
147.229
 20
-16.3227
 30
0.000000
  70
    32
  0
VERTEX
  8
0
  5
A0C
 10
147.230
 20
-16.3147
 30
0.000000
  70
    32
  0
VERTEX
  8
0
  5
A0D
 10
147.231
 20
-16.3066
 30
0.000000
  70
    32
  0
VERTEX
  8
0
  5
A0E
 10
147.232
 20
-16.2985
 30
0.000000
  70
    32
  0
VERTEX
  8
0
  5
A0F
 10
147.233
 20
-16.2904
 30
0.000000
  70
    32
  0
VERTEX
  8
0
  5
A10
 10
147.234
 20
-16.2823
 30
0.000000
  70
    32
  0
VERTEX
  8
0
  5
A11
 10
147.235
 20
-16.2743
 30
0.000000
  70
    32
  0
VERTEX
  8
0
  5
A12
 10
147.236
 20
-16.2662
 30
0.000000
  70
    32
  0
VERTEX
  8
0
  5
A13
 10
147.237
 20
-16.2581
 30
0.000000
  70
    32
  0
VERTEX
  8
0
  5
A14
 10
147.238
 20
-16.2500
 30
0.000000
  70
    32
  0
VERTEX
  8
0
  5
A15
 10
147.238
 20
-16.2418
 30
0.000000
  70
    32
  0
VERTEX
  8
0
  5
A16
 10
147.239
 20
-16.2337
 30
0.000000
  70
    32
  0
VERTEX
  8
0
  5
A17
 10
147.240
 20
-16.2256
 30
0.000000
  70
    32
  0
VERTEX
  8
0
  5
A18
 10
147.241
 20
-16.2175
 30
0.000000
  70
    32
  0
VERTEX
  8
0
  5
A19
 10
147.242
 20
-16.2094
 30
0.000000
  70
    32
  0
VERTEX
  8
0
  5
A1A
 10
147.242
 20
-16.2013
 30
0.000000
  70
    32
  0
VERTEX
  8
0
  5
A1B
 10
147.243
 20
-16.1931
 30
0.000000
  70
    32
  0
VERTEX
  8
0
  5
A1C
 10
147.244
 20
-16.1850
 30
0.000000
  70
    32
  0
VERTEX
  8
0
  5
A1D
 10
147.245
 20
-16.1769
 30
0.000000
  70
    32
  0
VERTEX
  8
0
  5
A1E
 10
147.245
 20
-16.1687
 30
0.000000
  70
    32
  0
VERTEX
  8
0
  5
A1F
 10
147.246
 20
-16.1606
 30
0.000000
  70
    32
  0
VERTEX
  8
0
  5
A20
 10
147.247
 20
-16.1524
 30
0.000000
  70
    32
  0
VERTEX
  8
0
  5
A21
 10
147.247
 20
-16.1443
 30
0.000000
  70
    32
  0
VERTEX
  8
0
  5
A22
 10
147.248
 20
-16.1361
 30
0.000000
  70
    32
  0
VERTEX
  8
0
  5
A23
 10
147.249
 20
-16.1280
 30
0.000000
  70
    32
  0
VERTEX
  8
0
  5
A24
 10
147.249
 20
-16.1198
 30
0.000000
  70
    32
  0
VERTEX
  8
0
  5
A25
 10
147.250
 20
-16.1116
 30
0.000000
  70
    32
  0
VERTEX
  8
0
  5
A26
 10
147.251
 20
-16.1035
 30
0.000000
  70
    32
  0
VERTEX
  8
0
  5
A27
 10
147.251
 20
-16.0953
 30
0.000000
  70
    32
  0
VERTEX
  8
0
  5
A28
 10
147.252
 20
-16.0871
 30
0.000000
  70
    32
  0
VERTEX
  8
0
  5
A29
 10
147.252
 20
-16.0790
 30
0.000000
  70
    32
  0
VERTEX
  8
0
  5
A2A
 10
147.253
 20
-16.0708
 30
0.000000
  70
    32
  0
VERTEX
  8
0
  5
A2B
 10
147.254
 20
-16.0626
 30
0.000000
  70
    32
  0
VERTEX
  8
0
  5
A2C
 10
147.254
 20
-16.0544
 30
0.000000
  70
    32
  0
VERTEX
  8
0
  5
A2D
 10
147.255
 20
-16.0463
 30
0.000000
  70
    32
  0
VERTEX
  8
0
  5
A2E
 10
147.255
 20
-16.0381
 30
0.000000
  70
    32
  0
VERTEX
  8
0
  5
A2F
 10
147.256
 20
-16.0299
 30
0.000000
  70
    32
  0
VERTEX
  8
0
  5
A30
 10
147.256
 20
-16.0217
 30
0.000000
  70
    32
  0
VERTEX
  8
0
  5
A31
 10
147.257
 20
-16.0135
 30
0.000000
  70
    32
  0
VERTEX
  8
0
  5
A32
 10
147.257
 20
-16.0053
 30
0.000000
  70
    32
  0
VERTEX
  8
0
  5
A33
 10
147.258
 20
-15.9971
 30
0.000000
  70
    32
  0
VERTEX
  8
0
  5
A34
 10
147.258
 20
-15.9889
 30
0.000000
  70
    32
  0
VERTEX
  8
0
  5
A35
 10
147.259
 20
-15.9807
 30
0.000000
  70
    32
  0
VERTEX
  8
0
  5
A36
 10
147.259
 20
-15.9725
 30
0.000000
  70
    32
  0
VERTEX
  8
0
  5
A37
 10
147.260
 20
-15.9643
 30
0.000000
  70
    32
  0
VERTEX
  8
0
  5
A38
 10
147.260
 20
-15.9561
 30
0.000000
  70
    32
  0
VERTEX
  8
0
  5
A39
 10
147.261
 20
-15.9478
 30
0.000000
  70
    32
  0
VERTEX
  8
0
  5
A3A
 10
147.261
 20
-15.9396
 30
0.000000
  70
    32
  0
VERTEX
  8
0
  5
A3B
 10
147.261
 20
-15.9314
 30
0.000000
  70
    32
  0
VERTEX
  8
0
  5
A3C
 10
147.262
 20
-15.9232
 30
0.000000
  70
    32
  0
VERTEX
  8
0
  5
A3D
 10
147.262
 20
-15.9150
 30
0.000000
  70
    32
  0
VERTEX
  8
0
  5
A3E
 10
147.263
 20
-15.9067
 30
0.000000
  70
    32
  0
VERTEX
  8
0
  5
A3F
 10
147.263
 20
-15.8985
 30
0.000000
  70
    32
  0
VERTEX
  8
0
  5
A40
 10
147.263
 20
-15.8903
 30
0.000000
  70
    32
  0
VERTEX
  8
0
  5
A41
 10
147.264
 20
-15.8821
 30
0.000000
  70
    32
  0
VERTEX
  8
0
  5
A42
 10
147.264
 20
-15.8738
 30
0.000000
  70
    32
  0
VERTEX
  8
0
  5
A43
 10
147.264
 20
-15.8656
 30
0.000000
  70
    32
  0
VERTEX
  8
0
  5
A44
 10
147.265
 20
-15.8573
 30
0.000000
  70
    32
  0
VERTEX
  8
0
  5
A45
 10
147.265
 20
-15.8491
 30
0.000000
  70
    32
  0
VERTEX
  8
0
  5
A46
 10
147.266
 20
-15.8409
 30
0.000000
  70
    32
  0
VERTEX
  8
0
  5
A47
 10
147.266
 20
-15.8326
 30
0.000000
  70
    32
  0
VERTEX
  8
0
  5
A48
 10
147.266
 20
-15.8244
 30
0.000000
  70
    32
  0
VERTEX
  8
0
  5
A49
 10
147.266
 20
-15.8161
 30
0.000000
  70
    32
  0
VERTEX
  8
0
  5
A4A
 10
147.267
 20
-15.8079
 30
0.000000
  70
    32
  0
VERTEX
  8
0
  5
A4B
 10
147.267
 20
-15.7996
 30
0.000000
  70
    32
  0
VERTEX
  8
0
  5
A4C
 10
147.267
 20
-15.7914
 30
0.000000
  70
    32
  0
VERTEX
  8
0
  5
A4D
 10
147.268
 20
-15.7831
 30
0.000000
  70
    32
  0
VERTEX
  8
0
  5
A4E
 10
147.268
 20
-15.7749
 30
0.000000
  70
    32
  0
VERTEX
  8
0
  5
A4F
 10
147.268
 20
-15.7666
 30
0.000000
  70
    32
  0
VERTEX
  8
0
  5
A50
 10
147.269
 20
-15.7584
 30
0.000000
  70
    32
  0
VERTEX
  8
0
  5
A51
 10
147.269
 20
-15.7501
 30
0.000000
  70
    32
  0
VERTEX
  8
0
  5
A52
 10
147.269
 20
-15.7418
 30
0.000000
  70
    32
  0
VERTEX
  8
0
  5
A53
 10
147.269
 20
-15.7336
 30
0.000000
  70
    32
  0
VERTEX
  8
0
  5
A54
 10
147.270
 20
-15.7253
 30
0.000000
  70
    32
  0
VERTEX
  8
0
  5
A55
 10
147.270
 20
-15.7171
 30
0.000000
  70
    32
  0
VERTEX
  8
0
  5
A56
 10
147.270
 20
-15.7088
 30
0.000000
  70
    32
  0
VERTEX
  8
0
  5
A57
 10
147.270
 20
-15.7005
 30
0.000000
  70
    32
  0
VERTEX
  8
0
  5
A58
 10
147.271
 20
-15.6923
 30
0.000000
  70
    32
  0
VERTEX
  8
0
  5
A59
 10
147.271
 20
-15.6840
 30
0.000000
  70
    32
  0
VERTEX
  8
0
  5
A5A
 10
147.271
 20
-15.6757
 30
0.000000
  70
    32
  0
VERTEX
  8
0
  5
A5B
 10
147.271
 20
-15.6674
 30
0.000000
  70
    32
  0
VERTEX
  8
0
  5
A5C
 10
147.271
 20
-15.6592
 30
0.000000
  70
    32
  0
VERTEX
  8
0
  5
A5D
 10
147.272
 20
-15.6509
 30
0.000000
  70
    32
  0
VERTEX
  8
0
  5
A5E
 10
147.272
 20
-15.6426
 30
0.000000
  70
    32
  0
VERTEX
  8
0
  5
A5F
 10
147.272
 20
-15.6343
 30
0.000000
  70
    32
  0
VERTEX
  8
0
  5
A60
 10
147.272
 20
-15.6261
 30
0.000000
  70
    32
  0
VERTEX
  8
0
  5
A61
 10
147.273
 20
-15.6178
 30
0.000000
  70
    32
  0
VERTEX
  8
0
  5
A62
 10
147.273
 20
-15.6095
 30
0.000000
  70
    32
  0
VERTEX
  8
0
  5
A63
 10
147.273
 20
-15.6012
 30
0.000000
  70
    32
  0
VERTEX
  8
0
  5
A64
 10
147.273
 20
-15.5929
 30
0.000000
  70
    32
  0
VERTEX
  8
0
  5
A65
 10
147.273
 20
-15.5847
 30
0.000000
  70
    32
  0
VERTEX
  8
0
  5
A66
 10
147.273
 20
-15.5764
 30
0.000000
  70
    32
  0
VERTEX
  8
0
  5
A67
 10
147.274
 20
-15.5681
 30
0.000000
  70
    32
  0
VERTEX
  8
0
  5
A68
 10
147.274
 20
-15.5598
 30
0.000000
  70
    32
  0
VERTEX
  8
0
  5
A69
 10
147.274
 20
-15.5515
 30
0.000000
  70
    32
  0
VERTEX
  8
0
  5
A6A
 10
147.274
 20
-15.5433
 30
0.000000
  70
    32
  0
VERTEX
  8
0
  5
A6B
 10
147.274
 20
-15.5350
 30
0.000000
  70
    32
  0
VERTEX
  8
0
  5
A6C
 10
147.275
 20
-15.5267
 30
0.000000
  70
    32
  0
VERTEX
  8
0
  5
A6D
 10
147.275
 20
-15.5184
 30
0.000000
  70
    32
  0
VERTEX
  8
0
  5
A6E
 10
147.275
 20
-15.5101
 30
0.000000
  70
    32
  0
VERTEX
  8
0
  5
A6F
 10
147.275
 20
-15.5018
 30
0.000000
  70
    32
  0
VERTEX
  8
0
  5
A70
 10
147.275
 20
-15.4935
 30
0.000000
  70
    32
  0
VERTEX
  8
0
  5
A71
 10
147.275
 20
-15.4852
 30
0.000000
  70
    32
  0
VERTEX
  8
0
  5
A72
 10
147.276
 20
-15.4770
 30
0.000000
  70
    32
  0
VERTEX
  8
0
  5
A73
 10
147.276
 20
-15.4687
 30
0.000000
  70
    32
  0
VERTEX
  8
0
  5
A74
 10
147.276
 20
-15.4604
 30
0.000000
  70
    32
  0
VERTEX
  8
0
  5
A75
 10
147.276
 20
-15.4521
 30
0.000000
  70
    32
  0
VERTEX
  8
0
  5
A76
 10
147.276
 20
-15.4438
 30
0.000000
  70
    32
  0
VERTEX
  8
0
  5
A77
 10
147.276
 20
-15.4355
 30
0.000000
  70
    32
  0
VERTEX
  8
0
  5
A78
 10
147.277
 20
-15.4272
 30
0.000000
  70
    32
  0
VERTEX
  8
0
  5
A79
 10
147.277
 20
-15.4189
 30
0.000000
  70
    32
  0
VERTEX
  8
0
  5
A7A
 10
147.277
 20
-15.4107
 30
0.000000
  70
    32
  0
SEQEND
  8
0
  5
A7B
  0
LINE
  5
57B
  8
0
  6
CONTINUOUS
 62
     7
 10
146.5352267237003048
 20
-99.9106526883065555
 30
0.0
 11
54.3352297605569774
 21
-99.9106526883065555
 31
0.0
  0
LINE
  5
57C
  8
0
  6
CONTINUOUS
 62
     7
 10
54.3352297605569774
 20
-99.9106526883065555
 30
0.0
 11
54.3352297605569774
 21
-98.4106533737599705
 31
0.0
  0
POLYLINE
  8
0
  5
A7C
  62
7
  66
     1
 10
0.000000
 20
0.000000
 30
0.000000
  70
     8
  0
VERTEX
  8
0
  5
A7D
 10
146.535
 20
-84.4107
 30
0.000000
  70
    32
  0
VERTEX
  8
0
  5
A7E
 10
146.544
 20
-84.4099
 30
0.000000
  70
    32
  0
VERTEX
  8
0
  5
A7F
 10
146.552
 20
-84.4091
 30
0.000000
  70
    32
  0
VERTEX
  8
0
  5
A80
 10
146.560
 20
-84.4083
 30
0.000000
  70
    32
  0
VERTEX
  8
0
  5
A81
 10
146.568
 20
-84.4074
 30
0.000000
  70
    32
  0
VERTEX
  8
0
  5
A82
 10
146.577
 20
-84.4065
 30
0.000000
  70
    32
  0
VERTEX
  8
0
  5
A83
 10
146.585
 20
-84.4056
 30
0.000000
  70
    32
  0
VERTEX
  8
0
  5
A84
 10
146.593
 20
-84.4045
 30
0.000000
  70
    32
  0
VERTEX
  8
0
  5
A85
 10
146.601
 20
-84.4034
 30
0.000000
  70
    32
  0
VERTEX
  8
0
  5
A86
 10
146.610
 20
-84.4022
 30
0.000000
  70
    32
  0
VERTEX
  8
0
  5
A87
 10
146.618
 20
-84.4009
 30
0.000000
  70
    32
  0
VERTEX
  8
0
  5
A88
 10
146.626
 20
-84.3995
 30
0.000000
  70
    32
  0
VERTEX
  8
0
  5
A89
 10
146.634
 20
-84.3980
 30
0.000000
  70
    32
  0
VERTEX
  8
0
  5
A8A
 10
146.642
 20
-84.3963
 30
0.000000
  70
    32
  0
VERTEX
  8
0
  5
A8B
 10
146.650
 20
-84.3945
 30
0.000000
  70
    32
  0
VERTEX
  8
0
  5
A8C
 10
146.658
 20
-84.3925
 30
0.000000
  70
    32
  0
VERTEX
  8
0
  5
A8D
 10
146.666
 20
-84.3904
 30
0.000000
  70
    32
  0
VERTEX
  8
0
  5
A8E
 10
146.674
 20
-84.3881
 30
0.000000
  70
    32
  0
VERTEX
  8
0
  5
A8F
 10
146.681
 20
-84.3856
 30
0.000000
  70
    32
  0
VERTEX
  8
0
  5
A90
 10
146.689
 20
-84.3829
 30
0.000000
  70
    32
  0
VERTEX
  8
0
  5
A91
 10
146.697
 20
-84.3800
 30
0.000000
  70
    32
  0
VERTEX
  8
0
  5
A92
 10
146.704
 20
-84.3770
 30
0.000000
  70
    32
  0
VERTEX
  8
0
  5
A93
 10
146.712
 20
-84.3739
 30
0.000000
  70
    32
  0
VERTEX
  8
0
  5
A94
 10
146.719
 20
-84.3706
 30
0.000000
  70
    32
  0
VERTEX
  8
0
  5
A95
 10
146.726
 20
-84.3671
 30
0.000000
  70
    32
  0
VERTEX
  8
0
  5
A96
 10
146.734
 20
-84.3636
 30
0.000000
  70
    32
  0
VERTEX
  8
0
  5
A97
 10
146.741
 20
-84.3599
 30
0.000000
  70
    32
  0
VERTEX
  8
0
  5
A98
 10
146.748
 20
-84.3560
 30
0.000000
  70
    32
  0
VERTEX
  8
0
  5
A99
 10
146.755
 20
-84.3521
 30
0.000000
  70
    32
  0
VERTEX
  8
0
  5
A9A
 10
146.762
 20
-84.3480
 30
0.000000
  70
    32
  0
VERTEX
  8
0
  5
A9B
 10
146.769
 20
-84.3439
 30
0.000000
  70
    32
  0
VERTEX
  8
0
  5
A9C
 10
146.776
 20
-84.3396
 30
0.000000
  70
    32
  0
VERTEX
  8
0
  5
A9D
 10
146.783
 20
-84.3353
 30
0.000000
  70
    32
  0
VERTEX
  8
0
  5
A9E
 10
146.789
 20
-84.3308
 30
0.000000
  70
    32
  0
VERTEX
  8
0
  5
A9F
 10
146.796
 20
-84.3263
 30
0.000000
  70
    32
  0
VERTEX
  8
0
  5
AA0
 10
146.803
 20
-84.3217
 30
0.000000
  70
    32
  0
VERTEX
  8
0
  5
AA1
 10
146.809
 20
-84.3170
 30
0.000000
  70
    32
  0
VERTEX
  8
0
  5
AA2
 10
146.816
 20
-84.3123
 30
0.000000
  70
    32
  0
VERTEX
  8
0
  5
AA3
 10
146.822
 20
-84.3075
 30
0.000000
  70
    32
  0
VERTEX
  8
0
  5
AA4
 10
146.828
 20
-84.3026
 30
0.000000
  70
    32
  0
VERTEX
  8
0
  5
AA5
 10
146.834
 20
-84.2976
 30
0.000000
  70
    32
  0
VERTEX
  8
0
  5
AA6
 10
146.840
 20
-84.2925
 30
0.000000
  70
    32
  0
VERTEX
  8
0
  5
AA7
 10
146.846
 20
-84.2874
 30
0.000000
  70
    32
  0
VERTEX
  8
0
  5
AA8
 10
146.852
 20
-84.2822
 30
0.000000
  70
    32
  0
VERTEX
  8
0
  5
AA9
 10
146.858
 20
-84.2770
 30
0.000000
  70
    32
  0
VERTEX
  8
0
  5
AAA
 10
146.864
 20
-84.2716
 30
0.000000
  70
    32
  0
VERTEX
  8
0
  5
AAB
 10
146.870
 20
-84.2663
 30
0.000000
  70
    32
  0
VERTEX
  8
0
  5
AAC
 10
146.876
 20
-84.2608
 30
0.000000
  70
    32
  0
VERTEX
  8
0
  5
AAD
 10
146.881
 20
-84.2553
 30
0.000000
  70
    32
  0
VERTEX
  8
0
  5
AAE
 10
146.887
 20
-84.2497
 30
0.000000
  70
    32
  0
VERTEX
  8
0
  5
AAF
 10
146.892
 20
-84.2441
 30
0.000000
  70
    32
  0
VERTEX
  8
0
  5
AB0
 10
146.898
 20
-84.2384
 30
0.000000
  70
    32
  0
VERTEX
  8
0
  5
AB1
 10
146.903
 20
-84.2327
 30
0.000000
  70
    32
  0
VERTEX
  8
0
  5
AB2
 10
146.908
 20
-84.2269
 30
0.000000
  70
    32
  0
VERTEX
  8
0
  5
AB3
 10
146.913
 20
-84.2210
 30
0.000000
  70
    32
  0
VERTEX
  8
0
  5
AB4
 10
146.919
 20
-84.2151
 30
0.000000
  70
    32
  0
VERTEX
  8
0
  5
AB5
 10
146.924
 20
-84.2092
 30
0.000000
  70
    32
  0
VERTEX
  8
0
  5
AB6
 10
146.929
 20
-84.2032
 30
0.000000
  70
    32
  0
VERTEX
  8
0
  5
AB7
 10
146.934
 20
-84.1972
 30
0.000000
  70
    32
  0
VERTEX
  8
0
  5
AB8
 10
146.939
 20
-84.1911
 30
0.000000
  70
    32
  0
VERTEX
  8
0
  5
AB9
 10
146.943
 20
-84.1850
 30
0.000000
  70
    32
  0
VERTEX
  8
0
  5
ABA
 10
146.948
 20
-84.1788
 30
0.000000
  70
    32
  0
VERTEX
  8
0
  5
ABB
 10
146.953
 20
-84.1726
 30
0.000000
  70
    32
  0
VERTEX
  8
0
  5
ABC
 10
146.957
 20
-84.1663
 30
0.000000
  70
    32
  0
VERTEX
  8
0
  5
ABD
 10
146.962
 20
-84.1600
 30
0.000000
  70
    32
  0
VERTEX
  8
0
  5
ABE
 10
146.967
 20
-84.1537
 30
0.000000
  70
    32
  0
VERTEX
  8
0
  5
ABF
 10
146.971
 20
-84.1473
 30
0.000000
  70
    32
  0
VERTEX
  8
0
  5
AC0
 10
146.975
 20
-84.1409
 30
0.000000
  70
    32
  0
VERTEX
  8
0
  5
AC1
 10
146.980
 20
-84.1344
 30
0.000000
  70
    32
  0
VERTEX
  8
0
  5
AC2
 10
146.984
 20
-84.1280
 30
0.000000
  70
    32
  0
VERTEX
  8
0
  5
AC3
 10
146.988
 20
-84.1214
 30
0.000000
  70
    32
  0
VERTEX
  8
0
  5
AC4
 10
146.992
 20
-84.1149
 30
0.000000
  70
    32
  0
VERTEX
  8
0
  5
AC5
 10
146.997
 20
-84.1083
 30
0.000000
  70
    32
  0
VERTEX
  8
0
  5
AC6
 10
147.001
 20
-84.1016
 30
0.000000
  70
    32
  0
VERTEX
  8
0
  5
AC7
 10
147.005
 20
-84.0950
 30
0.000000
  70
    32
  0
VERTEX
  8
0
  5
AC8
 10
147.009
 20
-84.0883
 30
0.000000
  70
    32
  0
VERTEX
  8
0
  5
AC9
 10
147.013
 20
-84.0815
 30
0.000000
  70
    32
  0
VERTEX
  8
0
  5
ACA
 10
147.016
 20
-84.0748
 30
0.000000
  70
    32
  0
VERTEX
  8
0
  5
ACB
 10
147.020
 20
-84.0680
 30
0.000000
  70
    32
  0
VERTEX
  8
0
  5
ACC
 10
147.024
 20
-84.0612
 30
0.000000
  70
    32
  0
VERTEX
  8
0
  5
ACD
 10
147.028
 20
-84.0543
 30
0.000000
  70
    32
  0
VERTEX
  8
0
  5
ACE
 10
147.031
 20
-84.0474
 30
0.000000
  70
    32
  0
VERTEX
  8
0
  5
ACF
 10
147.035
 20
-84.0405
 30
0.000000
  70
    32
  0
VERTEX
  8
0
  5
AD0
 10
147.038
 20
-84.0336
 30
0.000000
  70
    32
  0
VERTEX
  8
0
  5
AD1
 10
147.042
 20
-84.0266
 30
0.000000
  70
    32
  0
VERTEX
  8
0
  5
AD2
 10
147.045
 20
-84.0196
 30
0.000000
  70
    32
  0
VERTEX
  8
0
  5
AD3
 10
147.049
 20
-84.0126
 30
0.000000
  70
    32
  0
VERTEX
  8
0
  5
AD4
 10
147.052
 20
-84.0055
 30
0.000000
  70
    32
  0
VERTEX
  8
0
  5
AD5
 10
147.056
 20
-83.9984
 30
0.000000
  70
    32
  0
VERTEX
  8
0
  5
AD6
 10
147.059
 20
-83.9913
 30
0.000000
  70
    32
  0
VERTEX
  8
0
  5
AD7
 10
147.062
 20
-83.9842
 30
0.000000
  70
    32
  0
VERTEX
  8
0
  5
AD8
 10
147.065
 20
-83.9771
 30
0.000000
  70
    32
  0
VERTEX
  8
0
  5
AD9
 10
147.069
 20
-83.9699
 30
0.000000
  70
    32
  0
VERTEX
  8
0
  5
ADA
 10
147.072
 20
-83.9627
 30
0.000000
  70
    32
  0
VERTEX
  8
0
  5
ADB
 10
147.075
 20
-83.9555
 30
0.000000
  70
    32
  0
VERTEX
  8
0
  5
ADC
 10
147.078
 20
-83.9483
 30
0.000000
  70
    32
  0
VERTEX
  8
0
  5
ADD
 10
147.081
 20
-83.9411
 30
0.000000
  70
    32
  0
VERTEX
  8
0
  5
ADE
 10
147.084
 20
-83.9338
 30
0.000000
  70
    32
  0
VERTEX
  8
0
  5
ADF
 10
147.087
 20
-83.9265
 30
0.000000
  70
    32
  0
VERTEX
  8
0
  5
AE0
 10
147.090
 20
-83.9192
 30
0.000000
  70
    32
  0
VERTEX
  8
0
  5
AE1
 10
147.092
 20
-83.9119
 30
0.000000
  70
    32
  0
VERTEX
  8
0
  5
AE2
 10
147.095
 20
-83.9046
 30
0.000000
  70
    32
  0
VERTEX
  8
0
  5
AE3
 10
147.098
 20
-83.8972
 30
0.000000
  70
    32
  0
VERTEX
  8
0
  5
AE4
 10
147.101
 20
-83.8899
 30
0.000000
  70
    32
  0
VERTEX
  8
0
  5
AE5
 10
147.104
 20
-83.8825
 30
0.000000
  70
    32
  0
VERTEX
  8
0
  5
AE6
 10
147.106
 20
-83.8751
 30
0.000000
  70
    32
  0
VERTEX
  8
0
  5
AE7
 10
147.109
 20
-83.8677
 30
0.000000
  70
    32
  0
VERTEX
  8
0
  5
AE8
 10
147.112
 20
-83.8603
 30
0.000000
  70
    32
  0
VERTEX
  8
0
  5
AE9
 10
147.114
 20
-83.8529
 30
0.000000
  70
    32
  0
VERTEX
  8
0
  5
AEA
 10
147.117
 20
-83.8454
 30
0.000000
  70
    32
  0
VERTEX
  8
0
  5
AEB
 10
147.119
 20
-83.8380
 30
0.000000
  70
    32
  0
VERTEX
  8
0
  5
AEC
 10
147.122
 20
-83.8305
 30
0.000000
  70
    32
  0
VERTEX
  8
0
  5
AED
 10
147.124
 20
-83.8230
 30
0.000000
  70
    32
  0
VERTEX
  8
0
  5
AEE
 10
147.127
 20
-83.8155
 30
0.000000
  70
    32
  0
VERTEX
  8
0
  5
AEF
 10
147.129
 20
-83.8080
 30
0.000000
  70
    32
  0
VERTEX
  8
0
  5
AF0
 10
147.132
 20
-83.8005
 30
0.000000
  70
    32
  0
VERTEX
  8
0
  5
AF1
 10
147.134
 20
-83.7930
 30
0.000000
  70
    32
  0
VERTEX
  8
0
  5
AF2
 10
147.136
 20
-83.7854
 30
0.000000
  70
    32
  0
VERTEX
  8
0
  5
AF3
 10
147.139
 20
-83.7779
 30
0.000000
  70
    32
  0
VERTEX
  8
0
  5
AF4
 10
147.141
 20
-83.7703
 30
0.000000
  70
    32
  0
VERTEX
  8
0
  5
AF5
 10
147.143
 20
-83.7627
 30
0.000000
  70
    32
  0
VERTEX
  8
0
  5
AF6
 10
147.145
 20
-83.7551
 30
0.000000
  70
    32
  0
VERTEX
  8
0
  5
AF7
 10
147.147
 20
-83.7475
 30
0.000000
  70
    32
  0
VERTEX
  8
0
  5
AF8
 10
147.150
 20
-83.7399
 30
0.000000
  70
    32
  0
VERTEX
  8
0
  5
AF9
 10
147.152
 20
-83.7323
 30
0.000000
  70
    32
  0
VERTEX
  8
0
  5
AFA
 10
147.154
 20
-83.7246
 30
0.000000
  70
    32
  0
VERTEX
  8
0
  5
AFB
 10
147.156
 20
-83.7170
 30
0.000000
  70
    32
  0
VERTEX
  8
0
  5
AFC
 10
147.158
 20
-83.7093
 30
0.000000
  70
    32
  0
VERTEX
  8
0
  5
AFD
 10
147.160
 20
-83.7016
 30
0.000000
  70
    32
  0
VERTEX
  8
0
  5
AFE
 10
147.162
 20
-83.6940
 30
0.000000
  70
    32
  0
VERTEX
  8
0
  5
AFF
 10
147.164
 20
-83.6863
 30
0.000000
  70
    32
  0
VERTEX
  8
0
  5
B00
 10
147.166
 20
-83.6786
 30
0.000000
  70
    32
  0
VERTEX
  8
0
  5
B01
 10
147.168
 20
-83.6708
 30
0.000000
  70
    32
  0
VERTEX
  8
0
  5
B02
 10
147.170
 20
-83.6631
 30
0.000000
  70
    32
  0
VERTEX
  8
0
  5
B03
 10
147.172
 20
-83.6554
 30
0.000000
  70
    32
  0
VERTEX
  8
0
  5
B04
 10
147.173
 20
-83.6476
 30
0.000000
  70
    32
  0
VERTEX
  8
0
  5
B05
 10
147.175
 20
-83.6399
 30
0.000000
  70
    32
  0
VERTEX
  8
0
  5
B06
 10
147.177
 20
-83.6321
 30
0.000000
  70
    32
  0
VERTEX
  8
0
  5
B07
 10
147.179
 20
-83.6243
 30
0.000000
  70
    32
  0
VERTEX
  8
0
  5
B08
 10
147.180
 20
-83.6166
 30
0.000000
  70
    32
  0
VERTEX
  8
0
  5
B09
 10
147.182
 20
-83.6088
 30
0.000000
  70
    32
  0
VERTEX
  8
0
  5
B0A
 10
147.184
 20
-83.6010
 30
0.000000
  70
    32
  0
VERTEX
  8
0
  5
B0B
 10
147.186
 20
-83.5931
 30
0.000000
  70
    32
  0
VERTEX
  8
0
  5
B0C
 10
147.187
 20
-83.5853
 30
0.000000
  70
    32
  0
VERTEX
  8
0
  5
B0D
 10
147.189
 20
-83.5775
 30
0.000000
  70
    32
  0
VERTEX
  8
0
  5
B0E
 10
147.190
 20
-83.5696
 30
0.000000
  70
    32
  0
VERTEX
  8
0
  5
B0F
 10
147.192
 20
-83.5618
 30
0.000000
  70
    32
  0
VERTEX
  8
0
  5
B10
 10
147.193
 20
-83.5539
 30
0.000000
  70
    32
  0
VERTEX
  8
0
  5
B11
 10
147.195
 20
-83.5461
 30
0.000000
  70
    32
  0
VERTEX
  8
0
  5
B12
 10
147.196
 20
-83.5382
 30
0.000000
  70
    32
  0
VERTEX
  8
0
  5
B13
 10
147.198
 20
-83.5303
 30
0.000000
  70
    32
  0
VERTEX
  8
0
  5
B14
 10
147.199
 20
-83.5224
 30
0.000000
  70
    32
  0
VERTEX
  8
0
  5
B15
 10
147.201
 20
-83.5145
 30
0.000000
  70
    32
  0
VERTEX
  8
0
  5
B16
 10
147.202
 20
-83.5066
 30
0.000000
  70
    32
  0
VERTEX
  8
0
  5
B17
 10
147.204
 20
-83.4987
 30
0.000000
  70
    32
  0
VERTEX
  8
0
  5
B18
 10
147.205
 20
-83.4908
 30
0.000000
  70
    32
  0
VERTEX
  8
0
  5
B19
 10
147.206
 20
-83.4828
 30
0.000000
  70
    32
  0
VERTEX
  8
0
  5
B1A
 10
147.208
 20
-83.4749
 30
0.000000
  70
    32
  0
VERTEX
  8
0
  5
B1B
 10
147.209
 20
-83.4669
 30
0.000000
  70
    32
  0
VERTEX
  8
0
  5
B1C
 10
147.210
 20
-83.4590
 30
0.000000
  70
    32
  0
VERTEX
  8
0
  5
B1D
 10
147.212
 20
-83.4510
 30
0.000000
  70
    32
  0
VERTEX
  8
0
  5
B1E
 10
147.213
 20
-83.4430
 30
0.000000
  70
    32
  0
VERTEX
  8
0
  5
B1F
 10
147.214
 20
-83.4351
 30
0.000000
  70
    32
  0
VERTEX
  8
0
  5
B20
 10
147.215
 20
-83.4271
 30
0.000000
  70
    32
  0
VERTEX
  8
0
  5
B21
 10
147.216
 20
-83.4191
 30
0.000000
  70
    32
  0
VERTEX
  8
0
  5
B22
 10
147.218
 20
-83.4111
 30
0.000000
  70
    32
  0
VERTEX
  8
0
  5
B23
 10
147.219
 20
-83.4031
 30
0.000000
  70
    32
  0
VERTEX
  8
0
  5
B24
 10
147.220
 20
-83.3951
 30
0.000000
  70
    32
  0
VERTEX
  8
0
  5
B25
 10
147.221
 20
-83.3871
 30
0.000000
  70
    32
  0
VERTEX
  8
0
  5
B26
 10
147.222
 20
-83.3790
 30
0.000000
  70
    32
  0
VERTEX
  8
0
  5
B27
 10
147.223
 20
-83.3710
 30
0.000000
  70
    32
  0
VERTEX
  8
0
  5
B28
 10
147.224
 20
-83.3630
 30
0.000000
  70
    32
  0
VERTEX
  8
0
  5
B29
 10
147.225
 20
-83.3549
 30
0.000000
  70
    32
  0
VERTEX
  8
0
  5
B2A
 10
147.226
 20
-83.3469
 30
0.000000
  70
    32
  0
VERTEX
  8
0
  5
B2B
 10
147.227
 20
-83.3388
 30
0.000000
  70
    32
  0
VERTEX
  8
0
  5
B2C
 10
147.228
 20
-83.3308
 30
0.000000
  70
    32
  0
VERTEX
  8
0
  5
B2D
 10
147.229
 20
-83.3227
 30
0.000000
  70
    32
  0
VERTEX
  8
0
  5
B2E
 10
147.230
 20
-83.3147
 30
0.000000
  70
    32
  0
VERTEX
  8
0
  5
B2F
 10
147.231
 20
-83.3066
 30
0.000000
  70
    32
  0
VERTEX
  8
0
  5
B30
 10
147.232
 20
-83.2985
 30
0.000000
  70
    32
  0
VERTEX
  8
0
  5
B31
 10
147.233
 20
-83.2904
 30
0.000000
  70
    32
  0
VERTEX
  8
0
  5
B32
 10
147.234
 20
-83.2823
 30
0.000000
  70
    32
  0
VERTEX
  8
0
  5
B33
 10
147.235
 20
-83.2743
 30
0.000000
  70
    32
  0
VERTEX
  8
0
  5
B34
 10
147.236
 20
-83.2662
 30
0.000000
  70
    32
  0
VERTEX
  8
0
  5
B35
 10
147.237
 20
-83.2581
 30
0.000000
  70
    32
  0
VERTEX
  8
0
  5
B36
 10
147.238
 20
-83.2500
 30
0.000000
  70
    32
  0
VERTEX
  8
0
  5
B37
 10
147.238
 20
-83.2419
 30
0.000000
  70
    32
  0
VERTEX
  8
0
  5
B38
 10
147.239
 20
-83.2337
 30
0.000000
  70
    32
  0
VERTEX
  8
0
  5
B39
 10
147.240
 20
-83.2256
 30
0.000000
  70
    32
  0
VERTEX
  8
0
  5
B3A
 10
147.241
 20
-83.2175
 30
0.000000
  70
    32
  0
VERTEX
  8
0
  5
B3B
 10
147.242
 20
-83.2094
 30
0.000000
  70
    32
  0
VERTEX
  8
0
  5
B3C
 10
147.242
 20
-83.2013
 30
0.000000
  70
    32
  0
VERTEX
  8
0
  5
B3D
 10
147.243
 20
-83.1931
 30
0.000000
  70
    32
  0
VERTEX
  8
0
  5
B3E
 10
147.244
 20
-83.1850
 30
0.000000
  70
    32
  0
VERTEX
  8
0
  5
B3F
 10
147.245
 20
-83.1769
 30
0.000000
  70
    32
  0
VERTEX
  8
0
  5
B40
 10
147.245
 20
-83.1687
 30
0.000000
  70
    32
  0
VERTEX
  8
0
  5
B41
 10
147.246
 20
-83.1606
 30
0.000000
  70
    32
  0
VERTEX
  8
0
  5
B42
 10
147.247
 20
-83.1524
 30
0.000000
  70
    32
  0
VERTEX
  8
0
  5
B43
 10
147.247
 20
-83.1443
 30
0.000000
  70
    32
  0
VERTEX
  8
0
  5
B44
 10
147.248
 20
-83.1361
 30
0.000000
  70
    32
  0
VERTEX
  8
0
  5
B45
 10
147.249
 20
-83.1280
 30
0.000000
  70
    32
  0
VERTEX
  8
0
  5
B46
 10
147.249
 20
-83.1198
 30
0.000000
  70
    32
  0
VERTEX
  8
0
  5
B47
 10
147.250
 20
-83.1116
 30
0.000000
  70
    32
  0
VERTEX
  8
0
  5
B48
 10
147.251
 20
-83.1035
 30
0.000000
  70
    32
  0
VERTEX
  8
0
  5
B49
 10
147.251
 20
-83.0953
 30
0.000000
  70
    32
  0
VERTEX
  8
0
  5
B4A
 10
147.252
 20
-83.0871
 30
0.000000
  70
    32
  0
VERTEX
  8
0
  5
B4B
 10
147.252
 20
-83.0790
 30
0.000000
  70
    32
  0
VERTEX
  8
0
  5
B4C
 10
147.253
 20
-83.0708
 30
0.000000
  70
    32
  0
VERTEX
  8
0
  5
B4D
 10
147.254
 20
-83.0626
 30
0.000000
  70
    32
  0
VERTEX
  8
0
  5
B4E
 10
147.254
 20
-83.0544
 30
0.000000
  70
    32
  0
VERTEX
  8
0
  5
B4F
 10
147.255
 20
-83.0463
 30
0.000000
  70
    32
  0
VERTEX
  8
0
  5
B50
 10
147.255
 20
-83.0381
 30
0.000000
  70
    32
  0
VERTEX
  8
0
  5
B51
 10
147.256
 20
-83.0299
 30
0.000000
  70
    32
  0
VERTEX
  8
0
  5
B52
 10
147.256
 20
-83.0217
 30
0.000000
  70
    32
  0
VERTEX
  8
0
  5
B53
 10
147.257
 20
-83.0135
 30
0.000000
  70
    32
  0
VERTEX
  8
0
  5
B54
 10
147.257
 20
-83.0053
 30
0.000000
  70
    32
  0
VERTEX
  8
0
  5
B55
 10
147.258
 20
-82.9971
 30
0.000000
  70
    32
  0
VERTEX
  8
0
  5
B56
 10
147.258
 20
-82.9889
 30
0.000000
  70
    32
  0
VERTEX
  8
0
  5
B57
 10
147.259
 20
-82.9807
 30
0.000000
  70
    32
  0
VERTEX
  8
0
  5
B58
 10
147.259
 20
-82.9725
 30
0.000000
  70
    32
  0
VERTEX
  8
0
  5
B59
 10
147.260
 20
-82.9643
 30
0.000000
  70
    32
  0
VERTEX
  8
0
  5
B5A
 10
147.260
 20
-82.9561
 30
0.000000
  70
    32
  0
VERTEX
  8
0
  5
B5B
 10
147.261
 20
-82.9478
 30
0.000000
  70
    32
  0
VERTEX
  8
0
  5
B5C
 10
147.261
 20
-82.9396
 30
0.000000
  70
    32
  0
VERTEX
  8
0
  5
B5D
 10
147.261
 20
-82.9314
 30
0.000000
  70
    32
  0
VERTEX
  8
0
  5
B5E
 10
147.262
 20
-82.9232
 30
0.000000
  70
    32
  0
VERTEX
  8
0
  5
B5F
 10
147.262
 20
-82.9150
 30
0.000000
  70
    32
  0
VERTEX
  8
0
  5
B60
 10
147.263
 20
-82.9067
 30
0.000000
  70
    32
  0
VERTEX
  8
0
  5
B61
 10
147.263
 20
-82.8985
 30
0.000000
  70
    32
  0
VERTEX
  8
0
  5
B62
 10
147.263
 20
-82.8903
 30
0.000000
  70
    32
  0
VERTEX
  8
0
  5
B63
 10
147.264
 20
-82.8821
 30
0.000000
  70
    32
  0
VERTEX
  8
0
  5
B64
 10
147.264
 20
-82.8738
 30
0.000000
  70
    32
  0
VERTEX
  8
0
  5
B65
 10
147.264
 20
-82.8656
 30
0.000000
  70
    32
  0
VERTEX
  8
0
  5
B66
 10
147.265
 20
-82.8573
 30
0.000000
  70
    32
  0
VERTEX
  8
0
  5
B67
 10
147.265
 20
-82.8491
 30
0.000000
  70
    32
  0
VERTEX
  8
0
  5
B68
 10
147.266
 20
-82.8409
 30
0.000000
  70
    32
  0
VERTEX
  8
0
  5
B69
 10
147.266
 20
-82.8326
 30
0.000000
  70
    32
  0
VERTEX
  8
0
  5
B6A
 10
147.266
 20
-82.8244
 30
0.000000
  70
    32
  0
VERTEX
  8
0
  5
B6B
 10
147.266
 20
-82.8161
 30
0.000000
  70
    32
  0
VERTEX
  8
0
  5
B6C
 10
147.267
 20
-82.8079
 30
0.000000
  70
    32
  0
VERTEX
  8
0
  5
B6D
 10
147.267
 20
-82.7996
 30
0.000000
  70
    32
  0
VERTEX
  8
0
  5
B6E
 10
147.267
 20
-82.7914
 30
0.000000
  70
    32
  0
VERTEX
  8
0
  5
B6F
 10
147.268
 20
-82.7831
 30
0.000000
  70
    32
  0
VERTEX
  8
0
  5
B70
 10
147.268
 20
-82.7749
 30
0.000000
  70
    32
  0
VERTEX
  8
0
  5
B71
 10
147.268
 20
-82.7666
 30
0.000000
  70
    32
  0
VERTEX
  8
0
  5
B72
 10
147.269
 20
-82.7584
 30
0.000000
  70
    32
  0
VERTEX
  8
0
  5
B73
 10
147.269
 20
-82.7501
 30
0.000000
  70
    32
  0
VERTEX
  8
0
  5
B74
 10
147.269
 20
-82.7418
 30
0.000000
  70
    32
  0
VERTEX
  8
0
  5
B75
 10
147.269
 20
-82.7336
 30
0.000000
  70
    32
  0
VERTEX
  8
0
  5
B76
 10
147.270
 20
-82.7253
 30
0.000000
  70
    32
  0
VERTEX
  8
0
  5
B77
 10
147.270
 20
-82.7171
 30
0.000000
  70
    32
  0
VERTEX
  8
0
  5
B78
 10
147.270
 20
-82.7088
 30
0.000000
  70
    32
  0
VERTEX
  8
0
  5
B79
 10
147.270
 20
-82.7005
 30
0.000000
  70
    32
  0
VERTEX
  8
0
  5
B7A
 10
147.271
 20
-82.6923
 30
0.000000
  70
    32
  0
VERTEX
  8
0
  5
B7B
 10
147.271
 20
-82.6840
 30
0.000000
  70
    32
  0
VERTEX
  8
0
  5
B7C
 10
147.271
 20
-82.6757
 30
0.000000
  70
    32
  0
VERTEX
  8
0
  5
B7D
 10
147.271
 20
-82.6674
 30
0.000000
  70
    32
  0
VERTEX
  8
0
  5
B7E
 10
147.271
 20
-82.6592
 30
0.000000
  70
    32
  0
VERTEX
  8
0
  5
B7F
 10
147.272
 20
-82.6509
 30
0.000000
  70
    32
  0
VERTEX
  8
0
  5
B80
 10
147.272
 20
-82.6426
 30
0.000000
  70
    32
  0
VERTEX
  8
0
  5
B81
 10
147.272
 20
-82.6343
 30
0.000000
  70
    32
  0
VERTEX
  8
0
  5
B82
 10
147.272
 20
-82.6261
 30
0.000000
  70
    32
  0
VERTEX
  8
0
  5
B83
 10
147.273
 20
-82.6178
 30
0.000000
  70
    32
  0
VERTEX
  8
0
  5
B84
 10
147.273
 20
-82.6095
 30
0.000000
  70
    32
  0
VERTEX
  8
0
  5
B85
 10
147.273
 20
-82.6012
 30
0.000000
  70
    32
  0
VERTEX
  8
0
  5
B86
 10
147.273
 20
-82.5929
 30
0.000000
  70
    32
  0
VERTEX
  8
0
  5
B87
 10
147.273
 20
-82.5847
 30
0.000000
  70
    32
  0
VERTEX
  8
0
  5
B88
 10
147.273
 20
-82.5764
 30
0.000000
  70
    32
  0
VERTEX
  8
0
  5
B89
 10
147.274
 20
-82.5681
 30
0.000000
  70
    32
  0
VERTEX
  8
0
  5
B8A
 10
147.274
 20
-82.5598
 30
0.000000
  70
    32
  0
VERTEX
  8
0
  5
B8B
 10
147.274
 20
-82.5515
 30
0.000000
  70
    32
  0
VERTEX
  8
0
  5
B8C
 10
147.274
 20
-82.5433
 30
0.000000
  70
    32
  0
VERTEX
  8
0
  5
B8D
 10
147.274
 20
-82.5350
 30
0.000000
  70
    32
  0
VERTEX
  8
0
  5
B8E
 10
147.275
 20
-82.5267
 30
0.000000
  70
    32
  0
VERTEX
  8
0
  5
B8F
 10
147.275
 20
-82.5184
 30
0.000000
  70
    32
  0
VERTEX
  8
0
  5
B90
 10
147.275
 20
-82.5101
 30
0.000000
  70
    32
  0
VERTEX
  8
0
  5
B91
 10
147.275
 20
-82.5018
 30
0.000000
  70
    32
  0
VERTEX
  8
0
  5
B92
 10
147.275
 20
-82.4935
 30
0.000000
  70
    32
  0
VERTEX
  8
0
  5
B93
 10
147.275
 20
-82.4852
 30
0.000000
  70
    32
  0
VERTEX
  8
0
  5
B94
 10
147.276
 20
-82.4770
 30
0.000000
  70
    32
  0
VERTEX
  8
0
  5
B95
 10
147.276
 20
-82.4687
 30
0.000000
  70
    32
  0
VERTEX
  8
0
  5
B96
 10
147.276
 20
-82.4604
 30
0.000000
  70
    32
  0
VERTEX
  8
0
  5
B97
 10
147.276
 20
-82.4521
 30
0.000000
  70
    32
  0
VERTEX
  8
0
  5
B98
 10
147.276
 20
-82.4438
 30
0.000000
  70
    32
  0
VERTEX
  8
0
  5
B99
 10
147.276
 20
-82.4355
 30
0.000000
  70
    32
  0
VERTEX
  8
0
  5
B9A
 10
147.277
 20
-82.4272
 30
0.000000
  70
    32
  0
VERTEX
  8
0
  5
B9B
 10
147.277
 20
-82.4189
 30
0.000000
  70
    32
  0
VERTEX
  8
0
  5
B9C
 10
147.277
 20
-82.4107
 30
0.000000
  70
    32
  0
SEQEND
  8
0
  5
B9D
  0
POLYLINE
  8
0
  5
B9E
  62
7
  66
     1
 10
0.000000
 20
0.000000
 30
0.000000
  70
     8
  0
VERTEX
  8
0
  5
B9F
 10
147.277
 20
-79.4107
 30
0.000000
  70
    32
  0
VERTEX
  8
0
  5
BA0
 10
147.277
 20
-79.4023
 30
0.000000
  70
    32
  0
VERTEX
  8
0
  5
BA1
 10
147.277
 20
-79.3939
 30
0.000000
  70
    32
  0
VERTEX
  8
0
  5
BA2
 10
147.276
 20
-79.3855
 30
0.000000
  70
    32
  0
VERTEX
  8
0
  5
BA3
 10
147.276
 20
-79.3772
 30
0.000000
  70
    32
  0
VERTEX
  8
0
  5
BA4
 10
147.276
 20
-79.3688
 30
0.000000
  70
    32
  0
VERTEX
  8
0
  5
BA5
 10
147.276
 20
-79.3604
 30
0.000000
  70
    32
  0
VERTEX
  8
0
  5
BA6
 10
147.276
 20
-79.3521
 30
0.000000
  70
    32
  0
VERTEX
  8
0
  5
BA7
 10
147.276
 20
-79.3437
 30
0.000000
  70
    32
  0
VERTEX
  8
0
  5
BA8
 10
147.276
 20
-79.3353
 30
0.000000
  70
    32
  0
VERTEX
  8
0
  5
BA9
 10
147.275
 20
-79.3269
 30
0.000000
  70
    32
  0
VERTEX
  8
0
  5
BAA
 10
147.275
 20
-79.3186
 30
0.000000
  70
    32
  0
VERTEX
  8
0
  5
BAB
 10
147.275
 20
-79.3102
 30
0.000000
  70
    32
  0
VERTEX
  8
0
  5
BAC
 10
147.275
 20
-79.3018
 30
0.000000
  70
    32
  0
VERTEX
  8
0
  5
BAD
 10
147.275
 20
-79.2935
 30
0.000000
  70
    32
  0
VERTEX
  8
0
  5
BAE
 10
147.275
 20
-79.2851
 30
0.000000
  70
    32
  0
VERTEX
  8
0
  5
BAF
 10
147.275
 20
-79.2767
 30
0.000000
  70
    32
  0
VERTEX
  8
0
  5
BB0
 10
147.274
 20
-79.2684
 30
0.000000
  70
    32
  0
VERTEX
  8
0
  5
BB1
 10
147.274
 20
-79.2600
 30
0.000000
  70
    32
  0
VERTEX
  8
0
  5
BB2
 10
147.274
 20
-79.2517
 30
0.000000
  70
    32
  0
VERTEX
  8
0
  5
BB3
 10
147.274
 20
-79.2433
 30
0.000000
  70
    32
  0
VERTEX
  8
0
  5
BB4
 10
147.274
 20
-79.2349
 30
0.000000
  70
    32
  0
VERTEX
  8
0
  5
BB5
 10
147.274
 20
-79.2266
 30
0.000000
  70
    32
  0
VERTEX
  8
0
  5
BB6
 10
147.273
 20
-79.2182
 30
0.000000
  70
    32
  0
VERTEX
  8
0
  5
BB7
 10
147.273
 20
-79.2099
 30
0.000000
  70
    32
  0
VERTEX
  8
0
  5
BB8
 10
147.273
 20
-79.2015
 30
0.000000
  70
    32
  0
VERTEX
  8
0
  5
BB9
 10
147.273
 20
-79.1932
 30
0.000000
  70
    32
  0
VERTEX
  8
0
  5
BBA
 10
147.273
 20
-79.1848
 30
0.000000
  70
    32
  0
VERTEX
  8
0
  5
BBB
 10
147.273
 20
-79.1765
 30
0.000000
  70
    32
  0
VERTEX
  8
0
  5
BBC
 10
147.272
 20
-79.1681
 30
0.000000
  70
    32
  0
VERTEX
  8
0
  5
BBD
 10
147.272
 20
-79.1598
 30
0.000000
  70
    32
  0
VERTEX
  8
0
  5
BBE
 10
147.272
 20
-79.1514
 30
0.000000
  70
    32
  0
VERTEX
  8
0
  5
BBF
 10
147.272
 20
-79.1431
 30
0.000000
  70
    32
  0
VERTEX
  8
0
  5
BC0
 10
147.272
 20
-79.1347
 30
0.000000
  70
    32
  0
VERTEX
  8
0
  5
BC1
 10
147.271
 20
-79.1264
 30
0.000000
  70
    32
  0
VERTEX
  8
0
  5
BC2
 10
147.271
 20
-79.1181
 30
0.000000
  70
    32
  0
VERTEX
  8
0
  5
BC3
 10
147.271
 20
-79.1097
 30
0.000000
  70
    32
  0
VERTEX
  8
0
  5
BC4
 10
147.271
 20
-79.1014
 30
0.000000
  70
    32
  0
VERTEX
  8
0
  5
BC5
 10
147.270
 20
-79.0931
 30
0.000000
  70
    32
  0
VERTEX
  8
0
  5
BC6
 10
147.270
 20
-79.0847
 30
0.000000
  70
    32
  0
VERTEX
  8
0
  5
BC7
 10
147.270
 20
-79.0764
 30
0.000000
  70
    32
  0
VERTEX
  8
0
  5
BC8
 10
147.270
 20
-79.0681
 30
0.000000
  70
    32
  0
VERTEX
  8
0
  5
BC9
 10
147.269
 20
-79.0598
 30
0.000000
  70
    32
  0
VERTEX
  8
0
  5
BCA
 10
147.269
 20
-79.0514
 30
0.000000
  70
    32
  0
VERTEX
  8
0
  5
BCB
 10
147.269
 20
-79.0431
 30
0.000000
  70
    32
  0
VERTEX
  8
0
  5
BCC
 10
147.269
 20
-79.0348
 30
0.000000
  70
    32
  0
VERTEX
  8
0
  5
BCD
 10
147.268
 20
-79.0265
 30
0.000000
  70
    32
  0
VERTEX
  8
0
  5
BCE
 10
147.268
 20
-79.0182
 30
0.000000
  70
    32
  0
VERTEX
  8
0
  5
BCF
 10
147.268
 20
-79.0099
 30
0.000000
  70
    32
  0
VERTEX
  8
0
  5
BD0
 10
147.267
 20
-79.0016
 30
0.000000
  70
    32
  0
VERTEX
  8
0
  5
BD1
 10
147.267
 20
-78.9933
 30
0.000000
  70
    32
  0
VERTEX
  8
0
  5
BD2
 10
147.267
 20
-78.9850
 30
0.000000
  70
    32
  0
VERTEX
  8
0
  5
BD3
 10
147.266
 20
-78.9767
 30
0.000000
  70
    32
  0
VERTEX
  8
0
  5
BD4
 10
147.266
 20
-78.9684
 30
0.000000
  70
    32
  0
VERTEX
  8
0
  5
BD5
 10
147.266
 20
-78.9601
 30
0.000000
  70
    32
  0
VERTEX
  8
0
  5
BD6
 10
147.265
 20
-78.9518
 30
0.000000
  70
    32
  0
VERTEX
  8
0
  5
BD7
 10
147.265
 20
-78.9435
 30
0.000000
  70
    32
  0
VERTEX
  8
0
  5
BD8
 10
147.265
 20
-78.9353
 30
0.000000
  70
    32
  0
VERTEX
  8
0
  5
BD9
 10
147.264
 20
-78.9270
 30
0.000000
  70
    32
  0
VERTEX
  8
0
  5
BDA
 10
147.264
 20
-78.9187
 30
0.000000
  70
    32
  0
VERTEX
  8
0
  5
BDB
 10
147.264
 20
-78.9104
 30
0.000000
  70
    32
  0
VERTEX
  8
0
  5
BDC
 10
147.263
 20
-78.9022
 30
0.000000
  70
    32
  0
VERTEX
  8
0
  5
BDD
 10
147.263
 20
-78.8939
 30
0.000000
  70
    32
  0
VERTEX
  8
0
  5
BDE
 10
147.262
 20
-78.8857
 30
0.000000
  70
    32
  0
VERTEX
  8
0
  5
BDF
 10
147.262
 20
-78.8774
 30
0.000000
  70
    32
  0
VERTEX
  8
0
  5
BE0
 10
147.261
 20
-78.8691
 30
0.000000
  70
    32
  0
VERTEX
  8
0
  5
BE1
 10
147.261
 20
-78.8609
 30
0.000000
  70
    32
  0
VERTEX
  8
0
  5
BE2
 10
147.261
 20
-78.8527
 30
0.000000
  70
    32
  0
VERTEX
  8
0
  5
BE3
 10
147.260
 20
-78.8444
 30
0.000000
  70
    32
  0
VERTEX
  8
0
  5
BE4
 10
147.260
 20
-78.8362
 30
0.000000
  70
    32
  0
VERTEX
  8
0
  5
BE5
 10
147.259
 20
-78.8279
 30
0.000000
  70
    32
  0
VERTEX
  8
0
  5
BE6
 10
147.259
 20
-78.8197
 30
0.000000
  70
    32
  0
VERTEX
  8
0
  5
BE7
 10
147.258
 20
-78.8115
 30
0.000000
  70
    32
  0
VERTEX
  8
0
  5
BE8
 10
147.258
 20
-78.8033
 30
0.000000
  70
    32
  0
VERTEX
  8
0
  5
BE9
 10
147.257
 20
-78.7951
 30
0.000000
  70
    32
  0
VERTEX
  8
0
  5
BEA
 10
147.257
 20
-78.7869
 30
0.000000
  70
    32
  0
VERTEX
  8
0
  5
BEB
 10
147.256
 20
-78.7786
 30
0.000000
  70
    32
  0
VERTEX
  8
0
  5
BEC
 10
147.256
 20
-78.7704
 30
0.000000
  70
    32
  0
VERTEX
  8
0
  5
BED
 10
147.255
 20
-78.7622
 30
0.000000
  70
    32
  0
VERTEX
  8
0
  5
BEE
 10
147.254
 20
-78.7541
 30
0.000000
  70
    32
  0
VERTEX
  8
0
  5
BEF
 10
147.254
 20
-78.7459
 30
0.000000
  70
    32
  0
VERTEX
  8
0
  5
BF0
 10
147.253
 20
-78.7377
 30
0.000000
  70
    32
  0
VERTEX
  8
0
  5
BF1
 10
147.253
 20
-78.7295
 30
0.000000
  70
    32
  0
VERTEX
  8
0
  5
BF2
 10
147.252
 20
-78.7213
 30
0.000000
  70
    32
  0
VERTEX
  8
0
  5
BF3
 10
147.251
 20
-78.7132
 30
0.000000
  70
    32
  0
VERTEX
  8
0
  5
BF4
 10
147.251
 20
-78.7050
 30
0.000000
  70
    32
  0
VERTEX
  8
0
  5
BF5
 10
147.250
 20
-78.6968
 30
0.000000
  70
    32
  0
VERTEX
  8
0
  5
BF6
 10
147.249
 20
-78.6887
 30
0.000000
  70
    32
  0
VERTEX
  8
0
  5
BF7
 10
147.249
 20
-78.6805
 30
0.000000
  70
    32
  0
VERTEX
  8
0
  5
BF8
 10
147.248
 20
-78.6724
 30
0.000000
  70
    32
  0
VERTEX
  8
0
  5
BF9
 10
147.247
 20
-78.6642
 30
0.000000
  70
    32
  0
VERTEX
  8
0
  5
BFA
 10
147.246
 20
-78.6561
 30
0.000000
  70
    32
  0
VERTEX
  8
0
  5
BFB
 10
147.246
 20
-78.6480
 30
0.000000
  70
    32
  0
VERTEX
  8
0
  5
BFC
 10
147.245
 20
-78.6399
 30
0.000000
  70
    32
  0
VERTEX
  8
0
  5
BFD
 10
147.244
 20
-78.6317
 30
0.000000
  70
    32
  0
VERTEX
  8
0
  5
BFE
 10
147.243
 20
-78.6236
 30
0.000000
  70
    32
  0
VERTEX
  8
0
  5
BFF
 10
147.243
 20
-78.6155
 30
0.000000
  70
    32
  0
VERTEX
  8
0
  5
C00
 10
147.242
 20
-78.6074
 30
0.000000
  70
    32
  0
VERTEX
  8
0
  5
C01
 10
147.241
 20
-78.5993
 30
0.000000
  70
    32
  0
VERTEX
  8
0
  5
C02
 10
147.240
 20
-78.5912
 30
0.000000
  70
    32
  0
VERTEX
  8
0
  5
C03
 10
147.239
 20
-78.5831
 30
0.000000
  70
    32
  0
VERTEX
  8
0
  5
C04
 10
147.238
 20
-78.5751
 30
0.000000
  70
    32
  0
VERTEX
  8
0
  5
C05
 10
147.238
 20
-78.5670
 30
0.000000
  70
    32
  0
VERTEX
  8
0
  5
C06
 10
147.237
 20
-78.5589
 30
0.000000
  70
    32
  0
VERTEX
  8
0
  5
C07
 10
147.236
 20
-78.5509
 30
0.000000
  70
    32
  0
VERTEX
  8
0
  5
C08
 10
147.235
 20
-78.5428
 30
0.000000
  70
    32
  0
VERTEX
  8
0
  5
C09
 10
147.234
 20
-78.5348
 30
0.000000
  70
    32
  0
VERTEX
  8
0
  5
C0A
 10
147.233
 20
-78.5267
 30
0.000000
  70
    32
  0
VERTEX
  8
0
  5
C0B
 10
147.232
 20
-78.5187
 30
0.000000
  70
    32
  0
VERTEX
  8
0
  5
C0C
 10
147.231
 20
-78.5106
 30
0.000000
  70
    32
  0
VERTEX
  8
0
  5
C0D
 10
147.230
 20
-78.5026
 30
0.000000
  70
    32
  0
VERTEX
  8
0
  5
C0E
 10
147.229
 20
-78.4946
 30
0.000000
  70
    32
  0
VERTEX
  8
0
  5
C0F
 10
147.228
 20
-78.4866
 30
0.000000
  70
    32
  0
VERTEX
  8
0
  5
C10
 10
147.227
 20
-78.4786
 30
0.000000
  70
    32
  0
VERTEX
  8
0
  5
C11
 10
147.226
 20
-78.4706
 30
0.000000
  70
    32
  0
VERTEX
  8
0
  5
C12
 10
147.225
 20
-78.4626
 30
0.000000
  70
    32
  0
VERTEX
  8
0
  5
C13
 10
147.224
 20
-78.4546
 30
0.000000
  70
    32
  0
VERTEX
  8
0
  5
C14
 10
147.223
 20
-78.4466
 30
0.000000
  70
    32
  0
VERTEX
  8
0
  5
C15
 10
147.221
 20
-78.4387
 30
0.000000
  70
    32
  0
VERTEX
  8
0
  5
C16
 10
147.220
 20
-78.4307
 30
0.000000
  70
    32
  0
VERTEX
  8
0
  5
C17
 10
147.219
 20
-78.4227
 30
0.000000
  70
    32
  0
VERTEX
  8
0
  5
C18
 10
147.218
 20
-78.4148
 30
0.000000
  70
    32
  0
VERTEX
  8
0
  5
C19
 10
147.217
 20
-78.4068
 30
0.000000
  70
    32
  0
VERTEX
  8
0
  5
C1A
 10
147.216
 20
-78.3989
 30
0.000000
  70
    32
  0
VERTEX
  8
0
  5
C1B
 10
147.214
 20
-78.3910
 30
0.000000
  70
    32
  0
VERTEX
  8
0
  5
C1C
 10
147.213
 20
-78.3830
 30
0.000000
  70
    32
  0
VERTEX
  8
0
  5
C1D
 10
147.212
 20
-78.3751
 30
0.000000
  70
    32
  0
VERTEX
  8
0
  5
C1E
 10
147.210
 20
-78.3672
 30
0.000000
  70
    32
  0
VERTEX
  8
0
  5
C1F
 10
147.209
 20
-78.3593
 30
0.000000
  70
    32
  0
VERTEX
  8
0
  5
C20
 10
147.208
 20
-78.3514
 30
0.000000
  70
    32
  0
VERTEX
  8
0
  5
C21
 10
147.206
 20
-78.3435
 30
0.000000
  70
    32
  0
VERTEX
  8
0
  5
C22
 10
147.205
 20
-78.3357
 30
0.000000
  70
    32
  0
VERTEX
  8
0
  5
C23
 10
147.204
 20
-78.3278
 30
0.000000
  70
    32
  0
VERTEX
  8
0
  5
C24
 10
147.202
 20
-78.3199
 30
0.000000
  70
    32
  0
VERTEX
  8
0
  5
C25
 10
147.201
 20
-78.3121
 30
0.000000
  70
    32
  0
VERTEX
  8
0
  5
C26
 10
147.199
 20
-78.3042
 30
0.000000
  70
    32
  0
VERTEX
  8
0
  5
C27
 10
147.198
 20
-78.2964
 30
0.000000
  70
    32
  0
VERTEX
  8
0
  5
C28
 10
147.197
 20
-78.2885
 30
0.000000
  70
    32
  0
VERTEX
  8
0
  5
C29
 10
147.195
 20
-78.2807
 30
0.000000
  70
    32
  0
VERTEX
  8
0
  5
C2A
 10
147.193
 20
-78.2729
 30
0.000000
  70
    32
  0
VERTEX
  8
0
  5
C2B
 10
147.192
 20
-78.2651
 30
0.000000
  70
    32
  0
VERTEX
  8
0
  5
C2C
 10
147.190
 20
-78.2573
 30
0.000000
  70
    32
  0
VERTEX
  8
0
  5
C2D
 10
147.189
 20
-78.2495
 30
0.000000
  70
    32
  0
VERTEX
  8
0
  5
C2E
 10
147.187
 20
-78.2417
 30
0.000000
  70
    32
  0
VERTEX
  8
0
  5
C2F
 10
147.186
 20
-78.2339
 30
0.000000
  70
    32
  0
VERTEX
  8
0
  5
C30
 10
147.184
 20
-78.2262
 30
0.000000
  70
    32
  0
VERTEX
  8
0
  5
C31
 10
147.182
 20
-78.2184
 30
0.000000
  70
    32
  0
VERTEX
  8
0
  5
C32
 10
147.181
 20
-78.2107
 30
0.000000
  70
    32
  0
VERTEX
  8
0
  5
C33
 10
147.179
 20
-78.2029
 30
0.000000
  70
    32
  0
VERTEX
  8
0
  5
C34
 10
147.177
 20
-78.1952
 30
0.000000
  70
    32
  0
VERTEX
  8
0
  5
C35
 10
147.175
 20
-78.1875
 30
0.000000
  70
    32
  0
VERTEX
  8
0
  5
C36
 10
147.174
 20
-78.1798
 30
0.000000
  70
    32
  0
VERTEX
  8
0
  5
C37
 10
147.172
 20
-78.1720
 30
0.000000
  70
    32
  0
VERTEX
  8
0
  5
C38
 10
147.170
 20
-78.1643
 30
0.000000
  70
    32
  0
VERTEX
  8
0
  5
C39
 10
147.168
 20
-78.1567
 30
0.000000
  70
    32
  0
VERTEX
  8
0
  5
C3A
 10
147.166
 20
-78.1490
 30
0.000000
  70
    32
  0
VERTEX
  8
0
  5
C3B
 10
147.164
 20
-78.1413
 30
0.000000
  70
    32
  0
VERTEX
  8
0
  5
C3C
 10
147.163
 20
-78.1336
 30
0.000000
  70
    32
  0
VERTEX
  8
0
  5
C3D
 10
147.161
 20
-78.1260
 30
0.000000
  70
    32
  0
VERTEX
  8
0
  5
C3E
 10
147.159
 20
-78.1183
 30
0.000000
  70
    32
  0
VERTEX
  8
0
  5
C3F
 10
147.157
 20
-78.1107
 30
0.000000
  70
    32
  0
VERTEX
  8
0
  5
C40
 10
147.155
 20
-78.1031
 30
0.000000
  70
    32
  0
VERTEX
  8
0
  5
C41
 10
147.153
 20
-78.0955
 30
0.000000
  70
    32
  0
VERTEX
  8
0
  5
C42
 10
147.151
 20
-78.0879
 30
0.000000
  70
    32
  0
VERTEX
  8
0
  5
C43
 10
147.149
 20
-78.0803
 30
0.000000
  70
    32
  0
VERTEX
  8
0
  5
C44
 10
147.146
 20
-78.0727
 30
0.000000
  70
    32
  0
VERTEX
  8
0
  5
C45
 10
147.144
 20
-78.0651
 30
0.000000
  70
    32
  0
VERTEX
  8
0
  5
C46
 10
147.142
 20
-78.0576
 30
0.000000
  70
    32
  0
VERTEX
  8
0
  5
C47
 10
147.140
 20
-78.0500
 30
0.000000
  70
    32
  0
VERTEX
  8
0
  5
C48
 10
147.138
 20
-78.0425
 30
0.000000
  70
    32
  0
VERTEX
  8
0
  5
C49
 10
147.135
 20
-78.0350
 30
0.000000
  70
    32
  0
VERTEX
  8
0
  5
C4A
 10
147.133
 20
-78.0274
 30
0.000000
  70
    32
  0
VERTEX
  8
0
  5
C4B
 10
147.131
 20
-78.0199
 30
0.000000
  70
    32
  0
VERTEX
  8
0
  5
C4C
 10
147.129
 20
-78.0124
 30
0.000000
  70
    32
  0
VERTEX
  8
0
  5
C4D
 10
147.126
 20
-78.0050
 30
0.000000
  70
    32
  0
VERTEX
  8
0
  5
C4E
 10
147.124
 20
-77.9975
 30
0.000000
  70
    32
  0
VERTEX
  8
0
  5
C4F
 10
147.121
 20
-77.9900
 30
0.000000
  70
    32
  0
VERTEX
  8
0
  5
C50
 10
147.119
 20
-77.9826
 30
0.000000
  70
    32
  0
VERTEX
  8
0
  5
C51
 10
147.116
 20
-77.9752
 30
0.000000
  70
    32
  0
VERTEX
  8
0
  5
C52
 10
147.114
 20
-77.9677
 30
0.000000
  70
    32
  0
VERTEX
  8
0
  5
C53
 10
147.111
 20
-77.9603
 30
0.000000
  70
    32
  0
VERTEX
  8
0
  5
C54
 10
147.109
 20
-77.9530
 30
0.000000
  70
    32
  0
VERTEX
  8
0
  5
C55
 10
147.106
 20
-77.9456
 30
0.000000
  70
    32
  0
VERTEX
  8
0
  5
C56
 10
147.103
 20
-77.9382
 30
0.000000
  70
    32
  0
VERTEX
  8
0
  5
C57
 10
147.101
 20
-77.9309
 30
0.000000
  70
    32
  0
VERTEX
  8
0
  5
C58
 10
147.098
 20
-77.9235
 30
0.000000
  70
    32
  0
VERTEX
  8
0
  5
C59
 10
147.095
 20
-77.9162
 30
0.000000
  70
    32
  0
VERTEX
  8
0
  5
C5A
 10
147.092
 20
-77.9089
 30
0.000000
  70
    32
  0
VERTEX
  8
0
  5
C5B
 10
147.089
 20
-77.9016
 30
0.000000
  70
    32
  0
VERTEX
  8
0
  5
C5C
 10
147.087
 20
-77.8943
 30
0.000000
  70
    32
  0
VERTEX
  8
0
  5
C5D
 10
147.084
 20
-77.8870
 30
0.000000
  70
    32
  0
VERTEX
  8
0
  5
C5E
 10
147.081
 20
-77.8798
 30
0.000000
  70
    32
  0
VERTEX
  8
0
  5
C5F
 10
147.078
 20
-77.8725
 30
0.000000
  70
    32
  0
VERTEX
  8
0
  5
C60
 10
147.075
 20
-77.8653
 30
0.000000
  70
    32
  0
VERTEX
  8
0
  5
C61
 10
147.071
 20
-77.8581
 30
0.000000
  70
    32
  0
VERTEX
  8
0
  5
C62
 10
147.068
 20
-77.8509
 30
0.000000
  70
    32
  0
VERTEX
  8
0
  5
C63
 10
147.065
 20
-77.8438
 30
0.000000
  70
    32
  0
VERTEX
  8
0
  5
C64
 10
147.062
 20
-77.8366
 30
0.000000
  70
    32
  0
VERTEX
  8
0
  5
C65
 10
147.059
 20
-77.8295
 30
0.000000
  70
    32
  0
VERTEX
  8
0
  5
C66
 10
147.055
 20
-77.8224
 30
0.000000
  70
    32
  0
VERTEX
  8
0
  5
C67
 10
147.052
 20
-77.8153
 30
0.000000
  70
    32
  0
VERTEX
  8
0
  5
C68
 10
147.049
 20
-77.8082
 30
0.000000
  70
    32
  0
VERTEX
  8
0
  5
C69
 10
147.045
 20
-77.8012
 30
0.000000
  70
    32
  0
VERTEX
  8
0
  5
C6A
 10
147.042
 20
-77.7941
 30
0.000000
  70
    32
  0
VERTEX
  8
0
  5
C6B
 10
147.038
 20
-77.7871
 30
0.000000
  70
    32
  0
VERTEX
  8
0
  5
C6C
 10
147.035
 20
-77.7802
 30
0.000000
  70
    32
  0
VERTEX
  8
0
  5
C6D
 10
147.031
 20
-77.7732
 30
0.000000
  70
    32
  0
VERTEX
  8
0
  5
C6E
 10
147.027
 20
-77.7663
 30
0.000000
  70
    32
  0
VERTEX
  8
0
  5
C6F
 10
147.024
 20
-77.7594
 30
0.000000
  70
    32
  0
VERTEX
  8
0
  5
C70
 10
147.020
 20
-77.7526
 30
0.000000
  70
    32
  0
VERTEX
  8
0
  5
C71
 10
147.016
 20
-77.7458
 30
0.000000
  70
    32
  0
VERTEX
  8
0
  5
C72
 10
147.012
 20
-77.7390
 30
0.000000
  70
    32
  0
VERTEX
  8
0
  5
C73
 10
147.008
 20
-77.7322
 30
0.000000
  70
    32
  0
VERTEX
  8
0
  5
C74
 10
147.004
 20
-77.7255
 30
0.000000
  70
    32
  0
VERTEX
  8
0
  5
C75
 10
147.000
 20
-77.7188
 30
0.000000
  70
    32
  0
VERTEX
  8
0
  5
C76
 10
146.996
 20
-77.7121
 30
0.000000
  70
    32
  0
VERTEX
  8
0
  5
C77
 10
146.992
 20
-77.7055
 30
0.000000
  70
    32
  0
VERTEX
  8
0
  5
C78
 10
146.988
 20
-77.6989
 30
0.000000
  70
    32
  0
VERTEX
  8
0
  5
C79
 10
146.984
 20
-77.6924
 30
0.000000
  70
    32
  0
VERTEX
  8
0
  5
C7A
 10
146.979
 20
-77.6859
 30
0.000000
  70
    32
  0
VERTEX
  8
0
  5
C7B
 10
146.975
 20
-77.6794
 30
0.000000
  70
    32
  0
VERTEX
  8
0
  5
C7C
 10
146.971
 20
-77.6730
 30
0.000000
  70
    32
  0
VERTEX
  8
0
  5
C7D
 10
146.966
 20
-77.6666
 30
0.000000
  70
    32
  0
VERTEX
  8
0
  5
C7E
 10
146.962
 20
-77.6603
 30
0.000000
  70
    32
  0
VERTEX
  8
0
  5
C7F
 10
146.957
 20
-77.6540
 30
0.000000
  70
    32
  0
VERTEX
  8
0
  5
C80
 10
146.952
 20
-77.6477
 30
0.000000
  70
    32
  0
VERTEX
  8
0
  5
C81
 10
146.948
 20
-77.6415
 30
0.000000
  70
    32
  0
VERTEX
  8
0
  5
C82
 10
146.943
 20
-77.6354
 30
0.000000
  70
    32
  0
VERTEX
  8
0
  5
C83
 10
146.938
 20
-77.6293
 30
0.000000
  70
    32
  0
VERTEX
  8
0
  5
C84
 10
146.933
 20
-77.6232
 30
0.000000
  70
    32
  0
VERTEX
  8
0
  5
C85
 10
146.928
 20
-77.6172
 30
0.000000
  70
    32
  0
VERTEX
  8
0
  5
C86
 10
146.923
 20
-77.6112
 30
0.000000
  70
    32
  0
VERTEX
  8
0
  5
C87
 10
146.918
 20
-77.6053
 30
0.000000
  70
    32
  0
VERTEX
  8
0
  5
C88
 10
146.913
 20
-77.5994
 30
0.000000
  70
    32
  0
VERTEX
  8
0
  5
C89
 10
146.908
 20
-77.5936
 30
0.000000
  70
    32
  0
VERTEX
  8
0
  5
C8A
 10
146.903
 20
-77.5878
 30
0.000000
  70
    32
  0
VERTEX
  8
0
  5
C8B
 10
146.897
 20
-77.5821
 30
0.000000
  70
    32
  0
VERTEX
  8
0
  5
C8C
 10
146.892
 20
-77.5765
 30
0.000000
  70
    32
  0
VERTEX
  8
0
  5
C8D
 10
146.886
 20
-77.5709
 30
0.000000
  70
    32
  0
VERTEX
  8
0
  5
C8E
 10
146.881
 20
-77.5653
 30
0.000000
  70
    32
  0
VERTEX
  8
0
  5
C8F
 10
146.875
 20
-77.5599
 30
0.000000
  70
    32
  0
VERTEX
  8
0
  5
C90
 10
146.870
 20
-77.5545
 30
0.000000
  70
    32
  0
VERTEX
  8
0
  5
C91
 10
146.864
 20
-77.5491
 30
0.000000
  70
    32
  0
VERTEX
  8
0
  5
C92
 10
146.858
 20
-77.5438
 30
0.000000
  70
    32
  0
VERTEX
  8
0
  5
C93
 10
146.852
 20
-77.5386
 30
0.000000
  70
    32
  0
VERTEX
  8
0
  5
C94
 10
146.846
 20
-77.5334
 30
0.000000
  70
    32
  0
VERTEX
  8
0
  5
C95
 10
146.840
 20
-77.5283
 30
0.000000
  70
    32
  0
VERTEX
  8
0
  5
C96
 10
146.834
 20
-77.5233
 30
0.000000
  70
    32
  0
VERTEX
  8
0
  5
C97
 10
146.828
 20
-77.5184
 30
0.000000
  70
    32
  0
VERTEX
  8
0
  5
C98
 10
146.822
 20
-77.5135
 30
0.000000
  70
    32
  0
VERTEX
  8
0
  5
C99
 10
146.815
 20
-77.5087
 30
0.000000
  70
    32
  0
VERTEX
  8
0
  5
C9A
 10
146.809
 20
-77.5040
 30
0.000000
  70
    32
  0
VERTEX
  8
0
  5
C9B
 10
146.802
 20
-77.4994
 30
0.000000
  70
    32
  0
VERTEX
  8
0
  5
C9C
 10
146.796
 20
-77.4948
 30
0.000000
  70
    32
  0
VERTEX
  8
0
  5
C9D
 10
146.789
 20
-77.4903
 30
0.000000
  70
    32
  0
VERTEX
  8
0
  5
C9E
 10
146.783
 20
-77.4860
 30
0.000000
  70
    32
  0
VERTEX
  8
0
  5
C9F
 10
146.776
 20
-77.4817
 30
0.000000
  70
    32
  0
VERTEX
  8
0
  5
CA0
 10
146.769
 20
-77.4775
 30
0.000000
  70
    32
  0
VERTEX
  8
0
  5
CA1
 10
146.762
 20
-77.4734
 30
0.000000
  70
    32
  0
VERTEX
  8
0
  5
CA2
 10
146.755
 20
-77.4694
 30
0.000000
  70
    32
  0
VERTEX
  8
0
  5
CA3
 10
146.748
 20
-77.4655
 30
0.000000
  70
    32
  0
VERTEX
  8
0
  5
CA4
 10
146.741
 20
-77.4617
 30
0.000000
  70
    32
  0
VERTEX
  8
0
  5
CA5
 10
146.733
 20
-77.4580
 30
0.000000
  70
    32
  0
VERTEX
  8
0
  5
CA6
 10
146.726
 20
-77.4544
 30
0.000000
  70
    32
  0
VERTEX
  8
0
  5
CA7
 10
146.719
 20
-77.4509
 30
0.000000
  70
    32
  0
VERTEX
  8
0
  5
CA8
 10
146.711
 20
-77.4476
 30
0.000000
  70
    32
  0
VERTEX
  8
0
  5
CA9
 10
146.704
 20
-77.4443
 30
0.000000
  70
    32
  0
VERTEX
  8
0
  5
CAA
 10
146.696
 20
-77.4412
 30
0.000000
  70
    32
  0
VERTEX
  8
0
  5
CAB
 10
146.688
 20
-77.4383
 30
0.000000
  70
    32
  0
VERTEX
  8
0
  5
CAC
 10
146.681
 20
-77.4355
 30
0.000000
  70
    32
  0
VERTEX
  8
0
  5
CAD
 10
146.673
 20
-77.4328
 30
0.000000
  70
    32
  0
VERTEX
  8
0
  5
CAE
 10
146.665
 20
-77.4303
 30
0.000000
  70
    32
  0
VERTEX
  8
0
  5
CAF
 10
146.657
 20
-77.4279
 30
0.000000
  70
    32
  0
VERTEX
  8
0
  5
CB0
 10
146.649
 20
-77.4257
 30
0.000000
  70
    32
  0
VERTEX
  8
0
  5
CB1
 10
146.641
 20
-77.4236
 30
0.000000
  70
    32
  0
VERTEX
  8
0
  5
CB2
 10
146.633
 20
-77.4217
 30
0.000000
  70
    32
  0
VERTEX
  8
0
  5
CB3
 10
146.625
 20
-77.4200
 30
0.000000
  70
    32
  0
VERTEX
  8
0
  5
CB4
 10
146.617
 20
-77.4185
 30
0.000000
  70
    32
  0
VERTEX
  8
0
  5
CB5
 10
146.609
 20
-77.4171
 30
0.000000
  70
    32
  0
VERTEX
  8
0
  5
CB6
 10
146.601
 20
-77.4159
 30
0.000000
  70
    32
  0
VERTEX
  8
0
  5
CB7
 10
146.593
 20
-77.4149
 30
0.000000
  70
    32
  0
VERTEX
  8
0
  5
CB8
 10
146.585
 20
-77.4140
 30
0.000000
  70
    32
  0
VERTEX
  8
0
  5
CB9
 10
146.577
 20
-77.4133
 30
0.000000
  70
    32
  0
VERTEX
  8
0
  5
CBA
 10
146.568
 20
-77.4126
 30
0.000000
  70
    32
  0
VERTEX
  8
0
  5
CBB
 10
146.560
 20
-77.4121
 30
0.000000
  70
    32
  0
VERTEX
  8
0
  5
CBC
 10
146.552
 20
-77.4116
 30
0.000000
  70
    32
  0
VERTEX
  8
0
  5
CBD
 10
146.544
 20
-77.4111
 30
0.000000
  70
    32
  0
VERTEX
  8
0
  5
CBE
 10
146.535
 20
-77.4107
 30
0.000000
  70
    32
  0
SEQEND
  8
0
  5
CBF
  0
LINE
  5
57F
  8
0
  6
CONTINUOUS
 62
     7
 10
147.2768463404472072
 20
-15.4106500955045398
 30
0.0
 11
147.2768463404472072
 21
-12.4106514664113696
 31
0.0
  0
LINE
  5
580
  8
0
  6
CONTINUOUS
 62
     7
 10
147.33522722735961
 20
3.589350142914042
 30
0.0
 11
147.33522722735961
 21
-32.4106519506990907
 31
0.0
  0
ARC
  5
581
  8
0
  6
CONTINUOUS
 62
     7
 10
146.5352266611157859
 20
4.2893483845770382
 30
0.0
 40
0.8000000000000113
 50
0.0
 51
90.0
  0
LINE
  5
582
  8
0
  6
CONTINUOUS
 62
     7
 10
147.33522722735961
 20
4.2893470911562304
 30
0.0
 11
147.33522722735961
 21
3.589350142914042
 31
0.0
  0
LINE
  5
583
  8
0
  6
CONTINUOUS
 62
     7
 10
147.33522722735961
 20
-33.9106512652456829
 30
0.0
 11
147.33522722735961
 21
-60.9106519656002519
 31
0.0
  0
LINE
  5
584
  8
0
  6
CONTINUOUS
 62
     7
 10
147.33522722735961
 20
-62.4106512801468369
 30
0.0
 11
147.33522722735961
 21
-98.4106533737599705
 31
0.0
  0
LINE
  5
585
  8
0
  6
CONTINUOUS
 62
     7
 10
147.2768463404472072
 20
-82.4106517644345757
 30
0.0
 11
147.2768463404472072
 21
-79.4106531353414056
 31
0.0
  0
LINE
  5
586
  8
0
  6
CONTINUOUS
 62
     7
 10
147.33522722735961
 20
-98.4106533737599705
 30
0.0
 11
147.33522722735961
 21
-99.110650322002158
 31
0.0
  0
ARC
  5
587
  8
0
  6
CONTINUOUS
 62
     7
 10
146.5352266611155869
 20
-99.1106516154229382
 30
0.0
 40
0.8000000000000113
 50
270.0
 51
0.0000000000005089
  0
LINE
  5
588
  8
0
  6
CONTINUOUS
 62
     7
 10
51.3352236808832103
 20
-13.41064976767899
 30
0.0
 11
51.3352236808832103
 21
-14.4106517942369106
 31
0.0
  0
LINE
  5
589
  8
0
  6
CONTINUOUS
 62
     7
 10
51.3352236808832103
 20
-20.4106509150683912
 30
0.0
 11
51.3352236808832103
 21
-21.4106510789811608
 31
0.0
  0
LINE
  5
58A
  8
0
  6
CONTINUOUS
 62
     7
 10
51.3352236808832103
 20
-73.4106521518647668
 30
0.0
 11
51.3352236808832103
 21
-74.4106523157775541
 31
0.0
  0
LINE
  5
58B
  8
0
  6
CONTINUOUS
 62
     7
 10
51.3352236808832103
 20
-80.4106514366090295
 30
0.0
 11
51.3352236808832103
 21
-81.4106534631669518
 31
0.0
  0
LINE
  5
58C
  8
0
  6
CONTINUOUS
 62
     7
 10
65.6352263154085307
 20
-1.9106525392949709
 30
0.0
 11
65.6352263154085307
 21
2.0893481163561201
 31
0.0
  0
LINE
  5
58D
  8
0
  6
CONTINUOUS
 62
     7
 10
64.8352276743944316
 20
-1.9106525392949709
 30
0.0
 11
65.6352263154085307
 21
-1.9106525392949709
 31
0.0
  0
LINE
  5
58E
  8
0
  6
CONTINUOUS
 62
     7
 10
64.8352276743944316
 20
-1.9106525392949709
 30
0.0
 11
64.8352276743944316
 21
2.0893481163561201
 31
0.0
  0
LINE
  5
58F
  8
0
  6
CONTINUOUS
 62
     7
 10
111.1352272541817001
 20
-1.9106525392949709
 30
0.0
 11
111.1352272541817001
 21
2.0893481163561201
 31
0.0
  0
LINE
  5
590
  8
0
  6
CONTINUOUS
 62
     7
 10
110.3352267505223949
 20
-1.9106525392949709
 30
0.0
 11
111.1352272541817001
 21
-1.9106525392949709
 31
0.0
  0
LINE
  5
591
  8
0
  6
CONTINUOUS
 62
     7
 10
110.3352267505223949
 20
-1.9106525392949709
 30
0.0
 11
110.3352267505223949
 21
2.0893481163561201
 31
0.0
  0
LINE
  5
592
  8
0
  6
CONTINUOUS
 62
     7
 10
65.6352263154085307
 20
-92.9106506915509556
 30
0.0
 11
65.6352263154085307
 21
-96.9106513472020339
 31
0.0
  0
LINE
  5
593
  8
0
  6
CONTINUOUS
 62
     7
 10
64.8352276743944316
 20
-92.9106506915509556
 30
0.0
 11
64.8352276743944316
 21
-96.9106513472020339
 31
0.0
  0
LINE
  5
594
  8
0
  6
CONTINUOUS
 62
     7
 10
64.8352276743944316
 20
-92.9106506915509556
 30
0.0
 11
65.6352263154085307
 21
-92.9106506915509556
 31
0.0
  0
LINE
  5
595
  8
0
  6
CONTINUOUS
 62
     7
 10
110.3352267505223949
 20
-92.9106506915509556
 30
0.0
 11
111.1352272541817001
 21
-92.9106506915509556
 31
0.0
  0
LINE
  5
596
  8
0
  6
CONTINUOUS
 62
     7
 10
111.1352272541817001
 20
-92.9106506915509556
 30
0.0
 11
111.1352272541817001
 21
-96.9106513472020339
 31
0.0
  0
LINE
  5
597
  8
0
  6
CONTINUOUS
 62
     7
 10
110.3352267505223949
 20
-92.9106506915509556
 30
0.0
 11
110.3352267505223949
 21
-96.9106513472020339
 31
0.0
  0
LINE
  5
598
  8
0
  6
CONTINUOUS
 62
     7
 10
67.8208690346773295
 20
-1.9106525392949709
 30
0.0
 11
67.8208690346773295
 21
2.0893481163561201
 31
0.0
  0
LINE
  5
599
  8
0
  6
CONTINUOUS
 62
     7
 10
65.6352263154085307
 20
-1.9106525392949709
 30
0.0
 11
67.8208690346773295
 21
-1.9106525392949709
 31
0.0
  0
LINE
  5
59A
  8
0
  6
CONTINUOUS
 62
     7
 10
67.8208690346773295
 20
-92.9106506915509556
 30
0.0
 11
67.8208690346773295
 21
-96.9106513472020339
 31
0.0
  0
LINE
  5
59B
  8
0
  6
CONTINUOUS
 62
     7
 10
65.6352263154085307
 20
-92.9106506915509556
 30
0.0
 11
67.8208690346773295
 21
-92.9106506915509556
 31
0.0
  0
LINE
  5
59C
  8
0
  6
CONTINUOUS
 62
     7
 10
72.8352252604062897
 20
-1.9106525392949709
 30
0.0
 11
72.8352252604062897
 21
2.0893481163561201
 31
0.0
  0
LINE
  5
59D
  8
0
  6
CONTINUOUS
 62
     7
 10
67.8208690346773295
 20
-1.9106525392949709
 30
0.0
 11
72.8352252604062897
 21
-1.9106525392949709
 31
0.0
  0
LINE
  5
59E
  8
0
  6
CONTINUOUS
 62
     7
 10
118.3352261991795018
 20
-1.9106525392949709
 30
0.0
 11
118.3352261991795018
 21
2.0893481163561201
 31
0.0
  0
LINE
  5
59F
  8
0
  6
CONTINUOUS
 62
     7
 10
111.1352272541817001
 20
-1.9106525392949709
 30
0.0
 11
118.3352261991795018
 21
-1.9106525392949709
 31
0.0
  0
LINE
  5
5A0
  8
0
  6
CONTINUOUS
 62
     7
 10
72.8352252604062897
 20
-92.9106506915509556
 30
0.0
 11
72.8352252604062897
 21
-96.9106513472020339
 31
0.0
  0
LINE
  5
5A1
  8
0
  6
CONTINUOUS
 62
     7
 10
67.8208690346773295
 20
-92.9106506915509556
 30
0.0
 11
72.8352252604062897
 21
-92.9106506915509556
 31
0.0
  0
LINE
  5
5A2
  8
0
  6
CONTINUOUS
 62
     7
 10
118.3352261991795018
 20
-92.9106506915509556
 30
0.0
 11
118.3352261991795018
 21
-96.9106513472020339
 31
0.0
  0
LINE
  5
5A3
  8
0
  6
CONTINUOUS
 62
     7
 10
111.1352272541817001
 20
-92.9106506915509556
 30
0.0
 11
118.3352261991795018
 21
-92.9106506915509556
 31
0.0
  0
LINE
  5
5A4
  8
0
  6
CONTINUOUS
 62
     7
 10
77.2993300320203787
 20
1.089349815088497
 30
0.0
 11
77.2993300320203787
 21
2.0893481163561201
 31
0.0
  0
LINE
  5
5A5
  8
0
  6
CONTINUOUS
 62
     7
 10
73.8352272869642405
 20
1.089349815088497
 30
0.0
 11
73.8352272869642405
 21
2.0893481163561201
 31
0.0
  0
LINE
  5
5A6
  8
0
  6
CONTINUOUS
 62
     7
 10
81.8352248729761129
 20
1.089349815088497
 30
0.0
 11
81.8352248729761129
 21
2.0893481163561201
 31
0.0
  0
LINE
  5
5A7
  8
0
  6
CONTINUOUS
 62
     7
 10
120.7208671817179066
 20
1.089349815088497
 30
0.0
 11
120.7208671817179066
 21
2.0893481163561201
 31
0.0
  0
LINE
  5
5A8
  8
0
  6
CONTINUOUS
 62
     7
 10
119.3352268287535054
 20
1.089349815088497
 30
0.0
 11
119.3352268287535054
 21
2.0893481163561201
 31
0.0
  0
LINE
  5
5A9
  8
0
  6
CONTINUOUS
 62
     7
 10
127.335226684864196
 20
1.089349815088497
 30
0.0
 11
127.335226684864196
 21
2.0893481163561201
 31
0.0
  0
LINE
  5
5AA
  8
0
  6
CONTINUOUS
 62
     7
 10
73.8352272869642405
 20
-95.9106530459344242
 30
0.0
 11
73.8352272869642405
 21
-96.9106513472020339
 31
0.0
  0
LINE
  5
5AB
  8
0
  6
CONTINUOUS
 62
     7
 10
77.2993300320203787
 20
-95.9106530459344242
 30
0.0
 11
77.2993300320203787
 21
-96.9106513472020339
 31
0.0
  0
LINE
  5
5AC
  8
0
  6
CONTINUOUS
 62
     7
 10
81.8352248729761129
 20
-95.9106530459344242
 30
0.0
 11
81.8352248729761129
 21
-96.9106513472020339
 31
0.0
  0
LINE
  5
5AD
  8
0
  6
CONTINUOUS
 62
     7
 10
119.3352268287535054
 20
-95.9106530459344242
 30
0.0
 11
119.3352268287535054
 21
-96.9106513472020339
 31
0.0
  0
LINE
  5
5AE
  8
0
  6
CONTINUOUS
 62
     7
 10
120.7208671817179066
 20
-95.9106530459344242
 30
0.0
 11
120.7208671817179066
 21
-96.9106513472020339
 31
0.0
  0
LINE
  5
5AF
  8
0
  6
CONTINUOUS
 62
     7
 10
127.335226684864196
 20
-95.9106530459344242
 30
0.0
 11
127.335226684864196
 21
-96.9106513472020339
 31
0.0
  0
LINE
  5
5B0
  8
0
  6
CONTINUOUS
 62
     7
 10
47.1352270902688915
 20
5.0893494574606271
 30
0.0
 11
54.3352297605569774
 21
5.0893494574606271
 31
0.0
  0
LINE
  5
5B1
  8
0
  6
CONTINUOUS
 62
     7
 10
46.3352284492547923
 20
-98.4106533737599705
 30
0.0
 11
46.3352284492547923
 21
3.589350142914042
 31
0.0
  0
LINE
  5
5B2
  8
0
  6
CONTINUOUS
 62
     7
 10
54.3352297605569774
 20
-74.4106523157775541
 30
0.0
 11
54.3352297605569774
 21
-80.4106514366090295
 31
0.0
  0
LINE
  5
5B3
  8
0
  6
CONTINUOUS
 62
     7
 10
49.8352280916269308
 20
-80.4106514366090295
 30
0.0
 11
54.3352297605569774
 21
-80.4106514366090295
 31
0.0
  0
LINE
  5
5B4
  8
0
  6
CONTINUOUS
 62
     7
 10
49.8352280916269308
 20
-80.4106514366090295
 30
0.0
 11
49.8352280916269308
 21
-81.4106534631669518
 31
0.0
  0
LINE
  5
5B5
  8
0
  6
CONTINUOUS
 62
     7
 10
54.3352297605569774
 20
-81.4106534631669518
 30
0.0
 11
49.8352280916269308
 21
-81.4106534631669518
 31
0.0
  0
LINE
  5
5B6
  8
0
  6
CONTINUOUS
 62
     7
 10
54.3352297605569774
 20
-81.4106534631669518
 30
0.0
 11
54.3352297605569774
 21
-98.4106533737599705
 31
0.0
  0
LINE
  5
5B7
  8
0
  6
CONTINUOUS
 62
     7
 10
54.3352297605569774
 20
3.589350142914042
 30
0.0
 11
54.3352297605569774
 21
-13.41064976767899
 31
0.0
  0
LINE
  5
5B8
  8
0
  6
CONTINUOUS
 62
     7
 10
49.8352280916269308
 20
-13.41064976767899
 30
0.0
 11
54.3352297605569774
 21
-13.41064976767899
 31
0.0
  0
LINE
  5
5B9
  8
0
  6
CONTINUOUS
 62
     7
 10
49.8352280916269308
 20
-13.41064976767899
 30
0.0
 11
49.8352280916269308
 21
-14.4106517942369106
 31
0.0
  0
LINE
  5
5BA
  8
0
  6
CONTINUOUS
 62
     7
 10
54.3352297605569774
 20
-14.4106517942369106
 30
0.0
 11
49.8352280916269308
 21
-14.4106517942369106
 31
0.0
  0
LINE
  5
5BB
  8
0
  6
CONTINUOUS
 62
     7
 10
54.3352297605569774
 20
-14.4106517942369106
 30
0.0
 11
54.3352297605569774
 21
-20.4106509150683912
 31
0.0
  0
LINE
  5
5BC
  8
0
  6
CONTINUOUS
 62
     7
 10
49.8352280916269308
 20
-20.4106509150683912
 30
0.0
 11
54.3352297605569774
 21
-20.4106509150683912
 31
0.0
  0
LINE
  5
5BD
  8
0
  6
CONTINUOUS
 62
     7
 10
49.8352280916269308
 20
-20.4106509150683912
 30
0.0
 11
49.8352280916269308
 21
-21.4106510789811608
 31
0.0
  0
LINE
  5
5BE
  8
0
  6
CONTINUOUS
 62
     7
 10
54.3352297605569774
 20
-21.4106510789811608
 30
0.0
 11
49.8352280916269308
 21
-21.4106510789811608
 31
0.0
  0
LINE
  5
5BF
  8
0
  6
CONTINUOUS
 62
     7
 10
54.3352297605569774
 20
-21.4106510789811608
 30
0.0
 11
54.3352297605569774
 21
-73.4106521518647668
 31
0.0
  0
LINE
  5
5C0
  8
0
  6
CONTINUOUS
 62
     7
 10
49.8352280916269308
 20
-73.4106521518647668
 30
0.0
 11
54.3352297605569774
 21
-73.4106521518647668
 31
0.0
  0
LINE
  5
5C1
  8
0
  6
CONTINUOUS
 62
     7
 10
49.8352280916269308
 20
-73.4106521518647668
 30
0.0
 11
49.8352280916269308
 21
-74.4106523157775541
 31
0.0
  0
LINE
  5
5C2
  8
0
  6
CONTINUOUS
 62
     7
 10
54.3352297605569774
 20
-74.4106523157775541
 30
0.0
 11
49.8352280916269308
 21
-74.4106523157775541
 31
0.0
  0
LINE
  5
5C3
  8
0
  6
CONTINUOUS
 62
     7
 10
46.3352284492547923
 20
4.2893470911562304
 30
0.0
 11
46.3352284492547923
 21
3.589350142914042
 31
0.0
  0
ARC
  5
5C4
  8
0
  6
CONTINUOUS
 62
     7
 10
47.1352266611153468
 20
4.2893483845761571
 30
0.0
 40
0.8000000000000113
 50
90.0
 51
180.0
  0
LINE
  5
5C5
  8
0
  6
CONTINUOUS
 62
     7
 10
46.3352284492547923
 20
-98.4106533737599705
 30
0.0
 11
46.3352284492547923
 21
-99.110650322002158
 31
0.0
  0
ARC
  5
5C6
  8
0
  6
CONTINUOUS
 62
     7
 10
47.1352266611153468
 20
-99.1106516154238051
 30
0.0
 40
0.8000000000000113
 50
179.9999999999994884
 51
270.0
  0
LINE
  5
5C7
  8
0
  6
CONTINUOUS
 62
     7
 10
54.3352297605569774
 20
-99.9106526883065555
 30
0.0
 11
47.1352270902688915
 21
-99.9106526883065555
 31
0.0
  0
INSERT
  5
5D1
  8
0
  6
CONTINUOUS
  2
DC_GROUP_WL40WR_000_11
 10
0.0
 20
0.0
 30
0.0
  0
INSERT
  5
5D2
  8
0
  6
CONTINUOUS
  2
DC_GROUP_WL40WR_000_12
 10
0.0
 20
0.0
 30
0.0
  0
INSERT
  5
5D3
  8
0
  6
CONTINUOUS
  2
DC_GROUP_WL40WR_000_13
 10
0.0
 20
0.0
 30
0.0
  0
INSERT
  5
5D4
  8
0
  6
CONTINUOUS
  2
DC_GROUP_WL40WR_000_14
 10
0.0
 20
0.0
 30
0.0
  0
INSERT
  5
5D5
  8
0
  6
CONTINUOUS
  2
DC_GROUP_WL40WR_000_15
 10
0.0
 20
0.0
 30
0.0
  0
INSERT
  5
5D6
  8
0
  6
CONTINUOUS
  2
DC_GROUP_WL40WR_000_16
 10
0.0
 20
0.0
 30
0.0
  0
TEXT
  5
5D8
  8
0
 62
   150
 10
156.189171134341791
 20
-127.6087799280685999
 30
0.0
 40
5.0
  1
000
 41
0.623076923076923
  7
DCSTYLE0
 72
     5
 11
162.939171134341791
 21
-127.6087799280685999
 31
0.0
  0
CIRCLE
  5
6C9
  8
0
  6
CONTINUOUS
 62
     7
 10
-80.5782413507960769
 20
-47.3985599071616903
 30
0.0
 40
5.8999999999999773
  0
LINE
  5
6CA
  8
0
  6
CONTINUOUS
 62
     7
 10
-80.5782413507960769
 20
-41.3985601455617029
 30
0.0
 11
-80.9745294962960713
 21
-40.9106514246616797
 31
0.0
  0
LINE
  5
6CB
  8
0
  6
CONTINUOUS
 62
     7
 10
-80.5782413507960769
 20
-41.3985601455617029
 30
0.0
 11
-80.1819532051960664
 21
-40.9106514246616797
 31
0.0
  0
ARC
  5
6CC
  8
0
  6
CONTINUOUS
 62
     7
 10
-80.5782413507960769
 20
-47.3985599071616903
 30
0.0
 40
6.5000000000000071
 50
86.2953428414999877
 51
86.50465715849964
  0
LINE
  5
6CD
  8
0
  6
CONTINUOUS
 62
     7
 10
-79.8262419692960634
 20
-41.4458713323617118
 30
0.0
 11
-80.158254101596043
 21
-40.912141540761688
 31
0.0
  0
LINE
  5
6CE
  8
0
  6
CONTINUOUS
 62
     7
 10
-79.8262419692960634
 20
-41.4458713323617118
 30
0.0
 11
-79.3719275087960625
 21
-41.0114801318617026
 31
0.0
  0
ARC
  5
6CF
  8
0
  6
CONTINUOUS
 62
     7
 10
-80.5782413507960769
 20
-47.3985599071616903
 30
0.0
 40
6.5000000000000107
 50
79.0953428415001412
 51
79.3046571585001772
  0
LINE
  5
6D0
  8
0
  6
CONTINUOUS
 62
     7
 10
-79.0861020494960627
 20
-41.5870598346617015
 30
0.0
 11
-79.3486021856960662
 21
-41.0159281284617023
 31
0.0
  0
LINE
  5
6D1
  8
0
  6
CONTINUOUS
 62
     7
 10
-79.0861020494960627
 20
-41.5870598346617015
 30
0.0
 11
-78.580926025896062
 21
-41.2130332381616782
 31
0.0
  0
ARC
  5
6D2
  8
0
  6
CONTINUOUS
 62
     7
 10
-80.5782413507960769
 20
-47.3985599071616903
 30
0.0
 40
6.5000000000000062
 50
71.8953428415000104
 51
72.1046571585003733
  0
LINE
  5
6D3
  8
0
  6
CONTINUOUS
 62
     7
 10
-78.3694941481960541
 20
-41.8199016542616988
 30
0.0
 11
-78.5583423847960631
 21
-41.220372060061699
 31
0.0
  0
LINE
  5
6D4
  8
0
  6
CONTINUOUS
 62
     7
 10
-78.3694941481960541
 20
-41.8199016542616988
 30
0.0
 11
-77.8214236187960609
 21
-41.512136796261693
 31
0.0
  0
ARC
  5
6D5
  8
0
  6
CONTINUOUS
 62
     7
 10
-80.5782413507960769
 20
-47.3985599071616903
 30
0.0
 40
6.5000000000000018
 50
64.6953428415003486
 51
64.9046571584999157
  0
LINE
  5
6D6
  8
0
  6
CONTINUOUS
 62
     7
 10
-77.6877192246960675
 20
-42.1407199294616888
 30
0.0
 11
-77.7999375412960603
 21
-41.522250959361692
 31
0.0
  0
LINE
  5
6D7
  8
0
  6
CONTINUOUS
 62
     7
 10
-77.6877192246960675
 20
-42.1407199294616888
 30
0.0
 11
-77.105397677696061
 21
-41.9040745885616772
 31
0.0
  0
ARC
  5
6D8
  8
0
  6
CONTINUOUS
 62
     7
 10
-80.5782413507960769
 20
-47.3985599071616903
 30
0.0
 40
6.5000000000000133
 50
57.4953428414998911
 51
57.7046571584999697
  0
LINE
  5
6D9
  8
0
  6
CONTINUOUS
 62
     7
 10
-77.0515297470960689
 20
-42.5444594413616883
 30
0.0
 11
-77.0853483980960732
 21
-41.916800180161701
 31
0.0
  0
LINE
  5
6DA
  8
0
  6
CONTINUOUS
 62
     7
 10
-77.0515297470960689
 20
-42.5444594413616883
 30
0.0
 11
-76.4441404888960676
 21
-42.3826626331616865
 31
0.0
  0
ARC
  5
6DB
  8
0
  6
CONTINUOUS
 62
     7
 10
-80.5782413507960769
 20
-47.3985599071616903
 30
0.0
 40
6.5000000000000231
 50
50.2953428414999735
 51
50.5046571584998532
  0
LINE
  5
6DC
  8
0
  6
CONTINUOUS
 62
     7
 10
-76.4709588537960627
 20
-43.0247499437617122
 30
0.0
 11
-76.4258441912960507
 21
-42.3977984876617029
 31
0.0
  0
LINE
  5
6DD
  8
0
  6
CONTINUOUS
 62
     7
 10
-76.4709588537960627
 20
-43.0247499437617122
 30
0.0
 11
-75.8480810026960626
 21
-42.940357217261699
 31
0.0
  0
ARC
  5
6DE
  8
0
  6
CONTINUOUS
 62
     7
 10
-80.5782413507960769
 20
-47.3985599071616903
 30
0.0
 40
6.5000000000000107
 50
43.095342841499793
 51
43.3046571584997011
  0
LINE
  5
6DF
  8
0
  6
CONTINUOUS
 62
     7
 10
-75.9551616782960508
 20
-43.5740141958617002
 30
0.0
 11
-75.8318256983960595
 21
-42.957664916061681
 31
0.0
  0
LINE
  5
6E0
  8
0
  6
CONTINUOUS
 62
     7
 10
-75.9551616782960508
 20
-43.5740141958617002
 30
0.0
 11
-75.3266185919960662
 21
-43.5683554799616886
 31
0.0
  0
ARC
  5
6E1
  8
0
  6
CONTINUOUS
 62
     7
 10
-80.5782413507960769
 20
-47.3985599071616903
 30
0.0
 40
6.5000000000000062
 50
35.8953428414999465
 51
36.104657158500153
  0
LINE
  5
6E2
  8
0
  6
CONTINUOUS
 62
     7
 10
-75.5122740218960615
 20
-44.1835983485616808
 30
0.0
 11
-75.3126608604960666
 21
-43.5875668019616782
 31
0.0
  0
LINE
  5
6E3
  8
0
  6
CONTINUOUS
 62
     7
 10
-75.5122740218960615
 20
-44.1835983485616808
 30
0.0
 11
-74.8879773008960541
 21
-44.2567630500617
 31
0.0
  0
ARC
  5
6E4
  8
0
  6
CONTINUOUS
 62
     7
 10
-80.5782413507960769
 20
-47.3985599071616903
 30
0.0
 40
6.500000000000016
 50
28.6953428414997802
 51
28.9046571585001217
  0
LINE
  5
6E5
  8
0
  6
CONTINUOUS
 62
     7
 10
-75.1492789412960605
 20
-44.8438837022616994
 30
0.0
 11
-74.8765373999960531
 21
-44.2775687963616988
 31
0.0
  0
LINE
  5
6E6
  8
0
  6
CONTINUOUS
 62
     7
 10
-75.1492789412960605
 20
-44.8438837022616994
 30
0.0
 11
-74.5390749933960564
 21
-44.9947132558616971
 31
0.0
  0
ARC
  5
6E7
  8
0
  6
CONTINUOUS
 62
     7
 10
-80.5782413507960769
 20
-47.3985599071616903
 30
0.0
 40
6.5000000000000178
 50
21.4953428414999408
 51
21.7046571584998809
  0
LINE
  5
6E8
  8
0
  6
CONTINUOUS
 62
     7
 10
-74.871902207596051
 20
-45.544458070461701
 30
0.0
 11
-74.5303335996960641
 21
-45.0167930514616828
 31
0.0
  0
LINE
  5
6E9
  8
0
  6
CONTINUOUS
 62
     7
 10
-74.871902207596051
 20
-45.544458070461701
 30
0.0
 11
-74.2854139233960638
 21
-45.7705794663616885
 31
0.0
  0
ARC
  5
6EA
  8
0
  6
CONTINUOUS
 62
     7
 10
-80.5782413507960769
 20
-47.3985599071616903
 30
0.0
 40
6.5000000000000133
 50
14.2953428414998793
 51
14.5046571584998993
  0
LINE
  5
6EB
  8
0
  6
CONTINUOUS
 62
     7
 10
-74.684517777196092
 20
-46.2742722422616879
 30
0.0
 11
-74.2795084068960563
 21
-45.7935794086616781
 31
0.0
  0
LINE
  5
6EC
  8
0
  6
CONTINUOUS
 62
     7
 10
-74.684517777196092
 20
-46.2742722422616879
 30
0.0
 11
-74.1309945868960654
 21
-46.5721166522616983
 31
0.0
  0
ARC
  5
6ED
  8
0
  6
CONTINUOUS
 62
     7
 10
-80.5782413507960769
 20
-47.3985599071616903
 30
0.0
 40
6.5000000000000284
 50
7.0953428414999431
 51
7.3046571584998503
  0
LINE
  5
6EE
  8
0
  6
CONTINUOUS
 62
     7
 10
-74.5900812024960516
 20
-47.0218150706616811
 30
0.0
 11
-74.1280185455960634
 21
-46.5956753880617072
 31
0.0
  0
LINE
  5
6EF
  8
0
  6
CONTINUOUS
 62
     7
 10
-74.5900812024960516
 20
-47.0218150706616811
 30
0.0
 11
-74.0782523924960543
 21
-47.3866886288617124
 31
0.0
  0
ARC
  5
6F0
  8
0
  6
CONTINUOUS
 62
     7
 10
-80.5782413507960769
 20
-47.3985599071616903
 30
0.0
 40
6.5000000000000027
 50
359.895342841499712
 51
0.1046571584998163
  0
LINE
  5
6F1
  8
0
  6
CONTINUOUS
 62
     7
 10
-74.5900812024960516
 20
-47.7753034622616894
 30
0.0
 11
-74.0782523924960543
 21
-47.4104336292616892
 31
0.0
  0
LINE
  5
6F2
  8
0
  6
CONTINUOUS
 62
     7
 10
-74.5900812024960516
 20
-47.7753034622616894
 30
0.0
 11
-74.1280185455960634
 21
-48.2014468700617016
 31
0.0
  0
ARC
  5
6F3
  8
0
  6
CONTINUOUS
 62
     7
 10
-80.5782413507960769
 20
-47.3985599071616903
 30
0.0
 40
6.5000000000000311
 50
352.6953428415001781
 51
352.904657158500072
  0
LINE
  5
6F4
  8
0
  6
CONTINUOUS
 62
     7
 10
-74.684517777196092
 20
-48.5228462905616809
 30
0.0
 11
-74.1309945868960654
 21
-48.2250056059616981
 31
0.0
  0
LINE
  5
6F5
  8
0
  6
CONTINUOUS
 62
     7
 10
-74.684517777196092
 20
-48.5228462905616809
 30
0.0
 11
-74.2795084068960563
 21
-49.0035428495616898
 31
0.0
  0
ARC
  5
6F6
  8
0
  6
CONTINUOUS
 62
     7
 10
-80.5782413507960769
 20
-47.3985599071616903
 30
0.0
 40
6.5000000000000071
 50
345.4953428415000758
 51
345.7046571585000265
  0
LINE
  5
6F7
  8
0
  6
CONTINUOUS
 62
     7
 10
-74.871902207596051
 20
-49.252660462361689
 30
0.0
 11
-74.2854139233960638
 21
-49.0265427918616865
 31
0.0
  0
LINE
  5
6F8
  8
0
  6
CONTINUOUS
 62
     7
 10
-74.871902207596051
 20
-49.252660462361689
 30
0.0
 11
-74.5303335996960641
 21
-49.7803254813616931
 31
0.0
  0
ARC
  5
6F9
  8
0
  6
CONTINUOUS
 62
     7
 10
-80.5782413507960769
 20
-47.3985599071616903
 30
0.0
 40
6.5
 50
338.2953428414996893
 51
338.5046571584999242
  0
LINE
  5
6FA
  8
0
  6
CONTINUOUS
 62
     7
 10
-75.1492789412960605
 20
-49.9532348305616978
 30
0.0
 11
-74.5390749933960564
 21
-49.8024052769617072
 31
0.0
  0
LINE
  5
6FB
  8
0
  6
CONTINUOUS
 62
     7
 10
-75.1492789412960605
 20
-49.9532348305616978
 30
0.0
 11
-74.8765373999960531
 21
-50.5195497364616983
 31
0.0
  0
ARC
  5
6FC
  8
0
  6
CONTINUOUS
 62
     7
 10
-80.5782413507960769
 20
-47.3985599071616903
 30
0.0
 40
6.4999999999999991
 50
331.0953428415002122
 51
331.3046571584997082
  0
LINE
  5
6FD
  8
0
  6
CONTINUOUS
 62
     7
 10
-75.5122740218960615
 20
-50.6135201842617022
 30
0.0
 11
-74.8879773008960541
 21
-50.5403592080616804
 31
0.0
  0
LINE
  5
6FE
  8
0
  6
CONTINUOUS
 62
     7
 10
-75.5122740218960615
 20
-50.6135201842617022
 30
0.0
 11
-75.3126608604960666
 21
-51.2095517308616976
 31
0.0
  0
ARC
  5
6FF
  8
0
  6
CONTINUOUS
 62
     7
 10
-80.5782413507960769
 20
-47.3985599071616903
 30
0.0
 40
6.5000000000000071
 50
323.8953428414998257
 51
324.1046571585000038
  0
LINE
  5
700
  8
0
  6
CONTINUOUS
 62
     7
 10
-75.9551616782960508
 20
-51.223104336961697
 30
0.0
 11
-75.3266185919960662
 21
-51.2287630529617033
 31
0.0
  0
LINE
  5
701
  8
0
  6
CONTINUOUS
 62
     7
 10
-75.9551616782960508
 20
-51.223104336961697
 30
0.0
 11
-75.8318256983960595
 21
-51.8394536168616895
 31
0.0
  0
ARC
  5
702
  8
0
  6
CONTINUOUS
 62
     7
 10
-80.5782413507960769
 20
-47.3985599071616903
 30
0.0
 40
6.5000000000000027
 50
316.6953428415002918
 51
316.9046571585002994
  0
LINE
  5
703
  8
0
  6
CONTINUOUS
 62
     7
 10
-76.4709588537960627
 20
-51.7723723144616983
 30
0.0
 11
-75.8480810026960626
 21
-51.8567650408616885
 31
0.0
  0
LINE
  5
704
  8
0
  6
CONTINUOUS
 62
     7
 10
-76.4709588537960627
 20
-51.7723723144616983
 30
0.0
 11
-76.4258441912960507
 21
-52.3993200452617103
 31
0.0
  0
ARC
  5
705
  8
0
  6
CONTINUOUS
 62
     7
 10
-80.5782413507960769
 20
-47.3985599071616903
 30
0.0
 40
6.5000000000000044
 50
309.4953428415000758
 51
309.7046571585000265
  0
LINE
  5
706
  8
0
  6
CONTINUOUS
 62
     7
 10
-77.0515297470960689
 20
-52.252662816761692
 30
0.0
 11
-76.4441404888960676
 21
-52.4144558996616823
 31
0.0
  0
LINE
  5
707
  8
0
  6
CONTINUOUS
 62
     7
 10
-77.0515297470960689
 20
-52.252662816761692
 30
0.0
 11
-77.0853483980960732
 21
-52.8803220779616794
 31
0.0
  0
ARC
  5
708
  8
0
  6
CONTINUOUS
 62
     7
 10
-80.5782413507960769
 20
-47.3985599071616903
 30
0.0
 40
6.5000000000000062
 50
302.2953428415000872
 51
302.5046571585000947
  0
LINE
  5
709
  8
0
  6
CONTINUOUS
 62
     7
 10
-77.6877192246960675
 20
-52.6563986034616889
 30
0.0
 11
-77.105397677696061
 21
-52.8930439443616791
 31
0.0
  0
LINE
  5
70A
  8
0
  6
CONTINUOUS
 62
     7
 10
-77.6877192246960675
 20
-52.6563986034616889
 30
0.0
 11
-77.7999375412960603
 21
-53.2748712987616884
 31
0.0
  0
ARC
  5
70B
  8
0
  6
CONTINUOUS
 62
     7
 10
-80.5782413507960769
 20
-47.3985599071616903
 30
0.0
 40
6.5000000000000062
 50
295.0953428415000985
 51
295.3046571584997082
  0
LINE
  5
70C
  8
0
  6
CONTINUOUS
 62
     7
 10
-78.3694941481960541
 20
-52.9772206039616975
 30
0.0
 11
-77.8214236187960609
 21
-53.2849817366616989
 31
0.0
  0
LINE
  5
70D
  8
0
  6
CONTINUOUS
 62
     7
 10
-78.3694941481960541
 20
-52.9772206039616975
 30
0.0
 11
-78.5583423847960631
 21
-53.5767464728617
 31
0.0
  0
ARC
  5
70E
  8
0
  6
CONTINUOUS
 62
     7
 10
-80.5782413507960769
 20
-47.3985599071616903
 30
0.0
 40
6.5000000000000027
 50
287.8953428414995983
 51
288.1046571585000038
  0
LINE
  5
70F
  8
0
  6
CONTINUOUS
 62
     7
 10
-79.0861020494960627
 20
-53.2100586981617028
 30
0.0
 11
-78.580926025896062
 21
-53.5840852946617119
 31
0.0
  0
LINE
  5
710
  8
0
  6
CONTINUOUS
 62
     7
 10
-79.0861020494960627
 20
-53.2100586981617028
 30
0.0
 11
-79.3486021856960662
 21
-53.7811904043616877
 31
0.0
  0
ARC
  5
711
  8
0
  6
CONTINUOUS
 62
     7
 10
-80.5782413507960769
 20
-47.3985599071616903
 30
0.0
 40
6.5000000000000071
 50
280.6953428414997802
 51
280.9046571584997878
  0
LINE
  5
712
  8
0
  6
CONTINUOUS
 62
     7
 10
-79.8262419692960634
 20
-53.3512472004616995
 30
0.0
 11
-79.3719275087960625
 21
-53.785642126261699
 31
0.0
  0
LINE
  5
713
  8
0
  6
CONTINUOUS
 62
     7
 10
-79.8262419692960634
 20
-53.3512472004616995
 30
0.0
 11
-80.158254101596043
 21
-53.8849769921616968
 31
0.0
  0
ARC
  5
714
  8
0
  6
CONTINUOUS
 62
     7
 10
-80.5782413507960769
 20
-47.3985599071616903
 30
0.0
 40
6.5000000000000071
 50
273.4953428415003032
 51
273.7046571585000265
  0
LINE
  5
715
  8
0
  6
CONTINUOUS
 62
     7
 10
-80.5782413507960769
 20
-53.3985583872617013
 30
0.0
 11
-80.1819532051960664
 21
-53.8864671082616908
 31
0.0
  0
LINE
  5
716
  8
0
  6
CONTINUOUS
 62
     7
 10
-80.5782413507960769
 20
-53.3985583872617013
 30
0.0
 11
-80.9745294962960713
 21
-53.8864671082616908
 31
0.0
  0
ARC
  5
717
  8
0
  6
CONTINUOUS
 62
     7
 10
-80.5782413507960769
 20
-47.3985599071616903
 30
0.0
 40
6.4999999999999973
 50
266.2953428414999735
 51
266.5046571584995831
  0
LINE
  5
718
  8
0
  6
CONTINUOUS
 62
     7
 10
-81.3302407321960743
 20
-53.3512472004616995
 30
0.0
 11
-80.9982285999960681
 21
-53.8849769921616968
 31
0.0
  0
LINE
  5
719
  8
0
  6
CONTINUOUS
 62
     7
 10
-81.3302407321960743
 20
-53.3512472004616995
 30
0.0
 11
-81.784555192696061
 21
-53.785642126261699
 31
0.0
  0
ARC
  5
71A
  8
0
  6
CONTINUOUS
 62
     7
 10
-80.5782413507960769
 20
-47.3985599071616903
 30
0.0
 40
6.5
 50
259.0953428415000985
 51
259.3046571585002198
  0
LINE
  5
71B
  8
0
  6
CONTINUOUS
 62
     7
 10
-82.0703806519960608
 20
-53.2100586981617028
 30
0.0
 11
-81.8078805158960591
 21
-53.7811904043616877
 31
0.0
  0
LINE
  5
71C
  8
0
  6
CONTINUOUS
 62
     7
 10
-82.0703806519960608
 20
-53.2100586981617028
 30
0.0
 11
-82.5755566755960473
 21
-53.5840852946617119
 31
0.0
  0
ARC
  5
71D
  8
0
  6
CONTINUOUS
 62
     7
 10
-80.5782413507960769
 20
-47.3985599071616903
 30
0.0
 40
6.4999999999999929
 50
251.8953428414999962
 51
252.1046571585004017
  0
LINE
  5
71E
  8
0
  6
CONTINUOUS
 62
     7
 10
-82.7869885532960552
 20
-52.9772206039616975
 30
0.0
 11
-82.5981403166960604
 21
-53.5767464728617
 31
0.0
  0
LINE
  5
71F
  8
0
  6
CONTINUOUS
 62
     7
 10
-82.7869885532960552
 20
-52.9772206039616975
 30
0.0
 11
-83.3350590827960644
 21
-53.2849817366616989
 31
0.0
  0
ARC
  5
720
  8
0
  6
CONTINUOUS
 62
     7
 10
-80.5782413507960769
 20
-47.3985599071616903
 30
0.0
 40
6.5000000000000018
 50
244.6953428415002918
 51
244.9046571584999015
  0
LINE
  5
721
  8
0
  6
CONTINUOUS
 62
     7
 10
-83.4687634768960578
 20
-52.6563986034616889
 30
0.0
 11
-83.3565451601960632
 21
-53.2748712987616884
 31
0.0
  0
LINE
  5
722
  8
0
  6
CONTINUOUS
 62
     7
 10
-83.4687634768960578
 20
-52.6563986034616889
 30
0.0
 11
-84.0510850238960643
 21
-52.8930439443616791
 31
0.0
  0
ARC
  5
723
  8
0
  6
CONTINUOUS
 62
     7
 10
-80.5782413507960769
 20
-47.3985599071616903
 30
0.0
 40
6.4999999999999991
 50
237.4953428414995926
 51
237.7046571584997139
  0
LINE
  5
724
  8
0
  6
CONTINUOUS
 62
     7
 10
-84.1049529543960546
 20
-52.252662816761692
 30
0.0
 11
-84.0711343033960361
 21
-52.8803220779616794
 31
0.0
  0
LINE
  5
725
  8
0
  6
CONTINUOUS
 62
     7
 10
-84.1049529543960546
 20
-52.252662816761692
 30
0.0
 11
-84.7123422125960559
 21
-52.4144558996616823
 31
0.0
  0
ARC
  5
726
  8
0
  6
CONTINUOUS
 62
     7
 10
-80.5782413507960769
 20
-47.3985599071616903
 30
0.0
 40
6.5000000000000133
 50
230.2953428414998882
 51
230.5046571584998105
  0
LINE
  5
727
  8
0
  6
CONTINUOUS
 62
     7
 10
-84.6855238477960626
 20
-51.7723723144616983
 30
0.0
 11
-84.7306385102960462
 21
-52.3993200452617103
 31
0.0
  0
LINE
  5
728
  8
0
  6
CONTINUOUS
 62
     7
 10
-84.6855238477960626
 20
-51.7723723144616983
 30
0.0
 11
-85.3084016988960485
 21
-51.8567650408616885
 31
0.0
  0
ARC
  5
729
  8
0
  6
CONTINUOUS
 62
     7
 10
-80.5782413507960769
 20
-47.3985599071616903
 30
0.0
 40
6.4999999999999858
 50
223.0953428414997859
 51
223.3046571584995945
  0
LINE
  5
72A
  8
0
  6
CONTINUOUS
 62
     7
 10
-85.2013210231960443
 20
-51.223104336961697
 30
0.0
 11
-85.324657003096064
 21
-51.8394536168616895
 31
0.0
  0
LINE
  5
72B
  8
0
  6
CONTINUOUS
 62
     7
 10
-85.2013210231960443
 20
-51.223104336961697
 30
0.0
 11
-85.8298641095960448
 21
-51.2287630529617033
 31
0.0
  0
ARC
  5
72C
  8
0
  6
CONTINUOUS
 62
     7
 10
-80.5782413507960769
 20
-47.3985599071616903
 30
0.0
 40
6.4999999999999947
 50
215.8953428414999109
 51
216.1046571585000891
  0
LINE
  5
72D
  8
0
  6
CONTINUOUS
 62
     7
 10
-85.644208679596062
 20
-50.6135201842617022
 30
0.0
 11
-85.8438218409960569
 21
-51.2095517308616976
 31
0.0
  0
LINE
  5
72E
  8
0
  6
CONTINUOUS
 62
     7
 10
-85.644208679596062
 20
-50.6135201842617022
 30
0.0
 11
-86.268505400696057
 21
-50.5403592080616804
 31
0.0
  0
ARC
  5
72F
  8
0
  6
CONTINUOUS
 62
     7
 10
-80.5782413507960769
 20
-47.3985599071616903
 30
0.0
 40
6.4999999999999973
 50
208.6953428414996949
 51
208.9046571584997878
  0
LINE
  5
730
  8
0
  6
CONTINUOUS
 62
     7
 10
-86.0072037602960648
 20
-49.9532348305616978
 30
0.0
 11
-86.2799453014960704
 21
-50.5195497364616983
 31
0.0
  0
LINE
  5
731
  8
0
  6
CONTINUOUS
 62
     7
 10
-86.0072037602960648
 20
-49.9532348305616978
 30
0.0
 11
-86.6174077080960529
 21
-49.8024052769617072
 31
0.0
  0
ARC
  5
732
  8
0
  6
CONTINUOUS
 62
     7
 10
-80.5782413507960769
 20
-47.3985599071616903
 30
0.0
 40
6.5000000000000018
 50
201.4953428414999053
 51
201.7046571584999128
  0
LINE
  5
733
  8
0
  6
CONTINUOUS
 62
     7
 10
-86.2845804939960743
 20
-49.252660462361689
 30
0.0
 11
-86.6261491017960452
 21
-49.7803254813616931
 31
0.0
  0
LINE
  5
734
  8
0
  6
CONTINUOUS
 62
     7
 10
-86.2845804939960743
 20
-49.252660462361689
 30
0.0
 11
-86.8710687781960473
 21
-49.0265427918616865
 31
0.0
  0
LINE
  5
735
  8
0
  6
CONTINUOUS
 62
     7
 10
-86.4719649242960458
 20
-48.5228462905616809
 30
0.0
 11
-86.8769742945960672
 21
-49.0035428495616898
 31
0.0
  0
LINE
  5
736
  8
0
  6
CONTINUOUS
 62
     7
 10
-86.4719649242960458
 20
-48.5228462905616809
 30
0.0
 11
-87.0254881145960439
 21
-48.2250056059616981
 31
0.0
  0
LINE
  5
737
  8
0
  6
CONTINUOUS
 62
     7
 10
-86.5664014989960577
 20
-47.7753034622616894
 30
0.0
 11
-87.0782303089960692
 21
-47.4104336292616892
 31
0.0
  0
LINE
  5
738
  8
0
  6
CONTINUOUS
 62
     7
 10
-86.5664014989960577
 20
-47.0218150706616811
 30
0.0
 11
-87.0782303089960692
 21
-47.3866886288617124
 31
0.0
  0
LINE
  5
739
  8
0
  6
CONTINUOUS
 62
     7
 10
-86.5664014989960577
 20
-47.0218150706616811
 30
0.0
 11
-87.0284641558960601
 21
-46.5956753880617072
 31
0.0
  0
ARC
  5
73A
  8
0
  6
CONTINUOUS
 62
     7
 10
-80.5782413507960769
 20
-47.3985599071616903
 30
0.0
 40
6.5000000000000027
 50
172.6953428415002065
 51
172.9046571584999867
  0
LINE
  5
73B
  8
0
  6
CONTINUOUS
 62
     7
 10
-86.4719649242960458
 20
-46.2742722422616879
 30
0.0
 11
-87.0254881145960439
 21
-46.5721166522616983
 31
0.0
  0
LINE
  5
73C
  8
0
  6
CONTINUOUS
 62
     7
 10
-86.4719649242960458
 20
-46.2742722422616879
 30
0.0
 11
-86.8769742945960672
 21
-45.7935794086616781
 31
0.0
  0
ARC
  5
73D
  8
0
  6
CONTINUOUS
 62
     7
 10
-80.5782413507960769
 20
-47.3985599071616903
 30
0.0
 40
6.5000000000000178
 50
165.4953428415001042
 51
165.7046571585001118
  0
LINE
  5
73E
  8
0
  6
CONTINUOUS
 62
     7
 10
-86.2845804939960743
 20
-45.544458070461701
 30
0.0
 11
-86.6261491017960452
 21
-45.0167930514616828
 31
0.0
  0
ARC
  5
73F
  8
0
  6
CONTINUOUS
 62
     7
 10
-80.5782413507960769
 20
-47.3985599071616903
 30
0.0
 40
6.4999999999999991
 50
158.2953428415000872
 51
158.5046571585000095
  0
LINE
  5
740
  8
0
  6
CONTINUOUS
 62
     7
 10
-86.0072037602960648
 20
-44.8438837022616994
 30
0.0
 11
-86.6174077080960529
 21
-44.9947132558616971
 31
0.0
  0
LINE
  5
741
  8
0
  6
CONTINUOUS
 62
     7
 10
-86.0072037602960648
 20
-44.8438837022616994
 30
0.0
 11
-86.2799453014960704
 21
-44.2775687963616988
 31
0.0
  0
ARC
  5
742
  8
0
  6
CONTINUOUS
 62
     7
 10
-80.5782413507960769
 20
-47.3985599071616903
 30
0.0
 40
6.5000000000000027
 50
151.0953428414997859
 51
151.3046571585001914
  0
LINE
  5
743
  8
0
  6
CONTINUOUS
 62
     7
 10
-85.644208679596062
 20
-44.1835983485616808
 30
0.0
 11
-86.268505400696057
 21
-44.2567630500617
 31
0.0
  0
LINE
  5
744
  8
0
  6
CONTINUOUS
 62
     7
 10
-85.644208679596062
 20
-44.1835983485616808
 30
0.0
 11
-85.8438218409960569
 21
-43.5875668019616782
 31
0.0
  0
ARC
  5
745
  8
0
  6
CONTINUOUS
 62
     7
 10
-80.5782413507960769
 20
-47.3985599071616903
 30
0.0
 40
6.499999999999992
 50
143.8953428414997973
 51
144.1046571584996911
  0
LINE
  5
746
  8
0
  6
CONTINUOUS
 62
     7
 10
-85.2013210231960443
 20
-43.5740141958617002
 30
0.0
 11
-85.8298641095960448
 21
-43.5683554799616886
 31
0.0
  0
LINE
  5
747
  8
0
  6
CONTINUOUS
 62
     7
 10
-85.2013210231960443
 20
-43.5740141958617002
 30
0.0
 11
-85.324657003096064
 21
-42.957664916061681
 31
0.0
  0
ARC
  5
748
  8
0
  6
CONTINUOUS
 62
     7
 10
-80.5782413507960769
 20
-47.3985599071616903
 30
0.0
 40
6.5000000000000133
 50
136.6953428415002918
 51
136.9046571585002141
  0
LINE
  5
749
  8
0
  6
CONTINUOUS
 62
     7
 10
-84.6855238477960626
 20
-43.0247499437617122
 30
0.0
 11
-85.3084016988960485
 21
-42.940357217261699
 31
0.0
  0
LINE
  5
74A
  8
0
  6
CONTINUOUS
 62
     7
 10
-84.6855238477960626
 20
-43.0247499437617122
 30
0.0
 11
-84.7306385102960462
 21
-42.3977984876617029
 31
0.0
  0
ARC
  5
74B
  8
0
  6
CONTINUOUS
 62
     7
 10
-80.5782413507960769
 20
-47.3985599071616903
 30
0.0
 40
6.5000000000000071
 50
129.4953428415001042
 51
129.7046571584999981
  0
LINE
  5
74C
  8
0
  6
CONTINUOUS
 62
     7
 10
-84.1049529543960546
 20
-42.5444594413616883
 30
0.0
 11
-84.7123422125960559
 21
-42.3826626331616865
 31
0.0
  0
LINE
  5
74D
  8
0
  6
CONTINUOUS
 62
     7
 10
-84.1049529543960546
 20
-42.5444594413616883
 30
0.0
 11
-84.0711343033960361
 21
-41.916800180161701
 31
0.0
  0
ARC
  5
74E
  8
0
  6
CONTINUOUS
 62
     7
 10
-80.5782413507960769
 20
-47.3985599071616903
 30
0.0
 40
6.5000000000000089
 50
122.2953428415000019
 51
122.5046571585000947
  0
LINE
  5
74F
  8
0
  6
CONTINUOUS
 62
     7
 10
-83.4687634768960578
 20
-42.1407199294616888
 30
0.0
 11
-84.0510850238960643
 21
-41.9040745885616772
 31
0.0
  0
LINE
  5
750
  8
0
  6
CONTINUOUS
 62
     7
 10
-83.4687634768960578
 20
-42.1407199294616888
 30
0.0
 11
-83.3565451601960632
 21
-41.522250959361692
 31
0.0
  0
ARC
  5
751
  8
0
  6
CONTINUOUS
 62
     7
 10
-80.5782413507960769
 20
-47.3985599071616903
 30
0.0
 40
6.5000000000000044
 50
115.0953428415000985
 51
115.304657158499694
  0
LINE
  5
752
  8
0
  6
CONTINUOUS
 62
     7
 10
-82.7869885532960552
 20
-41.8199016542616988
 30
0.0
 11
-83.3350590827960644
 21
-41.512136796261693
 31
0.0
  0
LINE
  5
753
  8
0
  6
CONTINUOUS
 62
     7
 10
-82.7869885532960552
 20
-41.8199016542616988
 30
0.0
 11
-82.5981403166960604
 21
-41.220372060061699
 31
0.0
  0
ARC
  5
754
  8
0
  6
CONTINUOUS
 62
     7
 10
-80.5782413507960769
 20
-47.3985599071616903
 30
0.0
 40
6.5000000000000027
 50
107.8953428414995983
 51
108.1046571585000038
  0
LINE
  5
755
  8
0
  6
CONTINUOUS
 62
     7
 10
-82.0703806519960608
 20
-41.5870598346617015
 30
0.0
 11
-82.5755566755960473
 21
-41.2130332381616782
 31
0.0
  0
LINE
  5
756
  8
0
  6
CONTINUOUS
 62
     7
 10
-82.0703806519960608
 20
-41.5870598346617015
 30
0.0
 11
-81.8078805158960591
 21
-41.0159281284617023
 31
0.0
  0
ARC
  5
757
  8
0
  6
CONTINUOUS
 62
     7
 10
-80.5782413507960769
 20
-47.3985599071616903
 30
0.0
 40
6.5000000000000169
 50
100.6953428414997944
 51
100.904657158499802
  0
LINE
  5
758
  8
0
  6
CONTINUOUS
 62
     7
 10
-81.3302407321960743
 20
-41.4458713323617118
 30
0.0
 11
-81.784555192696061
 21
-41.0114801318617026
 31
0.0
  0
LINE
  5
759
  8
0
  6
CONTINUOUS
 62
     7
 10
-81.3302407321960743
 20
-41.4458713323617118
 30
0.0
 11
-80.9982285999960681
 21
-40.912141540761688
 31
0.0
  0
ARC
  5
75A
  8
0
  6
CONTINUOUS
 62
     7
 10
-80.5782413507960769
 20
-47.3985599071616903
 30
0.0
 40
6.5000000000000044
 50
93.4953428415003742
 51
93.7046571584999981
  0
LINE
  5
75B
  8
0
  6
CONTINUOUS
 62
     7
 10
-86.2845804939960743
 20
-45.544458070461701
 30
0.0
 11
-86.8710687781960473
 21
-45.7705794663616885
 31
0.0
  0
ARC
  5
75C
  8
0
  6
CONTINUOUS
 62
     7
 10
-80.5782413507960769
 20
-47.3985599071616903
 30
0.0
 40
6.4999999999999991
 50
187.0953428414998996
 51
187.3046571584997935
  0
LINE
  5
75D
  8
0
  6
CONTINUOUS
 62
     7
 10
-86.5664014989960577
 20
-47.7753034622616894
 30
0.0
 11
-87.0284641558960601
 21
-48.2014468700617016
 31
0.0
  0
ARC
  5
75E
  8
0
  6
CONTINUOUS
 62
     7
 10
-80.5782413507960769
 20
-47.3985599071616903
 30
0.0
 40
6.4999999999999876
 50
179.8953428415001952
 51
180.1046571584996911
  0
ARC
  5
75F
  8
0
  6
CONTINUOUS
 62
     7
 10
-80.5782413507960769
 20
-47.3985599071616903
 30
0.0
 40
6.5000000000000027
 50
194.2953428414998029
 51
194.5046571584998958
  0
CIRCLE
  5
79E
  8
0
  6
CONTINUOUS
 62
     7
 10
-77.9782515997538468
 20
-21.410651615423749
 30
0.0
 40
0.75
  0
CIRCLE
  5
79F
  8
0
  6
CONTINUOUS
 62
     7
 10
-77.9782515997538468
 20
-26.410651615423749
 30
0.0
 40
0.75
  0
CIRCLE
  5
7A0
  8
0
  6
CONTINUOUS
 62
     7
 10
-77.9782515997538468
 20
-23.910651615423749
 30
0.0
 40
0.75
  0
CIRCLE
  5
7A1
  8
0
  6
CONTINUOUS
 62
     7
 10
-77.9782515997538468
 20
-16.410651615423749
 30
0.0
 40
0.75
  0
CIRCLE
  5
7A2
  8
0
  6
CONTINUOUS
 62
     7
 10
-77.9782515997538468
 20
-8.9106516154237472
 30
0.0
 40
0.75
  0
CIRCLE
  5
7A3
  8
0
  6
CONTINUOUS
 62
     7
 10
-77.9782515997538468
 20
-18.910651615423749
 30
0.0
 40
0.75
  0
CIRCLE
  5
7A4
  8
0
  6
CONTINUOUS
 62
     7
 10
-77.9782515997538468
 20
-11.4106516154237507
 30
0.0
 40
0.75
  0
CIRCLE
  5
7A5
  8
0
  6
CONTINUOUS
 62
     7
 10
-77.9782515997538468
 20
-13.9106516154237507
 30
0.0
 40
0.75
  0
CIRCLE
  5
7A6
  8
0
  6
CONTINUOUS
 62
     7
 10
-73.5782515997538553
 20
-26.410651615423749
 30
0.0
 40
0.75
  0
CIRCLE
  5
7A7
  8
0
  6
CONTINUOUS
 62
     7
 10
-73.5782515997538553
 20
-18.910651615423749
 30
0.0
 40
0.75
  0
CIRCLE
  5
7A8
  8
0
  6
CONTINUOUS
 62
     7
 10
-73.5782515997538553
 20
-11.4106516154237507
 30
0.0
 40
0.75
  0
CIRCLE
  5
7A9
  8
0
  6
CONTINUOUS
 62
     7
 10
-73.5782515997538553
 20
-21.410651615423749
 30
0.0
 40
0.75
  0
CIRCLE
  5
7AA
  8
0
  6
CONTINUOUS
 62
     7
 10
-73.5782515997538553
 20
-16.410651615423749
 30
0.0
 40
0.75
  0
CIRCLE
  5
7AB
  8
0
  6
CONTINUOUS
 62
     7
 10
-73.5782515997538553
 20
-13.9106516154237507
 30
0.0
 40
0.75
  0
CIRCLE
  5
7AC
  8
0
  6
CONTINUOUS
 62
     7
 10
-73.5782515997538553
 20
-23.910651615423749
 30
0.0
 40
0.75
  0
CIRCLE
  5
7AD
  8
0
  6
CONTINUOUS
 62
     7
 10
-73.5782515997538553
 20
-6.4106516154237481
 30
0.0
 40
0.7500000000000142
  0
CIRCLE
  5
7AE
  8
0
  6
CONTINUOUS
 62
     7
 10
-73.5782515997538553
 20
-8.9106516154237472
 30
0.0
 40
0.75
  0
CIRCLE
  5
7AF
  8
0
  6
CONTINUOUS
 62
     7
 10
-73.5782515997538553
 20
-26.410651615423749
 30
0.0
 40
0.8499999999999943
  0
CIRCLE
  5
7B0
  8
0
  6
CONTINUOUS
 62
     7
 10
-77.9782515997538468
 20
-26.410651615423749
 30
0.0
 40
0.8500000000000227
  0
CIRCLE
  5
7B1
  8
0
  6
CONTINUOUS
 62
     7
 10
-73.5782515997538553
 20
-23.910651615423749
 30
0.0
 40
0.8499999999999943
  0
CIRCLE
  5
7B2
  8
0
  6
CONTINUOUS
 62
     7
 10
-77.9782515997538468
 20
-23.910651615423749
 30
0.0
 40
0.8500000000000227
  0
CIRCLE
  5
7B3
  8
0
  6
CONTINUOUS
 62
     7
 10
-73.5782515997538553
 20
-21.410651615423749
 30
0.0
 40
0.8499999999999943
  0
CIRCLE
  5
7B4
  8
0
  6
CONTINUOUS
 62
     7
 10
-77.9782515997538468
 20
-21.410651615423749
 30
0.0
 40
0.8500000000000227
  0
CIRCLE
  5
7B5
  8
0
  6
CONTINUOUS
 62
     7
 10
-73.5782515997538553
 20
-18.910651615423749
 30
0.0
 40
0.8499999999999943
  0
CIRCLE
  5
7B6
  8
0
  6
CONTINUOUS
 62
     7
 10
-77.9782515997538468
 20
-18.910651615423749
 30
0.0
 40
0.8500000000000227
  0
CIRCLE
  5
7B7
  8
0
  6
CONTINUOUS
 62
     7
 10
-73.5782515997538553
 20
-16.410651615423749
 30
0.0
 40
0.8499999999999943
  0
CIRCLE
  5
7B8
  8
0
  6
CONTINUOUS
 62
     7
 10
-77.9782515997538468
 20
-16.410651615423749
 30
0.0
 40
0.8500000000000227
  0
CIRCLE
  5
7B9
  8
0
  6
CONTINUOUS
 62
     7
 10
-73.5782515997538553
 20
-13.9106516154237507
 30
0.0
 40
0.8499999999999943
  0
CIRCLE
  5
7BA
  8
0
  6
CONTINUOUS
 62
     7
 10
-77.9782515997538468
 20
-13.9106516154237507
 30
0.0
 40
0.8500000000000227
  0
CIRCLE
  5
7BB
  8
0
  6
CONTINUOUS
 62
     7
 10
-73.5782515997538553
 20
-11.4106516154237507
 30
0.0
 40
0.8499999999999943
  0
CIRCLE
  5
7BC
  8
0
  6
CONTINUOUS
 62
     7
 10
-77.9782515997538468
 20
-11.4106516154237507
 30
0.0
 40
0.8500000000000227
  0
CIRCLE
  5
7BD
  8
0
  6
CONTINUOUS
 62
     7
 10
-73.5782515997538553
 20
-6.4106516154237481
 30
0.0
 40
0.8499999999999943
  0
CIRCLE
  5
7BE
  8
0
  6
CONTINUOUS
 62
     7
 10
-73.5782515997538553
 20
-8.9106516154237472
 30
0.0
 40
0.8499999999999943
  0
CIRCLE
  5
7BF
  8
0
  6
CONTINUOUS
 62
     7
 10
-77.9782515997538468
 20
-8.9106516154237472
 30
0.0
 40
0.8500000000000227
  0
CIRCLE
  5
7C0
  8
0
  6
PHANTOM
 62
     7
 10
-77.9782515997538468
 20
-21.410651615423749
 30
0.0
 40
0.5499999999999829
  0
CIRCLE
  5
7C1
  8
0
  6
PHANTOM
 62
     7
 10
-77.9782515997538468
 20
-26.410651615423749
 30
0.0
 40
0.5499999999999972
  0
CIRCLE
  5
7C2
  8
0
  6
PHANTOM
 62
     7
 10
-77.9782515997538468
 20
-23.910651615423749
 30
0.0
 40
0.5499999999999972
  0
CIRCLE
  5
7C3
  8
0
  6
PHANTOM
 62
     7
 10
-77.9782515997538468
 20
-16.410651615423749
 30
0.0
 40
0.5499999999999972
  0
CIRCLE
  5
7C4
  8
0
  6
PHANTOM
 62
     7
 10
-77.9782515997538468
 20
-13.9106516154237507
 30
0.0
 40
0.5499999999999972
  0
CIRCLE
  5
7C5
  8
0
  6
PHANTOM
 62
     7
 10
-77.9782515997538468
 20
-18.910651615423749
 30
0.0
 40
0.5499999999999972
  0
CIRCLE
  5
7C6
  8
0
  6
PHANTOM
 62
     7
 10
-77.9782515997538468
 20
-8.9106516154237472
 30
0.0
 40
0.5499999999999972
  0
CIRCLE
  5
7C7
  8
0
  6
PHANTOM
 62
     7
 10
-77.9782515997538468
 20
-11.4106516154237507
 30
0.0
 40
0.5500000000000114
  0
CIRCLE
  5
7C8
  8
0
  6
PHANTOM
 62
     7
 10
-73.5782515997538553
 20
-26.410651615423749
 30
0.0
 40
0.5499999999999972
  0
CIRCLE
  5
7C9
  8
0
  6
PHANTOM
 62
     7
 10
-73.5782515997538553
 20
-11.4106516154237507
 30
0.0
 40
0.5500000000000114
  0
CIRCLE
  5
7CA
  8
0
  6
PHANTOM
 62
     7
 10
-73.5782515997538553
 20
-18.910651615423749
 30
0.0
 40
0.5499999999999972
  0
CIRCLE
  5
7CB
  8
0
  6
PHANTOM
 62
     7
 10
-73.5782515997538553
 20
-21.410651615423749
 30
0.0
 40
0.5499999999999829
  0
CIRCLE
  5
7CC
  8
0
  6
PHANTOM
 62
     7
 10
-73.5782515997538553
 20
-16.410651615423749
 30
0.0
 40
0.5499999999999972
  0
CIRCLE
  5
7CD
  8
0
  6
PHANTOM
 62
     7
 10
-73.5782515997538553
 20
-23.910651615423749
 30
0.0
 40
0.5499999999999972
  0
CIRCLE
  5
7CE
  8
0
  6
PHANTOM
 62
     7
 10
-73.5782515997538553
 20
-13.9106516154237507
 30
0.0
 40
0.5500000000000114
  0
CIRCLE
  5
7CF
  8
0
  6
PHANTOM
 62
     7
 10
-73.5782515997538553
 20
-8.9106516154237472
 30
0.0
 40
0.5499999999999972
  0
CIRCLE
  5
7D0
  8
0
  6
PHANTOM
 62
     7
 10
-73.5782515997538553
 20
-6.4106516154237481
 30
0.0
 40
0.5500000000000114
  0
VIEWPORT
  5
AD
 67
     1
  8
0
 10
16.0804594245670707
 20
-3.00971577174613
 30
0.0
 40
848.7522702586485366
 41
747.5943849379348194
 68
     1
 69
     1
1001
ACAD
1000
MVIEW
1002
{
1070
    16
1010
0.0
1020
0.0
1030
0.0
1010
0.0
1020
0.0
1030
1.0
1040
0.0
1040
747.5943849379348194
1040
16.0804594245670707
1040
-3.00971577174613
1040
50.0
1040
0.0
1040
0.0
1070
     0
1070
   100
1070
     1
1070
     3
1070
     0
1070
     0
1070
     0
1070
     0
1040
0.0
1040
0.0
1040
0.0
1040
0.5
1040
0.5
1040
0.0
1040
0.0
1070
     0
1002
{
1002
}
1002
}
  0
ENDSEC
  0
EOF
