  0
SECTION
  2
HEADER
  9
$ACADVER
  1
AC1014
  9
$ACADMAINTVER
 70
     9
  9
$DWGCODEPAGE
  3
ANSI_932
  9
$INSBASE
 10
0.0
 20
0.0
 30
0.0
  9
$EXTMIN
 10
-491.2547826384698
 20
-197.5343422911
 30
0.0
  9
$EXTMAX
 10
487.2602946584599
 20
192.2426756244
 30
0.0
  9
$LIMMIN
 10
-198.1666666666667
 20
-140.1666666666667
  9
$LIMMAX
 10
198.1666666666667
 20
140.1666666666667
  9
$ORTHOMODE
 70
     0
  9
$REGENMODE
 70
     1
  9
$FILLMODE
 70
     1
  9
$QTEXTMODE
 70
     0
  9
$MIRRTEXT
 70
     1
  9
$DRAGMODE
 70
     2
  9
$LTSCALE
 40
0.0833333333333333
  9
$OSMODE
 70
    37
  9
$ATTMODE
 70
     1
  9
$TEXTSIZE
 40
0.2
  9
$TRACEWID
 40
0.05
  9
$TEXTSTYLE
  7
STANDARD
  9
$CLAYER
  8
0
  9
$CELTYPE
  6
BYLAYER
  9
$CECOLOR
 62
   256
  9
$CELTSCALE
 40
1.0
  9
$DELOBJ
 70
     1
  9
$DISPSILH
 70
     0
  9
$DIMSCALE
 40
1.0
  9
$DIMASZ
 40
1.000000635782878
  9
$DIMEXO
 40
1.0
  9
$DIMDLI
 40
10.0
  9
$DIMRND
 40
0.0
  9
$DIMDLE
 40
0.0
  9
$DIMEXE
 40
1.0
  9
$DIMTP
 40
0.0
  9
$DIMTM
 40
0.0
  9
$DIMTXT
 40
1.166666666666667
  9
$DIMCEN
 40
0.0
  9
$DIMTSZ
 40
0.0
  9
$DIMTOL
 70
     0
  9
$DIMLIM
 70
     0
  9
$DIMTIH
 70
     0
  9
$DIMTOH
 70
     0
  9
$DIMSE1
 70
     0
  9
$DIMSE2
 70
     0
  9
$DIMTAD
 70
     1
  9
$DIMZIN
 70
     8
  9
$DIMBLK
  1

  9
$DIMASO
 70
     1
  9
$DIMSHO
 70
     1
  9
$DIMPOST
  1

  9
$DIMAPOST
  1

  9
$DIMALT
 70
     0
  9
$DIMALTD
 70
     2
  9
$DIMALTF
 40
25.4
  9
$DIMLFAC
 40
1.0
  9
$DIMTOFL
 70
     0
  9
$DIMTVP
 40
0.0
  9
$DIMTIX
 70
     0
  9
$DIMSOXD
 70
     0
  9
$DIMSAH
 70
     0
  9
$DIMBLK1
  1

  9
$DIMBLK2
  1

  9
$DIMSTYLE
  2
STANDARD
  9
$DIMCLRD
 70
     0
  9
$DIMCLRE
 70
     0
  9
$DIMCLRT
 70
     0
  9
$DIMTFAC
 40
0.65
  9
$DIMGAP
 40
0.09
  9
$DIMJUST
 70
     0
  9
$DIMSD1
 70
     0
  9
$DIMSD2
 70
     0
  9
$DIMTOLJ
 70
     0
  9
$DIMTZIN
 70
     0
  9
$DIMALTZ
 70
     0
  9
$DIMALTTZ
 70
     0
  9
$DIMFIT
 70
     3
  9
$DIMUPT
 70
     0
  9
$DIMUNIT
 70
     2
  9
$DIMDEC
 70
     2
  9
$DIMTDEC
 70
     2
  9
$DIMALTU
 70
     2
  9
$DIMALTTD
 70
     2
  9
$DIMTXSTY
  7
STANDARD
  9
$DIMAUNIT
 70
     0
  9
$LUNITS
 70
     2
  9
$LUPREC
 70
     4
  9
$SKETCHINC
 40
0.1
  9
$FILLETRAD
 40
0.5
  9
$AUNITS
 70
     0
  9
$AUPREC
 70
     0
  9
$MENU
  1
.
  9
$ELEVATION
 40
0.0
  9
$PELEVATION
 40
0.0
  9
$THICKNESS
 40
0.0
  9
$LIMCHECK
 70
     0
  9
$CHAMFERA
 40
0.0
  9
$CHAMFERB
 40
0.0
  9
$CHAMFERC
 40
0.0
  9
$CHAMFERD
 40
0.0
  9
$SKPOLY
 70
     0
  9
$TDCREATE
 40
2457176.693729225
  9
$TDUPDATE
 40
2457176.693729398
  9
$TDINDWG
 40
0.0000000116
  9
$TDUSRTIMER
 40
0.0000000116
  9
$USRTIMER
 70
     1
  9
$ANGBASE
 50
0.0
  9
$ANGDIR
 70
     0
  9
$PDMODE
 70
     0
  9
$PDSIZE
 40
1.0
  9
$PLINEWID
 40
0.0
  9
$COORDS
 70
     1
  9
$SPLFRAME
 70
     0
  9
$SPLINETYPE
 70
     6
  9
$SPLINESEGS
 70
     8
  9
$ATTDIA
 70
     0
  9
$ATTREQ
 70
     1
  9
$HANDLING
 70
     1
  9
$HANDSEED
  5
381
  9
$SURFTAB1
 70
     6
  9
$SURFTAB2
 70
     6
  9
$SURFTYPE
 70
     6
  9
$SURFU
 70
     6
  9
$SURFV
 70
     6
  9
$UCSNAME
  2

  9
$UCSORG
 10
0.0
 20
0.0
 30
0.0
  9
$UCSXDIR
 10
1.0
 20
0.0
 30
0.0
  9
$UCSYDIR
 10
0.0
 20
1.0
 30
0.0
  9
$PUCSNAME
  2

  9
$PUCSORG
 10
0.0
 20
0.0
 30
0.0
  9
$PUCSXDIR
 10
1.0
 20
0.0
 30
0.0
  9
$PUCSYDIR
 10
0.0
 20
1.0
 30
0.0
  9
$USERI1
 70
     0
  9
$USERI2
 70
     0
  9
$USERI3
 70
     0
  9
$USERI4
 70
     0
  9
$USERI5
 70
     0
  9
$USERR1
 40
0.0
  9
$USERR2
 40
0.0
  9
$USERR3
 40
0.0
  9
$USERR4
 40
0.0
  9
$USERR5
 40
0.0
  9
$WORLDVIEW
 70
     1
  9
$SHADEDGE
 70
     3
  9
$SHADEDIF
 70
    70
  9
$TILEMODE
 70
     1
  9
$MAXACTVP
 70
    64
  9
$PINSBASE
 10
0.0
 20
0.0
 30
0.0
  9
$PLIMCHECK
 70
     0
  9
$PEXTMIN
 10
1.000000000000000E+20
 20
1.000000000000000E+20
 30
1.000000000000000E+20
  9
$PEXTMAX
 10
-1.000000000000000E+20
 20
-1.000000000000000E+20
 30
-1.000000000000000E+20
  9
$PLIMMIN
 10
0.0
 20
0.0
  9
$PLIMMAX
 10
12.0
 20
9.0
  9
$UNITMODE
 70
     0
  9
$VISRETAIN
 70
     0
  9
$PLINEGEN
 70
     1
  9
$PSLTSCALE
 70
     0
  9
$TREEDEPTH
 70
  3020
  9
$PICKSTYLE
 70
     1
  9
$CMLSTYLE
  2
STANDARD
  9
$CMLJUST
 70
     0
  9
$CMLSCALE
 40
1.0
  9
$PROXYGRAPHICS
 70
     0
  9
$MEASUREMENT
 70
     1
  0
ENDSEC
  0
SECTION
  2
CLASSES
  0
CLASS
  1
ACDBDICTIONARYWDFLT
  2
AcDbDictionaryWithDefault
  3
ObjectDBX Classes
 90
        0
280
     0
281
     0
  0
CLASS
  1
VISUALSTYLE
  2
AcDbVisualStyle
  3
ObjectDBX Classes
 90
     4095
280
     0
281
     0
  0
CLASS
  1
MATERIAL
  2
AcDbMaterial
  3
ObjectDBX Classes
 90
     1153
280
     0
281
     0
  0
CLASS
  1
SCALE
  2
AcDbScale
  3
ObjectDBX Classes
 90
     1153
280
     0
281
     0
  0
CLASS
  1
SUN
  2
AcDbSun
  3
SCENEOE
 90
     1153
280
     0
281
     0
  0
CLASS
  1
DICTIONARYVAR
  2
AcDbDictionaryVar
  3
ObjectDBX Classes
 90
        0
280
     0
281
     0
  0
CLASS
  1
XRECORD
  2
AcDbXrecord
  3
ObjectDBX Classes
 90
        0
280
     0
281
     0
  0
CLASS
  1
LWPOLYLINE
  2
AcDbPolyline
  3
ObjectDBX Classes
 90
        0
280
     0
281
     1
  0
CLASS
  1
HATCH
  2
AcDbHatch
  3
ObjectDBX Classes
 90
        0
280
     0
281
     1
  0
CLASS
  1
ACDBPLACEHOLDER
  2
AcDbPlaceHolder
  3
ObjectDBX Classes
 90
        0
280
     0
281
     0
  0
CLASS
  1
LAYOUT
  2
AcDbLayout
  3
ObjectDBX Classes
 90
        0
280
     0
281
     0
  0
ENDSEC
  0
SECTION
  2
TABLES
  0
TABLE
  2
VPORT
  5
8
102
{ACAD_XDICTIONARY
360
377
102
}
330
0
100
AcDbSymbolTable
 70
     1
  0
VPORT
  5
29
330
8
100
AcDbSymbolTableRecord
100
AcDbViewportTableRecord
  2
*ACTIVE
 70
     0
 10
0.0
 20
0.0
 11
1.0
 21
1.0
 12
0.3524435100133267
 22
-2.645833333350012
 13
0.0
 23
0.0
 14
0.5
 24
0.5
 15
0.5
 25
0.5
 16
0.0
 26
0.0
 36
1.0
 17
0.0
 27
0.0
 37
0.0
 40
132.52418609127
 41
2.546618083347922
 42
50.0
 43
0.0
 44
0.0
 50
0.0
 51
0.0
 71
     0
 72
  1000
 73
     1
 74
     1
 75
     0
 76
     0
 77
     0
 78
     0
  0
ENDTAB
  0
TABLE
  2
LTYPE
  5
5
330
0
100
AcDbSymbolTable
 70
    67
  0
LTYPE
  5
14
330
5
100
AcDbSymbolTableRecord
100
AcDbLinetypeTableRecord
  2
BYBLOCK
 70
     0
  3

 72
    65
 73
     0
 40
0.0
  0
LTYPE
  5
15
330
5
100
AcDbSymbolTableRecord
100
AcDbLinetypeTableRecord
  2
BYLAYER
 70
     0
  3

 72
    65
 73
     0
 40
0.0
  0
LTYPE
  5
16
330
5
100
AcDbSymbolTableRecord
100
AcDbLinetypeTableRecord
  2
CONTINUOUS
 70
     0
  3
Solid line
 72
    65
 73
     0
 40
0.0
  0
LTYPE
  5
6B
330
5
100
AcDbSymbolTableRecord
100
AcDbLinetypeTableRecord
  2
HIDDENX2
 70
     0
  3
Hidden (2x) ____ ____ ____ ____ ____ ____ ____ 
 72
    65
 73
     2
 40
19.05
 49
12.7
 74
     0
 49
-6.35
 74
     0
  0
LTYPE
  5
6C
330
5
100
AcDbSymbolTableRecord
100
AcDbLinetypeTableRecord
  2
HIDDEN
 70
     0
  3
Hidden __ __ __ __ __ __ __ __ __ __ __ __ __ __
 72
    65
 73
     2
 40
9.524999999999999
 49
6.35
 74
     0
 49
-3.175
 74
     0
  0
LTYPE
  5
6D
330
5
100
AcDbSymbolTableRecord
100
AcDbLinetypeTableRecord
  2
HIDDEN2
 70
     0
  3
Hidden (.5x) _ _ _ _ _ _ _ _ _ _ _ _ _ _ _ _ _ 
 72
    65
 73
     2
 40
4.762499999999999
 49
3.175
 74
     0
 49
-1.5875
 74
     0
  0
LTYPE
  5
6E
330
5
100
AcDbSymbolTableRecord
100
AcDbLinetypeTableRecord
  2
DASHED
 70
     0
  3
Dashed __ __ __ __ __ __ __ __ __ __ __ __ __ _
 72
    65
 73
     2
 40
19.05
 49
12.7
 74
     0
 49
-6.35
 74
     0
  0
LTYPE
  5
6F
330
5
100
AcDbSymbolTableRecord
100
AcDbLinetypeTableRecord
  2
DASHED2
 70
     0
  3
Dashed (.5x) _ _ _ _ _ _ _ _ _ _ _ _ _ _ _ _ _ 
 72
    65
 73
     2
 40
9.524999999999999
 49
6.35
 74
     0
 49
-3.175
 74
     0
  0
LTYPE
  5
70
330
5
100
AcDbSymbolTableRecord
100
AcDbLinetypeTableRecord
  2
DASHEDX2
 70
     0
  3
Dashed (2x) ____  ____  ____  ____  ____  ___
 72
    65
 73
     2
 40
38.09999999999999
 49
25.4
 74
     0
 49
-12.7
 74
     0
  0
LTYPE
  5
71
330
5
100
AcDbSymbolTableRecord
100
AcDbLinetypeTableRecord
  2
DOTX2
 70
     0
  3
Dot (2x) .  .  .  .  .  .  .  .  .  .  .  .  .  .
 72
    65
 73
     2
 40
12.7
 49
0.0
 74
     0
 49
-12.7
 74
     0
  0
LTYPE
  5
72
330
5
100
AcDbSymbolTableRecord
100
AcDbLinetypeTableRecord
  2
DOT
 70
     0
  3
Dot . . . . . . . . . . . . . . . . . . . . . . . .
 72
    65
 73
     2
 40
6.35
 49
0.0
 74
     0
 49
-6.35
 74
     0
  0
LTYPE
  5
73
330
5
100
AcDbSymbolTableRecord
100
AcDbLinetypeTableRecord
  2
DOT2
 70
     0
  3
Dot (.5x) ........................................
 72
    65
 73
     2
 40
3.175
 49
0.0
 74
     0
 49
-3.175
 74
     0
  0
LTYPE
  5
74
330
5
100
AcDbSymbolTableRecord
100
AcDbLinetypeTableRecord
  2
CENTERX2
 70
     0
  3
Center (2x) ________  __  ________  __  _____
 72
    65
 73
     4
 40
101.6
 49
63.5
 74
     0
 49
-12.7
 74
     0
 49
12.7
 74
     0
 49
-12.7
 74
     0
  0
LTYPE
  5
75
330
5
100
AcDbSymbolTableRecord
100
AcDbLinetypeTableRecord
  2
CENTER
 70
     0
  3
Center ____ _ ____ _ ____ _ ____ _ ____ _ ____
 72
    65
 73
     4
 40
50.8
 49
31.75
 74
     0
 49
-6.35
 74
     0
 49
6.35
 74
     0
 49
-6.35
 74
     0
  0
LTYPE
  5
76
330
5
100
AcDbSymbolTableRecord
100
AcDbLinetypeTableRecord
  2
CENTER2
 70
     0
  3
Center (.5x) ___ _ ___ _ ___ _ ___ _ ___ _ ___
 72
    65
 73
     4
 40
28.575
 49
19.05
 74
     0
 49
-3.175
 74
     0
 49
3.175
 74
     0
 49
-3.175
 74
     0
  0
LTYPE
  5
77
330
5
100
AcDbSymbolTableRecord
100
AcDbLinetypeTableRecord
  2
DASHDOTX2
 70
     0
  3
Dash dot (2x) ____  .  ____  .  ____  .  ___
 72
    65
 73
     4
 40
50.8
 49
25.4
 74
     0
 49
-12.7
 74
     0
 49
0.0
 74
     0
 49
-12.7
 74
     0
  0
LTYPE
  5
78
330
5
100
AcDbSymbolTableRecord
100
AcDbLinetypeTableRecord
  2
DASHDOT
 70
     0
  3
Dash dot __ . __ . __ . __ . __ . __ . __ . __
 72
    65
 73
     4
 40
25.4
 49
12.7
 74
     0
 49
-6.35
 74
     0
 49
0.0
 74
     0
 49
-6.35
 74
     0
  0
LTYPE
  5
79
330
5
100
AcDbSymbolTableRecord
100
AcDbLinetypeTableRecord
  2
DASHDOT2
 70
     0
  3
Dash dot (.5x) _._._._._._._._._._._._._._._.
 72
    65
 73
     4
 40
12.7
 49
6.35
 74
     0
 49
-3.175
 74
     0
 49
0.0
 74
     0
 49
-3.175
 74
     0
  0
LTYPE
  5
7A
330
5
100
AcDbSymbolTableRecord
100
AcDbLinetypeTableRecord
  2
DIVIDEX2
 70
     0
  3
Divide (2x) ________  .  .  ________  .  .  _
 72
    65
 73
     6
 40
63.5
 49
25.4
 74
     0
 49
-12.7
 74
     0
 49
0.0
 74
     0
 49
-12.7
 74
     0
 49
0.0
 74
     0
 49
-12.7
 74
     0
  0
LTYPE
  5
7B
330
5
100
AcDbSymbolTableRecord
100
AcDbLinetypeTableRecord
  2
DIVIDE
 70
     0
  3
Divide ____ . . ____ . . ____ . . ____ . . ____
 72
    65
 73
     6
 40
31.75
 49
12.7
 74
     0
 49
-6.35
 74
     0
 49
0.0
 74
     0
 49
-6.35
 74
     0
 49
0.0
 74
     0
 49
-6.35
 74
     0
  0
LTYPE
  5
7C
330
5
100
AcDbSymbolTableRecord
100
AcDbLinetypeTableRecord
  2
DIVIDE2
 70
     0
  3
Divide (.5x) __..__..__..__..__..__..__..__.._
 72
    65
 73
     6
 40
15.875
 49
6.35
 74
     0
 49
-3.175
 74
     0
 49
0.0
 74
     0
 49
-3.175
 74
     0
 49
0.0
 74
     0
 49
-3.175
 74
     0
  0
LTYPE
  5
7D
330
5
100
AcDbSymbolTableRecord
100
AcDbLinetypeTableRecord
  2
BORDERX2
 70
     0
  3
Border (2x) ____  ____  .  ____  ____  .  ___
 72
    65
 73
     6
 40
88.89999999999999
 49
25.4
 74
     0
 49
-12.7
 74
     0
 49
25.4
 74
     0
 49
-12.7
 74
     0
 49
0.0
 74
     0
 49
-12.7
 74
     0
  0
LTYPE
  5
7E
330
5
100
AcDbSymbolTableRecord
100
AcDbLinetypeTableRecord
  2
BORDER
 70
     0
  3
Border __ __ . __ __ . __ __ . __ __ . __ __ .
 72
    65
 73
     6
 40
44.45
 49
12.7
 74
     0
 49
-6.35
 74
     0
 49
12.7
 74
     0
 49
-6.35
 74
     0
 49
0.0
 74
     0
 49
-6.35
 74
     0
  0
LTYPE
  5
7F
330
5
100
AcDbSymbolTableRecord
100
AcDbLinetypeTableRecord
  2
BORDER2
 70
     0
  3
Border (.5x) __.__.__.__.__.__.__.__.__.__.__.
 72
    65
 73
     6
 40
22.225
 49
6.35
 74
     0
 49
-3.175
 74
     0
 49
6.35
 74
     0
 49
-3.175
 74
     0
 49
0.0
 74
     0
 49
-3.175
 74
     0
  0
LTYPE
  5
80
330
5
100
AcDbSymbolTableRecord
100
AcDbLinetypeTableRecord
  2
PHANTOMX2
 70
     0
  3
Phantom (2x) ____________    ____    ____   _
 72
    65
 73
     6
 40
127.0
 49
63.5
 74
     0
 49
-12.7
 74
     0
 49
12.7
 74
     0
 49
-12.7
 74
     0
 49
12.7
 74
     0
 49
-12.7
 74
     0
  0
LTYPE
  5
81
330
5
100
AcDbSymbolTableRecord
100
AcDbLinetypeTableRecord
  2
PHANTOM
 70
     0
  3
Phantom ______  __  __  ______  __  __  ______ 
 72
    65
 73
     6
 40
63.5
 49
31.75
 74
     0
 49
-6.35
 74
     0
 49
6.35
 74
     0
 49
-6.35
 74
     0
 49
6.35
 74
     0
 49
-6.35
 74
     0
  0
LTYPE
  5
82
330
5
100
AcDbSymbolTableRecord
100
AcDbLinetypeTableRecord
  2
PHANTOM2
 70
     0
  3
Phantom (.5x) ___ _ _ ___ _ _ ___ _ _ ___ _ _
 72
    65
 73
     6
 40
31.75
 49
15.875
 74
     0
 49
-3.175
 74
     0
 49
3.175
 74
     0
 49
-3.175
 74
     0
 49
3.175
 74
     0
 49
-3.175
 74
     0
  0
LTYPE
  5
83
330
5
100
AcDbSymbolTableRecord
100
AcDbLinetypeTableRecord
  2
ACAD_ISO06W100
 70
     0
  3
ISO long-dash triple-dot ____ ... ____ ... ____
 72
    65
 73
     8
 40
36.0
 49
24.0
 74
     0
 49
-3.0
 74
     0
 49
0.0
 74
     0
 49
-3.0
 74
     0
 49
0.0
 74
     0
 49
-3.0
 74
     0
 49
0.0
 74
     0
 49
-3.0
 74
     0
  0
LTYPE
  5
84
330
5
100
AcDbSymbolTableRecord
100
AcDbLinetypeTableRecord
  2
ACAD_ISO13W100
 70
     0
  3
ISO double-dash double-dot __ __ . . __ __ . . _
 72
    65
 73
     8
 40
36.0
 49
12.0
 74
     0
 49
-3.0
 74
     0
 49
12.0
 74
     0
 49
-3.0
 74
     0
 49
0.0
 74
     0
 49
-3.0
 74
     0
 49
0.0
 74
     0
 49
-3.0
 74
     0
  0
LTYPE
  5
85
330
5
100
AcDbSymbolTableRecord
100
AcDbLinetypeTableRecord
  2
ACAD_ISO14W100
 70
     0
  3
ISO dash triple-dot __ . . . __ . . . __ . . . _
 72
    65
 73
     8
 40
24.0
 49
12.0
 74
     0
 49
-3.0
 74
     0
 49
0.0
 74
     0
 49
-3.0
 74
     0
 49
0.0
 74
     0
 49
-3.0
 74
     0
 49
0.0
 74
     0
 49
-3.0
 74
     0
  0
LTYPE
  5
86
330
5
100
AcDbSymbolTableRecord
100
AcDbLinetypeTableRecord
  2
ACAD_ISO02W100
 70
     0
  3
ISO dash __ __ __ __ __ __ __ __ __ __ __ __ __
 72
    65
 73
     2
 40
15.0
 49
12.0
 74
     0
 49
-3.0
 74
     0
  0
LTYPE
  5
87
330
5
100
AcDbSymbolTableRecord
100
AcDbLinetypeTableRecord
  2
ACAD_ISO03W100
 70
     0
  3
ISO dash space __    __    __    __    __    __
 72
    65
 73
     2
 40
30.0
 49
12.0
 74
     0
 49
-18.0
 74
     0
  0
LTYPE
  5
88
330
5
100
AcDbSymbolTableRecord
100
AcDbLinetypeTableRecord
  2
ACAD_ISO04W100
 70
     0
  3
ISO long-dash dot ____ . ____ . ____ . ____ . _
 72
    65
 73
     4
 40
30.0
 49
24.0
 74
     0
 49
-3.0
 74
     0
 49
0.0
 74
     0
 49
-3.0
 74
     0
  0
LTYPE
  5
89
330
5
100
AcDbSymbolTableRecord
100
AcDbLinetypeTableRecord
  2
ACAD_ISO05W100
 70
     0
  3
ISO long-dash double-dot ____ .. ____ .. ____ . 
 72
    65
 73
     6
 40
33.0
 49
24.0
 74
     0
 49
-3.0
 74
     0
 49
0.0
 74
     0
 49
-3.0
 74
     0
 49
0.0
 74
     0
 49
-3.0
 74
     0
  0
LTYPE
  5
8A
330
5
100
AcDbSymbolTableRecord
100
AcDbLinetypeTableRecord
  2
ACAD_ISO07W100
 70
     0
  3
ISO dot . . . . . . . . . . . . . . . . . . . . 
 72
    65
 73
     2
 40
3.0
 49
0.0
 74
     0
 49
-3.0
 74
     0
  0
LTYPE
  5
8B
330
5
100
AcDbSymbolTableRecord
100
AcDbLinetypeTableRecord
  2
ACAD_ISO08W100
 70
     0
  3
ISO long-dash short-dash ____ __ ____ __ ____ _
 72
    65
 73
     4
 40
36.0
 49
24.0
 74
     0
 49
-3.0
 74
     0
 49
6.0
 74
     0
 49
-3.0
 74
     0
  0
LTYPE
  5
8C
330
5
100
AcDbSymbolTableRecord
100
AcDbLinetypeTableRecord
  2
ACAD_ISO09W100
 70
     0
  3
ISO long-dash double-short-dash ____ __ __ ____
 72
    65
 73
     6
 40
45.0
 49
24.0
 74
     0
 49
-3.0
 74
     0
 49
6.0
 74
     0
 49
-3.0
 74
     0
 49
6.0
 74
     0
 49
-3.0
 74
     0
  0
LTYPE
  5
8D
330
5
100
AcDbSymbolTableRecord
100
AcDbLinetypeTableRecord
  2
ACAD_ISO10W100
 70
     0
  3
ISO dash dot __ . __ . __ . __ . __ . __ . __ . 
 72
    65
 73
     4
 40
18.0
 49
12.0
 74
     0
 49
-3.0
 74
     0
 49
0.0
 74
     0
 49
-3.0
 74
     0
  0
LTYPE
  5
8E
330
5
100
AcDbSymbolTableRecord
100
AcDbLinetypeTableRecord
  2
ACAD_ISO11W100
 70
     0
  3
ISO double-dash dot __ __ . __ __ . __ __ . __ _
 72
    65
 73
     6
 40
33.0
 49
12.0
 74
     0
 49
-3.0
 74
     0
 49
12.0
 74
     0
 49
-3.0
 74
     0
 49
0.0
 74
     0
 49
-3.0
 74
     0
  0
LTYPE
  5
8F
330
5
100
AcDbSymbolTableRecord
100
AcDbLinetypeTableRecord
  2
ACAD_ISO12W100
 70
     0
  3
ISO dash double-dot __ . . __ . . __ . . __ . . 
 72
    65
 73
     6
 40
21.0
 49
12.0
 74
     0
 49
-3.0
 74
     0
 49
0.0
 74
     0
 49
-3.0
 74
     0
 49
0.0
 74
     0
 49
-3.0
 74
     0
  0
LTYPE
  5
90
330
5
100
AcDbSymbolTableRecord
100
AcDbLinetypeTableRecord
  2
ACAD_ISO15W100
 70
     0
  3
ISO double-dash triple-dot __ __ . . . __ __ . .
 72
    65
 73
    10
 40
39.0
 49
12.0
 74
     0
 49
-3.0
 74
     0
 49
12.0
 74
     0
 49
-3.0
 74
     0
 49
0.0
 74
     0
 49
-3.0
 74
     0
 49
0.0
 74
     0
 49
-3.0
 74
     0
 49
0.0
 74
     0
 49
-3.0
 74
     0
  0
LTYPE
  5
91
330
5
100
AcDbSymbolTableRecord
100
AcDbLinetypeTableRecord
  2
JIS_02_0_7
 70
     0
  3
HIDDEN0.75 _ _ _ _ _ _ _ _ _ _ _ _ _ _ _ _ _ 
 72
    65
 73
     2
 40
1.35
 49
0.75
 74
     0
 49
-0.6
 74
     0
  0
LTYPE
  5
92
330
5
100
AcDbSymbolTableRecord
100
AcDbLinetypeTableRecord
  2
JIS_02_1_0
 70
     0
  3
HIDDEN01 _ _ _ _ _ _ _ _ _ _ _ _ _ _ _ _ _ 
 72
    65
 73
     2
 40
2.0
 49
1.0
 74
     0
 49
-1.0
 74
     0
  0
LTYPE
  5
93
330
5
100
AcDbSymbolTableRecord
100
AcDbLinetypeTableRecord
  2
JIS_02_1_2
 70
     0
  3
HIDDEN01.25  _ _ _ _ _ _ _ _ _ _ _ _ _ _ _ _ _ 
 72
    65
 73
     2
 40
2.5
 49
1.25
 74
     0
 49
-1.25
 74
     0
  0
LTYPE
  5
94
330
5
100
AcDbSymbolTableRecord
100
AcDbLinetypeTableRecord
  2
JIS_02_2_0
 70
     0
  3
HIDDEN02 __ __ __ __ __ __ __ __ __ __ __ 
 72
    65
 73
     2
 40
3.0
 49
2.0
 74
     0
 49
-1.0
 74
     0
  0
LTYPE
  5
95
330
5
100
AcDbSymbolTableRecord
100
AcDbLinetypeTableRecord
  2
JIS_02_4_0
 70
     0
  3
HIDDEN04 ____ ____ ____ ____ ____ ____ ____ 
 72
    65
 73
     2
 40
5.5
 49
4.0
 74
     0
 49
-1.5
 74
     0
  0
LTYPE
  5
96
330
5
100
AcDbSymbolTableRecord
100
AcDbLinetypeTableRecord
  2
JIS_08_11
 70
     0
  3
1SASEN11 ___ _ ___ _ ___ _ ___ _ ___ _ ___
 72
    65
 73
     4
 40
12.8
 49
11.0
 74
     0
 49
-0.6
 74
     0
 49
0.6
 74
     0
 49
-0.6
 74
     0
  0
LTYPE
  5
97
330
5
100
AcDbSymbolTableRecord
100
AcDbLinetypeTableRecord
  2
JIS_08_15
 70
     0
  3
1SASEN15 ____ _ ____ _ ____ _ ____ _ ____ 
 72
    65
 73
     4
 40
17.25
 49
15.0
 74
     0
 49
-0.75
 74
     0
 49
0.75
 74
     0
 49
-0.75
 74
     0
  0
LTYPE
  5
98
330
5
100
AcDbSymbolTableRecord
100
AcDbLinetypeTableRecord
  2
JIS_08_25
 70
     0
  3
1SASEN25 ________  __  ________  __  _____
 72
    65
 73
     4
 40
28.0
 49
25.0
 74
     0
 49
-1.125
 74
     0
 49
0.75
 74
     0
 49
-1.125
 74
     0
  0
LTYPE
  5
99
330
5
100
AcDbSymbolTableRecord
100
AcDbLinetypeTableRecord
  2
JIS_08_37
 70
     0
  3
1SASEN37 ________  __  ________  __  _____
 72
    65
 73
     4
 40
40.5
 49
37.5
 74
     0
 49
-1.125
 74
     0
 49
0.75
 74
     0
 49
-1.125
 74
     0
  0
LTYPE
  5
9A
330
5
100
AcDbSymbolTableRecord
100
AcDbLinetypeTableRecord
  2
JIS_08_50
 70
     0
  3
1SASEN50 _______________  __  ____________
 72
    65
 73
     4
 40
53.0
 49
50.0
 74
     0
 49
-1.125
 74
     0
 49
0.75
 74
     0
 49
-1.125
 74
     0
  0
LTYPE
  5
9B
330
5
100
AcDbSymbolTableRecord
100
AcDbLinetypeTableRecord
  2
JIS_09_08
 70
     0
  3
2SASEN8 __ _ _ __ _ _ __ _ _ __ _ _ __ _ _ 
 72
    65
 73
     6
 40
10.75
 49
8.0
 74
     0
 49
-0.55
 74
     0
 49
0.55
 74
     0
 49
-0.55
 74
     0
 49
0.55
 74
     0
 49
-0.55
 74
     0
  0
LTYPE
  5
9C
330
5
100
AcDbSymbolTableRecord
100
AcDbLinetypeTableRecord
  2
JIS_09_15
 70
     0
  3
2SASEN15 ___ _ _ ___ _ _ ___ _ _ ___ _ _ ___ 
 72
    65
 73
     6
 40
18.9
 49
15.0
 74
     0
 49
-0.9
 74
     0
 49
0.6
 74
     0
 49
-0.9
 74
     0
 49
0.6
 74
     0
 49
-0.9
 74
     0
  0
LTYPE
  5
9D
330
5
100
AcDbSymbolTableRecord
100
AcDbLinetypeTableRecord
  2
JIS_09_29
 70
     0
  3
2SASEN29 ______　__  __  ______　__  __  ___
 72
    65
 73
     6
 40
34.0
 49
29.0
 74
     0
 49
-1.2
 74
     0
 49
0.7
 74
     0
 49
-1.2
 74
     0
 49
0.7
 74
     0
 49
-1.2
 74
     0
  0
LTYPE
  5
9E
330
5
100
AcDbSymbolTableRecord
100
AcDbLinetypeTableRecord
  2
JIS_09_50
 70
     0
  3
2SASEN50 ____________　__  __  _____________
 72
    65
 73
     6
 40
55.0
 49
50.0
 74
     0
 49
-1.2
 74
     0
 49
0.7
 74
     0
 49
-1.2
 74
     0
 49
0.7
 74
     0
 49
-1.2
 74
     0
  0
LTYPE
  5
9F
330
5
100
AcDbSymbolTableRecord
100
AcDbLinetypeTableRecord
  2
SXF_破線
 70
     0
  3
02 dashed -- -- -- -- -- --
 72
    65
 73
     2
 40
7.5
 49
6.0
 74
     0
 49
-1.5
 74
     0
  0
LTYPE
  5
A0
330
5
100
AcDbSymbolTableRecord
100
AcDbLinetypeTableRecord
  2
SXF_跳び破線
 70
     0
  3
03 dashed_spaced --  --  --  --
 72
    65
 73
     2
 40
12.0
 49
6.0
 74
     0
 49
-6.0
 74
     0
  0
LTYPE
  5
A1
330
5
100
AcDbSymbolTableRecord
100
AcDbLinetypeTableRecord
  2
SXF_一点長鎖線
 70
     0
  3
04 long_dashed_dotted ---- . ---- . ----
 72
    65
 73
     4
 40
15.25
 49
12.0
 74
     0
 49
-1.5
 74
     0
 49
0.25
 74
     0
 49
-1.5
 74
     0
  0
LTYPE
  5
A2
330
5
100
AcDbSymbolTableRecord
100
AcDbLinetypeTableRecord
  2
SXF_二点長鎖線
 70
     0
  3
05 long_dashed_double-dotted ---- . . ---- 
 72
    65
 73
     6
 40
17.0
 49
12.0
 74
     0
 49
-1.5
 74
     0
 49
0.25
 74
     0
 49
-1.5
 74
     0
 49
0.25
 74
     0
 49
-1.5
 74
     0
  0
LTYPE
  5
A3
330
5
100
AcDbSymbolTableRecord
100
AcDbLinetypeTableRecord
  2
SXF_三点長鎖線
 70
     0
  3
06 long_dashed_triplicate-dotted ---- ... ---- 
 72
    65
 73
     8
 40
18.75
 49
12.0
 74
     0
 49
-1.5
 74
     0
 49
0.25
 74
     0
 49
-1.5
 74
     0
 49
0.25
 74
     0
 49
-1.5
 74
     0
 49
0.25
 74
     0
 49
-1.5
 74
     0
  0
LTYPE
  5
A4
330
5
100
AcDbSymbolTableRecord
100
AcDbLinetypeTableRecord
  2
SXF_点線
 70
     0
  3
07 dotted . . . . . . . . . . . . 
 72
    65
 73
     2
 40
1.75
 49
0.25
 74
     0
 49
-1.5
 74
     0
  0
LTYPE
  5
A5
330
5
100
AcDbSymbolTableRecord
100
AcDbLinetypeTableRecord
  2
SXF_一点鎖線
 70
     0
  3
08 chain ---- - --- - --- - ---
 72
    65
 73
     4
 40
18.5
 49
12.0
 74
     0
 49
-1.5
 74
     0
 49
3.5
 74
     0
 49
-1.5
 74
     0
  0
LTYPE
  5
A6
330
5
100
AcDbSymbolTableRecord
100
AcDbLinetypeTableRecord
  2
SXF_二点鎖線
 70
     0
  3
09 chain_double_dash ---- - - ---- - - ----
 72
    65
 73
     6
 40
23.5
 49
12.0
 74
     0
 49
-1.5
 74
     0
 49
3.5
 74
     0
 49
-1.5
 74
     0
 49
3.5
 74
     0
 49
-1.5
 74
     0
  0
LTYPE
  5
A7
330
5
100
AcDbSymbolTableRecord
100
AcDbLinetypeTableRecord
  2
SXF_一点短鎖線
 70
     0
  3
10 dashed_dotted -- . -- . -- . --
 72
    65
 73
     4
 40
9.25
 49
6.0
 74
     0
 49
-1.5
 74
     0
 49
0.25
 74
     0
 49
-1.5
 74
     0
  0
LTYPE
  5
A8
330
5
100
AcDbSymbolTableRecord
100
AcDbLinetypeTableRecord
  2
SXF_一点二短鎖線
 70
     0
  3
11 double-dashed_dotted -- -- . -- --
 72
    65
 73
     6
 40
16.75
 49
6.0
 74
     0
 49
-1.5
 74
     0
 49
6.0
 74
     0
 49
-1.5
 74
     0
 49
0.25
 74
     0
 49
-1.5
 74
     0
  0
LTYPE
  5
A9
330
5
100
AcDbSymbolTableRecord
100
AcDbLinetypeTableRecord
  2
SXF_二点短鎖線
 70
     0
  3
12 dashed_double_dotted -- . . -- . . --
 72
    65
 73
     6
 40
11.0
 49
6.0
 74
     0
 49
-1.5
 74
     0
 49
0.25
 74
     0
 49
-1.5
 74
     0
 49
0.25
 74
     0
 49
-1.5
 74
     0
  0
LTYPE
  5
AA
330
5
100
AcDbSymbolTableRecord
100
AcDbLinetypeTableRecord
  2
SXF_二点二短鎖線
 70
     0
  3
13 double-dashed_double-dotted -- -- . . -- --
 72
    65
 73
     8
 40
18.5
 49
6.0
 74
     0
 49
-1.5
 74
     0
 49
6.0
 74
     0
 49
-1.5
 74
     0
 49
0.25
 74
     0
 49
-1.5
 74
     0
 49
0.25
 74
     0
 49
-1.5
 74
     0
  0
LTYPE
  5
AB
330
5
100
AcDbSymbolTableRecord
100
AcDbLinetypeTableRecord
  2
SXF_三点短鎖線
 70
     0
  3
14 dashed triplicate-dotted -- . . . -- . . . --
 72
    65
 73
     8
 40
12.75
 49
6.0
 74
     0
 49
-1.5
 74
     0
 49
0.25
 74
     0
 49
-1.5
 74
     0
 49
0.25
 74
     0
 49
-1.5
 74
     0
 49
0.25
 74
     0
 49
-1.5
 74
     0
  0
LTYPE
  5
AC
330
5
100
AcDbSymbolTableRecord
100
AcDbLinetypeTableRecord
  2
SXF_三点二短鎖線
 70
     0
  3
15 double-dashed triplicate-dotted -- -- . . . -- -- 
 72
    65
 73
    10
 40
20.25
 49
6.0
 74
     0
 49
-1.5
 74
     0
 49
6.0
 74
     0
 49
-1.5
 74
     0
 49
0.25
 74
     0
 49
-1.5
 74
     0
 49
0.25
 74
     0
 49
-1.5
 74
     0
 49
0.25
 74
     0
 49
-1.5
 74
     0
  0
ENDTAB
  0
TABLE
  2
LAYER
  5
2
330
0
100
AcDbSymbolTable
 70
     1
  0
LAYER
  5
10
330
2
100
AcDbSymbolTableRecord
100
AcDbLayerTableRecord
  2
0
 70
     0
 62
     7
  6
CONTINUOUS
  0
ENDTAB
  0
TABLE
  2
STYLE
  5
3
330
0
100
AcDbSymbolTable
 70
     2
  0
STYLE
  5
11
330
3
100
AcDbSymbolTableRecord
100
AcDbTextStyleTableRecord
  2
STANDARD
 70
     0
 40
0.0
 41
1.0
 50
0.0
 71
     0
 42
0.2
  3
txt.shx
  4
bigfont.shx
  0
STYLE
  5
AE
330
3
100
AcDbSymbolTableRecord
100
AcDbTextStyleTableRecord
  2
DCSTYLE0
 70
     0
 40
0.0
 41
0.3649999999999997
 50
0.0
 71
     0
 42
0.2
  3
txt.shx
  4
bigfont
  0
ENDTAB
  0
TABLE
  2
VIEW
  5
6
330
0
100
AcDbSymbolTable
 70
     0
  0
ENDTAB
  0
TABLE
  2
UCS
  5
7
330
0
100
AcDbSymbolTable
 70
     0
  0
ENDTAB
  0
TABLE
  2
APPID
  5
9
330
0
100
AcDbSymbolTable
 70
     2
  0
APPID
  5
12
330
9
100
AcDbSymbolTableRecord
100
AcDbRegAppTableRecord
  2
ACAD
 70
     0
  0
APPID
  5
6A
330
9
100
AcDbSymbolTableRecord
100
AcDbRegAppTableRecord
  2
DAFUSIONOUT
 70
     0
  0
ENDTAB
  0
TABLE
  2
DIMSTYLE
  5
A
330
0
100
AcDbSymbolTable
 70
     1
  0
DIMSTYLE
105
27
330
A
100
AcDbSymbolTableRecord
100
AcDbDimStyleTableRecord
  2
STANDARD
 70
     0
  3

  4

  5

  6

  7

 40
1.0
 41
0.18
 42
0.0625
 43
0.38
 44
0.18
 45
0.0
 46
0.0
 47
0.0
 48
0.0
140
0.18
141
0.09
142
0.0
143
25.4
144
1.0
145
0.0
146
1.0
147
0.09
 71
     0
 72
     0
 73
     1
 74
     1
 75
     0
 76
     0
 77
     0
 78
     0
170
     0
171
     2
172
     0
173
     0
174
     0
175
     0
176
     0
177
     0
178
     0
270
     2
271
     4
272
     4
273
     2
274
     2
340
11
275
     0
280
     0
281
     0
282
     0
283
     1
284
     0
285
     0
286
     0
287
     3
288
     0
  0
ENDTAB
  0
TABLE
  2
BLOCK_RECORD
  5
1
330
0
100
AcDbSymbolTable
 70
     1
  0
BLOCK_RECORD
  5
1F
330
1
100
AcDbSymbolTableRecord
100
AcDbBlockTableRecord
  2
*MODEL_SPACE
  0
BLOCK_RECORD
  5
1B
330
1
100
AcDbSymbolTableRecord
100
AcDbBlockTableRecord
  2
*PAPER_SPACE
  0
ENDTAB
  0
ENDSEC
  0
SECTION
  2
BLOCKS
  0
BLOCK
  5
20
330
1F
100
AcDbEntity
  8
0
100
AcDbBlockBegin
  2
*MODEL_SPACE
 70
     0
 10
0.0
 20
0.0
 30
0.0
  3
*MODEL_SPACE
  1

  0
ENDBLK
  5
21
330
1F
100
AcDbEntity
  8
0
100
AcDbBlockEnd
  0
BLOCK
  5
1C
330
1B
100
AcDbEntity
 67
     1
  8
0
100
AcDbBlockBegin
  2
*PAPER_SPACE
 70
     0
 10
0.0
 20
0.0
 30
0.0
  3
*PAPER_SPACE
  1

  0
ENDBLK
  5
1D
330
1B
100
AcDbEntity
 67
     1
  8
0
100
AcDbBlockEnd
  0
ENDSEC
  0
SECTION
  2
ENTITIES
  0
TEXT
  5
AF
330
1F
100
AcDbEntity
  8
0
 62
     7
100
AcDbText
 10
159.99360222615
 20
-67.60866965260001
 30
0.0
 40
5.2916666667
  1
000
 41
0.4034210526315786
  7
DCSTYLE0
 72
     5
 11
165.7879772261865
 21
-67.60866965260001
 31
0.0
100
AcDbText
  0
LINE
  5
B0
330
1F
100
AcDbEntity
  8
0
  6
CONTINUOUS
 62
     7
100
AcDbLine
 10
-118.87160148405
 20
58.2154715277
 30
0.0
 11
-118.77382478805
 21
54.71547298799999
 31
0.0
  0
LINE
  5
B1
330
1F
100
AcDbEntity
  8
0
  6
CONTINUOUS
 62
     7
100
AcDbLine
 10
-114.87160269105
 20
58.2154715277
 30
0.0
 11
-114.98329514105
 21
54.32417638369998
 31
0.0
  0
LINE
  5
B2
330
1F
100
AcDbEntity
  8
0
  6
CONTINUOUS
 62
     7
100
AcDbLine
 10
-118.87160148405
 20
58.2154715277
 30
0.0
 11
-114.87160269105
 21
58.2154715277
 31
0.0
  0
LINE
  5
B3
330
1F
100
AcDbEntity
  8
0
  6
CONTINUOUS
 62
     7
100
AcDbLine
 10
-161.47160176115
 20
58.2154715277
 30
0.0
 11
-161.35990930815
 21
54.32417627909999
 31
0.0
  0
LINE
  5
B4
330
1F
100
AcDbEntity
  8
0
  6
CONTINUOUS
 62
     7
100
AcDbLine
 10
-157.47160296815
 20
58.2154715277
 30
0.0
 11
-157.56937966415
 21
54.71547298799999
 31
0.0
  0
LINE
  5
B5
330
1F
100
AcDbEntity
  8
0
  6
CONTINUOUS
 62
     7
100
AcDbLine
 10
-157.47160296815
 20
58.2154715277
 30
0.0
 11
-161.47160176115
 21
58.2154715277
 31
0.0
  0
LINE
  5
B6
330
1F
100
AcDbEntity
  8
0
  6
CONTINUOUS
 62
     7
100
AcDbLine
 10
-119.27898619255
 20
58.2154715277
 30
0.0
 11
-118.87160148405
 21
58.2154715277
 31
0.0
  0
LINE
  5
B7
330
1F
100
AcDbEntity
  8
0
  6
CONTINUOUS
 62
     7
100
AcDbLine
 10
-157.06421825965
 20
58.2154715277
 30
0.0
 11
-157.47160296815
 21
58.2154715277
 31
0.0
  0
LINE
  5
B8
330
1F
100
AcDbEntity
  8
0
  6
CONTINUOUS
 62
     7
100
AcDbLine
 10
-144.76360864865
 20
58.2154715277
 30
0.0
 11
-157.06421825965
 21
58.2154715277
 31
0.0
  0
LINE
  5
B9
330
1F
100
AcDbEntity
  8
0
  6
CONTINUOUS
 62
     7
100
AcDbLine
 10
-131.57959580355
 20
58.2154715277
 30
0.0
 11
-119.27898619255
 21
58.2154715277
 31
0.0
  0
LINE
  5
BA
330
1F
100
AcDbEntity
  8
0
  6
CONTINUOUS
 62
     7
100
AcDbLine
 10
-144.17160227825
 20
58.2154715277
 30
0.0
 11
-144.07382427845
 21
54.71547298799999
 31
0.0
  0
LINE
  5
BB
330
1F
100
AcDbEntity
  8
0
  6
CONTINUOUS
 62
     7
100
AcDbLine
 10
-132.17160217395
 20
58.2154715277
 30
0.0
 11
-132.26938017385
 21
54.71547298799999
 31
0.0
  0
LINE
  5
BC
330
1F
100
AcDbEntity
  8
0
  6
CONTINUOUS
 62
     7
100
AcDbLine
 10
-132.17160217395
 20
58.2154715277
 30
0.0
 11
-144.17160227825
 21
58.2154715277
 31
0.0
  0
LINE
  5
BD
330
1F
100
AcDbEntity
  8
0
  6
CONTINUOUS
 62
     7
100
AcDbLine
 10
-132.17160217395
 20
58.2154715277
 30
0.0
 11
-131.57959580355
 21
58.2154715277
 31
0.0
  0
LINE
  5
BE
330
1F
100
AcDbEntity
  8
0
  6
CONTINUOUS
 62
     7
100
AcDbLine
 10
-144.17160227825
 20
58.2154715277
 30
0.0
 11
-144.76360864865
 21
58.2154715277
 31
0.0
  0
LINE
  5
BF
330
1F
100
AcDbEntity
  8
0
  6
CONTINUOUS
 62
     7
100
AcDbLine
 10
-161.84427163785
 20
53.8119113306
 30
0.0
 11
-161.99633359165
 21
58.2154715277
 31
0.0
  0
LINE
  5
C0
330
1F
100
AcDbEntity
  8
0
  6
CONTINUOUS
 62
     7
100
AcDbLine
 10
-161.47160176115
 20
58.2154715277
 30
0.0
 11
-161.99633359165
 21
58.2154715277
 31
0.0
  0
LINE
  5
C1
330
1F
100
AcDbEntity
  8
0
  6
CONTINUOUS
 62
     7
100
AcDbLine
 10
-114.49893280715
 20
53.81191153999998
 30
0.0
 11
-114.34687086065
 21
58.2154715277
 31
0.0
  0
LINE
  5
C2
330
1F
100
AcDbEntity
  8
0
  6
CONTINUOUS
 62
     7
100
AcDbLine
 10
-114.87160269105
 20
58.2154715277
 30
0.0
 11
-114.34687086065
 21
58.2154715277
 31
0.0
  0
LINE
  5
C3
330
1F
100
AcDbEntity
  8
0
  6
CONTINUOUS
 62
     7
100
AcDbLine
 10
-118.87160148405
 20
-44.7845255517
 30
0.0
 11
-114.87160269105
 21
-44.7845255517
 31
0.0
  0
LINE
  5
C4
330
1F
100
AcDbEntity
  8
0
  6
CONTINUOUS
 62
     7
100
AcDbLine
 10
-114.87160269105
 20
-44.7845255517
 30
0.0
 11
-114.98329514105
 21
-40.8932304077
 31
0.0
  0
LINE
  5
C5
330
1F
100
AcDbEntity
  8
0
  6
CONTINUOUS
 62
     7
100
AcDbLine
 10
-118.87160148405
 20
-44.7845255517
 30
0.0
 11
-118.77382478805
 21
-41.28452701200001
 31
0.0
  0
LINE
  5
C6
330
1F
100
AcDbEntity
  8
0
  6
CONTINUOUS
 62
     7
100
AcDbLine
 10
-157.47160296815
 20
-44.7845255517
 30
0.0
 11
-161.47160176115
 21
-44.7845255517
 31
0.0
  0
LINE
  5
C7
330
1F
100
AcDbEntity
  8
0
  6
CONTINUOUS
 62
     7
100
AcDbLine
 10
-157.47160296815
 20
-44.7845255517
 30
0.0
 11
-157.56937966415
 21
-41.28452701200001
 31
0.0
  0
LINE
  5
C8
330
1F
100
AcDbEntity
  8
0
  6
CONTINUOUS
 62
     7
100
AcDbLine
 10
-161.47160176115
 20
-44.7845255517
 30
0.0
 11
-161.35990930815
 21
-40.89323030310001
 31
0.0
  0
LINE
  5
C9
330
1F
100
AcDbEntity
  8
0
  6
CONTINUOUS
 62
     7
100
AcDbLine
 10
-119.27898619255
 20
-44.7845255517
 30
0.0
 11
-118.87160148405
 21
-44.7845255517
 31
0.0
  0
LINE
  5
CA
330
1F
100
AcDbEntity
  8
0
  6
CONTINUOUS
 62
     7
100
AcDbLine
 10
-157.06421825965
 20
-44.7845255517
 30
0.0
 11
-157.47160296815
 21
-44.7845255517
 31
0.0
  0
LINE
  5
CB
330
1F
100
AcDbEntity
  8
0
  6
CONTINUOUS
 62
     7
100
AcDbLine
 10
-131.57959580355
 20
-44.7845255517
 30
0.0
 11
-119.27898619255
 21
-44.7845255517
 31
0.0
  0
LINE
  5
CC
330
1F
100
AcDbEntity
  8
0
  6
CONTINUOUS
 62
     7
100
AcDbLine
 10
-144.76360864865
 20
-44.7845255517
 30
0.0
 11
-157.06421825965
 21
-44.7845255517
 31
0.0
  0
LINE
  5
CD
330
1F
100
AcDbEntity
  8
0
  6
CONTINUOUS
 62
     7
100
AcDbLine
 10
-144.17160227825
 20
-44.7845255517
 30
0.0
 11
-144.07382427845
 21
-41.28452701200001
 31
0.0
  0
LINE
  5
CE
330
1F
100
AcDbEntity
  8
0
  6
CONTINUOUS
 62
     7
100
AcDbLine
 10
-132.17160217395
 20
-44.7845255517
 30
0.0
 11
-132.26938017385
 21
-41.28452701200001
 31
0.0
  0
LINE
  5
CF
330
1F
100
AcDbEntity
  8
0
  6
CONTINUOUS
 62
     7
100
AcDbLine
 10
-144.17160227825
 20
-44.7845255517
 30
0.0
 11
-132.17160217395
 21
-44.7845255517
 31
0.0
  0
LINE
  5
D0
330
1F
100
AcDbEntity
  8
0
  6
CONTINUOUS
 62
     7
100
AcDbLine
 10
-132.17160217395
 20
-44.7845255517
 30
0.0
 11
-131.57959580355
 21
-44.7845255517
 31
0.0
  0
LINE
  5
D1
330
1F
100
AcDbEntity
  8
0
  6
CONTINUOUS
 62
     7
100
AcDbLine
 10
-144.17160227825
 20
-44.7845255517
 30
0.0
 11
-144.76360864865
 21
-44.7845255517
 31
0.0
  0
LINE
  5
D2
330
1F
100
AcDbEntity
  8
0
  6
CONTINUOUS
 62
     7
100
AcDbLine
 10
-161.84427163785
 20
-40.38096535460002
 30
0.0
 11
-161.99633359165
 21
-44.7845255517
 31
0.0
  0
LINE
  5
D3
330
1F
100
AcDbEntity
  8
0
  6
CONTINUOUS
 62
     7
100
AcDbLine
 10
-161.47160176115
 20
-44.7845255517
 30
0.0
 11
-161.99633359165
 21
-44.7845255517
 31
0.0
  0
LINE
  5
D4
330
1F
100
AcDbEntity
  8
0
  6
CONTINUOUS
 62
     7
100
AcDbLine
 10
-114.49893280715
 20
-40.38096556400001
 30
0.0
 11
-114.34687086065
 21
-44.7845255517
 31
0.0
  0
LINE
  5
D5
330
1F
100
AcDbEntity
  8
0
  6
CONTINUOUS
 62
     7
100
AcDbLine
 10
-114.87160269105
 20
-44.7845255517
 30
0.0
 11
-114.34687086065
 21
-44.7845255517
 31
0.0
  0
LINE
  5
D6
330
1F
100
AcDbEntity
  8
0
  6
CONTINUOUS
 62
     7
100
AcDbLine
 10
-15.48730771535
 20
52.71536081209999
 30
0.0
 11
-15.39597477305
 21
49.66534643539998
 31
0.0
  0
LINE
  5
D7
330
1F
100
AcDbEntity
  8
0
  6
CONTINUOUS
 62
     7
100
AcDbLine
 10
33.98554379945
 20
-39.28452659480001
 30
0.0
 11
2.250632238450009
 21
-39.28452659480001
 31
0.0
  0
LINE
  5
D8
330
1F
100
AcDbEntity
  8
0
  6
CONTINUOUS
 62
     7
100
AcDbLine
 10
2.346642655450012
 20
58.21547298799999
 30
0.0
 11
2.197395977450014
 21
49.6654730953
 31
0.0
  0
LINE
  5
D9
330
1F
100
AcDbEntity
  8
0
  6
CONTINUOUS
 62
     7
100
AcDbLine
 10
2.197395977450014
 20
49.6654730953
 30
0.0
 11
1.19755041305001
 21
49.6654730953
 31
0.0
  0
LINE
  5
DA
330
1F
100
AcDbEntity
  8
0
  6
CONTINUOUS
 62
     7
100
AcDbLine
 10
-24.95693791204999
 20
-39.28452659480001
 30
0.0
 11
-34.34977311185
 21
-39.28452659480001
 31
0.0
  0
LINE
  5
DB
330
1F
100
AcDbEntity
  8
0
  6
CONTINUOUS
 62
     7
100
AcDbLine
 10
1.19755041305001
 20
49.6654730953
 30
0.0
 11
-14.62645831994999
 21
49.6654730953
 31
0.0
  0
LINE
  5
DC
330
1F
100
AcDbEntity
  8
0
  6
CONTINUOUS
 62
     7
100
AcDbLine
 10
-14.71460613894999
 20
54.71547289859998
 30
0.0
 11
2.285547521750004
 21
54.71547289859998
 31
0.0
  0
LINE
  5
DD
330
1F
100
AcDbEntity
  8
0
  6
CONTINUOUS
 62
     7
100
AcDbLine
 10
-15.67954573325
 20
52.71547257079999
 30
0.0
 11
-15.71445542865001
 21
54.71547289859998
 31
0.0
  0
LINE
  5
DE
330
1F
100
AcDbEntity
  8
0
  6
CONTINUOUS
 62
     7
100
AcDbLine
 10
-14.62645831994999
 20
49.6654730953
 30
0.0
 11
-15.29728251985
 21
49.6654730953
 31
0.0
  0
LINE
  5
DF
330
1F
100
AcDbEntity
  8
0
  6
CONTINUOUS
 62
     7
100
AcDbLine
 10
-15.40493968415001
 20
52.71547257079999
 30
0.0
 11
-15.67954573325
 21
52.71547257079999
 31
0.0
  0
LINE
  5
E0
330
1F
100
AcDbEntity
  8
0
  6
CONTINUOUS
 62
     7
100
AcDbLine
 10
-15.71445542865001
 20
54.71547289859998
 30
0.0
 11
-14.71460613894999
 21
54.71547289859998
 31
0.0
  0
LINE
  5
E1
330
1F
100
AcDbEntity
  8
0
  6
CONTINUOUS
 62
     7
100
AcDbLine
 10
-21.91445420975001
 20
52.71547257079999
 30
0.0
 11
-24.95693791204999
 21
52.71547257079999
 31
0.0
  0
LINE
  5
E2
330
1F
100
AcDbEntity
  8
0
  6
CONTINUOUS
 62
     7
100
AcDbLine
 10
-26.43985304525
 20
52.71547257079999
 30
0.0
 11
-26.63191584295001
 21
58.21547298799999
 31
0.0
  0
LINE
  5
E3
330
1F
100
AcDbEntity
  8
0
  6
CONTINUOUS
 62
     7
100
AcDbLine
 10
-21.91445607234999
 20
54.71547289859998
 30
0.0
 11
-22.03667918075001
 21
58.21547298799999
 31
0.0
  0
LINE
  5
E4
330
1F
100
AcDbEntity
  8
0
  6
CONTINUOUS
 62
     7
100
AcDbLine
 10
-18.87197050744999
 20
52.71547257079999
 30
0.0
 11
-21.91445420975001
 21
52.71547257079999
 31
0.0
  0
LINE
  5
E5
330
1F
100
AcDbEntity
  8
0
  6
CONTINUOUS
 62
     7
100
AcDbLine
 10
-34.41445625865001
 20
52.71547257079999
 30
0.0
 11
-36.24575122735001
 21
52.71547257079999
 31
0.0
  0
LINE
  5
E6
330
1F
100
AcDbEntity
  8
0
  6
CONTINUOUS
 62
     7
100
AcDbLine
 10
-37.41445581905
 20
58.21547298799999
 30
0.0
 11
-37.41445581905
 21
52.71547257079999
 31
0.0
  0
LINE
  5
E7
330
1F
100
AcDbEntity
  8
0
  6
CONTINUOUS
 62
     7
100
AcDbLine
 10
-36.24575122735001
 20
52.71547257079999
 30
0.0
 11
-37.41445581905
 21
52.71547257079999
 31
0.0
  0
LINE
  5
E8
330
1F
100
AcDbEntity
  8
0
  6
CONTINUOUS
 62
     7
100
AcDbLine
 10
-15.67954573325
 20
-39.28452659480001
 30
0.0
 11
-18.87197050744999
 21
-39.28452659480001
 31
0.0
  0
LINE
  5
E9
330
1F
100
AcDbEntity
  8
0
  6
CONTINUOUS
 62
     7
100
AcDbLine
 10
-16.46411235925001
 20
54.71547289859998
 30
0.0
 11
-15.71445542865001
 21
54.71547289859998
 31
0.0
  0
LINE
  5
EA
330
1F
100
AcDbEntity
  8
0
  6
CONTINUOUS
 62
     7
100
AcDbLine
 10
-17.31921921964999
 20
54.71547289859998
 30
0.0
 11
-17.44144015485
 21
58.21547298799999
 31
0.0
  0
LINE
  5
EB
330
1F
100
AcDbEntity
  8
0
  6
CONTINUOUS
 62
     7
100
AcDbLine
 10
-17.04324412635
 20
54.71547289859998
 30
0.0
 11
-16.46411235925001
 21
54.71547289859998
 31
0.0
  0
LINE
  5
EC
330
1F
100
AcDbEntity
  8
0
  6
CONTINUOUS
 62
     7
100
AcDbLine
 10
2.310701369349999
 20
-42.7255331602
 30
0.0
 11
3.785544973650019
 21
-42.78452623710001
 31
0.0
  0
LINE
  5
ED
330
1F
100
AcDbEntity
  8
0
  6
CONTINUOUS
 62
     7
100
AcDbLine
 10
3.785544973650019
 20
-44.78452701200001
 30
0.0
 11
3.785544973650019
 21
-42.78452623710001
 31
0.0
  0
LINE
  5
EE
330
1F
100
AcDbEntity
  8
0
  6
CONTINUOUS
 62
     7
100
AcDbLine
 10
-17.04324412635
 20
-41.28452692260001
 30
0.0
 11
-16.46411235925001
 21
-41.28452692260001
 31
0.0
  0
LINE
  5
EF
330
1F
100
AcDbEntity
  8
0
  6
CONTINUOUS
 62
     7
100
AcDbLine
 10
-17.31921921964999
 20
-41.28452692260001
 30
0.0
 11
-17.44144015485
 21
-44.78452701200001
 31
0.0
  0
LINE
  5
F0
330
1F
100
AcDbEntity
  8
0
  6
CONTINUOUS
 62
     7
100
AcDbLine
 10
-37.41445581905
 20
-39.28452659480001
 30
0.0
 11
-40.41445631075001
 21
-39.28452659480001
 31
0.0
  0
LINE
  5
F1
330
1F
100
AcDbEntity
  8
0
  6
CONTINUOUS
 62
     7
100
AcDbLine
 10
3.785544973650019
 20
58.21547298799999
 30
0.0
 11
3.785544973650019
 21
56.21547221309999
 31
0.0
  0
LINE
  5
F2
330
1F
100
AcDbEntity
  8
0
  6
CONTINUOUS
 62
     7
100
AcDbLine
 10
2.310701369349999
 20
56.15647913619998
 30
0.0
 11
3.785544973650019
 21
56.21547221309999
 31
0.0
  0
LINE
  5
F3
330
1F
100
AcDbEntity
  8
0
  6
CONTINUOUS
 62
     7
100
AcDbLine
 10
-16.46411235925001
 20
-41.28452692260001
 30
0.0
 11
-15.71445542865001
 21
-41.28452692260001
 31
0.0
  0
LINE
  5
F4
330
1F
100
AcDbEntity
  8
0
  6
CONTINUOUS
 62
     7
100
AcDbLine
 10
-36.24575122735001
 20
-39.28452659480001
 30
0.0
 11
-37.41445581905
 21
-39.28452659480001
 31
0.0
  0
LINE
  5
F5
330
1F
100
AcDbEntity
  8
0
  6
CONTINUOUS
 62
     7
100
AcDbLine
 10
-37.41445581905
 20
-44.78452701200001
 30
0.0
 11
-37.41445581905
 21
-39.28452659480001
 31
0.0
  0
LINE
  5
F6
330
1F
100
AcDbEntity
  8
0
  6
CONTINUOUS
 62
     7
100
AcDbLine
 10
-34.41445625865001
 20
-39.28452659480001
 30
0.0
 11
-36.24575122735001
 21
-39.28452659480001
 31
0.0
  0
LINE
  5
F7
330
1F
100
AcDbEntity
  8
0
  6
CONTINUOUS
 62
     7
100
AcDbLine
 10
-18.87197050744999
 20
-39.28452659480001
 30
0.0
 11
-21.91445420975001
 21
-39.28452659480001
 31
0.0
  0
LINE
  5
F8
330
1F
100
AcDbEntity
  8
0
  6
CONTINUOUS
 62
     7
100
AcDbLine
 10
-21.91445607234999
 20
-41.28452692260001
 30
0.0
 11
-22.03667918075001
 21
-44.78452701200001
 31
0.0
  0
LINE
  5
F9
330
1F
100
AcDbEntity
  8
0
  6
CONTINUOUS
 62
     7
100
AcDbLine
 10
-26.43985304525
 20
-39.28452659480001
 30
0.0
 11
-26.63191584295001
 21
-44.78452701200001
 31
0.0
  0
LINE
  5
FA
330
1F
100
AcDbEntity
  8
0
  6
CONTINUOUS
 62
     7
100
AcDbLine
 10
-21.91445420975001
 20
-39.28452659480001
 30
0.0
 11
-24.95693791204999
 21
-39.28452659480001
 31
0.0
  0
LINE
  5
FB
330
1F
100
AcDbEntity
  8
0
  6
CONTINUOUS
 62
     7
100
AcDbLine
 10
-15.71445542865001
 20
-41.28452692260001
 30
0.0
 11
-14.71460613894999
 21
-41.28452692260001
 31
0.0
  0
LINE
  5
FC
330
1F
100
AcDbEntity
  8
0
  6
CONTINUOUS
 62
     7
100
AcDbLine
 10
-15.40493968415001
 20
-39.28452659480001
 30
0.0
 11
-15.67954573325
 21
-39.28452659480001
 31
0.0
  0
LINE
  5
FD
330
1F
100
AcDbEntity
  8
0
  6
CONTINUOUS
 62
     7
100
AcDbLine
 10
-14.62645831994999
 20
-36.2345271193
 30
0.0
 11
-15.29728251985
 21
-36.2345271193
 31
0.0
  0
LINE
  5
FE
330
1F
100
AcDbEntity
  8
0
  6
CONTINUOUS
 62
     7
100
AcDbLine
 10
-15.67954573325
 20
-39.28452659480001
 30
0.0
 11
-15.71445542865001
 21
-41.28452692260001
 31
0.0
  0
LINE
  5
FF
330
1F
100
AcDbEntity
  8
0
  6
CONTINUOUS
 62
     7
100
AcDbLine
 10
-14.71460613894999
 20
-41.28452692260001
 30
0.0
 11
2.285547521750004
 21
-41.28452692260001
 31
0.0
  0
LINE
  5
100
330
1F
100
AcDbEntity
  8
0
  6
CONTINUOUS
 62
     7
100
AcDbLine
 10
1.19755041305001
 20
-36.2345271193
 30
0.0
 11
-14.62645831994999
 21
-36.2345271193
 31
0.0
  0
LINE
  5
101
330
1F
100
AcDbEntity
  8
0
  6
CONTINUOUS
 62
     7
100
AcDbLine
 10
2.197395977450014
 20
-36.2345271193
 30
0.0
 11
1.19755041305001
 21
-36.2345271193
 31
0.0
  0
LINE
  5
102
330
1F
100
AcDbEntity
  8
0
  6
CONTINUOUS
 62
     7
100
AcDbLine
 10
2.346642655450012
 20
-44.78452701200001
 30
0.0
 11
2.197395977450014
 21
-36.2345271193
 31
0.0
  0
LINE
  5
103
330
1F
100
AcDbEntity
  8
0
  6
CONTINUOUS
 62
     7
100
AcDbLine
 10
-15.48730771535
 20
-39.28441483610001
 30
0.0
 11
-15.39597477305
 21
-36.23440045940001
 31
0.0
  0
LINE
  5
104
330
1F
100
AcDbEntity
  8
0
  6
CONTINUOUS
 62
     7
100
AcDbLine
 10
-40.41445631075001
 20
-40.93452522980002
 30
0.0
 11
-42.41445617295
 21
-40.93452522980002
 31
0.0
  0
LINE
  5
105
330
1F
100
AcDbEntity
  8
0
  6
CONTINUOUS
 62
     7
100
AcDbLine
 10
-40.41445631075001
 20
54.36547120579999
 30
0.0
 11
-42.41445617295
 21
54.36547120579999
 31
0.0
  0
LINE
  5
106
330
1F
100
AcDbEntity
  8
0
  6
CONTINUOUS
 62
     7
100
AcDbLine
 10
-40.41445631075001
 20
-40.93452522980002
 30
0.0
 11
-40.41445631075001
 21
54.36547120579999
 31
0.0
  0
LINE
  5
107
330
1F
100
AcDbEntity
  8
0
  6
CONTINUOUS
 62
     7
100
AcDbLine
 10
-42.41445617295
 20
-41.28452701200001
 30
0.0
 11
-42.41445617295
 21
54.71547298799999
 31
0.0
  0
LINE
  5
108
330
1F
100
AcDbEntity
  8
0
  6
CONTINUOUS
 62
     7
100
AcDbLine
 10
-46.61445608144999
 20
54.71547298799999
 30
0.0
 11
-46.61445608144999
 21
-41.28452701200001
 31
0.0
  0
LINE
  5
109
330
1F
100
AcDbEntity
  8
0
  6
CONTINUOUS
 62
     7
100
AcDbLine
 10
33.98554379945
 20
52.71547257079999
 30
0.0
 11
2.250632238450009
 21
52.71547257079999
 31
0.0
  0
LINE
  5
10A
330
1F
100
AcDbEntity
  8
0
  6
CONTINUOUS
 62
     7
100
AcDbLine
 10
-15.67954573325
 20
52.71547257079999
 30
0.0
 11
-18.87197050744999
 21
52.71547257079999
 31
0.0
  0
LINE
  5
10B
330
1F
100
AcDbEntity
  8
0
  6
CONTINUOUS
 62
     7
100
AcDbLine
 10
-24.95693791204999
 20
52.71547257079999
 30
0.0
 11
-34.34977311185
 21
52.71547257079999
 31
0.0
  0
LINE
  5
10C
330
1F
100
AcDbEntity
  8
0
  6
CONTINUOUS
 62
     7
100
AcDbLine
 10
-37.41445581905
 20
52.71547257079999
 30
0.0
 11
-40.41445631075001
 21
52.71547257079999
 31
0.0
  0
LINE
  5
10D
330
1F
100
AcDbEntity
  8
0
  6
CONTINUOUS
 62
     7
100
AcDbLine
 10
33.98554379945
 20
52.71547257079999
 30
0.0
 11
33.98554379945
 21
-39.03452659480001
 31
0.0
  0
LINE
  5
10E
330
1F
100
AcDbEntity
  8
0
  6
CONTINUOUS
 62
     7
100
AcDbLine
 10
40.98554308425003
 20
52.46547257079999
 30
0.0
 11
40.98554308425003
 21
45.51547413239999
 31
0.0
  0
LINE
  5
10F
330
1F
100
AcDbEntity
  8
0
  6
CONTINUOUS
 62
     7
100
AcDbLine
 10
40.98554308425003
 20
-32.08452815640001
 30
0.0
 11
40.98554308425003
 21
-39.03452659480001
 31
0.0
  0
LINE
  5
110
330
1F
100
AcDbEntity
  8
0
  6
CONTINUOUS
 62
     7
100
AcDbLine
 10
39.48554749495003
 20
-36.2576877557
 30
0.0
 11
39.56553692825003
 21
-39.03452659480001
 31
0.0
  0
LINE
  5
111
330
1F
100
AcDbEntity
  8
0
  6
CONTINUOUS
 62
     7
100
AcDbLine
 10
39.40445537574999
 20
-36.2586079024
 30
0.0
 11
39.48554749495003
 21
-36.2576877557
 31
0.0
  0
LINE
  5
112
330
1F
100
AcDbEntity
  8
0
  6
CONTINUOUS
 62
     7
100
AcDbLine
 10
39.56553692825003
 20
-39.03452659480001
 30
0.0
 11
40.98554308425003
 21
-39.03452659480001
 31
0.0
  0
LINE
  5
113
330
1F
100
AcDbEntity
  8
0
  6
CONTINUOUS
 62
     7
100
AcDbLine
 10
40.98554308425003
 20
52.46547257079999
 30
0.0
 11
33.98554379945
 21
52.46547257079999
 31
0.0
  0
LINE
  5
114
330
1F
100
AcDbEntity
  8
0
  6
CONTINUOUS
 62
     7
100
AcDbLine
 10
39.56553692825003
 20
-39.03452659480001
 30
0.0
 11
33.98554379945
 21
-39.03452659480001
 31
0.0
  0
LINE
  5
115
330
1F
100
AcDbEntity
  8
0
  6
CONTINUOUS
 62
     7
100
AcDbLine
 10
39.98554105764998
 20
45.51547413239999
 30
0.0
 11
48.58554507504999
 21
45.51547413239999
 31
0.0
  0
LINE
  5
116
330
1F
100
AcDbEntity
  8
0
  6
CONTINUOUS
 62
     7
100
AcDbLine
 10
48.58554507504999
 20
45.51547413239999
 30
0.0
 11
48.58554507504999
 21
-32.08452815640001
 31
0.0
  0
LINE
  5
117
330
1F
100
AcDbEntity
  8
0
  6
CONTINUOUS
 62
     7
100
AcDbLine
 10
39.98554105764998
 20
-32.08452815640001
 30
0.0
 11
48.58554507504999
 21
-32.08452815640001
 31
0.0
  0
LINE
  5
118
330
1F
100
AcDbEntity
  8
0
  6
CONTINUOUS
 62
     7
100
AcDbLine
 10
39.98554105764998
 20
45.51547413239999
 30
0.0
 11
39.98554105764998
 21
-32.08452815640001
 31
0.0
  0
LINE
  5
119
330
1F
100
AcDbEntity
  8
0
  6
CONTINUOUS
 62
     7
100
AcDbLine
 10
39.98554105764998
 20
-32.08452815640001
 30
0.0
 11
38.98554648164998
 21
-32.08452815640001
 31
0.0
  0
LINE
  5
11A
330
1F
100
AcDbEntity
  8
0
  6
CONTINUOUS
 62
     7
100
AcDbLine
 10
38.98554648164998
 20
45.51547413239999
 30
0.0
 11
38.98554648164998
 21
-32.08452815640001
 31
0.0
  0
LINE
  5
11B
330
1F
100
AcDbEntity
  8
0
  6
CONTINUOUS
 62
     7
100
AcDbLine
 10
38.98554648164998
 20
45.51547413239999
 30
0.0
 11
39.98554105764998
 21
45.51547413239999
 31
0.0
  0
LINE
  5
11C
330
1F
100
AcDbEntity
  8
0
  6
CONTINUOUS
 62
     7
100
AcDbLine
 10
38.98554648164998
 20
-32.08452815640001
 30
0.0
 11
33.98554379945
 21
-32.08452815640001
 31
0.0
  0
LINE
  5
11D
330
1F
100
AcDbEntity
  8
0
  6
CONTINUOUS
 62
     7
100
AcDbLine
 10
33.98554379945
 20
45.51547413239999
 30
0.0
 11
38.98554648164998
 21
45.51547413239999
 31
0.0
  0
LINE
  5
11E
330
1F
100
AcDbEntity
  8
0
  6
CONTINUOUS
 62
     7
100
AcDbLine
 10
40.98554308425003
 20
45.51547413239999
 30
0.0
 11
38.73015485774999
 21
51.46970005059998
 31
0.0
  0
LINE
  5
11F
330
1F
100
AcDbEntity
  8
0
  6
CONTINUOUS
 62
     7
100
AcDbLine
 10
33.98554379945
 20
52.1154740966
 30
0.0
 11
37.79499570144998
 21
52.11547298949998
 31
0.0
  0
LINE
  5
120
330
1F
100
AcDbEntity
  8
0
  6
CONTINUOUS
 62
     7
100
AcDbLine
 10
37.79499541084999
 20
-38.68452701200002
 30
0.0
 11
33.98554379945
 21
-38.68452812060002
 31
0.0
  0
LINE
  5
121
330
1F
100
AcDbEntity
  8
0
  6
CONTINUOUS
 62
     7
100
AcDbLine
 10
40.98554308425003
 20
-32.08452815640001
 30
0.0
 11
38.73015487574997
 21
-38.03875402280002
 31
0.0
  0
LINE
  5
122
330
1F
100
AcDbEntity
  8
0
  6
CONTINUOUS
 62
     7
100
AcDbLine
 10
47.98554262545002
 20
-32.08452852780002
 30
0.0
 11
45.73015502125003
 21
-38.03875314410001
 31
0.0
  0
LINE
  5
123
330
1F
100
AcDbEntity
  8
0
  6
CONTINUOUS
 62
     7
100
AcDbLine
 10
44.79499570385002
 20
-38.68452701200002
 30
0.0
 11
40.98554308425003
 21
-38.68452812060002
 31
0.0
  0
LINE
  5
124
330
1F
100
AcDbEntity
  8
0
  6
CONTINUOUS
 62
     7
100
AcDbLine
 10
44.79499514115003
 20
52.1154740966
 30
0.0
 11
40.98554308425003
 21
52.1154740966
 31
0.0
  0
LINE
  5
125
330
1F
100
AcDbEntity
  8
0
  6
CONTINUOUS
 62
     7
100
AcDbLine
 10
47.98554288734999
 20
45.51547488309998
 30
0.0
 11
45.73015543345002
 21
51.46970065099998
 31
0.0
  0
LINE
  5
126
330
1F
100
AcDbEntity
  8
0
  6
CONTINUOUS
 62
     7
100
AcDbLine
 10
48.58554507504999
 20
7.225472971499983
 30
0.0
 11
54.58554233324998
 21
7.225472971499983
 31
0.0
  0
LINE
  5
127
330
1F
100
AcDbEntity
  8
0
  6
CONTINUOUS
 62
     7
100
AcDbLine
 10
48.58554507504999
 20
6.205473004499993
 30
0.0
 11
54.58554233324998
 21
6.205473004499993
 31
0.0
  0
LINE
  5
128
330
1F
100
AcDbEntity
  8
0
  6
CONTINUOUS
 62
     7
100
AcDbLine
 10
48.58554507504999
 20
-0.3945271343000059
 30
0.0
 11
54.58554233324998
 21
-0.3945271343000059
 31
0.0
  0
LINE
  5
129
330
1F
100
AcDbEntity
  8
0
  6
CONTINUOUS
 62
     7
100
AcDbLine
 10
48.58554507504999
 20
-1.414526984900021
 30
0.0
 11
54.58554233324998
 21
-1.414526984900021
 31
0.0
  0
LINE
  5
12A
330
1F
100
AcDbEntity
  8
0
  6
CONTINUOUS
 62
     7
100
AcDbLine
 10
48.58554507504999
 20
13.82547311029998
 30
0.0
 11
54.58554233324998
 21
13.82547311029998
 31
0.0
  0
LINE
  5
12B
330
1F
100
AcDbEntity
  8
0
  6
CONTINUOUS
 62
     7
100
AcDbLine
 10
48.58554507504999
 20
14.8454729609
 30
0.0
 11
54.58554233324998
 21
14.8454729609
 31
0.0
  0
LINE
  5
12C
330
1F
100
AcDbEntity
  8
0
  6
CONTINUOUS
 62
     7
100
AcDbLine
 10
48.58554507504999
 20
-8.014526949100002
 30
0.0
 11
54.58554233324998
 21
-8.014526949100002
 31
0.0
  0
LINE
  5
12D
330
1F
100
AcDbEntity
  8
0
  6
CONTINUOUS
 62
     7
100
AcDbLine
 10
48.58554507504999
 20
-9.0345272653
 30
0.0
 11
54.58554233324998
 21
-9.0345272653
 31
0.0
  0
LINE
  5
12E
330
1F
100
AcDbEntity
  8
0
  6
CONTINUOUS
 62
     7
100
AcDbLine
 10
48.58554507504999
 20
21.44547292509998
 30
0.0
 11
54.58554233324998
 21
21.44547292509998
 31
0.0
  0
LINE
  5
12F
330
1F
100
AcDbEntity
  8
0
  6
CONTINUOUS
 62
     7
100
AcDbLine
 10
48.58554507504999
 20
22.4654732413
 30
0.0
 11
54.58554233324998
 21
22.4654732413
 31
0.0
  0
LINE
  5
130
330
1F
100
AcDbEntity
  8
0
  6
CONTINUOUS
 62
     7
100
AcDbLine
 10
48.58554507504999
 20
-15.6345272296
 30
0.0
 11
54.58554233324998
 21
-15.6345272296
 31
0.0
  0
LINE
  5
131
330
1F
100
AcDbEntity
  8
0
  6
CONTINUOUS
 62
     7
100
AcDbLine
 10
48.58554507504999
 20
-16.6545266144
 30
0.0
 11
54.58554233324998
 21
-16.6545266144
 31
0.0
  0
LINE
  5
132
330
1F
100
AcDbEntity
  8
0
  6
CONTINUOUS
 62
     7
100
AcDbLine
 10
48.58554507504999
 20
29.0654732056
 30
0.0
 11
54.58554233324998
 21
29.0654732056
 31
0.0
  0
LINE
  5
133
330
1F
100
AcDbEntity
  8
0
  6
CONTINUOUS
 62
     7
100
AcDbLine
 10
48.58554507504999
 20
30.0854725904
 30
0.0
 11
54.58554233324998
 21
30.0854725904
 31
0.0
  0
LINE
  5
134
330
1F
100
AcDbEntity
  8
0
  6
CONTINUOUS
 62
     7
100
AcDbLine
 10
48.58554507504999
 20
-23.25452657870002
 30
0.0
 11
54.58554233324998
 21
-23.25452657870002
 31
0.0
  0
LINE
  5
135
330
1F
100
AcDbEntity
  8
0
  6
CONTINUOUS
 62
     7
100
AcDbLine
 10
48.58554507504999
 20
-24.2745278262
 30
0.0
 11
54.58554233324998
 21
-24.2745278262
 31
0.0
  0
LINE
  5
136
330
1F
100
AcDbEntity
  8
0
  6
CONTINUOUS
 62
     7
100
AcDbLine
 10
48.58554507504999
 20
36.6854725547
 30
0.0
 11
54.58554233324998
 21
36.6854725547
 31
0.0
  0
LINE
  5
137
330
1F
100
AcDbEntity
  8
0
  6
CONTINUOUS
 62
     7
100
AcDbLine
 10
48.58554507504999
 20
37.7054738022
 30
0.0
 11
54.58554233324998
 21
37.7054738022
 31
0.0
  0
LINE
  5
138
330
1F
100
AcDbEntity
  8
0
  6
CONTINUOUS
 62
     7
100
AcDbLine
 10
48.58554507504999
 20
45.51547413239999
 30
0.0
 11
54.58554233324998
 21
45.51547413239999
 31
0.0
  0
LINE
  5
139
330
1F
100
AcDbEntity
  8
0
  6
CONTINUOUS
 62
     7
100
AcDbLine
 10
48.58554507504999
 20
44.30547376639998
 30
0.0
 11
54.58554233324998
 21
44.30547376639998
 31
0.0
  0
LINE
  5
13A
330
1F
100
AcDbEntity
  8
0
  6
CONTINUOUS
 62
     7
100
AcDbLine
 10
54.58554233324998
 20
-32.08452815640001
 30
0.0
 11
48.58554507504999
 21
-32.08452815640001
 31
0.0
  0
LINE
  5
13B
330
1F
100
AcDbEntity
  8
0
  6
CONTINUOUS
 62
     7
100
AcDbLine
 10
54.58554233324998
 20
-30.87452779040001
 30
0.0
 11
48.58554507504999
 21
-30.87452779040001
 31
0.0
  0
LINE
  5
13C
330
1F
100
AcDbEntity
  8
0
  6
CONTINUOUS
 62
     7
100
AcDbLine
 10
55.58554435974997
 20
45.51547413239999
 30
0.0
 11
55.58554435974997
 21
44.30547376639998
 31
0.0
  0
LINE
  5
13D
330
1F
100
AcDbEntity
  8
0
  6
CONTINUOUS
 62
     7
100
AcDbLine
 10
54.58554233324998
 20
45.51547413239999
 30
0.0
 11
55.58554435974997
 21
45.51547413239999
 31
0.0
  0
LINE
  5
13E
330
1F
100
AcDbEntity
  8
0
  6
CONTINUOUS
 62
     7
100
AcDbLine
 10
54.58554233324998
 20
44.30547376639998
 30
0.0
 11
55.58554435974997
 21
44.30547376639998
 31
0.0
  0
LINE
  5
13F
330
1F
100
AcDbEntity
  8
0
  6
CONTINUOUS
 62
     7
100
AcDbLine
 10
55.58554435974997
 20
-23.25452657870002
 30
0.0
 11
55.58554435974997
 21
-24.2745278262
 31
0.0
  0
LINE
  5
140
330
1F
100
AcDbEntity
  8
0
  6
CONTINUOUS
 62
     7
100
AcDbLine
 10
54.58554233324998
 20
-23.25452657870002
 30
0.0
 11
55.58554435974997
 21
-23.25452657870002
 31
0.0
  0
LINE
  5
141
330
1F
100
AcDbEntity
  8
0
  6
CONTINUOUS
 62
     7
100
AcDbLine
 10
54.58554233324998
 20
-24.2745278262
 30
0.0
 11
55.58554435974997
 21
-24.2745278262
 31
0.0
  0
LINE
  5
142
330
1F
100
AcDbEntity
  8
0
  6
CONTINUOUS
 62
     7
100
AcDbLine
 10
55.58554435974997
 20
-8.014526949100002
 30
0.0
 11
55.58554435974997
 21
-9.0345272653
 31
0.0
  0
LINE
  5
143
330
1F
100
AcDbEntity
  8
0
  6
CONTINUOUS
 62
     7
100
AcDbLine
 10
54.58554233324998
 20
-8.014526949100002
 30
0.0
 11
55.58554435974997
 21
-8.014526949100002
 31
0.0
  0
LINE
  5
144
330
1F
100
AcDbEntity
  8
0
  6
CONTINUOUS
 62
     7
100
AcDbLine
 10
54.58554233324998
 20
-9.0345272653
 30
0.0
 11
55.58554435974997
 21
-9.0345272653
 31
0.0
  0
LINE
  5
145
330
1F
100
AcDbEntity
  8
0
  6
CONTINUOUS
 62
     7
100
AcDbLine
 10
55.58554435974997
 20
14.8454729609
 30
0.0
 11
55.58554435974997
 21
13.82547311029998
 31
0.0
  0
LINE
  5
146
330
1F
100
AcDbEntity
  8
0
  6
CONTINUOUS
 62
     7
100
AcDbLine
 10
54.58554233324998
 20
13.82547311029998
 30
0.0
 11
55.58554435974997
 21
13.82547311029998
 31
0.0
  0
LINE
  5
147
330
1F
100
AcDbEntity
  8
0
  6
CONTINUOUS
 62
     7
100
AcDbLine
 10
54.58554233324998
 20
14.8454729609
 30
0.0
 11
55.58554435974997
 21
14.8454729609
 31
0.0
  0
LINE
  5
148
330
1F
100
AcDbEntity
  8
0
  6
CONTINUOUS
 62
     7
100
AcDbLine
 10
55.58554435974997
 20
-0.3945271343000059
 30
0.0
 11
55.58554435974997
 21
-1.414526984900021
 31
0.0
  0
LINE
  5
149
330
1F
100
AcDbEntity
  8
0
  6
CONTINUOUS
 62
     7
100
AcDbLine
 10
54.58554233324998
 20
-0.3945271343000059
 30
0.0
 11
55.58554435974997
 21
-0.3945271343000059
 31
0.0
  0
LINE
  5
14A
330
1F
100
AcDbEntity
  8
0
  6
CONTINUOUS
 62
     7
100
AcDbLine
 10
54.58554233324998
 20
-1.414526984900021
 30
0.0
 11
55.58554435974997
 21
-1.414526984900021
 31
0.0
  0
LINE
  5
14B
330
1F
100
AcDbEntity
  8
0
  6
CONTINUOUS
 62
     7
100
AcDbLine
 10
55.58554435974997
 20
7.225472971499983
 30
0.0
 11
55.58554435974997
 21
6.205473004499993
 31
0.0
  0
LINE
  5
14C
330
1F
100
AcDbEntity
  8
0
  6
CONTINUOUS
 62
     7
100
AcDbLine
 10
54.58554233324998
 20
7.225472971499983
 30
0.0
 11
55.58554435974997
 21
7.225472971499983
 31
0.0
  0
LINE
  5
14D
330
1F
100
AcDbEntity
  8
0
  6
CONTINUOUS
 62
     7
100
AcDbLine
 10
54.58554233324998
 20
6.205473004499993
 30
0.0
 11
55.58554435974997
 21
6.205473004499993
 31
0.0
  0
LINE
  5
14E
330
1F
100
AcDbEntity
  8
0
  6
CONTINUOUS
 62
     7
100
AcDbLine
 10
55.58554435974997
 20
-15.6345272296
 30
0.0
 11
55.58554435974997
 21
-16.6545266144
 31
0.0
  0
LINE
  5
14F
330
1F
100
AcDbEntity
  8
0
  6
CONTINUOUS
 62
     7
100
AcDbLine
 10
54.58554233324998
 20
-15.6345272296
 30
0.0
 11
55.58554435974997
 21
-15.6345272296
 31
0.0
  0
LINE
  5
150
330
1F
100
AcDbEntity
  8
0
  6
CONTINUOUS
 62
     7
100
AcDbLine
 10
54.58554233324998
 20
-16.6545266144
 30
0.0
 11
55.58554435974997
 21
-16.6545266144
 31
0.0
  0
LINE
  5
151
330
1F
100
AcDbEntity
  8
0
  6
CONTINUOUS
 62
     7
100
AcDbLine
 10
55.58554435974997
 20
22.4654732413
 30
0.0
 11
55.58554435974997
 21
21.44547292509998
 31
0.0
  0
LINE
  5
152
330
1F
100
AcDbEntity
  8
0
  6
CONTINUOUS
 62
     7
100
AcDbLine
 10
54.58554233324998
 20
21.44547292509998
 30
0.0
 11
55.58554435974997
 21
21.44547292509998
 31
0.0
  0
LINE
  5
153
330
1F
100
AcDbEntity
  8
0
  6
CONTINUOUS
 62
     7
100
AcDbLine
 10
54.58554233324998
 20
22.4654732413
 30
0.0
 11
55.58554435974997
 21
22.4654732413
 31
0.0
  0
LINE
  5
154
330
1F
100
AcDbEntity
  8
0
  6
CONTINUOUS
 62
     7
100
AcDbLine
 10
55.58554435974997
 20
30.0854725904
 30
0.0
 11
55.58554435974997
 21
29.0654732056
 31
0.0
  0
LINE
  5
155
330
1F
100
AcDbEntity
  8
0
  6
CONTINUOUS
 62
     7
100
AcDbLine
 10
54.58554233324998
 20
29.0654732056
 30
0.0
 11
55.58554435974997
 21
29.0654732056
 31
0.0
  0
LINE
  5
156
330
1F
100
AcDbEntity
  8
0
  6
CONTINUOUS
 62
     7
100
AcDbLine
 10
54.58554233324998
 20
30.0854725904
 30
0.0
 11
55.58554435974997
 21
30.0854725904
 31
0.0
  0
LINE
  5
157
330
1F
100
AcDbEntity
  8
0
  6
CONTINUOUS
 62
     7
100
AcDbLine
 10
55.58554435974997
 20
37.7054738022
 30
0.0
 11
55.58554435974997
 21
36.6854725547
 31
0.0
  0
LINE
  5
158
330
1F
100
AcDbEntity
  8
0
  6
CONTINUOUS
 62
     7
100
AcDbLine
 10
55.58554435974997
 20
36.6854725547
 30
0.0
 11
54.58554233324998
 21
36.6854725547
 31
0.0
  0
LINE
  5
159
330
1F
100
AcDbEntity
  8
0
  6
CONTINUOUS
 62
     7
100
AcDbLine
 10
54.58554233324998
 20
37.7054738022
 30
0.0
 11
55.58554435974997
 21
37.7054738022
 31
0.0
  0
LINE
  5
15A
330
1F
100
AcDbEntity
  8
0
  6
CONTINUOUS
 62
     7
100
AcDbLine
 10
55.58554435974997
 20
-30.87452779040001
 30
0.0
 11
55.58554435974997
 21
-32.08452815640001
 31
0.0
  0
LINE
  5
15B
330
1F
100
AcDbEntity
  8
0
  6
CONTINUOUS
 62
     7
100
AcDbLine
 10
55.58554435974997
 20
-32.08452815640001
 30
0.0
 11
54.58554233324998
 21
-32.08452815640001
 31
0.0
  0
LINE
  5
15C
330
1F
100
AcDbEntity
  8
0
  6
CONTINUOUS
 62
     7
100
AcDbLine
 10
54.58554233324998
 20
-30.87452779040001
 30
0.0
 11
55.58554435974997
 21
-30.87452779040001
 31
0.0
  0
LINE
  5
15D
330
1F
100
AcDbEntity
  8
0
  6
CONTINUOUS
 62
     7
100
AcDbLine
 10
55.58554435974997
 20
44.30547376639998
 30
0.0
 11
55.58554435974997
 21
37.7054738022
 31
0.0
  0
LINE
  5
15E
330
1F
100
AcDbEntity
  8
0
  6
CONTINUOUS
 62
     7
100
AcDbLine
 10
55.58554435974997
 20
-24.2745278262
 30
0.0
 11
55.58554435974997
 21
-30.87452779040001
 31
0.0
  0
LINE
  5
15F
330
1F
100
AcDbEntity
  8
0
  6
CONTINUOUS
 62
     7
100
AcDbLine
 10
55.58554435974997
 20
-9.0345272653
 30
0.0
 11
55.58554435974997
 21
-15.6345272296
 31
0.0
  0
LINE
  5
160
330
1F
100
AcDbEntity
  8
0
  6
CONTINUOUS
 62
     7
100
AcDbLine
 10
55.58554435974997
 20
29.0654732056
 30
0.0
 11
55.58554435974997
 21
22.4654732413
 31
0.0
  0
LINE
  5
161
330
1F
100
AcDbEntity
  8
0
  6
CONTINUOUS
 62
     7
100
AcDbLine
 10
55.58554435974997
 20
21.44547292509998
 30
0.0
 11
55.58554435974997
 21
14.8454729609
 31
0.0
  0
LINE
  5
162
330
1F
100
AcDbEntity
  8
0
  6
CONTINUOUS
 62
     7
100
AcDbLine
 10
55.58554435974997
 20
-1.414526984900021
 30
0.0
 11
55.58554435974997
 21
-8.014526949100002
 31
0.0
  0
LINE
  5
163
330
1F
100
AcDbEntity
  8
0
  6
CONTINUOUS
 62
     7
100
AcDbLine
 10
55.58554435974997
 20
13.82547311029998
 30
0.0
 11
55.58554435974997
 21
7.225472971499983
 31
0.0
  0
LINE
  5
164
330
1F
100
AcDbEntity
  8
0
  6
CONTINUOUS
 62
     7
100
AcDbLine
 10
55.58554435974997
 20
6.205473004499993
 30
0.0
 11
55.58554435974997
 21
-0.3945271343000059
 31
0.0
  0
LINE
  5
165
330
1F
100
AcDbEntity
  8
0
  6
CONTINUOUS
 62
     7
100
AcDbLine
 10
55.58554435974997
 20
36.6854725547
 30
0.0
 11
55.58554435974997
 21
30.0854725904
 31
0.0
  0
LINE
  5
166
330
1F
100
AcDbEntity
  8
0
  6
CONTINUOUS
 62
     7
100
AcDbLine
 10
55.58554435974997
 20
-16.6545266144
 30
0.0
 11
55.58554435974997
 21
-23.25452657870002
 31
0.0
  0
LINE
  5
167
330
1F
100
AcDbEntity
  8
0
  6
CONTINUOUS
 62
     7
100
AcDbLine
 10
-47.11445610515
 20
-41.28452701200001
 30
0.0
 11
-47.11445610515
 21
54.71547298799999
 31
0.0
  0
ARC
  5
168
330
1F
100
AcDbEntity
  8
0
  6
CONTINUOUS
 62
     7
100
AcDbCircle
 10
37.79499541084999
 20
51.11547298799999
 30
0.0
 40
1.000000001483893
100
AcDbArc
 50
20.74608024590025
 51
89.99998334779877
  0
ARC
  5
169
330
1F
100
AcDbEntity
  8
0
  6
CONTINUOUS
 62
     7
100
AcDbCircle
 10
37.79499541084999
 20
-37.68452701200002
 30
0.0
 40
1.000000000000002
100
AcDbArc
 50
270.0
 51
339.2539228993002
  0
ARC
  5
16A
330
1F
100
AcDbEntity
  8
0
  6
CONTINUOUS
 62
     7
100
AcDbCircle
 10
44.79499541285003
 20
-37.68452728630001
 30
0.0
 40
0.999999725739624
100
AcDbArc
 50
270.0000166744992
 51
339.2539875859004
  0
ARC
  5
16B
330
1F
100
AcDbEntity
  8
0
  6
CONTINUOUS
 62
     7
100
AcDbCircle
 10
44.79499541285003
 20
51.11547354229998
 30
0.0
 40
1.000000554323216
100
AcDbArc
 50
20.74607106480098
 51
90.00001556949883
  0
SPLINE
  5
16C
330
1F
100
AcDbEntity
  8
0
  6
CONTINUOUS
 62
     7
100
AcDbSpline
210
0.0
220
0.0
230
1.0
 70
    24
 71
     3
 72
    10
 73
     6
 74
     0
 42
0.000000001
 43
0.0000000001
 40
0.0
 40
0.0
 40
0.0
 40
0.0
 40
0.3423642864368322
 40
0.6847284024090505
 40
1.0
 40
1.0
 40
1.0
 40
1.0
 10
-21.9144560723748
 20
54.7154728985914
 30
0.0
 10
-21.31535598301031
 20
54.7154728985914
 30
0.0
 10
-20.11715610257571
 20
54.7154728985914
 30
0.0
 10
-18.5938008969228
 20
54.71547289859149
 30
0.0
 10
-18.00746511889739
 20
54.7154728985914
 30
0.0
 10
-17.72637482278009
 20
54.7154728985914
 30
0.0
  0
SPLINE
  5
16D
330
1F
100
AcDbEntity
  8
0
  6
CONTINUOUS
 62
     7
100
AcDbSpline
210
0.0
220
0.0
230
1.0
 70
    24
 71
     3
 72
    11
 73
     7
 74
     0
 42
0.000000001
 43
0.0000000001
 40
0.0
 40
0.0
 40
0.0
 40
0.0
 40
0.294088046290332
 40
0.5881800360341389
 40
0.8821917073987386
 40
1.0
 40
1.0
 40
1.0
 40
1.0
 10
-17.72637482278009
 20
-41.28452692259472
 30
0.0
 10
-17.68413048379381
 20
-41.28452692259472
 30
0.0
 10
-17.59964123936291
 20
-41.28452692259472
 30
0.0
 10
-17.389667687604
 20
-41.28452692259472
 30
0.0
 10
-17.1944405592406
 20
-41.28452692259472
 30
0.0
 10
-17.07687562805191
 20
-41.28452692259472
 30
0.0
 10
-17.04324412636419
 20
-41.28452692259472
 30
0.0
  0
SPLINE
  5
16E
330
1F
100
AcDbEntity
  8
0
  6
CONTINUOUS
 62
     7
100
AcDbSpline
210
0.0
220
0.0
230
1.0
 70
    24
 71
     3
 72
    11
 73
     7
 74
     0
 42
0.000000001
 43
0.0000000001
 40
0.0
 40
0.0
 40
0.0
 40
0.0
 40
0.294088046290332
 40
0.5881800360341389
 40
0.8821917073987386
 40
1.0
 40
1.0
 40
1.0
 40
1.0
 10
-17.72637482278009
 20
54.7154728985914
 30
0.0
 10
-17.68413048379381
 20
54.7154728985914
 30
0.0
 10
-17.59964123936291
 20
54.7154728985914
 30
0.0
 10
-17.389667687604
 20
54.7154728985914
 30
0.0
 10
-17.1944405592406
 20
54.7154728985914
 30
0.0
 10
-17.07687562805191
 20
54.7154728985914
 30
0.0
 10
-17.04324412636419
 20
54.7154728985914
 30
0.0
  0
SPLINE
  5
16F
330
1F
100
AcDbEntity
  8
0
  6
CONTINUOUS
 62
     7
100
AcDbSpline
210
0.0
220
0.0
230
1.0
 70
    24
 71
     3
 72
    10
 73
     6
 74
     0
 42
0.000000001
 43
0.0000000001
 40
0.0
 40
0.0
 40
0.0
 40
0.0
 40
0.3423642864368322
 40
0.6847284024090505
 40
1.0
 40
1.0
 40
1.0
 40
1.0
 10
-21.9144560723748
 20
-41.28452692259461
 30
0.0
 10
-21.31535598301031
 20
-41.28452692259461
 30
0.0
 10
-20.11715610257571
 20
-41.28452692259461
 30
0.0
 10
-18.5938008969228
 20
-41.28452692259472
 30
0.0
 10
-18.00746511889739
 20
-41.28452692259461
 30
0.0
 10
-17.72637482278009
 20
-41.28452692259472
 30
0.0
  0
LINE
  5
170
330
1F
100
AcDbEntity
  8
0
  6
CONTINUOUS
 62
     7
100
AcDbLine
 10
112.65671642385
 20
-30.87452779040001
 30
0.0
 11
112.65671642385
 21
-24.2745278262
 31
0.0
  0
LINE
  5
171
330
1F
100
AcDbEntity
  8
0
  6
CONTINUOUS
 62
     7
100
AcDbLine
 10
111.55671642985
 20
-32.08452815640001
 30
0.0
 11
122.25671687985
 21
-32.08452815640001
 31
0.0
  0
LINE
  5
172
330
1F
100
AcDbEntity
  8
0
  6
CONTINUOUS
 62
     7
100
AcDbLine
 10
111.55671642985
 20
45.51547413239999
 30
0.0
 11
111.55671642985
 21
-32.08452815640001
 31
0.0
  0
LINE
  5
173
330
1F
100
AcDbEntity
  8
0
  6
CONTINUOUS
 62
     7
100
AcDbLine
 10
111.55671642985
 20
45.51547413239999
 30
0.0
 11
122.25671687985
 21
45.51547413239999
 31
0.0
  0
LINE
  5
174
330
1F
100
AcDbEntity
  8
0
  6
CONTINUOUS
 62
     7
100
AcDbLine
 10
112.65671642385
 20
44.30547376639998
 30
0.0
 11
122.25671687985
 21
44.30547376639998
 31
0.0
  0
LINE
  5
175
330
1F
100
AcDbEntity
  8
0
  6
CONTINUOUS
 62
     7
100
AcDbLine
 10
112.65671642385
 20
37.7054738022
 30
0.0
 11
112.65671642385
 21
44.30547376639998
 31
0.0
  0
LINE
  5
176
330
1F
100
AcDbEntity
  8
0
  6
CONTINUOUS
 62
     7
100
AcDbLine
 10
122.25671687985
 20
37.7054738022
 30
0.0
 11
112.65671642385
 21
37.7054738022
 31
0.0
  0
LINE
  5
177
330
1F
100
AcDbEntity
  8
0
  6
CONTINUOUS
 62
     7
100
AcDbLine
 10
112.65671642385
 20
36.6854725547
 30
0.0
 11
122.25671687985
 21
36.6854725547
 31
0.0
  0
LINE
  5
178
330
1F
100
AcDbEntity
  8
0
  6
CONTINUOUS
 62
     7
100
AcDbLine
 10
112.65671642385
 20
30.0854725904
 30
0.0
 11
112.65671642385
 21
36.6854725547
 31
0.0
  0
LINE
  5
179
330
1F
100
AcDbEntity
  8
0
  6
CONTINUOUS
 62
     7
100
AcDbLine
 10
122.25671687985
 20
30.0854725904
 30
0.0
 11
112.65671642385
 21
30.0854725904
 31
0.0
  0
LINE
  5
17A
330
1F
100
AcDbEntity
  8
0
  6
CONTINUOUS
 62
     7
100
AcDbLine
 10
112.65671642385
 20
29.0654732056
 30
0.0
 11
122.25671687985
 21
29.0654732056
 31
0.0
  0
LINE
  5
17B
330
1F
100
AcDbEntity
  8
0
  6
CONTINUOUS
 62
     7
100
AcDbLine
 10
112.65671642385
 20
22.4654732413
 30
0.0
 11
112.65671642385
 21
29.0654732056
 31
0.0
  0
LINE
  5
17C
330
1F
100
AcDbEntity
  8
0
  6
CONTINUOUS
 62
     7
100
AcDbLine
 10
122.25671687985
 20
22.4654732413
 30
0.0
 11
112.65671642385
 21
22.4654732413
 31
0.0
  0
LINE
  5
17D
330
1F
100
AcDbEntity
  8
0
  6
CONTINUOUS
 62
     7
100
AcDbLine
 10
112.65671642385
 20
21.44547292509998
 30
0.0
 11
122.25671687985
 21
21.44547292509998
 31
0.0
  0
LINE
  5
17E
330
1F
100
AcDbEntity
  8
0
  6
CONTINUOUS
 62
     7
100
AcDbLine
 10
112.65671642385
 20
14.8454729609
 30
0.0
 11
112.65671642385
 21
21.44547292509998
 31
0.0
  0
LINE
  5
17F
330
1F
100
AcDbEntity
  8
0
  6
CONTINUOUS
 62
     7
100
AcDbLine
 10
122.25671687985
 20
14.8454729609
 30
0.0
 11
112.65671642385
 21
14.8454729609
 31
0.0
  0
LINE
  5
180
330
1F
100
AcDbEntity
  8
0
  6
CONTINUOUS
 62
     7
100
AcDbLine
 10
112.65671642385
 20
13.82547311029998
 30
0.0
 11
122.25671687985
 21
13.82547311029998
 31
0.0
  0
LINE
  5
181
330
1F
100
AcDbEntity
  8
0
  6
CONTINUOUS
 62
     7
100
AcDbLine
 10
112.65671642385
 20
7.225472971499983
 30
0.0
 11
112.65671642385
 21
13.82547311029998
 31
0.0
  0
LINE
  5
182
330
1F
100
AcDbEntity
  8
0
  6
CONTINUOUS
 62
     7
100
AcDbLine
 10
122.25671687985
 20
7.225472971499983
 30
0.0
 11
112.65671642385
 21
7.225472971499983
 31
0.0
  0
LINE
  5
183
330
1F
100
AcDbEntity
  8
0
  6
CONTINUOUS
 62
     7
100
AcDbLine
 10
112.65671642385
 20
6.205473004499993
 30
0.0
 11
122.25671687985
 21
6.205473004499993
 31
0.0
  0
LINE
  5
184
330
1F
100
AcDbEntity
  8
0
  6
CONTINUOUS
 62
     7
100
AcDbLine
 10
112.65671642385
 20
-0.3945271343000059
 30
0.0
 11
112.65671642385
 21
6.205473004499993
 31
0.0
  0
LINE
  5
185
330
1F
100
AcDbEntity
  8
0
  6
CONTINUOUS
 62
     7
100
AcDbLine
 10
122.25671687985
 20
-0.3945271343000059
 30
0.0
 11
112.65671642385
 21
-0.3945271343000059
 31
0.0
  0
LINE
  5
186
330
1F
100
AcDbEntity
  8
0
  6
CONTINUOUS
 62
     7
100
AcDbLine
 10
112.65671642385
 20
-1.414526984900021
 30
0.0
 11
122.25671687985
 21
-1.414526984900021
 31
0.0
  0
LINE
  5
187
330
1F
100
AcDbEntity
  8
0
  6
CONTINUOUS
 62
     7
100
AcDbLine
 10
112.65671642385
 20
-8.014526949100002
 30
0.0
 11
112.65671642385
 21
-1.414526984900021
 31
0.0
  0
LINE
  5
188
330
1F
100
AcDbEntity
  8
0
  6
CONTINUOUS
 62
     7
100
AcDbLine
 10
122.25671687985
 20
-8.014526949100002
 30
0.0
 11
112.65671642385
 21
-8.014526949100002
 31
0.0
  0
LINE
  5
189
330
1F
100
AcDbEntity
  8
0
  6
CONTINUOUS
 62
     7
100
AcDbLine
 10
112.65671642385
 20
-9.0345272653
 30
0.0
 11
122.25671687985
 21
-9.0345272653
 31
0.0
  0
LINE
  5
18A
330
1F
100
AcDbEntity
  8
0
  6
CONTINUOUS
 62
     7
100
AcDbLine
 10
112.65671642385
 20
-15.6345272296
 30
0.0
 11
112.65671642385
 21
-9.0345272653
 31
0.0
  0
LINE
  5
18B
330
1F
100
AcDbEntity
  8
0
  6
CONTINUOUS
 62
     7
100
AcDbLine
 10
122.25671687985
 20
-15.6345272296
 30
0.0
 11
112.65671642385
 21
-15.6345272296
 31
0.0
  0
LINE
  5
18C
330
1F
100
AcDbEntity
  8
0
  6
CONTINUOUS
 62
     7
100
AcDbLine
 10
112.65671642385
 20
-16.6545266144
 30
0.0
 11
122.25671687985
 21
-16.6545266144
 31
0.0
  0
LINE
  5
18D
330
1F
100
AcDbEntity
  8
0
  6
CONTINUOUS
 62
     7
100
AcDbLine
 10
112.65671642385
 20
-23.25452657870002
 30
0.0
 11
112.65671642385
 21
-16.6545266144
 31
0.0
  0
LINE
  5
18E
330
1F
100
AcDbEntity
  8
0
  6
CONTINUOUS
 62
     7
100
AcDbLine
 10
122.25671687985
 20
-23.25452657870002
 30
0.0
 11
112.65671642385
 21
-23.25452657870002
 31
0.0
  0
LINE
  5
18F
330
1F
100
AcDbEntity
  8
0
  6
CONTINUOUS
 62
     7
100
AcDbLine
 10
112.65671642385
 20
-24.2745278262
 30
0.0
 11
122.25671687985
 21
-24.2745278262
 31
0.0
  0
LINE
  5
190
330
1F
100
AcDbEntity
  8
0
  6
CONTINUOUS
 62
     7
100
AcDbLine
 10
122.25671687985
 20
-30.87452779040001
 30
0.0
 11
112.65671642385
 21
-30.87452779040001
 31
0.0
  0
LINE
  5
191
330
1F
100
AcDbEntity
  8
0
  6
CONTINUOUS
 62
     7
100
AcDbLine
 10
123.25671704375
 20
37.7054738022
 30
0.0
 11
123.25671704375
 21
36.6854725547
 31
0.0
  0
LINE
  5
192
330
1F
100
AcDbEntity
  8
0
  6
CONTINUOUS
 62
     7
100
AcDbLine
 10
123.25671704375
 20
37.7054738022
 30
0.0
 11
122.25671687985
 21
37.7054738022
 31
0.0
  0
LINE
  5
193
330
1F
100
AcDbEntity
  8
0
  6
CONTINUOUS
 62
     7
100
AcDbLine
 10
123.25671704375
 20
36.6854725547
 30
0.0
 11
122.25671687985
 21
36.6854725547
 31
0.0
  0
LINE
  5
194
330
1F
100
AcDbEntity
  8
0
  6
CONTINUOUS
 62
     7
100
AcDbLine
 10
123.25671704375
 20
45.51547413239999
 30
0.0
 11
123.25671704375
 21
44.30547376639998
 31
0.0
  0
LINE
  5
195
330
1F
100
AcDbEntity
  8
0
  6
CONTINUOUS
 62
     7
100
AcDbLine
 10
122.25671687985
 20
45.51547413239999
 30
0.0
 11
123.25671704375
 21
45.51547413239999
 31
0.0
  0
LINE
  5
196
330
1F
100
AcDbEntity
  8
0
  6
CONTINUOUS
 62
     7
100
AcDbLine
 10
123.25671704375
 20
44.30547376639998
 30
0.0
 11
122.25671687985
 21
44.30547376639998
 31
0.0
  0
LINE
  5
197
330
1F
100
AcDbEntity
  8
0
  6
CONTINUOUS
 62
     7
100
AcDbLine
 10
123.25671704375
 20
-30.87452779040001
 30
0.0
 11
123.25671704375
 21
-32.08452815640001
 31
0.0
  0
LINE
  5
198
330
1F
100
AcDbEntity
  8
0
  6
CONTINUOUS
 62
     7
100
AcDbLine
 10
123.25671704375
 20
-32.08452815640001
 30
0.0
 11
122.25671687985
 21
-32.08452815640001
 31
0.0
  0
LINE
  5
199
330
1F
100
AcDbEntity
  8
0
  6
CONTINUOUS
 62
     7
100
AcDbLine
 10
123.25671704375
 20
-30.87452779040001
 30
0.0
 11
122.25671687985
 21
-30.87452779040001
 31
0.0
  0
LINE
  5
19A
330
1F
100
AcDbEntity
  8
0
  6
CONTINUOUS
 62
     7
100
AcDbLine
 10
123.25671704375
 20
-23.25452657870002
 30
0.0
 11
123.25671704375
 21
-24.2745278262
 31
0.0
  0
LINE
  5
19B
330
1F
100
AcDbEntity
  8
0
  6
CONTINUOUS
 62
     7
100
AcDbLine
 10
123.25671704375
 20
-24.2745278262
 30
0.0
 11
122.25671687985
 21
-24.2745278262
 31
0.0
  0
LINE
  5
19C
330
1F
100
AcDbEntity
  8
0
  6
CONTINUOUS
 62
     7
100
AcDbLine
 10
122.25671687985
 20
-23.25452657870002
 30
0.0
 11
123.25671704375
 21
-23.25452657870002
 31
0.0
  0
LINE
  5
19D
330
1F
100
AcDbEntity
  8
0
  6
CONTINUOUS
 62
     7
100
AcDbLine
 10
123.25671704375
 20
-8.014526949100002
 30
0.0
 11
123.25671704375
 21
-9.0345272653
 31
0.0
  0
LINE
  5
19E
330
1F
100
AcDbEntity
  8
0
  6
CONTINUOUS
 62
     7
100
AcDbLine
 10
123.25671704375
 20
-8.014526949100002
 30
0.0
 11
122.25671687985
 21
-8.014526949100002
 31
0.0
  0
LINE
  5
19F
330
1F
100
AcDbEntity
  8
0
  6
CONTINUOUS
 62
     7
100
AcDbLine
 10
123.25671704375
 20
-9.0345272653
 30
0.0
 11
122.25671687985
 21
-9.0345272653
 31
0.0
  0
LINE
  5
1A0
330
1F
100
AcDbEntity
  8
0
  6
CONTINUOUS
 62
     7
100
AcDbLine
 10
123.25671704375
 20
-0.3945271343000059
 30
0.0
 11
123.25671704375
 21
-1.414526984900021
 31
0.0
  0
LINE
  5
1A1
330
1F
100
AcDbEntity
  8
0
  6
CONTINUOUS
 62
     7
100
AcDbLine
 10
123.25671704375
 20
-1.414526984900021
 30
0.0
 11
122.25671687985
 21
-1.414526984900021
 31
0.0
  0
LINE
  5
1A2
330
1F
100
AcDbEntity
  8
0
  6
CONTINUOUS
 62
     7
100
AcDbLine
 10
123.25671704375
 20
-0.3945271343000059
 30
0.0
 11
122.25671687985
 21
-0.3945271343000059
 31
0.0
  0
LINE
  5
1A3
330
1F
100
AcDbEntity
  8
0
  6
CONTINUOUS
 62
     7
100
AcDbLine
 10
123.25671704375
 20
30.0854725904
 30
0.0
 11
123.25671704375
 21
29.0654732056
 31
0.0
  0
LINE
  5
1A4
330
1F
100
AcDbEntity
  8
0
  6
CONTINUOUS
 62
     7
100
AcDbLine
 10
123.25671704375
 20
29.0654732056
 30
0.0
 11
122.25671687985
 21
29.0654732056
 31
0.0
  0
LINE
  5
1A5
330
1F
100
AcDbEntity
  8
0
  6
CONTINUOUS
 62
     7
100
AcDbLine
 10
123.25671704375
 20
30.0854725904
 30
0.0
 11
122.25671687985
 21
30.0854725904
 31
0.0
  0
LINE
  5
1A6
330
1F
100
AcDbEntity
  8
0
  6
CONTINUOUS
 62
     7
100
AcDbLine
 10
123.25671704375
 20
22.4654732413
 30
0.0
 11
123.25671704375
 21
21.44547292509998
 31
0.0
  0
LINE
  5
1A7
330
1F
100
AcDbEntity
  8
0
  6
CONTINUOUS
 62
     7
100
AcDbLine
 10
123.25671704375
 20
21.44547292509998
 30
0.0
 11
122.25671687985
 21
21.44547292509998
 31
0.0
  0
LINE
  5
1A8
330
1F
100
AcDbEntity
  8
0
  6
CONTINUOUS
 62
     7
100
AcDbLine
 10
123.25671704375
 20
22.4654732413
 30
0.0
 11
122.25671687985
 21
22.4654732413
 31
0.0
  0
LINE
  5
1A9
330
1F
100
AcDbEntity
  8
0
  6
CONTINUOUS
 62
     7
100
AcDbLine
 10
123.25671704375
 20
14.8454729609
 30
0.0
 11
123.25671704375
 21
13.82547311029998
 31
0.0
  0
LINE
  5
1AA
330
1F
100
AcDbEntity
  8
0
  6
CONTINUOUS
 62
     7
100
AcDbLine
 10
123.25671704375
 20
14.8454729609
 30
0.0
 11
122.25671687985
 21
14.8454729609
 31
0.0
  0
LINE
  5
1AB
330
1F
100
AcDbEntity
  8
0
  6
CONTINUOUS
 62
     7
100
AcDbLine
 10
123.25671704375
 20
13.82547311029998
 30
0.0
 11
122.25671687985
 21
13.82547311029998
 31
0.0
  0
LINE
  5
1AC
330
1F
100
AcDbEntity
  8
0
  6
CONTINUOUS
 62
     7
100
AcDbLine
 10
123.25671704375
 20
-15.6345272296
 30
0.0
 11
123.25671704375
 21
-16.6545266144
 31
0.0
  0
LINE
  5
1AD
330
1F
100
AcDbEntity
  8
0
  6
CONTINUOUS
 62
     7
100
AcDbLine
 10
123.25671704375
 20
-15.6345272296
 30
0.0
 11
122.25671687985
 21
-15.6345272296
 31
0.0
  0
LINE
  5
1AE
330
1F
100
AcDbEntity
  8
0
  6
CONTINUOUS
 62
     7
100
AcDbLine
 10
123.25671704375
 20
-16.6545266144
 30
0.0
 11
122.25671687985
 21
-16.6545266144
 31
0.0
  0
LINE
  5
1AF
330
1F
100
AcDbEntity
  8
0
  6
CONTINUOUS
 62
     7
100
AcDbLine
 10
123.25671704375
 20
7.225472971499983
 30
0.0
 11
123.25671704375
 21
6.205473004499993
 31
0.0
  0
LINE
  5
1B0
330
1F
100
AcDbEntity
  8
0
  6
CONTINUOUS
 62
     7
100
AcDbLine
 10
123.25671704375
 20
6.205473004499993
 30
0.0
 11
122.25671687985
 21
6.205473004499993
 31
0.0
  0
LINE
  5
1B1
330
1F
100
AcDbEntity
  8
0
  6
CONTINUOUS
 62
     7
100
AcDbLine
 10
123.25671704375
 20
7.225472971499983
 30
0.0
 11
122.25671687985
 21
7.225472971499983
 31
0.0
  0
LINE
  5
1B2
330
1F
100
AcDbEntity
  8
0
  6
CONTINUOUS
 62
     7
100
AcDbLine
 10
127.35671706385
 20
-32.08452815640001
 30
0.0
 11
128.55671735365
 21
-32.08452815640001
 31
0.0
  0
LINE
  5
1B3
330
1F
100
AcDbEntity
  8
0
  6
CONTINUOUS
 62
     7
100
AcDbLine
 10
128.55671735365
 20
-30.87452779040001
 30
0.0
 11
128.55671735365
 21
-32.08452815640001
 31
0.0
  0
LINE
  5
1B4
330
1F
100
AcDbEntity
  8
0
  6
CONTINUOUS
 62
     7
100
AcDbLine
 10
127.35671706385
 20
-32.08452815640001
 30
0.0
 11
123.25671704375
 21
-32.08452815640001
 31
0.0
  0
LINE
  5
1B5
330
1F
100
AcDbEntity
  8
0
  6
CONTINUOUS
 62
     7
100
AcDbLine
 10
128.55671735365
 20
-30.87452779040001
 30
0.0
 11
123.25671704375
 21
-30.87452779040001
 31
0.0
  0
LINE
  5
1B6
330
1F
100
AcDbEntity
  8
0
  6
CONTINUOUS
 62
     7
100
AcDbLine
 10
127.35671706385
 20
45.51547413239999
 30
0.0
 11
128.55671735365
 21
45.51547413239999
 31
0.0
  0
LINE
  5
1B7
330
1F
100
AcDbEntity
  8
0
  6
CONTINUOUS
 62
     7
100
AcDbLine
 10
128.55671735365
 20
44.30547376639998
 30
0.0
 11
128.55671735365
 21
45.51547413239999
 31
0.0
  0
LINE
  5
1B8
330
1F
100
AcDbEntity
  8
0
  6
CONTINUOUS
 62
     7
100
AcDbLine
 10
123.25671704375
 20
45.51547413239999
 30
0.0
 11
127.35671706385
 21
45.51547413239999
 31
0.0
  0
LINE
  5
1B9
330
1F
100
AcDbEntity
  8
0
  6
CONTINUOUS
 62
     7
100
AcDbLine
 10
123.25671704375
 20
44.30547376639998
 30
0.0
 11
128.55671735365
 21
44.30547376639998
 31
0.0
  0
LINE
  5
1BA
330
1F
100
AcDbEntity
  8
0
  6
CONTINUOUS
 62
     7
100
AcDbLine
 10
127.35671706385
 20
-38.68452812060002
 30
0.0
 11
127.35671706385
 21
-32.08452815640001
 31
0.0
  0
LINE
  5
1BB
330
1F
100
AcDbEntity
  8
0
  6
CONTINUOUS
 62
     7
100
AcDbLine
 10
128.55671735365
 20
-32.08452815640001
 30
0.0
 11
128.55671735365
 21
-38.68452812060002
 31
0.0
  0
LINE
  5
1BC
330
1F
100
AcDbEntity
  8
0
  6
CONTINUOUS
 62
     7
100
AcDbLine
 10
127.35671706385
 20
45.51547413239999
 30
0.0
 11
127.35671706385
 21
52.1154740966
 31
0.0
  0
LINE
  5
1BD
330
1F
100
AcDbEntity
  8
0
  6
CONTINUOUS
 62
     7
100
AcDbLine
 10
128.55671735365
 20
45.51547413239999
 30
0.0
 11
128.55671735365
 21
52.1154740966
 31
0.0
  0
LINE
  5
1BE
330
1F
100
AcDbEntity
  8
0
  6
CONTINUOUS
 62
     7
100
AcDbLine
 10
115.95671640595
 20
52.1154740966
 30
0.0
 11
115.95671640595
 21
45.51547413239999
 31
0.0
  0
LINE
  5
1BF
330
1F
100
AcDbEntity
  8
0
  6
CONTINUOUS
 62
     7
100
AcDbLine
 10
114.75671658185
 20
45.51547413239999
 30
0.0
 11
114.75671658185
 21
52.1154740966
 31
0.0
  0
LINE
  5
1C0
330
1F
100
AcDbEntity
  8
0
  6
CONTINUOUS
 62
     7
100
AcDbLine
 10
114.75671658185
 20
-32.08452815640001
 30
0.0
 11
114.75671658185
 21
-38.68452812060002
 31
0.0
  0
LINE
  5
1C1
330
1F
100
AcDbEntity
  8
0
  6
CONTINUOUS
 62
     7
100
AcDbLine
 10
115.95671640595
 20
-38.68452812060002
 30
0.0
 11
115.95671640595
 21
-32.08452815640001
 31
0.0
  0
LINE
  5
1C2
330
1F
100
AcDbEntity
  8
0
  6
CONTINUOUS
 62
     7
100
AcDbLine
 10
122.75671696175
 20
37.7054738022
 30
0.0
 11
122.75671696175
 21
44.30547376639998
 31
0.0
  0
LINE
  5
1C3
330
1F
100
AcDbEntity
  8
0
  6
CONTINUOUS
 62
     7
100
AcDbLine
 10
114.05671777095
 20
43.75547190679998
 30
0.0
 11
114.05671777095
 21
38.2554719366
 31
0.0
  0
LINE
  5
1C4
330
1F
100
AcDbEntity
  8
0
  6
CONTINUOUS
 62
     7
100
AcDbLine
 10
114.05671777095
 20
38.2554719366
 30
0.0
 11
121.55671713765
 21
38.2554719366
 31
0.0
  0
LINE
  5
1C5
330
1F
100
AcDbEntity
  8
0
  6
CONTINUOUS
 62
     7
100
AcDbLine
 10
121.55671713765
 20
38.2554719366
 30
0.0
 11
121.55671713765
 21
43.75547190679998
 31
0.0
  0
LINE
  5
1C6
330
1F
100
AcDbEntity
  8
0
  6
CONTINUOUS
 62
     7
100
AcDbLine
 10
121.55671713765
 20
43.75547190679998
 30
0.0
 11
114.05671777095
 21
43.75547190679998
 31
0.0
  0
LINE
  5
1C7
330
1F
100
AcDbEntity
  8
0
  6
CONTINUOUS
 62
     7
100
AcDbLine
 10
122.75671696175
 20
-23.25452657870002
 30
0.0
 11
122.75671696175
 21
-16.6545266144
 31
0.0
  0
LINE
  5
1C8
330
1F
100
AcDbEntity
  8
0
  6
CONTINUOUS
 62
     7
100
AcDbLine
 10
114.05671777095
 20
-17.2045266115
 30
0.0
 11
114.05671777095
 21
-22.70452658170001
 31
0.0
  0
LINE
  5
1C9
330
1F
100
AcDbEntity
  8
0
  6
CONTINUOUS
 62
     7
100
AcDbLine
 10
114.05671777095
 20
-22.70452658170001
 30
0.0
 11
121.55671713765
 21
-22.70452658170001
 31
0.0
  0
LINE
  5
1CA
330
1F
100
AcDbEntity
  8
0
  6
CONTINUOUS
 62
     7
100
AcDbLine
 10
121.55671713765
 20
-22.70452658170001
 30
0.0
 11
121.55671713765
 21
-17.2045266115
 31
0.0
  0
LINE
  5
1CB
330
1F
100
AcDbEntity
  8
0
  6
CONTINUOUS
 62
     7
100
AcDbLine
 10
121.55671713765
 20
-17.2045266115
 30
0.0
 11
114.05671777095
 21
-17.2045266115
 31
0.0
  0
LINE
  5
1CC
330
1F
100
AcDbEntity
  8
0
  6
CONTINUOUS
 62
     7
100
AcDbLine
 10
122.75671696175
 20
30.0854725904
 30
0.0
 11
122.75671696175
 21
36.6854725547
 31
0.0
  0
LINE
  5
1CD
330
1F
100
AcDbEntity
  8
0
  6
CONTINUOUS
 62
     7
100
AcDbLine
 10
114.05671777095
 20
36.13547255769998
 30
0.0
 11
114.05671777095
 21
30.6354725875
 31
0.0
  0
LINE
  5
1CE
330
1F
100
AcDbEntity
  8
0
  6
CONTINUOUS
 62
     7
100
AcDbLine
 10
114.05671777095
 20
30.6354725875
 30
0.0
 11
121.55671713765
 21
30.6354725875
 31
0.0
  0
LINE
  5
1CF
330
1F
100
AcDbEntity
  8
0
  6
CONTINUOUS
 62
     7
100
AcDbLine
 10
121.55671713765
 20
30.6354725875
 30
0.0
 11
121.55671713765
 21
36.13547255769998
 31
0.0
  0
LINE
  5
1D0
330
1F
100
AcDbEntity
  8
0
  6
CONTINUOUS
 62
     7
100
AcDbLine
 10
121.55671713765
 20
36.13547255769998
 30
0.0
 11
114.05671777095
 21
36.13547255769998
 31
0.0
  0
LINE
  5
1D1
330
1F
100
AcDbEntity
  8
0
  6
CONTINUOUS
 62
     7
100
AcDbLine
 10
122.75671696175
 20
-0.3945271343000059
 30
0.0
 11
122.75671696175
 21
6.205473004499993
 31
0.0
  0
LINE
  5
1D2
330
1F
100
AcDbEntity
  8
0
  6
CONTINUOUS
 62
     7
100
AcDbLine
 10
114.05671777095
 20
5.655472949299991
 30
0.0
 11
114.05671777095
 21
0.1554728626999804
 31
0.0
  0
LINE
  5
1D3
330
1F
100
AcDbEntity
  8
0
  6
CONTINUOUS
 62
     7
100
AcDbLine
 10
114.05671777095
 20
0.1554728626999804
 30
0.0
 11
121.55671713765
 21
0.1554728626999804
 31
0.0
  0
LINE
  5
1D4
330
1F
100
AcDbEntity
  8
0
  6
CONTINUOUS
 62
     7
100
AcDbLine
 10
121.55671713765
 20
0.1554728626999804
 30
0.0
 11
121.55671713765
 21
5.655472949299991
 31
0.0
  0
LINE
  5
1D5
330
1F
100
AcDbEntity
  8
0
  6
CONTINUOUS
 62
     7
100
AcDbLine
 10
121.55671713765
 20
5.655472949299991
 30
0.0
 11
114.05671777095
 21
5.655472949299991
 31
0.0
  0
LINE
  5
1D6
330
1F
100
AcDbEntity
  8
0
  6
CONTINUOUS
 62
     7
100
AcDbLine
 10
122.75671696175
 20
14.8454729609
 30
0.0
 11
122.75671696175
 21
21.44547292509998
 31
0.0
  0
LINE
  5
1D7
330
1F
100
AcDbEntity
  8
0
  6
CONTINUOUS
 62
     7
100
AcDbLine
 10
114.05671777095
 20
20.89547292809999
 30
0.0
 11
114.05671777095
 21
15.39547295789998
 31
0.0
  0
LINE
  5
1D8
330
1F
100
AcDbEntity
  8
0
  6
CONTINUOUS
 62
     7
100
AcDbLine
 10
114.05671777095
 20
15.39547295789998
 30
0.0
 11
121.55671713765
 21
15.39547295789998
 31
0.0
  0
LINE
  5
1D9
330
1F
100
AcDbEntity
  8
0
  6
CONTINUOUS
 62
     7
100
AcDbLine
 10
121.55671713765
 20
15.39547295789998
 30
0.0
 11
121.55671713765
 21
20.89547292809999
 31
0.0
  0
LINE
  5
1DA
330
1F
100
AcDbEntity
  8
0
  6
CONTINUOUS
 62
     7
100
AcDbLine
 10
121.55671713765
 20
20.89547292809999
 30
0.0
 11
114.05671777095
 21
20.89547292809999
 31
0.0
  0
LINE
  5
1DB
330
1F
100
AcDbEntity
  8
0
  6
CONTINUOUS
 62
     7
100
AcDbLine
 10
122.75671696175
 20
-30.87452779040001
 30
0.0
 11
122.75671696175
 21
-24.2745278262
 31
0.0
  0
LINE
  5
1DC
330
1F
100
AcDbEntity
  8
0
  6
CONTINUOUS
 62
     7
100
AcDbLine
 10
114.05671777095
 20
-24.8245259606
 30
0.0
 11
114.05671777095
 21
-30.32452593080001
 31
0.0
  0
LINE
  5
1DD
330
1F
100
AcDbEntity
  8
0
  6
CONTINUOUS
 62
     7
100
AcDbLine
 10
114.05671777095
 20
-30.32452593080001
 30
0.0
 11
121.55671713765
 21
-30.32452593080001
 31
0.0
  0
LINE
  5
1DE
330
1F
100
AcDbEntity
  8
0
  6
CONTINUOUS
 62
     7
100
AcDbLine
 10
121.55671713765
 20
-30.32452593080001
 30
0.0
 11
121.55671713765
 21
-24.8245259606
 31
0.0
  0
LINE
  5
1DF
330
1F
100
AcDbEntity
  8
0
  6
CONTINUOUS
 62
     7
100
AcDbLine
 10
121.55671713765
 20
-24.8245259606
 30
0.0
 11
114.05671777095
 21
-24.8245259606
 31
0.0
  0
LINE
  5
1E0
330
1F
100
AcDbEntity
  8
0
  6
CONTINUOUS
 62
     7
100
AcDbLine
 10
122.75671696175
 20
-15.6345272296
 30
0.0
 11
122.75671696175
 21
-9.0345272653
 31
0.0
  0
LINE
  5
1E1
330
1F
100
AcDbEntity
  8
0
  6
CONTINUOUS
 62
     7
100
AcDbLine
 10
114.05671777095
 20
-9.584527262300014
 30
0.0
 11
114.05671777095
 21
-15.08452723250002
 31
0.0
  0
LINE
  5
1E2
330
1F
100
AcDbEntity
  8
0
  6
CONTINUOUS
 62
     7
100
AcDbLine
 10
114.05671777095
 20
-15.08452723250002
 30
0.0
 11
121.55671713765
 21
-15.08452723250002
 31
0.0
  0
LINE
  5
1E3
330
1F
100
AcDbEntity
  8
0
  6
CONTINUOUS
 62
     7
100
AcDbLine
 10
121.55671713765
 20
-15.08452723250002
 30
0.0
 11
121.55671713765
 21
-9.584527262300014
 31
0.0
  0
LINE
  5
1E4
330
1F
100
AcDbEntity
  8
0
  6
CONTINUOUS
 62
     7
100
AcDbLine
 10
121.55671713765
 20
-9.584527262300014
 30
0.0
 11
114.05671777095
 21
-9.584527262300014
 31
0.0
  0
LINE
  5
1E5
330
1F
100
AcDbEntity
  8
0
  6
CONTINUOUS
 62
     7
100
AcDbLine
 10
114.05671777095
 20
13.2754731133
 30
0.0
 11
114.05671777095
 21
7.775473026699984
 31
0.0
  0
LINE
  5
1E6
330
1F
100
AcDbEntity
  8
0
  6
CONTINUOUS
 62
     7
100
AcDbLine
 10
114.05671777095
 20
7.775473026699984
 30
0.0
 11
121.55671713765
 21
7.775473026699984
 31
0.0
  0
LINE
  5
1E7
330
1F
100
AcDbEntity
  8
0
  6
CONTINUOUS
 62
     7
100
AcDbLine
 10
121.55671713765
 20
7.775473026699984
 30
0.0
 11
121.55671713765
 21
13.2754731133
 31
0.0
  0
LINE
  5
1E8
330
1F
100
AcDbEntity
  8
0
  6
CONTINUOUS
 62
     7
100
AcDbLine
 10
121.55671713765
 20
13.2754731133
 30
0.0
 11
114.05671777095
 21
13.2754731133
 31
0.0
  0
LINE
  5
1E9
330
1F
100
AcDbEntity
  8
0
  6
CONTINUOUS
 62
     7
100
AcDbLine
 10
122.75671696175
 20
7.225472971499983
 30
0.0
 11
122.75671696175
 21
13.82547311029998
 31
0.0
  0
LINE
  5
1EA
330
1F
100
AcDbEntity
  8
0
  6
CONTINUOUS
 62
     7
100
AcDbLine
 10
122.75671696175
 20
-8.014526949100002
 30
0.0
 11
122.75671696175
 21
-1.414526984900021
 31
0.0
  0
LINE
  5
1EB
330
1F
100
AcDbEntity
  8
0
  6
CONTINUOUS
 62
     7
100
AcDbLine
 10
114.05671777095
 20
-1.964526981900008
 30
0.0
 11
114.05671777095
 21
-7.464526952100016
 31
0.0
  0
LINE
  5
1EC
330
1F
100
AcDbEntity
  8
0
  6
CONTINUOUS
 62
     7
100
AcDbLine
 10
114.05671777095
 20
-7.464526952100016
 30
0.0
 11
121.55671713765
 21
-7.464526952100016
 31
0.0
  0
LINE
  5
1ED
330
1F
100
AcDbEntity
  8
0
  6
CONTINUOUS
 62
     7
100
AcDbLine
 10
121.55671713765
 20
-7.464526952100016
 30
0.0
 11
121.55671713765
 21
-1.964526981900008
 31
0.0
  0
LINE
  5
1EE
330
1F
100
AcDbEntity
  8
0
  6
CONTINUOUS
 62
     7
100
AcDbLine
 10
121.55671713765
 20
-1.964526981900008
 30
0.0
 11
114.05671777095
 21
-1.964526981900008
 31
0.0
  0
LINE
  5
1EF
330
1F
100
AcDbEntity
  8
0
  6
CONTINUOUS
 62
     7
100
AcDbLine
 10
114.05671777095
 20
28.5154732085
 30
0.0
 11
114.05671777095
 21
23.01547323829999
 31
0.0
  0
LINE
  5
1F0
330
1F
100
AcDbEntity
  8
0
  6
CONTINUOUS
 62
     7
100
AcDbLine
 10
114.05671777095
 20
23.01547323829999
 30
0.0
 11
121.55671713765
 21
23.01547323829999
 31
0.0
  0
LINE
  5
1F1
330
1F
100
AcDbEntity
  8
0
  6
CONTINUOUS
 62
     7
100
AcDbLine
 10
121.55671713765
 20
23.01547323829999
 30
0.0
 11
121.55671713765
 21
28.5154732085
 31
0.0
  0
LINE
  5
1F2
330
1F
100
AcDbEntity
  8
0
  6
CONTINUOUS
 62
     7
100
AcDbLine
 10
121.55671713765
 20
28.5154732085
 30
0.0
 11
114.05671777095
 21
28.5154732085
 31
0.0
  0
LINE
  5
1F3
330
1F
100
AcDbEntity
  8
0
  6
CONTINUOUS
 62
     7
100
AcDbLine
 10
122.75671696175
 20
22.4654732413
 30
0.0
 11
122.75671696175
 21
29.0654732056
 31
0.0
  0
LINE
  5
1F4
330
1F
100
AcDbEntity
  8
0
  6
CONTINUOUS
 62
     7
100
AcDbLine
 10
128.55671735365
 20
-38.68452812060002
 30
0.0
 11
114.75671658185
 21
-38.68452812060002
 31
0.0
  0
LINE
  5
1F5
330
1F
100
AcDbEntity
  8
0
  6
CONTINUOUS
 62
     7
100
AcDbLine
 10
128.55671735365
 20
52.1154740966
 30
0.0
 11
114.75671658185
 21
52.1154740966
 31
0.0
  0
LINE
  5
1F6
330
1F
100
AcDbEntity
  8
0
  6
CONTINUOUS
 62
     7
100
AcDbLine
 10
128.55671735365
 20
43.80547275319998
 30
0.0
 11
128.55671735365
 21
44.30547376639998
 31
0.0
  0
LINE
  5
1F7
330
1F
100
AcDbEntity
  8
0
  6
CONTINUOUS
 62
     7
100
AcDbLine
 10
128.55671735365
 20
-30.87452779040001
 30
0.0
 11
128.55671735365
 21
-30.3745267772
 31
0.0
  0
LINE
  5
1F8
330
1F
100
AcDbEntity
  8
0
  6
CONTINUOUS
 62
     7
100
AcDbLine
 10
120.25671748335
 20
36.13547255769998
 30
0.0
 11
120.25671748335
 21
30.6354725875
 31
0.0
  0
LINE
  5
1F9
330
1F
100
AcDbEntity
  8
0
  6
CONTINUOUS
 62
     7
100
AcDbLine
 10
120.25671748335
 20
28.5154732085
 30
0.0
 11
120.25671748335
 21
23.01547323829999
 31
0.0
  0
LINE
  5
1FA
330
1F
100
AcDbEntity
  8
0
  6
CONTINUOUS
 62
     7
100
AcDbLine
 10
120.25671748335
 20
-24.8245259606
 30
0.0
 11
120.25671748335
 21
-30.32452593080001
 31
0.0
  0
LINE
  5
1FB
330
1F
100
AcDbEntity
  8
0
  6
CONTINUOUS
 62
     7
100
AcDbLine
 10
120.25671748335
 20
20.89547292809999
 30
0.0
 11
120.25671748335
 21
15.39547295789998
 31
0.0
  0
LINE
  5
1FC
330
1F
100
AcDbEntity
  8
0
  6
CONTINUOUS
 62
     7
100
AcDbLine
 10
120.25671748335
 20
-9.584527262300014
 30
0.0
 11
120.25671748335
 21
-15.08452723250002
 31
0.0
  0
LINE
  5
1FD
330
1F
100
AcDbEntity
  8
0
  6
CONTINUOUS
 62
     7
100
AcDbLine
 10
120.25671748335
 20
5.655472949299991
 30
0.0
 11
120.25671748335
 21
0.1554728626999804
 31
0.0
  0
LINE
  5
1FE
330
1F
100
AcDbEntity
  8
0
  6
CONTINUOUS
 62
     7
100
AcDbLine
 10
120.25671748335
 20
-1.964526981900008
 30
0.0
 11
120.25671748335
 21
-7.464526952100016
 31
0.0
  0
LINE
  5
1FF
330
1F
100
AcDbEntity
  8
0
  6
CONTINUOUS
 62
     7
100
AcDbLine
 10
120.25671748335
 20
-17.2045266115
 30
0.0
 11
120.25671748335
 21
-22.70452658170001
 31
0.0
  0
LINE
  5
200
330
1F
100
AcDbEntity
  8
0
  6
CONTINUOUS
 62
     7
100
AcDbLine
 10
120.25671748335
 20
13.2754731133
 30
0.0
 11
120.25671748335
 21
7.775473026699984
 31
0.0
  0
LINE
  5
201
330
1F
100
AcDbEntity
  8
0
  6
CONTINUOUS
 62
     7
100
AcDbLine
 10
120.25671748335
 20
43.75547190679998
 30
0.0
 11
120.25671748335
 21
38.2554719366
 31
0.0
  0
LINE
  5
202
330
1F
100
AcDbEntity
  8
0
  6
CONTINUOUS
 62
     7
100
AcDbLine
 10
120.75671756525
 20
30.6354725875
 30
0.0
 11
120.75671756525
 21
36.13547255769998
 31
0.0
  0
LINE
  5
203
330
1F
100
AcDbEntity
  8
0
  6
CONTINUOUS
 62
     7
100
AcDbLine
 10
120.75671756525
 20
23.01547323829999
 30
0.0
 11
120.75671756525
 21
28.5154732085
 31
0.0
  0
LINE
  5
204
330
1F
100
AcDbEntity
  8
0
  6
CONTINUOUS
 62
     7
100
AcDbLine
 10
120.75671756525
 20
38.2554719366
 30
0.0
 11
120.75671756525
 21
43.75547190679998
 31
0.0
  0
LINE
  5
205
330
1F
100
AcDbEntity
  8
0
  6
CONTINUOUS
 62
     7
100
AcDbLine
 10
120.75671756525
 20
0.1554728626999804
 30
0.0
 11
120.75671756525
 21
5.655472949299991
 31
0.0
  0
LINE
  5
206
330
1F
100
AcDbEntity
  8
0
  6
CONTINUOUS
 62
     7
100
AcDbLine
 10
120.75671756525
 20
-30.32452593080001
 30
0.0
 11
120.75671756525
 21
-24.8245259606
 31
0.0
  0
LINE
  5
207
330
1F
100
AcDbEntity
  8
0
  6
CONTINUOUS
 62
     7
100
AcDbLine
 10
120.75671756525
 20
-22.70452658170001
 30
0.0
 11
120.75671756525
 21
-17.2045266115
 31
0.0
  0
LINE
  5
208
330
1F
100
AcDbEntity
  8
0
  6
CONTINUOUS
 62
     7
100
AcDbLine
 10
120.75671756525
 20
-15.08452723250002
 30
0.0
 11
120.75671756525
 21
-9.584527262300014
 31
0.0
  0
LINE
  5
209
330
1F
100
AcDbEntity
  8
0
  6
CONTINUOUS
 62
     7
100
AcDbLine
 10
120.75671756525
 20
15.39547295789998
 30
0.0
 11
120.75671756525
 21
20.89547292809999
 31
0.0
  0
LINE
  5
20A
330
1F
100
AcDbEntity
  8
0
  6
CONTINUOUS
 62
     7
100
AcDbLine
 10
120.75671756525
 20
7.775473026699984
 30
0.0
 11
120.75671756525
 21
13.2754731133
 31
0.0
  0
LINE
  5
20B
330
1F
100
AcDbEntity
  8
0
  6
CONTINUOUS
 62
     7
100
AcDbLine
 10
120.75671756525
 20
-7.464526952100016
 30
0.0
 11
120.75671756525
 21
-1.964526981900008
 31
0.0
  0
LINE
  5
20C
330
1F
100
AcDbEntity
  8
0
  6
CONTINUOUS
 62
     7
100
AcDbLine
 10
128.55671735365
 20
43.80547275319998
 30
0.0
 11
128.55671735365
 21
-30.3745267772
 31
0.0
  0
LINE
  5
20D
330
1F
100
AcDbEntity
  8
0
  6
CONTINUOUS
 62
     7
100
AcDbLine
 10
120.75671756525
 20
-29.62452525720002
 30
0.0
 11
121.55671713765
 21
-29.62452525720002
 31
0.0
  0
LINE
  5
20E
330
1F
100
AcDbEntity
  8
0
  6
CONTINUOUS
 62
     7
100
AcDbLine
 10
120.75671756525
 20
43.0554712332
 30
0.0
 11
121.55671713765
 21
43.0554712332
 31
0.0
  0
LINE
  5
20F
330
1F
100
AcDbEntity
  8
0
  6
CONTINUOUS
 62
     7
100
AcDbLine
 10
120.75671756525
 20
34.83547290339999
 30
0.0
 11
121.55671713765
 21
34.83547290339999
 31
0.0
  0
LINE
  5
210
330
1F
100
AcDbEntity
  8
0
  6
CONTINUOUS
 62
     7
100
AcDbLine
 10
120.75671756525
 20
27.2154735542
 30
0.0
 11
121.55671713765
 21
27.2154735542
 31
0.0
  0
LINE
  5
211
330
1F
100
AcDbEntity
  8
0
  6
CONTINUOUS
 62
     7
100
AcDbLine
 10
120.75671756525
 20
31.93547224169998
 30
0.0
 11
121.55671713765
 21
31.93547224169998
 31
0.0
  0
LINE
  5
212
330
1F
100
AcDbEntity
  8
0
  6
CONTINUOUS
 62
     7
100
AcDbLine
 10
120.75671756525
 20
19.5954732738
 30
0.0
 11
121.55671713765
 21
19.5954732738
 31
0.0
  0
LINE
  5
213
330
1F
100
AcDbEntity
  8
0
  6
CONTINUOUS
 62
     7
100
AcDbLine
 10
120.75671756525
 20
11.97547299339999
 30
0.0
 11
121.55671713765
 21
11.97547299339999
 31
0.0
  0
LINE
  5
214
330
1F
100
AcDbEntity
  8
0
  6
CONTINUOUS
 62
     7
100
AcDbLine
 10
120.75671756525
 20
-10.88452691660001
 30
0.0
 11
121.55671713765
 21
-10.88452691660001
 31
0.0
  0
LINE
  5
215
330
1F
100
AcDbEntity
  8
0
  6
CONTINUOUS
 62
     7
100
AcDbLine
 10
120.75671756525
 20
-6.164527297800021
 30
0.0
 11
121.55671713765
 21
-6.164527297800021
 31
0.0
  0
LINE
  5
216
330
1F
100
AcDbEntity
  8
0
  6
CONTINUOUS
 62
     7
100
AcDbLine
 10
120.75671756525
 20
-18.5045262658
 30
0.0
 11
121.55671713765
 21
-18.5045262658
 31
0.0
  0
LINE
  5
217
330
1F
100
AcDbEntity
  8
0
  6
CONTINUOUS
 62
     7
100
AcDbLine
 10
120.75671756525
 20
-3.264526636200003
 30
0.0
 11
121.55671713765
 21
-3.264526636200003
 31
0.0
  0
LINE
  5
218
330
1F
100
AcDbEntity
  8
0
  6
CONTINUOUS
 62
     7
100
AcDbLine
 10
120.75671756525
 20
16.69547261219998
 30
0.0
 11
121.55671713765
 21
16.69547261219998
 31
0.0
  0
LINE
  5
219
330
1F
100
AcDbEntity
  8
0
  6
CONTINUOUS
 62
     7
100
AcDbLine
 10
120.75671756525
 20
24.31547289259998
 30
0.0
 11
121.55671713765
 21
24.31547289259998
 31
0.0
  0
LINE
  5
21A
330
1F
100
AcDbEntity
  8
0
  6
CONTINUOUS
 62
     7
100
AcDbLine
 10
120.75671756525
 20
-21.40452692740001
 30
0.0
 11
121.55671713765
 21
-21.40452692740001
 31
0.0
  0
LINE
  5
21B
330
1F
100
AcDbEntity
  8
0
  6
CONTINUOUS
 62
     7
100
AcDbLine
 10
120.75671756525
 20
9.075473030199987
 30
0.0
 11
121.55671713765
 21
9.075473030199987
 31
0.0
  0
LINE
  5
21C
330
1F
100
AcDbEntity
  8
0
  6
CONTINUOUS
 62
     7
100
AcDbLine
 10
120.75671756525
 20
1.455472982599986
 30
0.0
 11
121.55671713765
 21
1.455472982599986
 31
0.0
  0
LINE
  5
21D
330
1F
100
AcDbEntity
  8
0
  6
CONTINUOUS
 62
     7
100
AcDbLine
 10
120.75671756525
 20
-13.7845275782
 30
0.0
 11
121.55671713765
 21
-13.7845275782
 31
0.0
  0
LINE
  5
21E
330
1F
100
AcDbEntity
  8
0
  6
CONTINUOUS
 62
     7
100
AcDbLine
 10
120.75671756525
 20
4.355472945799988
 30
0.0
 11
121.55671713765
 21
4.355472945799988
 31
0.0
  0
LINE
  5
21F
330
1F
100
AcDbEntity
  8
0
  6
CONTINUOUS
 62
     7
100
AcDbLine
 10
120.75671756525
 20
39.5554715909
 30
0.0
 11
121.55671713765
 21
39.5554715909
 31
0.0
  0
LINE
  5
220
330
1F
100
AcDbEntity
  8
0
  6
CONTINUOUS
 62
     7
100
AcDbLine
 10
120.75671756525
 20
-26.12452561490002
 30
0.0
 11
121.55671713765
 21
-26.12452561490002
 31
0.0
  0
LINE
  5
221
330
1F
100
AcDbEntity
  8
0
  6
CONTINUOUS
 62
     7
100
AcDbLine
 10
120.75671756525
 20
42.45547225249999
 30
0.0
 11
121.55671713765
 21
42.45547225249999
 31
0.0
  0
LINE
  5
222
330
1F
100
AcDbEntity
  8
0
  6
CONTINUOUS
 62
     7
100
AcDbLine
 10
120.75671756525
 20
-29.02452627650001
 30
0.0
 11
121.55671713765
 21
-29.02452627650001
 31
0.0
  0
LINE
  5
223
330
1F
100
AcDbEntity
  8
0
  6
CONTINUOUS
 62
     7
100
AcDbLine
 10
153.45671789605
 20
44.30547376639998
 30
0.0
 11
153.45671789605
 21
37.7054738022
 31
0.0
  0
LINE
  5
224
330
1F
100
AcDbEntity
  8
0
  6
CONTINUOUS
 62
     7
100
AcDbLine
 10
143.85671744015
 20
44.30547376639998
 30
0.0
 11
153.45671789605
 21
44.30547376639998
 31
0.0
  0
LINE
  5
225
330
1F
100
AcDbEntity
  8
0
  6
CONTINUOUS
 62
     7
100
AcDbLine
 10
154.55671789015
 20
45.51547413239999
 30
0.0
 11
143.85671744015
 21
45.51547413239999
 31
0.0
  0
LINE
  5
226
330
1F
100
AcDbEntity
  8
0
  6
CONTINUOUS
 62
     7
100
AcDbLine
 10
154.55671789015
 20
-32.08452815640001
 30
0.0
 11
154.55671789015
 21
45.51547413239999
 31
0.0
  0
LINE
  5
227
330
1F
100
AcDbEntity
  8
0
  6
CONTINUOUS
 62
     7
100
AcDbLine
 10
154.55671789015
 20
-32.08452815640001
 30
0.0
 11
143.85671744015
 21
-32.08452815640001
 31
0.0
  0
LINE
  5
228
330
1F
100
AcDbEntity
  8
0
  6
CONTINUOUS
 62
     7
100
AcDbLine
 10
153.45671789605
 20
-30.87452779040001
 30
0.0
 11
143.85671744015
 21
-30.87452779040001
 31
0.0
  0
LINE
  5
229
330
1F
100
AcDbEntity
  8
0
  6
CONTINUOUS
 62
     7
100
AcDbLine
 10
153.45671789605
 20
-24.2745278262
 30
0.0
 11
153.45671789605
 21
-30.87452779040001
 31
0.0
  0
LINE
  5
22A
330
1F
100
AcDbEntity
  8
0
  6
CONTINUOUS
 62
     7
100
AcDbLine
 10
143.85671744015
 20
-24.2745278262
 30
0.0
 11
153.45671789605
 21
-24.2745278262
 31
0.0
  0
LINE
  5
22B
330
1F
100
AcDbEntity
  8
0
  6
CONTINUOUS
 62
     7
100
AcDbLine
 10
153.45671789605
 20
-23.25452657870002
 30
0.0
 11
143.85671744015
 21
-23.25452657870002
 31
0.0
  0
LINE
  5
22C
330
1F
100
AcDbEntity
  8
0
  6
CONTINUOUS
 62
     7
100
AcDbLine
 10
153.45671789605
 20
-16.6545266144
 30
0.0
 11
153.45671789605
 21
-23.25452657870002
 31
0.0
  0
LINE
  5
22D
330
1F
100
AcDbEntity
  8
0
  6
CONTINUOUS
 62
     7
100
AcDbLine
 10
143.85671744015
 20
-16.6545266144
 30
0.0
 11
153.45671789605
 21
-16.6545266144
 31
0.0
  0
LINE
  5
22E
330
1F
100
AcDbEntity
  8
0
  6
CONTINUOUS
 62
     7
100
AcDbLine
 10
153.45671789605
 20
-15.6345272296
 30
0.0
 11
143.85671744015
 21
-15.6345272296
 31
0.0
  0
LINE
  5
22F
330
1F
100
AcDbEntity
  8
0
  6
CONTINUOUS
 62
     7
100
AcDbLine
 10
153.45671789605
 20
-9.0345272653
 30
0.0
 11
153.45671789605
 21
-15.6345272296
 31
0.0
  0
LINE
  5
230
330
1F
100
AcDbEntity
  8
0
  6
CONTINUOUS
 62
     7
100
AcDbLine
 10
143.85671744015
 20
-9.0345272653
 30
0.0
 11
153.45671789605
 21
-9.0345272653
 31
0.0
  0
LINE
  5
231
330
1F
100
AcDbEntity
  8
0
  6
CONTINUOUS
 62
     7
100
AcDbLine
 10
153.45671789605
 20
-8.014526949100002
 30
0.0
 11
143.85671744015
 21
-8.014526949100002
 31
0.0
  0
LINE
  5
232
330
1F
100
AcDbEntity
  8
0
  6
CONTINUOUS
 62
     7
100
AcDbLine
 10
153.45671789605
 20
-1.414526984900021
 30
0.0
 11
153.45671789605
 21
-8.014526949100002
 31
0.0
  0
LINE
  5
233
330
1F
100
AcDbEntity
  8
0
  6
CONTINUOUS
 62
     7
100
AcDbLine
 10
143.85671744015
 20
-1.414526984900021
 30
0.0
 11
153.45671789605
 21
-1.414526984900021
 31
0.0
  0
LINE
  5
234
330
1F
100
AcDbEntity
  8
0
  6
CONTINUOUS
 62
     7
100
AcDbLine
 10
153.45671789605
 20
-0.3945271343000059
 30
0.0
 11
143.85671744015
 21
-0.3945271343000059
 31
0.0
  0
LINE
  5
235
330
1F
100
AcDbEntity
  8
0
  6
CONTINUOUS
 62
     7
100
AcDbLine
 10
153.45671789605
 20
6.205473004499993
 30
0.0
 11
153.45671789605
 21
-0.3945271343000059
 31
0.0
  0
LINE
  5
236
330
1F
100
AcDbEntity
  8
0
  6
CONTINUOUS
 62
     7
100
AcDbLine
 10
143.85671744015
 20
6.205473004499993
 30
0.0
 11
153.45671789605
 21
6.205473004499993
 31
0.0
  0
LINE
  5
237
330
1F
100
AcDbEntity
  8
0
  6
CONTINUOUS
 62
     7
100
AcDbLine
 10
153.45671789605
 20
7.225472971499983
 30
0.0
 11
143.85671744015
 21
7.225472971499983
 31
0.0
  0
LINE
  5
238
330
1F
100
AcDbEntity
  8
0
  6
CONTINUOUS
 62
     7
100
AcDbLine
 10
153.45671789605
 20
13.82547311029998
 30
0.0
 11
153.45671789605
 21
7.225472971499983
 31
0.0
  0
LINE
  5
239
330
1F
100
AcDbEntity
  8
0
  6
CONTINUOUS
 62
     7
100
AcDbLine
 10
143.85671744015
 20
13.82547311029998
 30
0.0
 11
153.45671789605
 21
13.82547311029998
 31
0.0
  0
LINE
  5
23A
330
1F
100
AcDbEntity
  8
0
  6
CONTINUOUS
 62
     7
100
AcDbLine
 10
153.45671789605
 20
14.8454729609
 30
0.0
 11
143.85671744015
 21
14.8454729609
 31
0.0
  0
LINE
  5
23B
330
1F
100
AcDbEntity
  8
0
  6
CONTINUOUS
 62
     7
100
AcDbLine
 10
153.45671789605
 20
21.44547292509998
 30
0.0
 11
153.45671789605
 21
14.8454729609
 31
0.0
  0
LINE
  5
23C
330
1F
100
AcDbEntity
  8
0
  6
CONTINUOUS
 62
     7
100
AcDbLine
 10
143.85671744015
 20
21.44547292509998
 30
0.0
 11
153.45671789605
 21
21.44547292509998
 31
0.0
  0
LINE
  5
23D
330
1F
100
AcDbEntity
  8
0
  6
CONTINUOUS
 62
     7
100
AcDbLine
 10
153.45671789605
 20
22.4654732413
 30
0.0
 11
143.85671744015
 21
22.4654732413
 31
0.0
  0
LINE
  5
23E
330
1F
100
AcDbEntity
  8
0
  6
CONTINUOUS
 62
     7
100
AcDbLine
 10
153.45671789605
 20
29.0654732056
 30
0.0
 11
153.45671789605
 21
22.4654732413
 31
0.0
  0
LINE
  5
23F
330
1F
100
AcDbEntity
  8
0
  6
CONTINUOUS
 62
     7
100
AcDbLine
 10
143.85671744015
 20
29.0654732056
 30
0.0
 11
153.45671789605
 21
29.0654732056
 31
0.0
  0
LINE
  5
240
330
1F
100
AcDbEntity
  8
0
  6
CONTINUOUS
 62
     7
100
AcDbLine
 10
153.45671789605
 20
30.0854725904
 30
0.0
 11
143.85671744015
 21
30.0854725904
 31
0.0
  0
LINE
  5
241
330
1F
100
AcDbEntity
  8
0
  6
CONTINUOUS
 62
     7
100
AcDbLine
 10
153.45671789605
 20
36.6854725547
 30
0.0
 11
153.45671789605
 21
30.0854725904
 31
0.0
  0
LINE
  5
242
330
1F
100
AcDbEntity
  8
0
  6
CONTINUOUS
 62
     7
100
AcDbLine
 10
143.85671744015
 20
36.6854725547
 30
0.0
 11
153.45671789605
 21
36.6854725547
 31
0.0
  0
LINE
  5
243
330
1F
100
AcDbEntity
  8
0
  6
CONTINUOUS
 62
     7
100
AcDbLine
 10
153.45671789605
 20
37.7054738022
 30
0.0
 11
143.85671744015
 21
37.7054738022
 31
0.0
  0
LINE
  5
244
330
1F
100
AcDbEntity
  8
0
  6
CONTINUOUS
 62
     7
100
AcDbLine
 10
142.85671727625
 20
21.44547292509998
 30
0.0
 11
142.85671727625
 21
22.4654732413
 31
0.0
  0
LINE
  5
245
330
1F
100
AcDbEntity
  8
0
  6
CONTINUOUS
 62
     7
100
AcDbLine
 10
142.85671727625
 20
21.44547292509998
 30
0.0
 11
143.85671744015
 21
21.44547292509998
 31
0.0
  0
LINE
  5
246
330
1F
100
AcDbEntity
  8
0
  6
CONTINUOUS
 62
     7
100
AcDbLine
 10
142.85671727625
 20
22.4654732413
 30
0.0
 11
143.85671744015
 21
22.4654732413
 31
0.0
  0
LINE
  5
247
330
1F
100
AcDbEntity
  8
0
  6
CONTINUOUS
 62
     7
100
AcDbLine
 10
142.85671727625
 20
13.82547311029998
 30
0.0
 11
142.85671727625
 21
14.8454729609
 31
0.0
  0
LINE
  5
248
330
1F
100
AcDbEntity
  8
0
  6
CONTINUOUS
 62
     7
100
AcDbLine
 10
142.85671727625
 20
14.8454729609
 30
0.0
 11
143.85671744015
 21
14.8454729609
 31
0.0
  0
LINE
  5
249
330
1F
100
AcDbEntity
  8
0
  6
CONTINUOUS
 62
     7
100
AcDbLine
 10
142.85671727625
 20
13.82547311029998
 30
0.0
 11
143.85671744015
 21
13.82547311029998
 31
0.0
  0
LINE
  5
24A
330
1F
100
AcDbEntity
  8
0
  6
CONTINUOUS
 62
     7
100
AcDbLine
 10
142.85671727625
 20
44.30547376639998
 30
0.0
 11
142.85671727625
 21
45.51547413239999
 31
0.0
  0
LINE
  5
24B
330
1F
100
AcDbEntity
  8
0
  6
CONTINUOUS
 62
     7
100
AcDbLine
 10
142.85671727625
 20
45.51547413239999
 30
0.0
 11
143.85671744015
 21
45.51547413239999
 31
0.0
  0
LINE
  5
24C
330
1F
100
AcDbEntity
  8
0
  6
CONTINUOUS
 62
     7
100
AcDbLine
 10
142.85671727625
 20
44.30547376639998
 30
0.0
 11
143.85671744015
 21
44.30547376639998
 31
0.0
  0
LINE
  5
24D
330
1F
100
AcDbEntity
  8
0
  6
CONTINUOUS
 62
     7
100
AcDbLine
 10
142.85671727625
 20
-32.08452815640001
 30
0.0
 11
142.85671727625
 21
-30.87452779040001
 31
0.0
  0
LINE
  5
24E
330
1F
100
AcDbEntity
  8
0
  6
CONTINUOUS
 62
     7
100
AcDbLine
 10
143.85671744015
 20
-32.08452815640001
 30
0.0
 11
142.85671727625
 21
-32.08452815640001
 31
0.0
  0
LINE
  5
24F
330
1F
100
AcDbEntity
  8
0
  6
CONTINUOUS
 62
     7
100
AcDbLine
 10
142.85671727625
 20
-30.87452779040001
 30
0.0
 11
143.85671744015
 21
-30.87452779040001
 31
0.0
  0
LINE
  5
250
330
1F
100
AcDbEntity
  8
0
  6
CONTINUOUS
 62
     7
100
AcDbLine
 10
142.85671727625
 20
36.6854725547
 30
0.0
 11
142.85671727625
 21
37.7054738022
 31
0.0
  0
LINE
  5
251
330
1F
100
AcDbEntity
  8
0
  6
CONTINUOUS
 62
     7
100
AcDbLine
 10
142.85671727625
 20
37.7054738022
 30
0.0
 11
143.85671744015
 21
37.7054738022
 31
0.0
  0
LINE
  5
252
330
1F
100
AcDbEntity
  8
0
  6
CONTINUOUS
 62
     7
100
AcDbLine
 10
143.85671744015
 20
36.6854725547
 30
0.0
 11
142.85671727625
 21
36.6854725547
 31
0.0
  0
LINE
  5
253
330
1F
100
AcDbEntity
  8
0
  6
CONTINUOUS
 62
     7
100
AcDbLine
 10
142.85671727625
 20
-24.2745278262
 30
0.0
 11
142.85671727625
 21
-23.25452657870002
 31
0.0
  0
LINE
  5
254
330
1F
100
AcDbEntity
  8
0
  6
CONTINUOUS
 62
     7
100
AcDbLine
 10
142.85671727625
 20
-24.2745278262
 30
0.0
 11
143.85671744015
 21
-24.2745278262
 31
0.0
  0
LINE
  5
255
330
1F
100
AcDbEntity
  8
0
  6
CONTINUOUS
 62
     7
100
AcDbLine
 10
142.85671727625
 20
-23.25452657870002
 30
0.0
 11
143.85671744015
 21
-23.25452657870002
 31
0.0
  0
LINE
  5
256
330
1F
100
AcDbEntity
  8
0
  6
CONTINUOUS
 62
     7
100
AcDbLine
 10
142.85671727625
 20
-16.6545266144
 30
0.0
 11
142.85671727625
 21
-15.6345272296
 31
0.0
  0
LINE
  5
257
330
1F
100
AcDbEntity
  8
0
  6
CONTINUOUS
 62
     7
100
AcDbLine
 10
142.85671727625
 20
-15.6345272296
 30
0.0
 11
143.85671744015
 21
-15.6345272296
 31
0.0
  0
LINE
  5
258
330
1F
100
AcDbEntity
  8
0
  6
CONTINUOUS
 62
     7
100
AcDbLine
 10
142.85671727625
 20
-16.6545266144
 30
0.0
 11
143.85671744015
 21
-16.6545266144
 31
0.0
  0
LINE
  5
259
330
1F
100
AcDbEntity
  8
0
  6
CONTINUOUS
 62
     7
100
AcDbLine
 10
142.85671727625
 20
6.205473004499993
 30
0.0
 11
142.85671727625
 21
7.225472971499983
 31
0.0
  0
LINE
  5
25A
330
1F
100
AcDbEntity
  8
0
  6
CONTINUOUS
 62
     7
100
AcDbLine
 10
142.85671727625
 20
7.225472971499983
 30
0.0
 11
143.85671744015
 21
7.225472971499983
 31
0.0
  0
LINE
  5
25B
330
1F
100
AcDbEntity
  8
0
  6
CONTINUOUS
 62
     7
100
AcDbLine
 10
142.85671727625
 20
6.205473004499993
 30
0.0
 11
143.85671744015
 21
6.205473004499993
 31
0.0
  0
LINE
  5
25C
330
1F
100
AcDbEntity
  8
0
  6
CONTINUOUS
 62
     7
100
AcDbLine
 10
142.85671727625
 20
-9.0345272653
 30
0.0
 11
142.85671727625
 21
-8.014526949100002
 31
0.0
  0
LINE
  5
25D
330
1F
100
AcDbEntity
  8
0
  6
CONTINUOUS
 62
     7
100
AcDbLine
 10
142.85671727625
 20
-8.014526949100002
 30
0.0
 11
143.85671744015
 21
-8.014526949100002
 31
0.0
  0
LINE
  5
25E
330
1F
100
AcDbEntity
  8
0
  6
CONTINUOUS
 62
     7
100
AcDbLine
 10
142.85671727625
 20
-9.0345272653
 30
0.0
 11
143.85671744015
 21
-9.0345272653
 31
0.0
  0
LINE
  5
25F
330
1F
100
AcDbEntity
  8
0
  6
CONTINUOUS
 62
     7
100
AcDbLine
 10
142.85671727625
 20
29.0654732056
 30
0.0
 11
142.85671727625
 21
30.0854725904
 31
0.0
  0
LINE
  5
260
330
1F
100
AcDbEntity
  8
0
  6
CONTINUOUS
 62
     7
100
AcDbLine
 10
142.85671727625
 20
29.0654732056
 30
0.0
 11
143.85671744015
 21
29.0654732056
 31
0.0
  0
LINE
  5
261
330
1F
100
AcDbEntity
  8
0
  6
CONTINUOUS
 62
     7
100
AcDbLine
 10
142.85671727625
 20
30.0854725904
 30
0.0
 11
143.85671744015
 21
30.0854725904
 31
0.0
  0
LINE
  5
262
330
1F
100
AcDbEntity
  8
0
  6
CONTINUOUS
 62
     7
100
AcDbLine
 10
142.85671727625
 20
-1.414526984900021
 30
0.0
 11
142.85671727625
 21
-0.3945271343000059
 31
0.0
  0
LINE
  5
263
330
1F
100
AcDbEntity
  8
0
  6
CONTINUOUS
 62
     7
100
AcDbLine
 10
142.85671727625
 20
-1.414526984900021
 30
0.0
 11
143.85671744015
 21
-1.414526984900021
 31
0.0
  0
LINE
  5
264
330
1F
100
AcDbEntity
  8
0
  6
CONTINUOUS
 62
     7
100
AcDbLine
 10
142.85671727625
 20
-0.3945271343000059
 30
0.0
 11
143.85671744015
 21
-0.3945271343000059
 31
0.0
  0
LINE
  5
265
330
1F
100
AcDbEntity
  8
0
  6
CONTINUOUS
 62
     7
100
AcDbLine
 10
137.55671696625
 20
44.30547376639998
 30
0.0
 11
137.55671696625
 21
45.51547413239999
 31
0.0
  0
LINE
  5
266
330
1F
100
AcDbEntity
  8
0
  6
CONTINUOUS
 62
     7
100
AcDbLine
 10
138.75671725605
 20
45.51547413239999
 30
0.0
 11
137.55671696625
 21
45.51547413239999
 31
0.0
  0
LINE
  5
267
330
1F
100
AcDbEntity
  8
0
  6
CONTINUOUS
 62
     7
100
AcDbLine
 10
138.75671725605
 20
45.51547413239999
 30
0.0
 11
142.85671727625
 21
45.51547413239999
 31
0.0
  0
LINE
  5
268
330
1F
100
AcDbEntity
  8
0
  6
CONTINUOUS
 62
     7
100
AcDbLine
 10
137.55671696625
 20
44.30547376639998
 30
0.0
 11
142.85671727625
 21
44.30547376639998
 31
0.0
  0
LINE
  5
269
330
1F
100
AcDbEntity
  8
0
  6
CONTINUOUS
 62
     7
100
AcDbLine
 10
138.75671725605
 20
-32.08452815640001
 30
0.0
 11
137.55671696625
 21
-32.08452815640001
 31
0.0
  0
LINE
  5
26A
330
1F
100
AcDbEntity
  8
0
  6
CONTINUOUS
 62
     7
100
AcDbLine
 10
137.55671696625
 20
-30.87452779040001
 30
0.0
 11
137.55671696625
 21
-32.08452815640001
 31
0.0
  0
LINE
  5
26B
330
1F
100
AcDbEntity
  8
0
  6
CONTINUOUS
 62
     7
100
AcDbLine
 10
142.85671727625
 20
-32.08452815640001
 30
0.0
 11
138.75671725605
 21
-32.08452815640001
 31
0.0
  0
LINE
  5
26C
330
1F
100
AcDbEntity
  8
0
  6
CONTINUOUS
 62
     7
100
AcDbLine
 10
142.85671727625
 20
-30.87452779040001
 30
0.0
 11
137.55671696625
 21
-30.87452779040001
 31
0.0
  0
LINE
  5
26D
330
1F
100
AcDbEntity
  8
0
  6
CONTINUOUS
 62
     7
100
AcDbLine
 10
138.75671725605
 20
52.1154740966
 30
0.0
 11
138.75671725605
 21
45.51547413239999
 31
0.0
  0
LINE
  5
26E
330
1F
100
AcDbEntity
  8
0
  6
CONTINUOUS
 62
     7
100
AcDbLine
 10
137.55671696625
 20
45.51547413239999
 30
0.0
 11
137.55671696625
 21
52.1154740966
 31
0.0
  0
LINE
  5
26F
330
1F
100
AcDbEntity
  8
0
  6
CONTINUOUS
 62
     7
100
AcDbLine
 10
138.75671725605
 20
-32.08452815640001
 30
0.0
 11
138.75671725605
 21
-38.68452812060002
 31
0.0
  0
LINE
  5
270
330
1F
100
AcDbEntity
  8
0
  6
CONTINUOUS
 62
     7
100
AcDbLine
 10
137.55671696625
 20
-32.08452815640001
 30
0.0
 11
137.55671696625
 21
-38.68452812060002
 31
0.0
  0
LINE
  5
271
330
1F
100
AcDbEntity
  8
0
  6
CONTINUOUS
 62
     7
100
AcDbLine
 10
150.15671791395
 20
-38.68452812060002
 30
0.0
 11
150.15671791395
 21
-32.08452815640001
 31
0.0
  0
LINE
  5
272
330
1F
100
AcDbEntity
  8
0
  6
CONTINUOUS
 62
     7
100
AcDbLine
 10
151.35671773815
 20
-32.08452815640001
 30
0.0
 11
151.35671773815
 21
-38.68452812060002
 31
0.0
  0
LINE
  5
273
330
1F
100
AcDbEntity
  8
0
  6
CONTINUOUS
 62
     7
100
AcDbLine
 10
151.35671773815
 20
45.51547413239999
 30
0.0
 11
151.35671773815
 21
52.1154740966
 31
0.0
  0
LINE
  5
274
330
1F
100
AcDbEntity
  8
0
  6
CONTINUOUS
 62
     7
100
AcDbLine
 10
150.15671791395
 20
52.1154740966
 30
0.0
 11
150.15671791395
 21
45.51547413239999
 31
0.0
  0
LINE
  5
275
330
1F
100
AcDbEntity
  8
0
  6
CONTINUOUS
 62
     7
100
AcDbLine
 10
143.35671735815
 20
-24.2745278262
 30
0.0
 11
143.35671735815
 21
-30.87452779040001
 31
0.0
  0
LINE
  5
276
330
1F
100
AcDbEntity
  8
0
  6
CONTINUOUS
 62
     7
100
AcDbLine
 10
152.05671654905
 20
-30.32452593080001
 30
0.0
 11
152.05671654905
 21
-24.8245259606
 31
0.0
  0
LINE
  5
277
330
1F
100
AcDbEntity
  8
0
  6
CONTINUOUS
 62
     7
100
AcDbLine
 10
152.05671654905
 20
-24.8245259606
 30
0.0
 11
144.55671718235
 21
-24.8245259606
 31
0.0
  0
LINE
  5
278
330
1F
100
AcDbEntity
  8
0
  6
CONTINUOUS
 62
     7
100
AcDbLine
 10
144.55671718235
 20
-24.8245259606
 30
0.0
 11
144.55671718235
 21
-30.32452593080001
 31
0.0
  0
LINE
  5
279
330
1F
100
AcDbEntity
  8
0
  6
CONTINUOUS
 62
     7
100
AcDbLine
 10
144.55671718235
 20
-30.32452593080001
 30
0.0
 11
152.05671654905
 21
-30.32452593080001
 31
0.0
  0
LINE
  5
27A
330
1F
100
AcDbEntity
  8
0
  6
CONTINUOUS
 62
     7
100
AcDbLine
 10
143.35671735815
 20
36.6854725547
 30
0.0
 11
143.35671735815
 21
30.0854725904
 31
0.0
  0
LINE
  5
27B
330
1F
100
AcDbEntity
  8
0
  6
CONTINUOUS
 62
     7
100
AcDbLine
 10
152.05671654905
 20
30.6354725875
 30
0.0
 11
152.05671654905
 21
36.13547255769998
 31
0.0
  0
LINE
  5
27C
330
1F
100
AcDbEntity
  8
0
  6
CONTINUOUS
 62
     7
100
AcDbLine
 10
152.05671654905
 20
36.13547255769998
 30
0.0
 11
144.55671718235
 21
36.13547255769998
 31
0.0
  0
LINE
  5
27D
330
1F
100
AcDbEntity
  8
0
  6
CONTINUOUS
 62
     7
100
AcDbLine
 10
144.55671718235
 20
36.13547255769998
 30
0.0
 11
144.55671718235
 21
30.6354725875
 31
0.0
  0
LINE
  5
27E
330
1F
100
AcDbEntity
  8
0
  6
CONTINUOUS
 62
     7
100
AcDbLine
 10
144.55671718235
 20
30.6354725875
 30
0.0
 11
152.05671654905
 21
30.6354725875
 31
0.0
  0
LINE
  5
27F
330
1F
100
AcDbEntity
  8
0
  6
CONTINUOUS
 62
     7
100
AcDbLine
 10
143.35671735815
 20
-1.414526984900021
 30
0.0
 11
143.35671735815
 21
-8.014526949100002
 31
0.0
  0
LINE
  5
280
330
1F
100
AcDbEntity
  8
0
  6
CONTINUOUS
 62
     7
100
AcDbLine
 10
152.05671654905
 20
-7.464526952100016
 30
0.0
 11
152.05671654905
 21
-1.964526981900008
 31
0.0
  0
LINE
  5
281
330
1F
100
AcDbEntity
  8
0
  6
CONTINUOUS
 62
     7
100
AcDbLine
 10
152.05671654905
 20
-1.964526981900008
 30
0.0
 11
144.55671718235
 21
-1.964526981900008
 31
0.0
  0
LINE
  5
282
330
1F
100
AcDbEntity
  8
0
  6
CONTINUOUS
 62
     7
100
AcDbLine
 10
144.55671718235
 20
-1.964526981900008
 30
0.0
 11
144.55671718235
 21
-7.464526952100016
 31
0.0
  0
LINE
  5
283
330
1F
100
AcDbEntity
  8
0
  6
CONTINUOUS
 62
     7
100
AcDbLine
 10
144.55671718235
 20
-7.464526952100016
 30
0.0
 11
152.05671654905
 21
-7.464526952100016
 31
0.0
  0
LINE
  5
284
330
1F
100
AcDbEntity
  8
0
  6
CONTINUOUS
 62
     7
100
AcDbLine
 10
143.35671735815
 20
44.30547376639998
 30
0.0
 11
143.35671735815
 21
37.7054738022
 31
0.0
  0
LINE
  5
285
330
1F
100
AcDbEntity
  8
0
  6
CONTINUOUS
 62
     7
100
AcDbLine
 10
152.05671654905
 20
38.2554719366
 30
0.0
 11
152.05671654905
 21
43.75547190679998
 31
0.0
  0
LINE
  5
286
330
1F
100
AcDbEntity
  8
0
  6
CONTINUOUS
 62
     7
100
AcDbLine
 10
152.05671654905
 20
43.75547190679998
 30
0.0
 11
144.55671718235
 21
43.75547190679998
 31
0.0
  0
LINE
  5
287
330
1F
100
AcDbEntity
  8
0
  6
CONTINUOUS
 62
     7
100
AcDbLine
 10
144.55671718235
 20
43.75547190679998
 30
0.0
 11
144.55671718235
 21
38.2554719366
 31
0.0
  0
LINE
  5
288
330
1F
100
AcDbEntity
  8
0
  6
CONTINUOUS
 62
     7
100
AcDbLine
 10
144.55671718235
 20
38.2554719366
 30
0.0
 11
152.05671654905
 21
38.2554719366
 31
0.0
  0
LINE
  5
289
330
1F
100
AcDbEntity
  8
0
  6
CONTINUOUS
 62
     7
100
AcDbLine
 10
143.35671735815
 20
-9.0345272653
 30
0.0
 11
143.35671735815
 21
-15.6345272296
 31
0.0
  0
LINE
  5
28A
330
1F
100
AcDbEntity
  8
0
  6
CONTINUOUS
 62
     7
100
AcDbLine
 10
152.05671654905
 20
-15.08452723250002
 30
0.0
 11
152.05671654905
 21
-9.584527262300014
 31
0.0
  0
LINE
  5
28B
330
1F
100
AcDbEntity
  8
0
  6
CONTINUOUS
 62
     7
100
AcDbLine
 10
152.05671654905
 20
-9.584527262300014
 30
0.0
 11
144.55671718235
 21
-9.584527262300014
 31
0.0
  0
LINE
  5
28C
330
1F
100
AcDbEntity
  8
0
  6
CONTINUOUS
 62
     7
100
AcDbLine
 10
144.55671718235
 20
-9.584527262300014
 30
0.0
 11
144.55671718235
 21
-15.08452723250002
 31
0.0
  0
LINE
  5
28D
330
1F
100
AcDbEntity
  8
0
  6
CONTINUOUS
 62
     7
100
AcDbLine
 10
144.55671718235
 20
-15.08452723250002
 30
0.0
 11
152.05671654905
 21
-15.08452723250002
 31
0.0
  0
LINE
  5
28E
330
1F
100
AcDbEntity
  8
0
  6
CONTINUOUS
 62
     7
100
AcDbLine
 10
143.35671735815
 20
29.0654732056
 30
0.0
 11
143.35671735815
 21
22.4654732413
 31
0.0
  0
LINE
  5
28F
330
1F
100
AcDbEntity
  8
0
  6
CONTINUOUS
 62
     7
100
AcDbLine
 10
152.05671654905
 20
23.01547323829999
 30
0.0
 11
152.05671654905
 21
28.5154732085
 31
0.0
  0
LINE
  5
290
330
1F
100
AcDbEntity
  8
0
  6
CONTINUOUS
 62
     7
100
AcDbLine
 10
152.05671654905
 20
28.5154732085
 30
0.0
 11
144.55671718235
 21
28.5154732085
 31
0.0
  0
LINE
  5
291
330
1F
100
AcDbEntity
  8
0
  6
CONTINUOUS
 62
     7
100
AcDbLine
 10
144.55671718235
 20
28.5154732085
 30
0.0
 11
144.55671718235
 21
23.01547323829999
 31
0.0
  0
LINE
  5
292
330
1F
100
AcDbEntity
  8
0
  6
CONTINUOUS
 62
     7
100
AcDbLine
 10
144.55671718235
 20
23.01547323829999
 30
0.0
 11
152.05671654905
 21
23.01547323829999
 31
0.0
  0
LINE
  5
293
330
1F
100
AcDbEntity
  8
0
  6
CONTINUOUS
 62
     7
100
AcDbLine
 10
143.35671735815
 20
21.44547292509998
 30
0.0
 11
143.35671735815
 21
14.8454729609
 31
0.0
  0
LINE
  5
294
330
1F
100
AcDbEntity
  8
0
  6
CONTINUOUS
 62
     7
100
AcDbLine
 10
152.05671654905
 20
15.39547295789998
 30
0.0
 11
152.05671654905
 21
20.89547292809999
 31
0.0
  0
LINE
  5
295
330
1F
100
AcDbEntity
  8
0
  6
CONTINUOUS
 62
     7
100
AcDbLine
 10
152.05671654905
 20
20.89547292809999
 30
0.0
 11
144.55671718235
 21
20.89547292809999
 31
0.0
  0
LINE
  5
296
330
1F
100
AcDbEntity
  8
0
  6
CONTINUOUS
 62
     7
100
AcDbLine
 10
144.55671718235
 20
20.89547292809999
 30
0.0
 11
144.55671718235
 21
15.39547295789998
 31
0.0
  0
LINE
  5
297
330
1F
100
AcDbEntity
  8
0
  6
CONTINUOUS
 62
     7
100
AcDbLine
 10
144.55671718235
 20
15.39547295789998
 30
0.0
 11
152.05671654905
 21
15.39547295789998
 31
0.0
  0
LINE
  5
298
330
1F
100
AcDbEntity
  8
0
  6
CONTINUOUS
 62
     7
100
AcDbLine
 10
143.35671735815
 20
6.205473004499993
 30
0.0
 11
143.35671735815
 21
-0.3945271343000059
 31
0.0
  0
LINE
  5
299
330
1F
100
AcDbEntity
  8
0
  6
CONTINUOUS
 62
     7
100
AcDbLine
 10
152.05671654905
 20
0.1554728626999804
 30
0.0
 11
152.05671654905
 21
5.655472949299991
 31
0.0
  0
LINE
  5
29A
330
1F
100
AcDbEntity
  8
0
  6
CONTINUOUS
 62
     7
100
AcDbLine
 10
152.05671654905
 20
5.655472949299991
 30
0.0
 11
144.55671718235
 21
5.655472949299991
 31
0.0
  0
LINE
  5
29B
330
1F
100
AcDbEntity
  8
0
  6
CONTINUOUS
 62
     7
100
AcDbLine
 10
144.55671718235
 20
5.655472949299991
 30
0.0
 11
144.55671718235
 21
0.1554728626999804
 31
0.0
  0
LINE
  5
29C
330
1F
100
AcDbEntity
  8
0
  6
CONTINUOUS
 62
     7
100
AcDbLine
 10
144.55671718235
 20
0.1554728626999804
 30
0.0
 11
152.05671654905
 21
0.1554728626999804
 31
0.0
  0
LINE
  5
29D
330
1F
100
AcDbEntity
  8
0
  6
CONTINUOUS
 62
     7
100
AcDbLine
 10
143.35671735815
 20
-16.6545266144
 30
0.0
 11
143.35671735815
 21
-23.25452657870002
 31
0.0
  0
LINE
  5
29E
330
1F
100
AcDbEntity
  8
0
  6
CONTINUOUS
 62
     7
100
AcDbLine
 10
152.05671654905
 20
-22.70452658170001
 30
0.0
 11
152.05671654905
 21
-17.2045266115
 31
0.0
  0
LINE
  5
29F
330
1F
100
AcDbEntity
  8
0
  6
CONTINUOUS
 62
     7
100
AcDbLine
 10
152.05671654905
 20
-17.2045266115
 30
0.0
 11
144.55671718235
 21
-17.2045266115
 31
0.0
  0
LINE
  5
2A0
330
1F
100
AcDbEntity
  8
0
  6
CONTINUOUS
 62
     7
100
AcDbLine
 10
144.55671718235
 20
-17.2045266115
 30
0.0
 11
144.55671718235
 21
-22.70452658170001
 31
0.0
  0
LINE
  5
2A1
330
1F
100
AcDbEntity
  8
0
  6
CONTINUOUS
 62
     7
100
AcDbLine
 10
144.55671718235
 20
-22.70452658170001
 30
0.0
 11
152.05671654905
 21
-22.70452658170001
 31
0.0
  0
LINE
  5
2A2
330
1F
100
AcDbEntity
  8
0
  6
CONTINUOUS
 62
     7
100
AcDbLine
 10
143.35671735815
 20
13.82547311029998
 30
0.0
 11
143.35671735815
 21
7.225472971499983
 31
0.0
  0
LINE
  5
2A3
330
1F
100
AcDbEntity
  8
0
  6
CONTINUOUS
 62
     7
100
AcDbLine
 10
152.05671654905
 20
7.775473026699984
 30
0.0
 11
152.05671654905
 21
13.2754731133
 31
0.0
  0
LINE
  5
2A4
330
1F
100
AcDbEntity
  8
0
  6
CONTINUOUS
 62
     7
100
AcDbLine
 10
152.05671654905
 20
13.2754731133
 30
0.0
 11
144.55671718235
 21
13.2754731133
 31
0.0
  0
LINE
  5
2A5
330
1F
100
AcDbEntity
  8
0
  6
CONTINUOUS
 62
     7
100
AcDbLine
 10
144.55671718235
 20
13.2754731133
 30
0.0
 11
144.55671718235
 21
7.775473026699984
 31
0.0
  0
LINE
  5
2A6
330
1F
100
AcDbEntity
  8
0
  6
CONTINUOUS
 62
     7
100
AcDbLine
 10
144.55671718235
 20
7.775473026699984
 30
0.0
 11
152.05671654905
 21
7.775473026699984
 31
0.0
  0
LINE
  5
2A7
330
1F
100
AcDbEntity
  8
0
  6
CONTINUOUS
 62
     7
100
AcDbLine
 10
137.55671696625
 20
52.1154740966
 30
0.0
 11
151.35671773815
 21
52.1154740966
 31
0.0
  0
LINE
  5
2A8
330
1F
100
AcDbEntity
  8
0
  6
CONTINUOUS
 62
     7
100
AcDbLine
 10
137.55671696625
 20
-38.68452812060002
 30
0.0
 11
151.35671773815
 21
-38.68452812060002
 31
0.0
  0
LINE
  5
2A9
330
1F
100
AcDbEntity
  8
0
  6
CONTINUOUS
 62
     7
100
AcDbLine
 10
137.55671696625
 20
44.30547376639998
 30
0.0
 11
137.55671696625
 21
43.80547275319998
 31
0.0
  0
LINE
  5
2AA
330
1F
100
AcDbEntity
  8
0
  6
CONTINUOUS
 62
     7
100
AcDbLine
 10
137.55671696625
 20
-30.3745267772
 30
0.0
 11
137.55671696625
 21
-30.87452779040001
 31
0.0
  0
LINE
  5
2AB
330
1F
100
AcDbEntity
  8
0
  6
CONTINUOUS
 62
     7
100
AcDbLine
 10
145.85671683665
 20
23.01547323829999
 30
0.0
 11
145.85671683665
 21
28.5154732085
 31
0.0
  0
LINE
  5
2AC
330
1F
100
AcDbEntity
  8
0
  6
CONTINUOUS
 62
     7
100
AcDbLine
 10
145.85671683665
 20
-22.70452658170001
 30
0.0
 11
145.85671683665
 21
-17.2045266115
 31
0.0
  0
LINE
  5
2AD
330
1F
100
AcDbEntity
  8
0
  6
CONTINUOUS
 62
     7
100
AcDbLine
 10
145.85671683665
 20
7.775473026699984
 30
0.0
 11
145.85671683665
 21
13.2754731133
 31
0.0
  0
LINE
  5
2AE
330
1F
100
AcDbEntity
  8
0
  6
CONTINUOUS
 62
     7
100
AcDbLine
 10
145.85671683665
 20
-7.464526952100016
 30
0.0
 11
145.85671683665
 21
-1.964526981900008
 31
0.0
  0
LINE
  5
2AF
330
1F
100
AcDbEntity
  8
0
  6
CONTINUOUS
 62
     7
100
AcDbLine
 10
145.85671683665
 20
0.1554728626999804
 30
0.0
 11
145.85671683665
 21
5.655472949299991
 31
0.0
  0
LINE
  5
2B0
330
1F
100
AcDbEntity
  8
0
  6
CONTINUOUS
 62
     7
100
AcDbLine
 10
145.85671683665
 20
15.39547295789998
 30
0.0
 11
145.85671683665
 21
20.89547292809999
 31
0.0
  0
LINE
  5
2B1
330
1F
100
AcDbEntity
  8
0
  6
CONTINUOUS
 62
     7
100
AcDbLine
 10
145.85671683665
 20
38.2554719366
 30
0.0
 11
145.85671683665
 21
43.75547190679998
 31
0.0
  0
LINE
  5
2B2
330
1F
100
AcDbEntity
  8
0
  6
CONTINUOUS
 62
     7
100
AcDbLine
 10
145.85671683665
 20
30.6354725875
 30
0.0
 11
145.85671683665
 21
36.13547255769998
 31
0.0
  0
LINE
  5
2B3
330
1F
100
AcDbEntity
  8
0
  6
CONTINUOUS
 62
     7
100
AcDbLine
 10
145.85671683665
 20
-15.08452723250002
 30
0.0
 11
145.85671683665
 21
-9.584527262300014
 31
0.0
  0
LINE
  5
2B4
330
1F
100
AcDbEntity
  8
0
  6
CONTINUOUS
 62
     7
100
AcDbLine
 10
145.85671683665
 20
-30.32452593080001
 30
0.0
 11
145.85671683665
 21
-24.8245259606
 31
0.0
  0
LINE
  5
2B5
330
1F
100
AcDbEntity
  8
0
  6
CONTINUOUS
 62
     7
100
AcDbLine
 10
145.35671675465
 20
-17.2045266115
 30
0.0
 11
145.35671675465
 21
-22.70452658170001
 31
0.0
  0
LINE
  5
2B6
330
1F
100
AcDbEntity
  8
0
  6
CONTINUOUS
 62
     7
100
AcDbLine
 10
145.35671675465
 20
43.75547190679998
 30
0.0
 11
145.35671675465
 21
38.2554719366
 31
0.0
  0
LINE
  5
2B7
330
1F
100
AcDbEntity
  8
0
  6
CONTINUOUS
 62
     7
100
AcDbLine
 10
145.35671675465
 20
20.89547292809999
 30
0.0
 11
145.35671675465
 21
15.39547295789998
 31
0.0
  0
LINE
  5
2B8
330
1F
100
AcDbEntity
  8
0
  6
CONTINUOUS
 62
     7
100
AcDbLine
 10
145.35671675465
 20
-1.964526981900008
 30
0.0
 11
145.35671675465
 21
-7.464526952100016
 31
0.0
  0
LINE
  5
2B9
330
1F
100
AcDbEntity
  8
0
  6
CONTINUOUS
 62
     7
100
AcDbLine
 10
145.35671675465
 20
-9.584527262300014
 30
0.0
 11
145.35671675465
 21
-15.08452723250002
 31
0.0
  0
LINE
  5
2BA
330
1F
100
AcDbEntity
  8
0
  6
CONTINUOUS
 62
     7
100
AcDbLine
 10
145.35671675465
 20
28.5154732085
 30
0.0
 11
145.35671675465
 21
23.01547323829999
 31
0.0
  0
LINE
  5
2BB
330
1F
100
AcDbEntity
  8
0
  6
CONTINUOUS
 62
     7
100
AcDbLine
 10
145.35671675465
 20
5.655472949299991
 30
0.0
 11
145.35671675465
 21
0.1554728626999804
 31
0.0
  0
LINE
  5
2BC
330
1F
100
AcDbEntity
  8
0
  6
CONTINUOUS
 62
     7
100
AcDbLine
 10
145.35671675465
 20
13.2754731133
 30
0.0
 11
145.35671675465
 21
7.775473026699984
 31
0.0
  0
LINE
  5
2BD
330
1F
100
AcDbEntity
  8
0
  6
CONTINUOUS
 62
     7
100
AcDbLine
 10
145.35671675465
 20
-24.8245259606
 30
0.0
 11
145.35671675465
 21
-30.32452593080001
 31
0.0
  0
LINE
  5
2BE
330
1F
100
AcDbEntity
  8
0
  6
CONTINUOUS
 62
     7
100
AcDbLine
 10
145.35671675465
 20
36.13547255769998
 30
0.0
 11
145.35671675465
 21
30.6354725875
 31
0.0
  0
LINE
  5
2BF
330
1F
100
AcDbEntity
  8
0
  6
CONTINUOUS
 62
     7
100
AcDbLine
 10
137.55671696625
 20
-30.3745267772
 30
0.0
 11
137.55671696625
 21
43.80547275319998
 31
0.0
  0
LINE
  5
2C0
330
1F
100
AcDbEntity
  8
0
  6
CONTINUOUS
 62
     7
100
AcDbLine
 10
145.35671675465
 20
43.0554712332
 30
0.0
 11
144.55671718235
 21
43.0554712332
 31
0.0
  0
LINE
  5
2C1
330
1F
100
AcDbEntity
  8
0
  6
CONTINUOUS
 62
     7
100
AcDbLine
 10
145.35671675465
 20
-29.62452525720002
 30
0.0
 11
144.55671718235
 21
-29.62452525720002
 31
0.0
  0
LINE
  5
2C2
330
1F
100
AcDbEntity
  8
0
  6
CONTINUOUS
 62
     7
100
AcDbLine
 10
145.35671675465
 20
1.455472982599986
 30
0.0
 11
144.55671718235
 21
1.455472982599986
 31
0.0
  0
LINE
  5
2C3
330
1F
100
AcDbEntity
  8
0
  6
CONTINUOUS
 62
     7
100
AcDbLine
 10
145.35671675465
 20
-10.88452691660001
 30
0.0
 11
144.55671718235
 21
-10.88452691660001
 31
0.0
  0
LINE
  5
2C4
330
1F
100
AcDbEntity
  8
0
  6
CONTINUOUS
 62
     7
100
AcDbLine
 10
145.35671675465
 20
-18.5045262658
 30
0.0
 11
144.55671718235
 21
-18.5045262658
 31
0.0
  0
LINE
  5
2C5
330
1F
100
AcDbEntity
  8
0
  6
CONTINUOUS
 62
     7
100
AcDbLine
 10
145.35671675465
 20
9.075473030199987
 30
0.0
 11
144.55671718235
 21
9.075473030199987
 31
0.0
  0
LINE
  5
2C6
330
1F
100
AcDbEntity
  8
0
  6
CONTINUOUS
 62
     7
100
AcDbLine
 10
145.35671675465
 20
11.97547299339999
 30
0.0
 11
144.55671718235
 21
11.97547299339999
 31
0.0
  0
LINE
  5
2C7
330
1F
100
AcDbEntity
  8
0
  6
CONTINUOUS
 62
     7
100
AcDbLine
 10
145.35671675465
 20
-3.264526636200003
 30
0.0
 11
144.55671718235
 21
-3.264526636200003
 31
0.0
  0
LINE
  5
2C8
330
1F
100
AcDbEntity
  8
0
  6
CONTINUOUS
 62
     7
100
AcDbLine
 10
145.35671675465
 20
31.93547224169998
 30
0.0
 11
144.55671718235
 21
31.93547224169998
 31
0.0
  0
LINE
  5
2C9
330
1F
100
AcDbEntity
  8
0
  6
CONTINUOUS
 62
     7
100
AcDbLine
 10
145.35671675465
 20
-13.7845275782
 30
0.0
 11
144.55671718235
 21
-13.7845275782
 31
0.0
  0
LINE
  5
2CA
330
1F
100
AcDbEntity
  8
0
  6
CONTINUOUS
 62
     7
100
AcDbLine
 10
145.35671675465
 20
34.83547290339999
 30
0.0
 11
144.55671718235
 21
34.83547290339999
 31
0.0
  0
LINE
  5
2CB
330
1F
100
AcDbEntity
  8
0
  6
CONTINUOUS
 62
     7
100
AcDbLine
 10
145.35671675465
 20
-6.164527297800021
 30
0.0
 11
144.55671718235
 21
-6.164527297800021
 31
0.0
  0
LINE
  5
2CC
330
1F
100
AcDbEntity
  8
0
  6
CONTINUOUS
 62
     7
100
AcDbLine
 10
145.35671675465
 20
16.69547261219998
 30
0.0
 11
144.55671718235
 21
16.69547261219998
 31
0.0
  0
LINE
  5
2CD
330
1F
100
AcDbEntity
  8
0
  6
CONTINUOUS
 62
     7
100
AcDbLine
 10
145.35671675465
 20
-21.40452692740001
 30
0.0
 11
144.55671718235
 21
-21.40452692740001
 31
0.0
  0
LINE
  5
2CE
330
1F
100
AcDbEntity
  8
0
  6
CONTINUOUS
 62
     7
100
AcDbLine
 10
145.35671675465
 20
24.31547289259998
 30
0.0
 11
144.55671718235
 21
24.31547289259998
 31
0.0
  0
LINE
  5
2CF
330
1F
100
AcDbEntity
  8
0
  6
CONTINUOUS
 62
     7
100
AcDbLine
 10
145.35671675465
 20
19.5954732738
 30
0.0
 11
144.55671718235
 21
19.5954732738
 31
0.0
  0
LINE
  5
2D0
330
1F
100
AcDbEntity
  8
0
  6
CONTINUOUS
 62
     7
100
AcDbLine
 10
145.35671675465
 20
4.355472945799988
 30
0.0
 11
144.55671718235
 21
4.355472945799988
 31
0.0
  0
LINE
  5
2D1
330
1F
100
AcDbEntity
  8
0
  6
CONTINUOUS
 62
     7
100
AcDbLine
 10
145.35671675465
 20
27.2154735542
 30
0.0
 11
144.55671718235
 21
27.2154735542
 31
0.0
  0
LINE
  5
2D2
330
1F
100
AcDbEntity
  8
0
  6
CONTINUOUS
 62
     7
100
AcDbLine
 10
145.35671675465
 20
-26.12452561490002
 30
0.0
 11
144.55671718235
 21
-26.12452561490002
 31
0.0
  0
LINE
  5
2D3
330
1F
100
AcDbEntity
  8
0
  6
CONTINUOUS
 62
     7
100
AcDbLine
 10
145.35671675465
 20
39.5554715909
 30
0.0
 11
144.55671718235
 21
39.5554715909
 31
0.0
  0
LINE
  5
2D4
330
1F
100
AcDbEntity
  8
0
  6
CONTINUOUS
 62
     7
100
AcDbLine
 10
145.35671675465
 20
-29.02452627650001
 30
0.0
 11
144.55671718235
 21
-29.02452627650001
 31
0.0
  0
LINE
  5
2D5
330
1F
100
AcDbEntity
  8
0
  6
CONTINUOUS
 62
     7
100
AcDbLine
 10
145.35671675465
 20
42.45547225249999
 30
0.0
 11
144.55671718235
 21
42.45547225249999
 31
0.0
  0
LINE
  5
2D6
330
1F
100
AcDbEntity
  8
0
  6
CONTINUOUS
 62
     7
100
AcDbLine
 10
120.75671756525
 20
-26.6245266281
 30
0.0
 11
121.55671713765
 21
-26.6245266281
 31
0.0
  0
LINE
  5
2D7
330
1F
100
AcDbEntity
  8
0
  6
CONTINUOUS
 62
     7
100
AcDbLine
 10
121.55671713765
 20
-13.28452656500002
 30
0.0
 11
120.75671756525
 21
-13.28452656500002
 31
0.0
  0
LINE
  5
2D8
330
1F
100
AcDbEntity
  8
0
  6
CONTINUOUS
 62
     7
100
AcDbLine
 10
120.75671756525
 20
-19.004527279
 30
0.0
 11
121.55671713765
 21
-19.004527279
 31
0.0
  0
LINE
  5
2D9
330
1F
100
AcDbEntity
  8
0
  6
CONTINUOUS
 62
     7
100
AcDbLine
 10
120.75671756525
 20
11.4754729114
 30
0.0
 11
121.55671713765
 21
11.4754729114
 31
0.0
  0
LINE
  5
2DA
330
1F
100
AcDbEntity
  8
0
  6
CONTINUOUS
 62
     7
100
AcDbLine
 10
121.55671713765
 20
1.9554730646
 30
0.0
 11
120.75671756525
 21
1.9554730646
 31
0.0
  0
LINE
  5
2DB
330
1F
100
AcDbEntity
  8
0
  6
CONTINUOUS
 62
     7
100
AcDbLine
 10
121.55671713765
 20
-20.90452777670001
 30
0.0
 11
120.75671756525
 21
-20.90452777670001
 31
0.0
  0
LINE
  5
2DC
330
1F
100
AcDbEntity
  8
0
  6
CONTINUOUS
 62
     7
100
AcDbLine
 10
121.55671713765
 20
9.575473112200001
 30
0.0
 11
120.75671756525
 21
9.575473112200001
 31
0.0
  0
LINE
  5
2DD
330
1F
100
AcDbEntity
  8
0
  6
CONTINUOUS
 62
     7
100
AcDbLine
 10
121.55671713765
 20
24.81547390589998
 30
0.0
 11
120.75671756525
 21
24.81547390589998
 31
0.0
  0
LINE
  5
2DE
330
1F
100
AcDbEntity
  8
0
  6
CONTINUOUS
 62
     7
100
AcDbLine
 10
120.75671756525
 20
19.09547319179998
 30
0.0
 11
121.55671713765
 21
19.09547319179998
 31
0.0
  0
LINE
  5
2DF
330
1F
100
AcDbEntity
  8
0
  6
CONTINUOUS
 62
     7
100
AcDbLine
 10
120.75671756525
 20
34.33547375269998
 30
0.0
 11
121.55671713765
 21
34.33547375269998
 31
0.0
  0
LINE
  5
2E0
330
1F
100
AcDbEntity
  8
0
  6
CONTINUOUS
 62
     7
100
AcDbLine
 10
120.75671756525
 20
3.855472863800003
 30
0.0
 11
121.55671713765
 21
3.855472863800003
 31
0.0
  0
LINE
  5
2E1
330
1F
100
AcDbEntity
  8
0
  6
CONTINUOUS
 62
     7
100
AcDbLine
 10
121.55671713765
 20
17.19547269409998
 30
0.0
 11
120.75671756525
 21
17.19547269409998
 31
0.0
  0
LINE
  5
2E2
330
1F
100
AcDbEntity
  8
0
  6
CONTINUOUS
 62
     7
100
AcDbLine
 10
121.55671713765
 20
40.0554726041
 30
0.0
 11
120.75671756525
 21
40.0554726041
 31
0.0
  0
LINE
  5
2E3
330
1F
100
AcDbEntity
  8
0
  6
CONTINUOUS
 62
     7
100
AcDbLine
 10
120.75671756525
 20
26.715472541
 30
0.0
 11
121.55671713765
 21
26.715472541
 31
0.0
  0
LINE
  5
2E4
330
1F
100
AcDbEntity
  8
0
  6
CONTINUOUS
 62
     7
100
AcDbLine
 10
120.75671756525
 20
-11.3845279299
 30
0.0
 11
121.55671713765
 21
-11.3845279299
 31
0.0
  0
LINE
  5
2E5
330
1F
100
AcDbEntity
  8
0
  6
CONTINUOUS
 62
     7
100
AcDbLine
 10
121.55671713765
 20
32.43547325499998
 30
0.0
 11
120.75671756525
 21
32.43547325499998
 31
0.0
  0
LINE
  5
2E6
330
1F
100
AcDbEntity
  8
0
  6
CONTINUOUS
 62
     7
100
AcDbLine
 10
121.55671713765
 20
-5.664527215800007
 30
0.0
 11
120.75671756525
 21
-5.664527215800007
 31
0.0
  0
LINE
  5
2E7
330
1F
100
AcDbEntity
  8
0
  6
CONTINUOUS
 62
     7
100
AcDbLine
 10
120.75671756525
 20
-3.764526718200017
 30
0.0
 11
121.55671713765
 21
-3.764526718200017
 31
0.0
  0
LINE
  5
2E8
330
1F
100
AcDbEntity
  8
0
  6
CONTINUOUS
 62
     7
100
AcDbLine
 10
120.75671756525
 20
41.95547123919999
 30
0.0
 11
121.55671713765
 21
41.95547123919999
 31
0.0
  0
LINE
  5
2E9
330
1F
100
AcDbEntity
  8
0
  6
CONTINUOUS
 62
     7
100
AcDbLine
 10
121.55671713765
 20
-28.52452526320002
 30
0.0
 11
120.75671756525
 21
-28.52452526320002
 31
0.0
  0
LINE
  5
2EA
330
1F
100
AcDbEntity
  8
0
  6
CONTINUOUS
 62
     7
100
AcDbLine
 10
144.55671718235
 20
11.4754729114
 30
0.0
 11
145.35671675465
 21
11.4754729114
 31
0.0
  0
LINE
  5
2EB
330
1F
100
AcDbEntity
  8
0
  6
CONTINUOUS
 62
     7
100
AcDbLine
 10
144.55671718235
 20
26.715472541
 30
0.0
 11
145.35671675465
 21
26.715472541
 31
0.0
  0
LINE
  5
2EC
330
1F
100
AcDbEntity
  8
0
  6
CONTINUOUS
 62
     7
100
AcDbLine
 10
145.35671675465
 20
-13.28452656500002
 30
0.0
 11
144.55671718235
 21
-13.28452656500002
 31
0.0
  0
LINE
  5
2ED
330
1F
100
AcDbEntity
  8
0
  6
CONTINUOUS
 62
     7
100
AcDbLine
 10
145.35671675465
 20
-20.90452777670001
 30
0.0
 11
144.55671718235
 21
-20.90452777670001
 31
0.0
  0
LINE
  5
2EE
330
1F
100
AcDbEntity
  8
0
  6
CONTINUOUS
 62
     7
100
AcDbLine
 10
145.35671675465
 20
24.81547390589998
 30
0.0
 11
144.55671718235
 21
24.81547390589998
 31
0.0
  0
LINE
  5
2EF
330
1F
100
AcDbEntity
  8
0
  6
CONTINUOUS
 62
     7
100
AcDbLine
 10
145.35671675465
 20
-5.664527215800007
 30
0.0
 11
144.55671718235
 21
-5.664527215800007
 31
0.0
  0
LINE
  5
2F0
330
1F
100
AcDbEntity
  8
0
  6
CONTINUOUS
 62
     7
100
AcDbLine
 10
145.35671675465
 20
17.19547269409998
 30
0.0
 11
144.55671718235
 21
17.19547269409998
 31
0.0
  0
LINE
  5
2F1
330
1F
100
AcDbEntity
  8
0
  6
CONTINUOUS
 62
     7
100
AcDbLine
 10
144.55671718235
 20
19.09547319179998
 30
0.0
 11
145.35671675465
 21
19.09547319179998
 31
0.0
  0
LINE
  5
2F2
330
1F
100
AcDbEntity
  8
0
  6
CONTINUOUS
 62
     7
100
AcDbLine
 10
144.55671718235
 20
-19.004527279
 30
0.0
 11
145.35671675465
 21
-19.004527279
 31
0.0
  0
LINE
  5
2F3
330
1F
100
AcDbEntity
  8
0
  6
CONTINUOUS
 62
     7
100
AcDbLine
 10
145.35671675465
 20
32.43547325499998
 30
0.0
 11
144.55671718235
 21
32.43547325499998
 31
0.0
  0
LINE
  5
2F4
330
1F
100
AcDbEntity
  8
0
  6
CONTINUOUS
 62
     7
100
AcDbLine
 10
144.55671718235
 20
-11.3845279299
 30
0.0
 11
145.35671675465
 21
-11.3845279299
 31
0.0
  0
LINE
  5
2F5
330
1F
100
AcDbEntity
  8
0
  6
CONTINUOUS
 62
     7
100
AcDbLine
 10
144.55671718235
 20
-3.764526718200017
 30
0.0
 11
145.35671675465
 21
-3.764526718200017
 31
0.0
  0
LINE
  5
2F6
330
1F
100
AcDbEntity
  8
0
  6
CONTINUOUS
 62
     7
100
AcDbLine
 10
145.35671675465
 20
9.575473112200001
 30
0.0
 11
144.55671718235
 21
9.575473112200001
 31
0.0
  0
LINE
  5
2F7
330
1F
100
AcDbEntity
  8
0
  6
CONTINUOUS
 62
     7
100
AcDbLine
 10
144.55671718235
 20
-26.6245266281
 30
0.0
 11
145.35671675465
 21
-26.6245266281
 31
0.0
  0
LINE
  5
2F8
330
1F
100
AcDbEntity
  8
0
  6
CONTINUOUS
 62
     7
100
AcDbLine
 10
145.35671675465
 20
1.9554730646
 30
0.0
 11
144.55671718235
 21
1.9554730646
 31
0.0
  0
LINE
  5
2F9
330
1F
100
AcDbEntity
  8
0
  6
CONTINUOUS
 62
     7
100
AcDbLine
 10
145.35671675465
 20
40.0554726041
 30
0.0
 11
144.55671718235
 21
40.0554726041
 31
0.0
  0
LINE
  5
2FA
330
1F
100
AcDbEntity
  8
0
  6
CONTINUOUS
 62
     7
100
AcDbLine
 10
144.55671718235
 20
34.33547375269998
 30
0.0
 11
145.35671675465
 21
34.33547375269998
 31
0.0
  0
LINE
  5
2FB
330
1F
100
AcDbEntity
  8
0
  6
CONTINUOUS
 62
     7
100
AcDbLine
 10
144.55671718235
 20
3.855472863800003
 30
0.0
 11
145.35671675465
 21
3.855472863800003
 31
0.0
  0
LINE
  5
2FC
330
1F
100
AcDbEntity
  8
0
  6
CONTINUOUS
 62
     7
100
AcDbLine
 10
144.55671718235
 20
41.95547123919999
 30
0.0
 11
145.35671675465
 21
41.95547123919999
 31
0.0
  0
LINE
  5
2FD
330
1F
100
AcDbEntity
  8
0
  6
CONTINUOUS
 62
     7
100
AcDbLine
 10
145.35671675465
 20
-28.52452526320002
 30
0.0
 11
144.55671718235
 21
-28.52452526320002
 31
0.0
  0
CIRCLE
  5
2FE
330
1F
100
AcDbEntity
  8
0
  6
CONTINUOUS
 62
     7
100
AcDbCircle
 10
121.55671715995
 20
48.855472988
 30
0.0
 40
2.750000000000057
  0
CIRCLE
  5
2FF
330
1F
100
AcDbEntity
  8
0
  6
CONTINUOUS
 62
     7
100
AcDbCircle
 10
121.55671715995
 20
-35.424527012
 30
0.0
 40
2.749999999907061
  0
CIRCLE
  5
300
330
1F
100
AcDbEntity
  8
0
  6
CONTINUOUS
 62
     7
100
AcDbCircle
 10
117.80671715995
 20
33.385472988
 30
0.0
 40
1.749999999999943
  0
CIRCLE
  5
301
330
1F
100
AcDbEntity
  8
0
  6
CONTINUOUS
 62
     7
100
AcDbCircle
 10
117.80671715995
 20
25.765472988
 30
0.0
 40
1.749999999999943
  0
CIRCLE
  5
302
330
1F
100
AcDbEntity
  8
0
  6
CONTINUOUS
 62
     7
100
AcDbCircle
 10
117.80671715995
 20
-27.574527012
 30
0.0
 40
1.749999999999943
  0
CIRCLE
  5
303
330
1F
100
AcDbEntity
  8
0
  6
CONTINUOUS
 62
     7
100
AcDbCircle
 10
117.80671715995
 20
18.14547298799999
 30
0.0
 40
1.75
  0
CIRCLE
  5
304
330
1F
100
AcDbEntity
  8
0
  6
CONTINUOUS
 62
     7
100
AcDbCircle
 10
117.80671715995
 20
-12.33452701200002
 30
0.0
 40
1.749999999999943
  0
CIRCLE
  5
305
330
1F
100
AcDbEntity
  8
0
  6
CONTINUOUS
 62
     7
100
AcDbCircle
 10
117.80671715995
 20
2.905472987999985
 30
0.0
 40
1.749999999999943
  0
CIRCLE
  5
306
330
1F
100
AcDbEntity
  8
0
  6
CONTINUOUS
 62
     7
100
AcDbCircle
 10
117.80671715995
 20
-4.714527012000019
 30
0.0
 40
1.749999999999943
  0
CIRCLE
  5
307
330
1F
100
AcDbEntity
  8
0
  6
CONTINUOUS
 62
     7
100
AcDbCircle
 10
117.80671715995
 20
-19.954527012
 30
0.0
 40
1.75
  0
CIRCLE
  5
308
330
1F
100
AcDbEntity
  8
0
  6
CONTINUOUS
 62
     7
100
AcDbCircle
 10
117.80671715995
 20
10.52547298799999
 30
0.0
 40
1.749999999999943
  0
CIRCLE
  5
309
330
1F
100
AcDbEntity
  8
0
  6
CONTINUOUS
 62
     7
100
AcDbCircle
 10
117.80671715995
 20
41.00547298799998
 30
0.0
 40
1.749999999999943
  0
CIRCLE
  5
30A
330
1F
100
AcDbEntity
  8
0
  6
CONTINUOUS
 62
     7
100
AcDbCircle
 10
144.55671715995
 20
-35.424527012
 30
0.0
 40
2.749999999999943
  0
CIRCLE
  5
30B
330
1F
100
AcDbEntity
  8
0
  6
CONTINUOUS
 62
     7
100
AcDbCircle
 10
144.55671715995
 20
48.855472988
 30
0.0
 40
2.749999999907004
  0
CIRCLE
  5
30C
330
1F
100
AcDbEntity
  8
0
  6
CONTINUOUS
 62
     7
100
AcDbCircle
 10
148.30671715995
 20
25.765472988
 30
0.0
 40
1.750000000000057
  0
CIRCLE
  5
30D
330
1F
100
AcDbEntity
  8
0
  6
CONTINUOUS
 62
     7
100
AcDbCircle
 10
148.30671715995
 20
-19.954527012
 30
0.0
 40
1.750000000000057
  0
CIRCLE
  5
30E
330
1F
100
AcDbEntity
  8
0
  6
CONTINUOUS
 62
     7
100
AcDbCircle
 10
148.30671715995
 20
10.52547298799999
 30
0.0
 40
1.750000000000057
  0
CIRCLE
  5
30F
330
1F
100
AcDbEntity
  8
0
  6
CONTINUOUS
 62
     7
100
AcDbCircle
 10
148.30671715995
 20
-4.714527012000019
 30
0.0
 40
1.750000000000057
  0
CIRCLE
  5
310
330
1F
100
AcDbEntity
  8
0
  6
CONTINUOUS
 62
     7
100
AcDbCircle
 10
148.30671715995
 20
2.905472987999985
 30
0.0
 40
1.750000000000057
  0
CIRCLE
  5
311
330
1F
100
AcDbEntity
  8
0
  6
CONTINUOUS
 62
     7
100
AcDbCircle
 10
148.30671715995
 20
18.14547298799999
 30
0.0
 40
1.750000000000057
  0
CIRCLE
  5
312
330
1F
100
AcDbEntity
  8
0
  6
CONTINUOUS
 62
     7
100
AcDbCircle
 10
148.30671715995
 20
41.00547298799998
 30
0.0
 40
1.750000000000057
  0
CIRCLE
  5
313
330
1F
100
AcDbEntity
  8
0
  6
CONTINUOUS
 62
     7
100
AcDbCircle
 10
148.30671715995
 20
33.385472988
 30
0.0
 40
1.750000000000057
  0
CIRCLE
  5
314
330
1F
100
AcDbEntity
  8
0
  6
CONTINUOUS
 62
     7
100
AcDbCircle
 10
148.30671715995
 20
-12.33452701200002
 30
0.0
 40
1.750000000000057
  0
CIRCLE
  5
315
330
1F
100
AcDbEntity
  8
0
  6
CONTINUOUS
 62
     7
100
AcDbCircle
 10
148.30671715995
 20
-27.574527012
 30
0.0
 40
1.750000000000057
  0
LINE
  5
316
330
1F
100
AcDbEntity
  8
0
  6
CONTINUOUS
 62
     7
100
AcDbLine
 10
-114.17160208155
 20
-39.28452701200001
 30
0.0
 11
-114.17160208155
 21
52.71547298799999
 31
0.0
  0
LINE
  5
317
330
1F
100
AcDbEntity
  8
0
  6
CONTINUOUS
 62
     7
100
AcDbLine
 10
-162.17160222615
 20
52.71547298799999
 30
0.0
 11
-162.17160222615
 21
-39.28452701200001
 31
0.0
  0
LINE
  5
318
330
1F
100
AcDbEntity
  8
0
  6
CONTINUOUS
 62
     7
100
AcDbLine
 10
-116.17160208155
 20
54.71547298799999
 30
0.0
 11
-160.17160222615
 21
54.71547298799999
 31
0.0
  0
LINE
  5
319
330
1F
100
AcDbEntity
  8
0
  6
CONTINUOUS
 62
     7
100
AcDbLine
 10
-160.17160222615
 20
-41.28452701200001
 30
0.0
 11
-116.17160208155
 21
-41.28452701200001
 31
0.0
  0
ARC
  5
31A
330
1F
100
AcDbEntity
  8
0
  6
CONTINUOUS
 62
     7
100
AcDbCircle
 10
-160.17160222615
 20
-39.28452701200001
 30
0.0
 40
2.0
100
AcDbArc
 50
180.0
 51
270.0
  0
ARC
  5
31B
330
1F
100
AcDbEntity
  8
0
  6
CONTINUOUS
 62
     7
100
AcDbCircle
 10
-116.17160208155
 20
-39.28452701200001
 30
0.0
 40
2.0
100
AcDbArc
 50
270.0
 51
0.0
  0
ARC
  5
31C
330
1F
100
AcDbEntity
  8
0
  6
CONTINUOUS
 62
     7
100
AcDbCircle
 10
-116.17160208155
 20
52.71547298799999
 30
0.0
 40
2.0
100
AcDbArc
 50
0.0
 51
90.0
  0
ARC
  5
31D
330
1F
100
AcDbEntity
  8
0
  6
CONTINUOUS
 62
     7
100
AcDbCircle
 10
-160.17160222615
 20
52.71547298799999
 30
0.0
 40
2.0
100
AcDbArc
 50
90.0
 51
180.0
  0
LINE
  5
31E
330
1F
100
AcDbEntity
  8
0
  6
CONTINUOUS
 62
     7
100
AcDbLine
 10
3.785544973650019
 20
58.21547298799999
 30
0.0
 11
-37.41445581905
 21
58.21547298799999
 31
0.0
  0
LINE
  5
31F
330
1F
100
AcDbEntity
  8
0
  6
CONTINUOUS
 62
     7
100
AcDbLine
 10
3.785544973650019
 20
-44.78452701200001
 30
0.0
 11
-37.41445581905
 21
-44.78452701200001
 31
0.0
  0
LINE
  5
320
330
1F
100
AcDbEntity
  8
0
  6
CONTINUOUS
 62
     7
100
AcDbLine
 10
-42.41445617295
 20
54.71547298799999
 30
0.0
 11
-50.41445604924999
 21
54.71547298799999
 31
0.0
  0
LINE
  5
321
330
1F
100
AcDbEntity
  8
0
  6
CONTINUOUS
 62
     7
100
AcDbLine
 10
-50.41445604924999
 20
-41.28452701200001
 30
0.0
 11
-50.41445604924999
 21
54.71547298799999
 31
0.0
  0
LINE
  5
322
330
1F
100
AcDbEntity
  8
0
  6
CONTINUOUS
 62
     7
100
AcDbLine
 10
-42.41445617295
 20
-41.28452701200001
 30
0.0
 11
-50.41445604924999
 21
-41.28452701200001
 31
0.0
  0
LINE
  5
323
330
1F
100
AcDbEntity
  8
0
  6
CONTINUOUS
 62
     7
100
AcDbLine
 10
109.05671715995
 20
52.71547298799999
 30
0.0
 11
109.05671715995
 21
-39.28452701200001
 31
0.0
  0
LINE
  5
324
330
1F
100
AcDbEntity
  8
0
  6
CONTINUOUS
 62
     7
100
AcDbLine
 10
157.05671715995
 20
52.71547298799999
 30
0.0
 11
157.05671715995
 21
-39.28452701200001
 31
0.0
  0
LINE
  5
325
330
1F
100
AcDbEntity
  8
0
  6
CONTINUOUS
 62
     7
100
AcDbLine
 10
110.55671715995
 20
52.21547298799999
 30
0.0
 11
110.55671715995
 21
-38.78452701200001
 31
0.0
  0
LINE
  5
326
330
1F
100
AcDbEntity
  8
0
  6
CONTINUOUS
 62
     7
100
AcDbLine
 10
155.55671715995
 20
52.21547298799999
 30
0.0
 11
155.55671715995
 21
-38.78452701200001
 31
0.0
  0
LINE
  5
327
330
1F
100
AcDbEntity
  8
0
  6
CONTINUOUS
 62
     7
100
AcDbLine
 10
111.05671715995
 20
-41.28452701200001
 30
0.0
 11
155.05671715995
 21
-41.28452701200001
 31
0.0
  0
LINE
  5
328
330
1F
100
AcDbEntity
  8
0
  6
CONTINUOUS
 62
     7
100
AcDbLine
 10
111.05671715995
 20
54.71547298799999
 30
0.0
 11
155.05671715995
 21
54.71547298799999
 31
0.0
  0
LINE
  5
329
330
1F
100
AcDbEntity
  8
0
  6
CONTINUOUS
 62
     7
100
AcDbLine
 10
111.05671715995
 20
-39.28452701200001
 30
0.0
 11
155.05671715995
 21
-39.28452701200001
 31
0.0
  0
LINE
  5
32A
330
1F
100
AcDbEntity
  8
0
  6
CONTINUOUS
 62
     7
100
AcDbLine
 10
111.05671715995
 20
52.71547298799999
 30
0.0
 11
155.05671715995
 21
52.71547298799999
 31
0.0
  0
ARC
  5
32B
330
1F
100
AcDbEntity
  8
0
  6
CONTINUOUS
 62
     7
100
AcDbCircle
 10
155.05671715995
 20
-39.28452701200001
 30
0.0
 40
2.0
100
AcDbArc
 50
270.0
 51
0.0
  0
ARC
  5
32C
330
1F
100
AcDbEntity
  8
0
  6
CONTINUOUS
 62
     7
100
AcDbCircle
 10
111.05671715995
 20
-39.28452701200001
 30
0.0
 40
2.0
100
AcDbArc
 50
180.0
 51
270.0
  0
ARC
  5
32D
330
1F
100
AcDbEntity
  8
0
  6
CONTINUOUS
 62
     7
100
AcDbCircle
 10
111.05671715995
 20
52.71547298799999
 30
0.0
 40
2.0
100
AcDbArc
 50
90.0
 51
180.0
  0
ARC
  5
32E
330
1F
100
AcDbEntity
  8
0
  6
CONTINUOUS
 62
     7
100
AcDbCircle
 10
155.05671715995
 20
52.71547298799999
 30
0.0
 40
2.0
100
AcDbArc
 50
0.0
 51
90.0
  0
ARC
  5
32F
330
1F
100
AcDbEntity
  8
0
  6
CONTINUOUS
 62
     7
100
AcDbCircle
 10
111.05671715995
 20
52.21547298799999
 30
0.0
 40
0.5
100
AcDbArc
 50
90.0
 51
180.0
  0
ARC
  5
330
330
1F
100
AcDbEntity
  8
0
  6
CONTINUOUS
 62
     7
100
AcDbCircle
 10
155.05671715995
 20
52.21547298799999
 30
0.0
 40
0.5
100
AcDbArc
 50
0.0
 51
90.0
  0
ARC
  5
331
330
1F
100
AcDbEntity
  8
0
  6
CONTINUOUS
 62
     7
100
AcDbCircle
 10
155.05671715995
 20
-38.78452701200001
 30
0.0
 40
0.5
100
AcDbArc
 50
270.0
 51
0.0
  0
ARC
  5
332
330
1F
100
AcDbEntity
  8
0
  6
CONTINUOUS
 62
     7
100
AcDbCircle
 10
111.05671715995
 20
-38.78452701200001
 30
0.0
 40
0.5
100
AcDbArc
 50
180.0
 51
270.0
  0
LINE
  5
333
330
1F
100
AcDbEntity
  8
0
  6
DIVIDE
 62
     7
100
AcDbLine
 10
-130.07160201605
 20
-10.88452691660001
 30
0.0
 11
-122.27160129625
 21
-10.88452691660001
 31
0.0
  0
LINE
  5
334
330
1F
100
AcDbEntity
  8
0
  6
DIVIDE
 62
     7
100
AcDbLine
 10
-122.27160222615
 20
-6.884527012000007
 30
0.0
 11
-130.07160201605
 21
-6.884527192299998
 31
0.0
  0
LINE
  5
335
330
1F
100
AcDbEntity
  8
0
  6
DIVIDE
 62
     7
100
AcDbLine
 10
-120.27160309035
 20
39.9154727287
 30
0.0
 11
-156.07160188045
 21
39.9154727287
 31
0.0
  0
LINE
  5
336
330
1F
100
AcDbEntity
  8
0
  6
DIVIDE
 62
     7
100
AcDbLine
 10
-158.07160222615
 20
37.91547298799998
 30
0.0
 11
-158.07160222615
 21
2.915472923899983
 31
0.0
  0
LINE
  5
337
330
1F
100
AcDbEntity
  8
0
  6
DIVIDE
 62
     7
100
AcDbLine
 10
-156.07160236465
 20
0.9154731265999771
 30
0.0
 11
-120.27160296965
 21
0.9154731265999771
 31
0.0
  0
LINE
  5
338
330
1F
100
AcDbEntity
  8
0
  6
DIVIDE
 62
     7
100
AcDbLine
 10
-146.27160222615
 20
-6.884527012000007
 30
0.0
 11
-154.07160315595
 21
-6.884527192299998
 31
0.0
  0
LINE
  5
339
330
1F
100
AcDbEntity
  8
0
  6
DIVIDE
 62
     7
100
AcDbLine
 10
-154.07160222615
 20
-10.88452701200001
 30
0.0
 11
-146.27160222615
 21
-10.88452701200001
 31
0.0
  0
LINE
  5
33A
330
1F
100
AcDbEntity
  8
0
  6
DIVIDE
 62
     7
100
AcDbLine
 10
-118.27160254015
 20
2.915472886999993
 30
0.0
 11
-118.27160254015
 21
37.91547295109999
 31
0.0
  0
CIRCLE
  5
33B
330
1F
100
AcDbEntity
  8
0
  6
DIVIDE
 62
     7
100
AcDbCircle
 10
-125.17160222615
 20
-31.28452701200001
 30
0.0
 40
4.199999999999989
  0
ARC
  5
33C
330
1F
100
AcDbEntity
  8
0
  6
DIVIDE
 62
     7
100
AcDbCircle
 10
-146.27160222615
 20
-8.884527012000007
 30
0.0
 40
2.0
100
AcDbArc
 50
270.0
 51
90.0
  0
ARC
  5
33D
330
1F
100
AcDbEntity
  8
0
  6
DIVIDE
 62
     7
100
AcDbCircle
 10
-122.27160176115
 20
-8.884526964300022
 30
0.0
 40
1.999999952316355
100
AcDbArc
 50
270.0000133188996
 51
90.00001331889965
  0
ARC
  5
33E
330
1F
100
AcDbEntity
  8
0
  6
DIVIDE
 62
     7
100
AcDbCircle
 10
-130.07160222615
 20
-8.884527054500012
 30
0.0
 40
1.99999986216427
100
AcDbArc
 50
89.99999398090011
 51
270.0000060190999
  0
ARC
  5
33F
330
1F
100
AcDbEntity
  8
0
  6
DIVIDE
 62
     7
100
AcDbCircle
 10
-156.07160248535
 20
37.91547298799998
 30
0.0
 40
1.999999740719844
100
AcDbArc
 50
89.99998266839991
 51
180.0
  0
ARC
  5
340
330
1F
100
AcDbEntity
  8
0
  6
DIVIDE
 62
     7
100
AcDbCircle
 10
-156.07160236465
 20
2.915472987999976
 30
0.0
 40
1.999999861419212
100
AcDbArc
 50
180.0000018356001
 51
270.0
  0
CIRCLE
  5
341
330
1F
100
AcDbEntity
  8
0
  6
DIVIDE
 62
     7
100
AcDbCircle
 10
-138.17160222615
 20
-20.78452701200001
 30
0.0
 40
6.049999999999997
  0
ARC
  5
342
330
1F
100
AcDbEntity
  8
0
  6
DIVIDE
 62
     7
100
AcDbCircle
 10
-120.27160228085
 20
37.91547298799998
 30
0.0
 40
1.999999740719858
100
AcDbArc
 50
359.9999989434996
 51
90.00002319059986
  0
CIRCLE
  5
343
330
1F
100
AcDbEntity
  8
0
  6
DIVIDE
 62
     7
100
AcDbCircle
 10
-151.17160222615
 20
-31.28452701200001
 30
0.0
 40
4.199999999999974
  0
ARC
  5
344
330
1F
100
AcDbEntity
  8
0
  6
DIVIDE
 62
     7
100
AcDbCircle
 10
-154.07160222615
 20
-8.884527102199996
 30
0.0
 40
1.9999999098481
100
AcDbArc
 50
90.00002663770013
 51
270.0
  0
ARC
  5
345
330
1F
100
AcDbEntity
  8
0
  6
DIVIDE
 62
     7
100
AcDbCircle
 10
-120.27160236465
 20
2.915472951099986
 30
0.0
 40
1.999999824538896
100
AcDbArc
 50
269.9999826683998
 51
359.9999981643999
  0
LINE
  5
346
330
1F
100
AcDbEntity
  8
0
  6
DIVIDE
 62
     7
100
AcDbLine
 10
23.98554389485003
 20
54.16547298799998
 30
0.0
 11
57.58554389484999
 21
52.99213513309999
 31
0.0
  0
LINE
  5
347
330
1F
100
AcDbEntity
  8
0
  6
DIVIDE
 62
     7
100
AcDbLine
 10
23.98554389485003
 20
-40.734527012
 30
0.0
 11
23.98554389485003
 21
54.16547298799998
 31
0.0
  0
LINE
  5
348
330
1F
100
AcDbEntity
  8
0
  6
DIVIDE
 62
     7
100
AcDbLine
 10
57.58554389484999
 20
52.99213513309999
 30
0.0
 11
57.58554389484999
 21
-39.56118915710002
 31
0.0
  0
LINE
  5
349
330
1F
100
AcDbEntity
  8
0
  6
DIVIDE
 62
     7
100
AcDbLine
 10
57.58554389484999
 20
-39.56118915710002
 30
0.0
 11
23.98554389485003
 21
-40.734527012
 31
0.0
  0
LINE
  5
34A
330
1F
100
AcDbEntity
  8
0
  6
CENTER
 62
     7
100
AcDbLine
 10
66.68333519495002
 20
6.715472987999988
 30
0.0
 11
-60.80701409295
 21
6.715472987999988
 31
0.0
  0
LINE
  5
34B
330
1F
100
AcDbEntity
  8
0
  6
CENTER
 62
     7
100
AcDbLine
 10
106.50728962285
 20
6.715472987999988
 30
0.0
 11
159.91607189585
 21
6.715472987999988
 31
0.0
  0
LINE
  5
34C
330
1F
100
AcDbEntity
  8
0
  6
CENTER
 62
     7
100
AcDbLine
 10
133.05671715995
 20
62.31700298589999
 30
0.0
 11
133.05671715995
 21
-50.76135283370002
 31
0.0
  0
LINE
  5
34D
330
1F
100
AcDbEntity
  8
0
  6
CENTER
 62
     7
100
AcDbLine
 10
-138.17160215385
 20
-47.87865064418735
 30
0.0
 11
-138.17160215385
 21
60.79964328062257
 31
0.0
  0
LINE
  5
34E
330
1F
100
AcDbEntity
  8
0
  6
CENTER
 62
     7
100
AcDbLine
 10
-165.0830902061599
 20
6.715472987999988
 30
0.0
 11
-110.6639150449885
 21
6.715472987999988
 31
0.0
  0
VIEWPORT
  5
AD
330
1B
100
AcDbEntity
 67
     1
  8
0
100
AcDbViewport
 10
-1.997243990004961
 20
-2.645833333350012
 30
0.0
 40
978.5150772969297
 41
389.7770179155
 68
     1
 69
     1
1001
ACAD
1000
MVIEW
1002
{
1070
    16
1010
0.0
1020
0.0
1030
0.0
1010
0.0
1020
0.0
1030
1.0
1040
0.0
1040
389.7770179155
1040
-1.997243990004961
1040
-2.645833333350012
1040
50.0
1040
0.0
1040
0.0
1070
     0
1070
   100
1070
     0
1070
     3
1070
     0
1070
     0
1070
     0
1070
     0
1040
0.0
1040
0.0
1040
0.0
1040
0.5
1040
0.5
1040
0.0
1040
0.0
1070
     0
1002
{
1002
}
1002
}
  0
ENDSEC
  0
SECTION
  2
OBJECTS
  0
DICTIONARY
  5
C
330
0
100
AcDbDictionary
  3
ACAD_GROUP
350
D
  3
ACAD_LAYOUT
350
1A
  3
ACAD_MATERIAL
350
43
  3
ACAD_MLEADERSTYLE
350
372
  3
ACAD_MLINESTYLE
350
17
  3
ACAD_PLOTSETTINGS
350
19
  3
ACAD_SCALELIST
350
47
  3
ACAD_VISUALSTYLE
350
2A
  3
ACDBHEADERROUNDTRIPXREC
350
34F
  3
ACDBVARIABLEDICTIONARY
350
370
  0
DICTIONARY
  5
377
330
8
100
AcDbDictionary
280
     1
  3
ACAD_XREC_ROUNDTRIP
360
378
  0
DICTIONARY
  5
D
102
{ACAD_REACTORS
330
C
102
}
330
C
100
AcDbDictionary
  0
DICTIONARY
  5
1A
102
{ACAD_REACTORS
330
C
102
}
330
C
100
AcDbDictionary
  0
DICTIONARY
  5
43
102
{ACAD_REACTORS
330
C
102
}
330
C
100
AcDbDictionary
  3
BYBLOCK
350
45
  3
BYLAYER
350
44
  3
GLOBAL
350
46
  0
DICTIONARY
  5
372
102
{ACAD_REACTORS
330
C
102
}
330
C
100
AcDbDictionary
  0
DICTIONARY
  5
17
102
{ACAD_REACTORS
330
C
102
}
330
C
100
AcDbDictionary
  3
STANDARD
350
18
  0
DICTIONARY
  5
19
102
{ACAD_REACTORS
330
C
102
}
330
C
100
AcDbDictionary
  0
DICTIONARY
  5
47
102
{ACAD_REACTORS
330
C
102
}
330
C
100
AcDbDictionary
  3
A0
350
48
  3
A1
350
49
  3
A2
350
4A
  3
A3
350
4B
  3
A4
350
4C
  3
A5
350
4D
  3
A6
350
4E
  3
A7
350
4F
  3
A8
350
50
  3
A9
350
51
  3
B0
350
52
  3
B1
350
53
  3
B2
350
54
  3
B3
350
55
  3
B4
350
56
  3
B5
350
57
  3
B6
350
58
  3
B7
350
59
  3
B8
350
5A
  3
B9
350
5B
  3
C0
350
5C
  3
C1
350
5D
  3
C2
350
5E
  3
C3
350
5F
  3
C4
350
60
  3
C5
350
61
  3
C6
350
62
  3
C7
350
63
  3
C8
350
64
  3
C9
350
65
  3
D0
350
66
  3
D1
350
67
  3
D2
350
68
  0
DICTIONARY
  5
2A
102
{ACAD_REACTORS
330
C
102
}
330
C
100
AcDbDictionary
  3
2DWIREFRAME
350
2F
  3
BASIC
350
32
  3
BRIGHTEN
350
36
  3
COLORCHANGE
350
3A
  3
CONCEPTUAL
350
34
  3
DIM
350
35
  3
EDGECOLOROFF
350
3D
  3
FACEPATTERN
350
39
  3
FLAT
350
2B
  3
FLATWITHEDGES
350
2C
  3
GOURAUD
350
2D
  3
GOURAUDWITHEDGES
350
2E
  3
HIDDEN
350
31
  3
JITTEROFF
350
3B
  3
LINEPATTERN
350
38
  3
OVERHANGOFF
350
3C
  3
REALISTIC
350
33
  3
SHADED
350
42
  3
SHADED_WITH_EDGES
350
41
  3
SHADES_OF_GRAY
350
3E
  3
SKETCHY
350
3F
  3
THICKEN
350
37
  3
WIREFRAME
350
30
  3
X-RAY
350
40
  0
DICTIONARY
  5
34F
102
{ACAD_REACTORS
330
C
102
}
330
C
100
AcDbDictionary
  3
CEPSNID
350
359
  3
CEPSNTYPE
350
358
  3
DIMSTYLEDATA
350
36F
  3
FINGERPRINTGUID
350
35A
  3
HYPERLINKBASE
350
352
  3
INSUNITS
350
357
  3
LAYOUTDICT
350
354
  3
LWETCUNION
350
356
  3
PLOTSETDICT
350
355
  3
PSVPSCALE
350
35C
  3
PUCSBASE
350
35F
  3
PUCSORGBACK
350
365
  3
PUCSORGBOTTOM
350
361
  3
PUCSORGFRONT
350
364
  3
PUCSORGLEFT
350
362
  3
PUCSORGRIGHT
350
363
  3
PUCSORGTOP
350
360
  3
PUCSORTHOREF
350
35D
  3
PUCSORTHOVIEW
350
35E
  3
STYLESHEET
350
353
  3
TSTACKALIGN
350
350
  3
TSTACKSIZE
350
351
  3
UCSBASE
350
368
  3
UCSORGBACK
350
36E
  3
UCSORGBOTTOM
350
36A
  3
UCSORGFRONT
350
36D
  3
UCSORGLEFT
350
36B
  3
UCSORGRIGHT
350
36C
  3
UCSORGTOP
350
369
  3
UCSORTHOREF
350
366
  3
UCSORTHOVIEW
350
367
  3
VERSIONGUID
350
35B
  0
DICTIONARY
  5
370
102
{ACAD_REACTORS
330
C
102
}
330
C
100
AcDbDictionary
  3
CANNOSCALE
350
379
  3
DIMASSOC
350
375
  3
HIDETEXT
350
376
  3
MSLTSCALE
350
37A
  0
XRECORD
  5
378
102
{ACAD_REACTORS
330
377
102
}
330
377
100
AcDbXrecord
102
VTR_0.000_0.000_1.000_1.000_GRIDDISPLAY
 70
     3
102
VTR_0.000_0.000_1.000_1.000_GRIDMAJOR
 70
     5
102
VTR_0.000_0.000_1.000_1.000_DEFAULTLIGHTING
280
     1
102
VTR_0.000_0.000_1.000_1.000_DEFAULTLIGHTINGTYPE
 70
     1
102
VTR_0.000_0.000_1.000_1.000_BRIGHTNESS
141
0.0
102
VTR_0.000_0.000_1.000_1.000_CONTRAST
142
0.0
  0
MATERIAL
  5
45
102
{ACAD_REACTORS
330
43
102
}
102
{ACAD_XDICTIONARY
360
37D
102
}
330
43
100
AcDbMaterial
  1
BYBLOCK
  0
MATERIAL
  5
44
102
{ACAD_REACTORS
330
43
102
}
102
{ACAD_XDICTIONARY
360
37B
102
}
330
43
100
AcDbMaterial
  1
BYLAYER
  0
MATERIAL
  5
46
102
{ACAD_REACTORS
330
43
102
}
102
{ACAD_XDICTIONARY
360
37F
102
}
330
43
100
AcDbMaterial
  1
GLOBAL
  0
MLINESTYLE
  5
18
102
{ACAD_REACTORS
330
17
102
}
330
17
100
AcDbMlineStyle
  2
Standard
 70
     0
  3

 62
   256
 51
90.0
 52
90.0
 71
     2
 49
0.5
 62
   256
  6
BYLAYER
 49
-0.5
 62
   256
  6
BYLAYER
  0
ACAD_PROXY_OBJECT
  5
48
102
{ACAD_REACTORS
330
47
102
}
330
47
100
AcDbProxyObject
 90
      499
 91
      503
 93
       41
310
903313A31580
  0
ACAD_PROXY_OBJECT
  5
49
102
{ACAD_REACTORS
330
47
102
}
330
47
100
AcDbProxyObject
 90
      499
 91
      503
 93
      105
310
903313A324000000000000004000
  0
ACAD_PROXY_OBJECT
  5
4A
102
{ACAD_REACTORS
330
47
102
}
330
47
100
AcDbProxyObject
 90
      499
 91
      503
 93
      105
310
903313A344000000000000104000
  0
ACAD_PROXY_OBJECT
  5
4B
102
{ACAD_REACTORS
330
47
102
}
330
47
100
AcDbProxyObject
 90
      499
 91
      503
 93
      105
310
903313A354000000000000144000
  0
ACAD_PROXY_OBJECT
  5
4C
102
{ACAD_REACTORS
330
47
102
}
330
47
100
AcDbProxyObject
 90
      499
 91
      503
 93
      105
310
903313A384000000000000204000
  0
ACAD_PROXY_OBJECT
  5
4D
102
{ACAD_REACTORS
330
47
102
}
330
47
100
AcDbProxyObject
 90
      499
 91
      503
 93
      113
310
904313A31304000000000000244000
  0
ACAD_PROXY_OBJECT
  5
4E
102
{ACAD_REACTORS
330
47
102
}
330
47
100
AcDbProxyObject
 90
      499
 91
      503
 93
      113
310
904313A31364000000000000304000
  0
ACAD_PROXY_OBJECT
  5
4F
102
{ACAD_REACTORS
330
47
102
}
330
47
100
AcDbProxyObject
 90
      499
 91
      503
 93
      113
310
904313A32304000000000000344000
  0
ACAD_PROXY_OBJECT
  5
50
102
{ACAD_REACTORS
330
47
102
}
330
47
100
AcDbProxyObject
 90
      499
 91
      503
 93
      113
310
904313A333040000000000003E4000
  0
ACAD_PROXY_OBJECT
  5
51
102
{ACAD_REACTORS
330
47
102
}
330
47
100
AcDbProxyObject
 90
      499
 91
      503
 93
      113
310
904313A34304000000000000444000
  0
ACAD_PROXY_OBJECT
  5
52
102
{ACAD_REACTORS
330
47
102
}
330
47
100
AcDbProxyObject
 90
      499
 91
      503
 93
      113
310
904313A35304000000000000494000
  0
ACAD_PROXY_OBJECT
  5
53
102
{ACAD_REACTORS
330
47
102
}
330
47
100
AcDbProxyObject
 90
      499
 91
      503
 93
      121
310
905313A3130304000000000000594000
  0
ACAD_PROXY_OBJECT
  5
54
102
{ACAD_REACTORS
330
47
102
}
330
47
100
AcDbProxyObject
 90
      499
 91
      503
 93
      105
310
903323A310000000000000010100
  0
ACAD_PROXY_OBJECT
  5
55
102
{ACAD_REACTORS
330
47
102
}
330
47
100
AcDbProxyObject
 90
      499
 91
      503
 93
      105
310
903343A310000000000000410100
  0
ACAD_PROXY_OBJECT
  5
56
102
{ACAD_REACTORS
330
47
102
}
330
47
100
AcDbProxyObject
 90
      499
 91
      503
 93
      105
310
903383A310000000000000810100
  0
ACAD_PROXY_OBJECT
  5
57
102
{ACAD_REACTORS
330
47
102
}
330
47
100
AcDbProxyObject
 90
      499
 91
      503
 93
      113
310
90431303A310000000000000910100
  0
ACAD_PROXY_OBJECT
  5
58
102
{ACAD_REACTORS
330
47
102
}
330
47
100
AcDbProxyObject
 90
      499
 91
      503
 93
      121
310
9053130303A310000000000001650100
  0
ACAD_PROXY_OBJECT
  5
59
102
{ACAD_REACTORS
330
47
102
}
330
47
100
AcDbProxyObject
 90
      499
 91
      503
 93
      257
310
90E312F31323822203D2031272D3022000000000000200FC000000000000284000
  0
ACAD_PROXY_OBJECT
  5
5A
102
{ACAD_REACTORS
330
47
102
}
330
47
100
AcDbProxyObject
 90
      499
 91
      503
 93
      249
310
90D312F363422203D2031272D3022000000000000240FC000000000000284000
  0
ACAD_PROXY_OBJECT
  5
5B
102
{ACAD_REACTORS
330
47
102
}
330
47
100
AcDbProxyObject
 90
      499
 91
      503
 93
      249
310
90D312F333222203D2031272D3022000000000000280FC000000000000284000
  0
ACAD_PROXY_OBJECT
  5
5C
102
{ACAD_REACTORS
330
47
102
}
330
47
100
AcDbProxyObject
 90
      499
 91
      503
 93
      249
310
90D312F313622203D2031272D30220000000000002C0FC000000000000284000
  0
ACAD_PROXY_OBJECT
  5
5D
102
{ACAD_REACTORS
330
47
102
}
330
47
100
AcDbProxyObject
 90
      499
 91
      503
 93
      249
310
90D332F333222203D2031272D30220000000000002E0FC000000000000284000
  0
ACAD_PROXY_OBJECT
  5
5E
102
{ACAD_REACTORS
330
47
102
}
330
47
100
AcDbProxyObject
 90
      499
 91
      503
 93
      241
310
90C312F3822203D2031272D3022000000000000300FC000000000000284000
  0
ACAD_PROXY_OBJECT
  5
5F
102
{ACAD_REACTORS
330
47
102
}
330
47
100
AcDbProxyObject
 90
      499
 91
      503
 93
      249
310
90D332F313622203D2031272D3022000000000000320FC000000000000284000
  0
ACAD_PROXY_OBJECT
  5
60
102
{ACAD_REACTORS
330
47
102
}
330
47
100
AcDbProxyObject
 90
      499
 91
      503
 93
      241
310
90C312F3422203D2031272D3022000000000000340FC000000000000284000
  0
ACAD_PROXY_OBJECT
  5
61
102
{ACAD_REACTORS
330
47
102
}
330
47
100
AcDbProxyObject
 90
      499
 91
      503
 93
      241
310
90C332F3822203D2031272D3022000000000000360FC000000000000284000
  0
ACAD_PROXY_OBJECT
  5
62
102
{ACAD_REACTORS
330
47
102
}
330
47
100
AcDbProxyObject
 90
      499
 91
      503
 93
      241
310
90C312F3222203D2031272D3022000000000000380FC000000000000284000
  0
ACAD_PROXY_OBJECT
  5
63
102
{ACAD_REACTORS
330
47
102
}
330
47
100
AcDbProxyObject
 90
      499
 91
      503
 93
      241
310
90C332F3422203D2031272D30220000000000003A0FC000000000000284000
  0
ACAD_PROXY_OBJECT
  5
64
102
{ACAD_REACTORS
330
47
102
}
330
47
100
AcDbProxyObject
 90
      499
 91
      503
 93
      161
310
90A3122203D2031272D30224000000000000284000
  0
ACAD_PROXY_OBJECT
  5
65
102
{ACAD_REACTORS
330
47
102
}
330
47
100
AcDbProxyObject
 90
      499
 91
      503
 93
      257
310
90E312D312F3222203D2031272D30220000000000003E0FC000000000000284000
  0
ACAD_PROXY_OBJECT
  5
66
102
{ACAD_REACTORS
330
47
102
}
330
47
100
AcDbProxyObject
 90
      499
 91
      503
 93
      225
310
90A3322203D2031272D302200000000000002100000000000000284000
  0
ACAD_PROXY_OBJECT
  5
67
102
{ACAD_REACTORS
330
47
102
}
330
47
100
AcDbProxyObject
 90
      499
 91
      503
 93
      225
310
90A3622203D2031272D302200000000000006100000000000000284000
  0
ACAD_PROXY_OBJECT
  5
68
102
{ACAD_REACTORS
330
47
102
}
330
47
100
AcDbProxyObject
 90
      499
 91
      503
 93
      249
310
90D31272D3022203D2031272D30220000000000000A100000000000000284000
  0
ACAD_PROXY_OBJECT
  5
2F
102
{ACAD_REACTORS
330
2A
102
}
330
2A
100
AcDbProxyObject
 90
      499
 91
      501
 93
      436
310
42CC9915DA5C99599C985B595049028333333333333E33F0000000000000F90107901411070040501600405405064090741402480A0340
1001
ACAD
1000
AcDbSavedByObjectVersion
1070
     0
  0
ACAD_PROXY_OBJECT
  5
32
102
{ACAD_REACTORS
330
2A
102
}
330
2A
100
AcDbProxyObject
 90
      499
 91
      501
 93
      388
310
4150985CDA58D07406404333333333333E33F0000000000000F90107A41107004050150841D405064090741402480A0350
1001
ACAD
1000
AcDbSavedByObjectVersion
1070
     0
  0
ACAD_PROXY_OBJECT
  5
36
102
{ACAD_REACTORS
330
2A
102
}
330
2A
100
AcDbProxyObject
 90
      499
 91
      501
 93
      428
310
42109C9A59DA1D195B90C409028333333333333E33F0000000000000F9010790141107004050150841D405064090741402480A029950
1001
ACAD
1000
AcDbSavedByObjectVersion
1070
     0
  0
ACAD_PROXY_OBJECT
  5
3A
102
{ACAD_REACTORS
330
2A
102
}
330
2A
100
AcDbProxyObject
 90
      499
 91
      501
 93
      452
310
42D0DBDB1BDC90DA185B99D95104090240C333333333333E33F0000000000000F90108901411070040501508421405064090741402480A0350
1001
ACAD
1000
AcDbSavedByObjectVersion
1070
     0
  0
ACAD_PROXY_OBJECT
  5
34
102
{ACAD_REACTORS
330
2A
102
}
330
2A
100
AcDbProxyObject
 90
      499
 91
      501
 93
      500
310
4290DBDB98D95C1D1D585B10940D028333333333333E33F0000000000000F90107902409070040501000000000018199010841D405064090740C02480A0340
1001
ACAD
1000
AcDbSavedByObjectVersion
1070
     0
  0
ACAD_PROXY_OBJECT
  5
35
102
{ACAD_REACTORS
330
2A
102
}
330
2A
100
AcDbProxyObject
 90
      499
 91
      501
 93
      412
310
40D11A5B50B409028333333333333E33F0000000000000F9010790141107004050150841D405064090741402480A02677FFFFFD0
1001
ACAD
1000
AcDbSavedByObjectVersion
1070
     0
  0
ACAD_PROXY_OBJECT
  5
3D
102
{ACAD_REACTORS
330
2A
102
}
330
2A
100
AcDbProxyObject
 90
      499
 91
      501
 93
      452
310
43115919D950DBDB1BDC93D999916409028333333333333E33F0000000000000F9010790141107004050150841D405064090741402480A0350
1001
ACAD
1000
AcDbSavedByObjectVersion
1070
     0
  0
ACAD_PROXY_OBJECT
  5
39
102
{ACAD_REACTORS
330
2A
102
}
330
2A
100
AcDbProxyObject
 90
      499
 91
      501
 93
      444
310
42D19858D95C185D1D195C9B90F409028333333333333E33F0000000000000F9010790141107004050150841D405064090741402480A0350
1001
ACAD
1000
AcDbSavedByObjectVersion
1070
     0
  0
ACAD_PROXY_OBJECT
  5
2B
102
{ACAD_REACTORS
330
2A
102
}
330
2A
100
AcDbProxyObject
 90
      499
 91
      501
 93
      380
310
41119B185D240901404333333333333E33F0000000000000F9010740A907004050150841D405064090741402480A1B50
1001
ACAD
1000
AcDbSavedByObjectVersion
1070
     0
  0
ACAD_PROXY_OBJECT
  5
2C
102
{ACAD_REACTORS
330
2A
102
}
330
2A
100
AcDbProxyObject
 90
      499
 91
      501
 93
      468
310
43519B185D15DA5D1A115919D95CD0140901404333333333333E33F0000000000000F90107409019070040501600405405064090741402480A1B50
1001
ACAD
1000
AcDbSavedByObjectVersion
1070
     0
  0
ACAD_PROXY_OBJECT
  5
2D
102
{ACAD_REACTORS
330
2A
102
}
330
2A
100
AcDbProxyObject
 90
      499
 91
      501
 93
      404
310
41D1DBDD5C985D5910240902404333333333333E33F0000000000000F9010740A9070040501641D405064090741402480A1B50
1001
ACAD
1000
AcDbSavedByObjectVersion
1070
     0
  0
ACAD_PROXY_OBJECT
  5
2E
102
{ACAD_REACTORS
330
2A
102
}
330
2A
100
AcDbProxyObject
 90
      499
 91
      501
 93
      492
310
4411DBDD5C985D5915DA5D1A115919D95CD0340902404333333333333E33F0000000000000F90107409019070040501600405405064090741402480A1B50
1001
ACAD
1000
AcDbSavedByObjectVersion
1070
     0
  0
ACAD_PROXY_OBJECT
  5
31
102
{ACAD_REACTORS
330
2A
102
}
330
2A
100
AcDbProxyObject
 90
      499
 91
      501
 93
      476
310
41921A5919195B90640502408333333333333E33F0000000000000F901079024090700405020000000000001110200405405064090740C02480A0340
1001
ACAD
1000
AcDbSavedByObjectVersion
1070
     0
  0
ACAD_PROXY_OBJECT
  5
3B
102
{ACAD_REACTORS
330
2A
102
}
330
2A
100
AcDbProxyObject
 90
      499
 91
      501
 93
      428
310
42529A5D1D195C93D999914409028333333333333E33F0000000000000F9010790141107004050150A41D405064090741402480A0350
1001
ACAD
1000
AcDbSavedByObjectVersion
1070
     0
  0
ACAD_PROXY_OBJECT
  5
38
102
{ACAD_REACTORS
330
2A
102
}
330
2A
100
AcDbProxyObject
 90
      499
 91
      501
 93
      444
310
42D31A5B995C185D1D195C9B90E409028333333333333E33F0000000000000F9010790141107004050750841D405064090741402483A0350
1001
ACAD
1000
AcDbSavedByObjectVersion
1070
     0
  0
ACAD_PROXY_OBJECT
  5
3C
102
{ACAD_REACTORS
330
2A
102
}
330
2A
100
AcDbProxyObject
 90
      499
 91
      501
 93
      444
310
42D3DD995C9A185B99D3D999915409028333333333333E33F0000000000000F9010790141107004050150941D405064090741402480A0350
1001
ACAD
1000
AcDbSavedByObjectVersion
1070
     0
  0
ACAD_PROXY_OBJECT
  5
33
102
{ACAD_REACTORS
330
2A
102
}
330
2A
100
AcDbProxyObject
 90
      499
 91
      501
 93
      428
310
425499585B1A5CDD1A58D08409038333333333333E33F0000000000000F9010740A907004050150800405405064090740C02480A1B40
1001
ACAD
1000
AcDbSavedByObjectVersion
1070
     0
  0
ACAD_PROXY_OBJECT
  5
42
102
{ACAD_REACTORS
330
2A
102
}
330
2A
100
AcDbProxyObject
 90
      499
 91
      501
 93
      420
310
4194DA1859195911B40902404333333333333E33F0000000000000F9010740A41107004050150800405405064090840C02480A0B40
1001
ACAD
1000
AcDbSavedByObjectVersion
1070
     0
  0
ACAD_PROXY_OBJECT
  5
41
102
{ACAD_REACTORS
330
2A
102
}
330
2A
100
AcDbProxyObject
 90
      499
 91
      501
 93
      516
310
4454DA18591959081DDA5D1A08195919D95CD1A40902404333333333333E33F0000000000000F901074090142907004050250800405405064090740C02480A0B40
1001
ACAD
1000
AcDbSavedByObjectVersion
1070
     0
  0
ACAD_PROXY_OBJECT
  5
3E
102
{ACAD_REACTORS
330
2A
102
}
330
2A
100
AcDbProxyObject
 90
      499
 91
      501
 93
      532
310
4394DA1859195CC81BD98811DC985E5174090240C333333333333E33F0000000000000F901079024090741D01000000000000111010841D405064090740C02480A0340
1001
ACAD
1000
AcDbSavedByObjectVersion
1070
     0
  0
ACAD_PROXY_OBJECT
  5
3F
102
{ACAD_REACTORS
330
2A
102
}
330
2A
100
AcDbProxyObject
 90
      499
 91
      501
 93
      476
310
41D4DAD95D18DA1E51840502408333333333333E33F0000000000000F901079024090741D01000000000000111010B41D405064090741802480A0340
1001
ACAD
1000
AcDbSavedByObjectVersion
1070
     0
  0
ACAD_PROXY_OBJECT
  5
37
102
{ACAD_REACTORS
330
2A
102
}
330
2A
100
AcDbProxyObject
 90
      499
 91
      501
 93
      412
310
41D51A1A58DAD95B90D409028333333333333E33F0000000000000F9010790141107004050150C41D405064090741402480A0350
1001
ACAD
1000
AcDbSavedByObjectVersion
1070
     0
  0
ACAD_PROXY_OBJECT
  5
30
102
{ACAD_REACTORS
330
2A
102
}
330
2A
100
AcDbProxyObject
 90
      499
 91
      501
 93
      420
310
4255DA5C99599C985B595059028333333333333E33F0000000000000F90107901411070040501600405405064090740C02480A0340
1001
ACAD
1000
AcDbSavedByObjectVersion
1070
     0
  0
ACAD_PROXY_OBJECT
  5
40
102
{ACAD_REACTORS
330
2A
102
}
330
2A
100
AcDbProxyObject
 90
      499
 91
      501
 93
      404
310
41560B54985E51940902404000000000000E03F0000000000000F9010740501907004050150841D405064090740C02480A1B40
1001
ACAD
1000
AcDbSavedByObjectVersion
1070
     0
  0
XRECORD
  5
359
102
{ACAD_REACTORS
330
34F
102
}
330
34F
100
AcDbXrecord
340
0
  0
XRECORD
  5
358
102
{ACAD_REACTORS
330
34F
102
}
330
34F
100
AcDbXrecord
 90
        0
  0
XRECORD
  5
36F
102
{ACAD_REACTORS
330
34F
102
}
330
34F
100
AcDbXrecord
1000
DSTYLE
1002
{
1070
   179
 70
     2
1070
   171
 70
     2
1070
   143
 40
25.4
1070
   274
 70
     2
1070
    41
 40
1.000000635782878
1070
    79
 70
     2
1070
   141
 40
0.0
1070
    43
 40
10.0
1070
   278
 70
    46
1070
    44
 40
1.0
1070
    42
 40
1.0
1070
   147
 40
0.09
1070
   146
 40
0.65
1070
   172
 70
     0
1070
   340
340
11
1070
   140
 40
1.166666666666667
1070
   284
 70
     0
1070
    90
 70
     1
1002
}
  0
XRECORD
  5
35A
102
{ACAD_REACTORS
330
34F
102
}
330
34F
100
AcDbXrecord
  1
{DB5B3CF4-C0BE-42D8-95A2-E1745188627F}
  0
XRECORD
  5
352
102
{ACAD_REACTORS
330
34F
102
}
330
34F
100
AcDbXrecord
  1

  0
XRECORD
  5
357
102
{ACAD_REACTORS
330
34F
102
}
330
34F
100
AcDbXrecord
 90
        4
  0
XRECORD
  5
354
102
{ACAD_REACTORS
330
34F
102
}
330
34F
100
AcDbXrecord
340
1A
  0
XRECORD
  5
356
102
{ACAD_REACTORS
330
34F
102
}
330
34F
100
AcDbXrecord
 90
    10781
  0
XRECORD
  5
355
102
{ACAD_REACTORS
330
34F
102
}
330
34F
100
AcDbXrecord
340
19
  0
XRECORD
  5
35C
102
{ACAD_REACTORS
330
34F
102
}
330
34F
100
AcDbXrecord
 40
0.0
  0
XRECORD
  5
35F
102
{ACAD_REACTORS
330
34F
102
}
330
34F
100
AcDbXrecord
340
0
  0
XRECORD
  5
365
102
{ACAD_REACTORS
330
34F
102
}
330
34F
100
AcDbXrecord
 10
0.0
 20
0.0
 30
0.0
  0
XRECORD
  5
361
102
{ACAD_REACTORS
330
34F
102
}
330
34F
100
AcDbXrecord
 10
0.0
 20
0.0
 30
0.0
  0
XRECORD
  5
364
102
{ACAD_REACTORS
330
34F
102
}
330
34F
100
AcDbXrecord
 10
0.0
 20
0.0
 30
0.0
  0
XRECORD
  5
362
102
{ACAD_REACTORS
330
34F
102
}
330
34F
100
AcDbXrecord
 10
0.0
 20
0.0
 30
0.0
  0
XRECORD
  5
363
102
{ACAD_REACTORS
330
34F
102
}
330
34F
100
AcDbXrecord
 10
0.0
 20
0.0
 30
0.0
  0
XRECORD
  5
360
102
{ACAD_REACTORS
330
34F
102
}
330
34F
100
AcDbXrecord
 10
0.0
 20
0.0
 30
0.0
  0
XRECORD
  5
35D
102
{ACAD_REACTORS
330
34F
102
}
330
34F
100
AcDbXrecord
340
0
  0
XRECORD
  5
35E
102
{ACAD_REACTORS
330
34F
102
}
330
34F
100
AcDbXrecord
 70
     0
  0
XRECORD
  5
353
102
{ACAD_REACTORS
330
34F
102
}
330
34F
100
AcDbXrecord
  1

  0
XRECORD
  5
350
102
{ACAD_REACTORS
330
34F
102
}
330
34F
100
AcDbXrecord
 90
        1
  0
XRECORD
  5
351
102
{ACAD_REACTORS
330
34F
102
}
330
34F
100
AcDbXrecord
 90
       70
  0
XRECORD
  5
368
102
{ACAD_REACTORS
330
34F
102
}
330
34F
100
AcDbXrecord
340
0
  0
XRECORD
  5
36E
102
{ACAD_REACTORS
330
34F
102
}
330
34F
100
AcDbXrecord
 10
0.0
 20
0.0
 30
0.0
  0
XRECORD
  5
36A
102
{ACAD_REACTORS
330
34F
102
}
330
34F
100
AcDbXrecord
 10
0.0
 20
0.0
 30
0.0
  0
XRECORD
  5
36D
102
{ACAD_REACTORS
330
34F
102
}
330
34F
100
AcDbXrecord
 10
0.0
 20
0.0
 30
0.0
  0
XRECORD
  5
36B
102
{ACAD_REACTORS
330
34F
102
}
330
34F
100
AcDbXrecord
 10
0.0
 20
0.0
 30
0.0
  0
XRECORD
  5
36C
102
{ACAD_REACTORS
330
34F
102
}
330
34F
100
AcDbXrecord
 10
0.0
 20
0.0
 30
0.0
  0
XRECORD
  5
369
102
{ACAD_REACTORS
330
34F
102
}
330
34F
100
AcDbXrecord
 10
0.0
 20
0.0
 30
0.0
  0
XRECORD
  5
366
102
{ACAD_REACTORS
330
34F
102
}
330
34F
100
AcDbXrecord
340
0
  0
XRECORD
  5
367
102
{ACAD_REACTORS
330
34F
102
}
330
34F
100
AcDbXrecord
 70
     0
  0
XRECORD
  5
35B
102
{ACAD_REACTORS
330
34F
102
}
330
34F
100
AcDbXrecord
  1
{FAEB1C32-E019-11D5-929B-00C0DF256EC4}
  0
DICTIONARYVAR
  5
379
102
{ACAD_REACTORS
330
370
102
}
330
370
100
DictionaryVariables
280
     0
  1
1:1
  0
DICTIONARYVAR
  5
375
102
{ACAD_REACTORS
330
370
102
}
330
370
100
DictionaryVariables
280
     0
  1
2
  0
DICTIONARYVAR
  5
376
102
{ACAD_REACTORS
330
370
102
}
330
370
100
DictionaryVariables
280
     0
  1
1
  0
DICTIONARYVAR
  5
37A
102
{ACAD_REACTORS
330
370
102
}
330
370
100
DictionaryVariables
280
     0
  1
1
  0
DICTIONARY
  5
37D
330
45
100
AcDbDictionary
280
     1
  3
ACAD_XREC_ROUNDTRIP
360
37E
  0
DICTIONARY
  5
37B
330
44
100
AcDbDictionary
280
     1
  3
ACAD_XREC_ROUNDTRIP
360
37C
  0
DICTIONARY
  5
37F
330
46
100
AcDbDictionary
280
     1
  3
ACAD_XREC_ROUNDTRIP
360
380
  0
XRECORD
  5
37E
102
{ACAD_REACTORS
330
37D
102
}
330
37D
100
AcDbXrecord
102
MATERIAL
148
0.0
149
0.0
149
0.0
 93
        0
 94
      127
282
     0
 72
     1
 77
     1
171
     1
175
     1
179
     1
273
     0
  0
XRECORD
  5
37C
102
{ACAD_REACTORS
330
37B
102
}
330
37B
100
AcDbXrecord
102
MATERIAL
148
0.0
149
0.0
149
0.0
 93
        0
 94
      127
282
     0
 72
     1
 77
     1
171
     1
175
     1
179
     1
273
     0
  0
XRECORD
  5
380
102
{ACAD_REACTORS
330
37F
102
}
330
37F
100
AcDbXrecord
102
MATERIAL
148
0.0
149
0.0
149
0.0
 93
        0
 94
      127
282
     0
 72
     1
 77
     1
171
     1
175
     1
179
     1
273
     0
  0
ENDSEC
  0
EOF

