  0
SECTION
  2
HEADER
  9
$ACADVER
  1
AC1009
  9
$INSBASE
 10
0.0
 20
0.0
 30
0.0
  9
$EXTMIN
 10
-402.5464362899999742
 20
-373.4138262113334008
 30
0.0
  9
$EXTMAX
 10
400.1072129999998879
 20
365.4410484300000803
 30
0.0
  9
$LIMMIN
 10
-444.6857528799998818
 20
-412.7235251800000242
  9
$LIMMAX
 10
442.2465295900000228
 20
404.2568585199999234
  9
$ORTHOMODE
 70
     0
  9
$REGENMODE
 70
     1
  9
$FILLMODE
 70
     1
  9
$QTEXTMODE
 70
     0
  9
$MIRRTEXT
 70
     1
  9
$DRAGMODE
 70
     2
  9
$LTSCALE
 40
1.0
  9
$OSMODE
 70
  1079
  9
$ATTMODE
 70
     1
  9
$TEXTSIZE
 40
7.4083333299999987
  9
$TRACEWID
 40
0.05
  9
$TEXTSTYLE
  7
STANDARD
  9
$CLAYER
  8
0
  9
$CELTYPE
  6
CONTINUOUS
  9
$CECOLOR
 62
   256
  9
$DIMSCALE
 40
1.0
  9
$DIMASZ
 40
0.18
  9
$DIMEXO
 40
0.0625
  9
$DIMDLI
 40
0.38
  9
$DIMRND
 40
0.0
  9
$DIMDLE
 40
0.0
  9
$DIMEXE
 40
0.18
  9
$DIMTP
 40
0.0
  9
$DIMTM
 40
0.0
  9
$DIMTXT
 40
0.18
  9
$DIMCEN
 40
0.09
  9
$DIMTSZ
 40
0.0
  9
$DIMTOL
 70
     0
  9
$DIMLIM
 70
     0
  9
$DIMTIH
 70
     1
  9
$DIMTOH
 70
     1
  9
$DIMSE1
 70
     0
  9
$DIMSE2
 70
     0
  9
$DIMTAD
 70
     0
  9
$DIMZIN
 70
     0
  9
$DIMBLK
  1

  9
$DIMASO
 70
     1
  9
$DIMSHO
 70
     1
  9
$DIMPOST
  1

  9
$DIMAPOST
  1

  9
$DIMALT
 70
     0
  9
$DIMALTD
 70
     2
  9
$DIMALTF
 40
25.3999999999999986
  9
$DIMLFAC
 40
1.0
  9
$DIMTOFL
 70
     0
  9
$DIMTVP
 40
0.0
  9
$DIMTIX
 70
     0
  9
$DIMSOXD
 70
     0
  9
$DIMSAH
 70
     0
  9
$DIMBLK1
  1

  9
$DIMBLK2
  1

  9
$DIMSTYLE
  2
STANDARD
  9
$DIMCLRD
 70
     0
  9
$DIMCLRE
 70
     0
  9
$DIMCLRT
 70
     0
  9
$DIMTFAC
 40
1.0
  9
$DIMGAP
 40
0.09
  9
$LUNITS
 70
     2
  9
$LUPREC
 70
     4
  9
$SKETCHINC
 40
0.1
  9
$FILLETRAD
 40
0.0
  9
$AUNITS
 70
     0
  9
$AUPREC
 70
     0
  9
$MENU
  1
acad
  9
$ELEVATION
 40
0.0
  9
$PELEVATION
 40
0.0
  9
$THICKNESS
 40
0.0
  9
$LIMCHECK
 70
     0
  9
$BLIPMODE
 70
     0
  9
$CHAMFERA
 40
0.0
  9
$CHAMFERB
 40
0.0
  9
$SKPOLY
 70
     0
  9
$TDCREATE
 40
2440588.749988425988704
  9
$TDUPDATE
 40
2458562.5651851850561798
  9
$TDINDWG
 40
0.0028009259
  9
$TDUSRTIMER
 40
0.0028009259
  9
$USRTIMER
 70
     1
  9
$ANGBASE
 50
0.0
  9
$ANGDIR
 70
     0
  9
$PDMODE
 70
     0
  9
$PDSIZE
 40
1.0
  9
$PLINEWID
 40
0.0
  9
$COORDS
 70
     1
  9
$SPLFRAME
 70
     0
  9
$SPLINETYPE
 70
     6
  9
$SPLINESEGS
 70
     8
  9
$ATTDIA
 70
     1
  9
$ATTREQ
 70
     1
  9
$HANDLING
 70
     1
  9
$HANDSEED
  5
F81
  9
$SURFTAB1
 70
     6
  9
$SURFTAB2
 70
     6
  9
$SURFTYPE
 70
     6
  9
$SURFU
 70
     6
  9
$SURFV
 70
     6
  9
$UCSNAME
  2

  9
$UCSORG
 10
0.0
 20
0.0
 30
0.0
  9
$UCSXDIR
 10
1.0
 20
0.0
 30
0.0
  9
$UCSYDIR
 10
0.0
 20
1.0
 30
0.0
  9
$PUCSNAME
  2

  9
$PUCSORG
 10
0.0
 20
0.0
 30
0.0
  9
$PUCSXDIR
 10
1.0
 20
0.0
 30
0.0
  9
$PUCSYDIR
 10
0.0
 20
1.0
 30
0.0
  9
$USERI1
 70
     0
  9
$USERI2
 70
     0
  9
$USERI3
 70
     0
  9
$USERI4
 70
     0
  9
$USERI5
 70
     0
  9
$USERR1
 40
0.0
  9
$USERR2
 40
0.0
  9
$USERR3
 40
0.0
  9
$USERR4
 40
0.0
  9
$USERR5
 40
0.0
  9
$WORLDVIEW
 70
     1
  9
$SHADEDGE
 70
     3
  9
$SHADEDIF
 70
    70
  9
$TILEMODE
 70
     1
  9
$MAXACTVP
 70
    16
  9
$PLIMCHECK
 70
     0
  9
$PEXTMIN
 10
1.0000000000000000E+20
 20
1.0000000000000000E+20
 30
1.0000000000000000E+20
  9
$PEXTMAX
 10
-1.0000000000000000E+20
 20
-1.0000000000000000E+20
 30
-1.0000000000000000E+20
  9
$PLIMMIN
 10
0.0
 20
0.0
  9
$PLIMMAX
 10
12.0
 20
9.0
  9
$UNITMODE
 70
     0
  9
$VISRETAIN
 70
     0
  9
$PLINEGEN
 70
     1
  9
$PSLTSCALE
 70
     0
  0
ENDSEC
  0
SECTION
  2
TABLES
  0
TABLE
  2
VPORT
 70
     1
  0
VPORT
  2
*ACTIVE
 70
     0
 10
0.0
 20
0.0
 11
1.0
 21
1.0
 12
545.8377297161830484
 22
-54.2791612966382218
 13
0.0
 23
0.0
 14
1.0
 24
1.0
 15
0.0
 25
0.0
 16
0.0
 26
0.0
 36
1.0
 17
0.0
 27
0.0
 37
0.0
 40
806.1642034933597643
 41
2.2158693115519248
 42
50.0
 43
0.0
 44
0.0
 50
0.0
 51
0.0
 71
     0
 72
   100
 73
     1
 74
     1
 75
     0
 76
     0
 77
     0
 78
     0
  0
ENDTAB
  0
TABLE
  2
LTYPE
 70
    28
  0
LTYPE
  2
CONTINUOUS
 70
     0
  3
Solid line
 72
    65
 73
     0
 40
0.0
  0
LTYPE
  2
HIDDENX2
 70
     0
  3
CADPAC LINETYPE
 72
    65
 73
     2
 40
43.5461498100000028
 49
32.659612359999997
 49
-10.8865374500000005
  0
LTYPE
  2
HIDDEN
 70
     0
  3
CADPAC LINETYPE
 72
    65
 73
     2
 40
32.659612359999997
 49
21.773074900000001
 49
-10.8865374500000005
  0
LTYPE
  2
HIDDEN2
 70
     0
  3
CADPAC LINETYPE
 72
    65
 73
     2
 40
27.2163436300000008
 49
16.3298061799999985
 49
-10.8865374500000005
  0
LTYPE
  2
DASHED
 70
     0
  3
CADPAC LINETYPE
 72
    65
 73
     2
 40
32.659612359999997
 49
21.773074900000001
 49
-10.8865374500000005
  0
LTYPE
  2
DASHED2
 70
     0
  3
CADPAC LINETYPE
 72
    65
 73
     2
 40
24.4947092700000013
 49
16.3298061799999985
 49
-8.1649030899999993
  0
LTYPE
  2
DASHEDX2
 70
     0
  3
CADPAC LINETYPE
 72
    65
 73
     2
 40
48.9894185300000018
 49
32.659612359999997
 49
-16.3298061799999985
  0
LTYPE
  2
DOTX2
 70
     0
  3
CADPAC LINETYPE
 72
    65
 73
     2
 40
13.60817181
 49
0.0
 49
-13.60817181
  0
LTYPE
  2
DOT
 70
     0
  3
CADPAC LINETYPE
 72
    65
 73
     2
 40
10.8865374500000005
 49
0.0
 49
-10.8865374500000005
  0
LTYPE
  2
DOT2
 70
     0
  3
CADPAC LINETYPE
 72
    65
 73
     2
 40
8.1649030899999993
 49
0.0
 49
-8.1649030899999993
  0
LTYPE
  2
CENTERX2
 70
     0
  3
CADPAC LINETYPE
 72
    65
 73
     4
 40
65.3192247100000003
 49
27.2163436300000008
 49
-13.60817181
 49
10.8865374500000005
 49
-13.60817181
  0
LTYPE
  2
CENTER
 70
     0
  3
CADPAC LINETYPE
 72
    65
 73
     4
 40
50.0780722800000007
 49
21.773074900000001
 49
-10.8865374500000005
 49
6.5319224699999987
 49
-10.8865374500000005
  0
LTYPE
  2
CENTER2
 70
     0
  3
CADPAC LINETYPE
 72
    65
 73
     4
 40
34.836919850000001
 49
16.3298061799999985
 49
-8.1649030899999993
 49
2.17730749
 49
-8.1649030899999993
  0
LTYPE
  2
DASHDOTX2
 70
     0
  3
CADPAC LINETYPE
 72
    65
 73
     4
 40
54.4326872600000016
 49
27.2163436300000008
 49
-13.60817181
 49
0.0
 49
-13.60817181
  0
LTYPE
  2
DASHDOT
 70
     0
  3
CADPAC LINETYPE
 72
    65
 73
     4
 40
43.5461498100000028
 49
21.773074900000001
 49
-10.8865374500000005
 49
0.0
 49
-10.8865374500000005
  0
LTYPE
  2
DASHDOT2
 70
     0
  3
CADPAC LINETYPE
 72
    65
 73
     4
 40
32.659612359999997
 49
16.3298061799999985
 49
-8.1649030899999993
 49
0.0
 49
-8.1649030899999993
  0
LTYPE
  2
DIVIDEX2
 70
     0
  3
CADPAC LINETYPE
 72
    65
 73
     6
 40
68.0408590699999962
 49
27.2163436300000008
 49
-13.60817181
 49
0.0
 49
-13.60817181
 49
0.0
 49
-13.60817181
  0
LTYPE
  2
DIVIDE
 70
     0
  3
CADPAC LINETYPE
 72
    65
 73
     6
 40
54.4326872600000016
 49
21.773074900000001
 49
-10.8865374500000005
 49
0.0
 49
-10.8865374500000005
 49
0.0
 49
-10.8865374500000005
  0
LTYPE
  2
DIVIDE2
 70
     0
  3
CADPAC LINETYPE
 72
    65
 73
     6
 40
40.824515439999999
 49
16.3298061799999985
 49
-8.1649030899999993
 49
0.0
 49
-8.1649030899999993
 49
0.0
 49
-8.1649030899999993
  0
LTYPE
  2
BORDERX2
 70
     0
  3
CADPAC LINETYPE
 72
    65
 73
     6
 40
95.2572026999999792
 49
27.2163436300000008
 49
-13.60817181
 49
27.2163436300000008
 49
-13.60817181
 49
0.0
 49
-13.60817181
  0
LTYPE
  2
BORDER
 70
     0
  3
CADPAC LINETYPE
 72
    65
 73
     6
 40
76.2057621600000061
 49
21.773074900000001
 49
-10.8865374500000005
 49
21.773074900000001
 49
-10.8865374500000005
 49
0.0
 49
-10.8865374500000005
  0
LTYPE
  2
BORDER2
 70
     0
  3
CADPAC LINETYPE
 72
    65
 73
     6
 40
57.1543216199999904
 49
16.3298061799999985
 49
-8.1649030899999993
 49
16.3298061799999985
 49
-8.1649030899999993
 49
0.0
 49
-8.1649030899999993
  0
LTYPE
  2
PHANTOMX2
 70
     0
  3
CADPAC LINETYPE
 72
    65
 73
     6
 40
81.6490308900000059
 49
27.2163436300000008
 49
-10.8865374500000005
 49
10.8865374500000005
 49
-10.8865374500000005
 49
10.8865374500000005
 49
-10.8865374500000005
  0
LTYPE
  2
PHANTOM
 70
     0
  3
CADPAC LINETYPE
 72
    65
 73
     6
 40
67.4965322000000043
 49
21.773074900000001
 49
-10.8865374500000005
 49
6.5319224699999987
 49
-10.8865374500000005
 49
6.5319224699999987
 49
-10.8865374500000005
  0
LTYPE
  2
PHANTOM2
 70
     0
  3
CADPAC LINETYPE
 72
    65
 73
     6
 40
57.6986484899999965
 49
16.3298061799999985
 49
-10.8865374500000005
 49
4.35461498
 49
-10.8865374500000005
 49
4.35461498
 49
-10.8865374500000005
  0
LTYPE
  2
ACAD_ISO06W100
 70
     0
  3
CADPAC LINETYPE
 72
    65
 73
     8
 40
73.484127799999996
 49
27.2163436300000008
 49
-13.60817181
 49
0.0
 49
-10.8865374500000005
 49
0.0
 49
-10.8865374500000005
 49
0.0
 49
-10.8865374500000005
  0
LTYPE
  2
ACAD_ISO13W100
 70
     0
  3
CADPAC LINETYPE
 72
    65
 73
     8
 40
87.0922996099999978
 49
21.773074900000001
 49
-10.8865374500000005
 49
21.773074900000001
 49
-10.8865374500000005
 49
0.0
 49
-10.8865374500000005
 49
0.0
 49
-10.8865374500000005
  0
LTYPE
  2
ACAD_ISO14W100
 70
     0
  3
CADPAC LINETYPE
 72
    65
 73
     8
 40
65.3192247100000003
 49
21.773074900000001
 49
-10.8865374500000005
 49
0.0
 49
-10.8865374500000005
 49
0.0
 49
-10.8865374500000005
 49
0.0
 49
-10.8865374500000005
  0
ENDTAB
  0
TABLE
  2
LAYER
 70
     3
  0
LAYER
  2
0
 70
     0
 62
     7
  6
CONTINUOUS
  0
LAYER
  2
LAYER0002
 70
     0
 62
     7
  6
CONTINUOUS
  0
LAYER
  2
LAYER0003
 70
     0
 62
     7
  6
CONTINUOUS
  0
ENDTAB
  0
TABLE
  2
STYLE
 70
     1
  0
STYLE
  2
STANDARD
 70
     0
 40
0.0
 41
1.0
 50
0.0
 71
     0
 42
7.4083333299999987
  3
txt.shx
  4
bigfont.shx
  0
ENDTAB
  0
TABLE
  2
VIEW
 70
     2
  0
VIEW
  2
QQQQ
 70
     0
 40
816.9803836999999476
 10
-1.2196116400000001
 20
-4.2333333299999989
 41
886.932282470000132
 11
0.0
 21
0.0
 31
1.0
 12
100.0
 22
100.0
 32
0.0
 42
50.0
 43
0.0
 44
0.0
 50
0.0
 71
     0
  0
ENDTAB
  0
TABLE
  2
UCS
 70
     0
  0
ENDTAB
  0
TABLE
  2
APPID
 70
     3
  0
APPID
  2
ACAD
 70
     0
  0
APPID
  2
ACAD_NAV_VCDISPLAY
 70
     0
  0
APPID
  2
ACAD_MLEADERVER
 70
     0
  0
ENDTAB
  0
TABLE
  2
DIMSTYLE
 70
     1
  0
DIMSTYLE
  2
STANDARD
 70
     0
  3

  4

  5

  6

  7

 40
1.0
 41
0.18
 42
0.0625
 43
0.38
 44
0.18
 45
0.0
 46
0.0
 47
0.0
 48
0.0
140
0.18
141
0.09
142
0.0
143
25.3999999999999986
144
1.0
145
0.0
146
1.0
147
0.09
 71
     0
 72
     0
 73
     1
 74
     1
 75
     0
 76
     0
 77
     0
 78
     0
170
     0
171
     2
172
     0
173
     0
174
     0
175
     0
176
     0
177
     0
178
     0
  0
ENDTAB
  0
ENDSEC
  0
SECTION
  2
BLOCKS
  0
BLOCK
  8
0
  2
$MODEL_SPACE
 70
     0
 10
0.0
 20
0.0
 30
0.0
  3
$MODEL_SPACE
  1

  0
ENDBLK
  5
E
  8
0
  0
BLOCK
 67
     1
  8
0
  2
$PAPER_SPACE
 70
     0
 10
0.0
 20
0.0
 30
0.0
  3
$PAPER_SPACE
  1

  0
ENDBLK
  5
10
 67
     1
  8
0
  0
ENDSEC
  0
SECTION
  2
ENTITIES
  0
LINE
  5
3B
  8
LAYER0003
  6
CONTINUOUS
 62
     7
 10
-100.6388369799999936
 20
-296.8978870099999767
 30
0.0
 11
-101.6725938600000063
 21
-296.8978870099999767
 31
0.0
  0
LINE
  5
3C
  8
LAYER0003
  6
CONTINUOUS
 62
     7
 10
-101.6725938600000063
 20
-303.8978900199999771
 30
0.0
 11
-100.6388369799999936
 21
-303.8978900199999771
 31
0.0
  0
LINE
  5
3D
  8
LAYER0003
  6
CONTINUOUS
 62
     7
 10
-100.1388378200000062
 20
-297.3978880299999901
 30
0.0
 11
-100.4388373200000046
 21
-297.3978880299999901
 31
0.0
  0
LINE
  5
3E
  8
LAYER0003
  6
CONTINUOUS
 62
     7
 10
-100.4388373200000046
 20
-303.3978890099999717
 30
0.0
 11
-100.1388378200000062
 21
-303.3978890099999717
 31
0.0
  0
LINE
  5
3F
  8
LAYER0003
  6
CONTINUOUS
 62
     7
 10
-99.8048469200000028
 20
-164.0978885799999887
 30
0.0
 11
-99.8048469200000028
 21
-307.0978888199999801
 31
0.0
  0
LINE
  5
40
  8
LAYER0003
  6
CONTINUOUS
 62
     7
 10
-99.8048448800000045
 20
-296.2978866500000095
 30
0.0
 11
-99.9388361200000048
 21
-296.2978866500000095
 31
0.0
  0
LINE
  5
41
  8
LAYER0003
  6
CONTINUOUS
 62
     7
 10
-75.8091603299999974
 20
-307.5978888199999801
 30
0.0
 11
-75.8091603299999974
 21
-163.5978885799999887
 31
0.0
  0
LINE
  5
42
  8
LAYER0003
  6
CONTINUOUS
 62
     7
 10
96.191165010000006
 20
-165.4478900899999871
 30
0.0
 11
96.191165010000006
 21
-154.5978921900000103
 31
0.0
  0
LINE
  5
43
  8
LAYER0003
  6
CONTINUOUS
 62
     7
 10
96.9911617399999955
 20
-165.4478900899999871
 30
0.0
 11
96.9911617399999955
 21
-154.5978921900000103
 31
0.0
  0
LINE
  5
44
  8
LAYER0003
  6
CONTINUOUS
 62
     7
 10
96.191165010000006
 20
-165.4478900899999871
 30
0.0
 11
96.191165010000006
 21
-167.4478867100000059
 31
0.0
  0
LINE
  5
45
  8
LAYER0003
  6
CONTINUOUS
 62
     7
 10
96.9911617399999955
 20
-167.4478867100000059
 30
0.0
 11
96.9911617399999955
 21
-165.4478900899999871
 31
0.0
  0
LINE
  5
46
  8
LAYER0003
  6
CONTINUOUS
 62
     7
 10
-44.5088362600000025
 20
-164.4478880800000127
 30
0.0
 11
-44.5088362600000025
 21
-166.4478921300000138
 31
0.0
  0
LINE
  5
47
  8
LAYER0003
  6
CONTINUOUS
 62
     7
 10
-43.7088376700000012
 20
-166.4478921300000138
 30
0.0
 11
-43.7088376700000012
 21
-164.4478880800000127
 31
0.0
  0
LINE
  5
48
  8
LAYER0003
  6
CONTINUOUS
 62
     7
 10
-44.5088362600000025
 20
-166.4478921300000138
 30
0.0
 11
-43.7088376700000012
 21
-166.4478921300000138
 31
0.0
  0
LINE
  5
49
  8
LAYER0003
  6
CONTINUOUS
 62
     7
 10
-44.5088362600000025
 20
-164.4478880800000127
 30
0.0
 11
-44.5088362600000025
 21
-154.5978921900000103
 31
0.0
  0
LINE
  5
4A
  8
LAYER0003
  6
CONTINUOUS
 62
     7
 10
-43.7088376700000012
 20
-154.5978921900000103
 30
0.0
 11
-43.7088376700000012
 21
-164.4478880800000127
 31
0.0
  0
LINE
  5
4B
  8
LAYER0003
  6
CONTINUOUS
 62
     7
 10
95.9911634900000053
 20
-159.4478872599999875
 30
0.0
 11
95.9911634900000053
 21
-153.5978920199999038
 31
0.0
  0
LINE
  5
4C
  8
LAYER0003
  6
CONTINUOUS
 62
     7
 10
-43.5088361000000035
 20
-159.4478872599999875
 30
0.0
 11
-43.5088361000000035
 21
-153.5978920199999038
 31
0.0
  0
LINE
  5
4D
  8
LAYER0003
  6
CONTINUOUS
 62
     7
 10
95.9911634900000053
 20
-159.4478872599999875
 30
0.0
 11
-43.5088361000000035
 21
-159.4478872599999875
 31
0.0
  0
LINE
  5
4E
  8
LAYER0003
  6
CONTINUOUS
 62
     7
 10
347.4920406999999045
 20
-181.8528867599999899
 30
0.0
 11
339.9920413300000064
 21
-181.8528867599999899
 31
0.0
  0
LINE
  5
4F
  8
LAYER0003
  6
CONTINUOUS
 62
     7
 10
347.4920406999999045
 20
-189.3528870499999925
 30
0.0
 11
347.4920406999999045
 21
-181.8528867599999899
 31
0.0
  0
LINE
  5
50
  8
LAYER0003
  6
CONTINUOUS
 62
     7
 10
95.9911634900000053
 20
-153.5978920199999038
 30
0.0
 11
-43.5088361000000035
 21
-153.5978920199999038
 31
0.0
  0
LINE
  5
51
  8
LAYER0003
  6
CONTINUOUS
 62
     7
 10
-42.1088366099999902
 20
-165.4478900899999871
 30
0.0
 11
-42.1088377800000018
 21
-165.6478887099999895
 31
0.0
  0
LINE
  5
52
  8
LAYER0003
  6
CONTINUOUS
 62
     7
 10
-17.3088374199999997
 20
-165.6478883499999881
 30
0.0
 11
-17.3088374199999997
 21
-159.4478850399999033
 31
0.0
  0
LINE
  5
53
  8
LAYER0003
  6
CONTINUOUS
 62
     7
 10
-15.7088369100000005
 20
-165.6478856699999938
 30
0.0
 11
-15.7088369100000005
 21
-159.4478850399999033
 31
0.0
  0
LINE
  5
54
  8
LAYER0003
  6
CONTINUOUS
 62
     7
 10
-41.9088365899999928
 20
-165.8478890700000079
 30
0.0
 11
-17.508837419999999
 21
-165.8478883500000052
 31
0.0
  0
LINE
  5
55
  8
LAYER0003
  6
CONTINUOUS
 62
     7
 10
-42.1088366099999902
 20
-159.4478853900000104
 30
0.0
 11
-42.1088366099999902
 21
-165.4478900899999871
 31
0.0
  0
LINE
  5
56
  8
LAYER0003
  6
CONTINUOUS
 62
     7
 10
110.7911588300000005
 20
-163.4478860399999007
 30
0.0
 11
110.7911588300000005
 21
-159.4478853900000104
 31
0.0
  0
LINE
  5
57
  8
LAYER0003
  6
CONTINUOUS
 62
     7
 10
-24.2088390800000006
 20
-159.4478853900000104
 30
0.0
 11
-24.2088390800000006
 21
-163.4478860399999007
 31
0.0
  0
LINE
  5
58
  8
LAYER0003
  6
CONTINUOUS
 62
     7
 10
-74.2088377299999848
 20
-159.4478853900000104
 30
0.0
 11
-74.2088377299999848
 21
-163.4478860399999007
 31
0.0
  0
LINE
  5
59
  8
LAYER0003
  6
CONTINUOUS
 62
     7
 10
179.3911730400000124
 20
-167.4478867100000059
 30
0.0
 11
-64.5088376799999992
 21
-167.4478867100000059
 31
0.0
  0
LINE
  5
5A
  8
LAYER0003
  6
CONTINUOUS
 62
     7
 10
-64.5088376799999992
 20
-166.8478914400000122
 30
0.0
 11
-75.8091603299999974
 21
-166.8478914400000122
 31
0.0
  0
LINE
  5
5B
  8
LAYER0003
  6
CONTINUOUS
 62
     7
 10
-75.8091603299999974
 20
-163.5978885799999887
 30
0.0
 11
-99.3048469200000028
 21
-163.5978885799999887
 31
0.0
  0
LINE
  5
5C
  8
LAYER0003
  6
CONTINUOUS
 62
     7
 10
96.9911636500000043
 20
-159.4478853900000104
 30
0.0
 11
110.7911588300000005
 21
-159.4478853900000104
 31
0.0
  0
LINE
  5
5D
  8
LAYER0003
  6
CONTINUOUS
 62
     7
 10
95.9911634900000053
 20
-159.4478872599999875
 30
0.0
 11
96.1911668700000035
 21
-159.4478872599999875
 31
0.0
  0
LINE
  5
5E
  8
LAYER0003
  6
CONTINUOUS
 62
     7
 10
-17.3088377599999994
 20
-163.4478860399999007
 30
0.0
 11
-42.1088366099999902
 21
-163.4478860399999007
 31
0.0
  0
LINE
  5
5F
  8
LAYER0003
  6
CONTINUOUS
 62
     7
 10
96.191165010000006
 20
-163.4478860399999007
 30
0.0
 11
-15.7088367499999997
 21
-163.4478860399999007
 31
0.0
  0
LINE
  5
60
  8
LAYER0003
  6
CONTINUOUS
 62
     7
 10
110.7911588300000005
 20
-163.4478860399999007
 30
0.0
 11
96.9911636500000043
 21
-163.4478860399999007
 31
0.0
  0
LINE
  5
61
  8
LAYER0003
  6
CONTINUOUS
 62
     7
 10
-64.5088376799999992
 20
-42.9637256600000015
 30
0.0
 11
-75.8091603299999974
 21
-42.9637256600000015
 31
0.0
  0
LINE
  5
62
  8
LAYER0003
  6
CONTINUOUS
 62
     7
 10
184.391168279999988
 20
-43.5637246499999904
 30
0.0
 11
-64.5088376799999992
 21
-43.5637246499999904
 31
0.0
  0
LINE
  5
63
  8
LAYER0003
  6
CONTINUOUS
 62
     7
 10
-75.8091603299999974
 20
-40.8637253599999895
 30
0.0
 11
-99.3048466799999971
 21
-40.8637138400000026
 31
0.0
  0
LINE
  5
64
  8
LAYER0003
  6
CONTINUOUS
 62
     7
 10
339.9920413300000064
 20
-189.3528870499999925
 30
0.0
 11
347.4920406999999045
 21
-189.3528870499999925
 31
0.0
  0
LINE
  5
65
  8
LAYER0003
  6
CONTINUOUS
 62
     7
 10
339.9920413300000064
 20
-181.8528867599999899
 30
0.0
 11
339.9920413300000064
 21
-189.3528870499999925
 31
0.0
  0
LINE
  5
66
  8
LAYER0003
  6
CONTINUOUS
 62
     7
 10
347.4920406999999045
 20
-191.3828867699999989
 30
0.0
 11
339.9920413300000064
 21
-191.3828867699999989
 31
0.0
  0
LINE
  5
67
  8
LAYER0003
  6
CONTINUOUS
 62
     7
 10
347.4920406999999045
 20
-198.8828870499999937
 30
0.0
 11
347.4920406999999045
 21
-191.3828867699999989
 31
0.0
  0
LINE
  5
68
  8
LAYER0003
  6
CONTINUOUS
 62
     7
 10
339.9920413300000064
 20
-198.8828870499999937
 30
0.0
 11
347.4920406999999045
 21
-198.8828870499999937
 31
0.0
  0
LINE
  5
69
  8
LAYER0003
  6
CONTINUOUS
 62
     7
 10
339.9920413300000064
 20
-191.3828867699999989
 30
0.0
 11
339.9920413300000064
 21
-198.8828870499999937
 31
0.0
  0
LINE
  5
6A
  8
LAYER0003
  6
CONTINUOUS
 62
     7
 10
347.4920406999999045
 20
-200.9128867599999921
 30
0.0
 11
339.9920413300000064
 21
-200.9128867599999921
 31
0.0
  0
LINE
  5
6B
  8
LAYER0003
  6
CONTINUOUS
 62
     7
 10
347.4920406999999045
 20
-208.4128870499999948
 30
0.0
 11
347.4920406999999045
 21
-200.9128867599999921
 31
0.0
  0
LINE
  5
6C
  8
LAYER0003
  6
CONTINUOUS
 62
     7
 10
339.9920413300000064
 20
-208.4128870499999948
 30
0.0
 11
347.4920406999999045
 21
-208.4128870499999948
 31
0.0
  0
LINE
  5
6D
  8
LAYER0003
  6
CONTINUOUS
 62
     7
 10
339.9920413300000064
 20
-200.9128867599999921
 30
0.0
 11
339.9920413300000064
 21
-208.4128870499999948
 31
0.0
  0
LINE
  5
6E
  8
LAYER0003
  6
CONTINUOUS
 62
     7
 10
347.4920406999999045
 20
-210.4428867700000012
 30
0.0
 11
339.9920413300000064
 21
-210.4428867700000012
 31
0.0
  0
LINE
  5
6F
  8
LAYER0003
  6
CONTINUOUS
 62
     7
 10
347.4920406999999045
 20
-217.9428870600000039
 30
0.0
 11
347.4920406999999045
 21
-210.4428867700000012
 31
0.0
  0
LINE
  5
70
  8
LAYER0003
  6
CONTINUOUS
 62
     7
 10
339.9920413300000064
 20
-217.9428870600000039
 30
0.0
 11
347.4920406999999045
 21
-217.9428870600000039
 31
0.0
  0
LINE
  5
71
  8
LAYER0003
  6
CONTINUOUS
 62
     7
 10
339.9920413300000064
 20
-210.4428867700000012
 30
0.0
 11
339.9920413300000064
 21
-217.9428870600000039
 31
0.0
  0
LINE
  5
72
  8
LAYER0003
  6
CONTINUOUS
 62
     7
 10
347.4920406999999045
 20
-219.9728867700000023
 30
0.0
 11
339.9920413300000064
 21
-219.9728867700000023
 31
0.0
  0
LINE
  5
73
  8
LAYER0003
  6
CONTINUOUS
 62
     7
 10
347.4920406999999045
 20
-227.472887060000005
 30
0.0
 11
347.4920406999999045
 21
-219.9728867700000023
 31
0.0
  0
LINE
  5
74
  8
LAYER0003
  6
CONTINUOUS
 62
     7
 10
339.9920413300000064
 20
-227.472887060000005
 30
0.0
 11
347.4920406999999045
 21
-227.472887060000005
 31
0.0
  0
LINE
  5
75
  8
LAYER0003
  6
CONTINUOUS
 62
     7
 10
339.9920413300000064
 20
-219.9728867700000023
 30
0.0
 11
339.9920413300000064
 21
-227.472887060000005
 31
0.0
  0
LINE
  5
76
  8
LAYER0003
  6
CONTINUOUS
 62
     7
 10
347.4920406999999045
 20
-229.5028867700000035
 30
0.0
 11
339.9920413300000064
 21
-229.5028867700000035
 31
0.0
  0
LINE
  5
77
  8
LAYER0003
  6
CONTINUOUS
 62
     7
 10
347.4920406999999045
 20
-237.0028870600000062
 30
0.0
 11
347.4920406999999045
 21
-229.5028867700000035
 31
0.0
  0
LINE
  5
78
  8
LAYER0003
  6
CONTINUOUS
 62
     7
 10
339.9920413300000064
 20
-237.0028870600000062
 30
0.0
 11
347.4920406999999045
 21
-237.0028870600000062
 31
0.0
  0
LINE
  5
79
  8
LAYER0003
  6
CONTINUOUS
 62
     7
 10
339.9920413300000064
 20
-229.5028867700000035
 30
0.0
 11
339.9920413300000064
 21
-237.0028870600000062
 31
0.0
  0
LINE
  5
7A
  8
LAYER0003
  6
CONTINUOUS
 62
     7
 10
347.4920406999999045
 20
-239.0328867599999967
 30
0.0
 11
339.9920413300000064
 21
-239.0328867599999967
 31
0.0
  0
LINE
  5
7B
  8
LAYER0003
  6
CONTINUOUS
 62
     7
 10
347.4920406999999045
 20
-246.5328870499999994
 30
0.0
 11
347.4920406999999045
 21
-239.0328867599999967
 31
0.0
  0
LINE
  5
7C
  8
LAYER0003
  6
CONTINUOUS
 62
     7
 10
339.9920413300000064
 20
-246.5328870499999994
 30
0.0
 11
347.4920406999999045
 21
-246.5328870499999994
 31
0.0
  0
LINE
  5
7D
  8
LAYER0003
  6
CONTINUOUS
 62
     7
 10
339.9920413300000064
 20
-239.0328867599999967
 30
0.0
 11
339.9920413300000064
 21
-246.5328870499999994
 31
0.0
  0
LINE
  5
7E
  8
LAYER0003
  6
CONTINUOUS
 62
     7
 10
347.4920406999999045
 20
-248.5628867599999978
 30
0.0
 11
339.9920413300000064
 21
-248.5628867599999978
 31
0.0
  0
LINE
  5
7F
  8
LAYER0003
  6
CONTINUOUS
 62
     7
 10
347.4920406999999045
 20
-256.0628870499999721
 30
0.0
 11
347.4920406999999045
 21
-248.5628867599999978
 31
0.0
  0
LINE
  5
80
  8
LAYER0003
  6
CONTINUOUS
 62
     7
 10
339.9920413300000064
 20
-256.0628870499999721
 30
0.0
 11
347.4920406999999045
 21
-256.0628870499999721
 31
0.0
  0
LINE
  5
81
  8
LAYER0003
  6
CONTINUOUS
 62
     7
 10
339.9920413300000064
 20
-248.5628867599999978
 30
0.0
 11
339.9920413300000064
 21
-256.0628870499999721
 31
0.0
  0
LINE
  5
82
  8
LAYER0003
  6
CONTINUOUS
 62
     7
 10
347.4920406999999045
 20
-258.0928867700000069
 30
0.0
 11
339.9920413300000064
 21
-258.0928867700000069
 31
0.0
  0
LINE
  5
83
  8
LAYER0003
  6
CONTINUOUS
 62
     7
 10
347.4920406999999045
 20
-265.5928870600000096
 30
0.0
 11
347.4920406999999045
 21
-258.0928867700000069
 31
0.0
  0
LINE
  5
84
  8
LAYER0003
  6
CONTINUOUS
 62
     7
 10
339.9920413300000064
 20
-265.5928870600000096
 30
0.0
 11
347.4920406999999045
 21
-265.5928870600000096
 31
0.0
  0
LINE
  5
85
  8
LAYER0003
  6
CONTINUOUS
 62
     7
 10
339.9920413300000064
 20
-258.0928867700000069
 30
0.0
 11
339.9920413300000064
 21
-265.5928870600000096
 31
0.0
  0
LINE
  5
86
  8
LAYER0003
  6
CONTINUOUS
 62
     7
 10
347.4920406999999045
 20
-267.6228867699999796
 30
0.0
 11
339.9920413300000064
 21
-267.6228867699999796
 31
0.0
  0
LINE
  5
87
  8
LAYER0003
  6
CONTINUOUS
 62
     7
 10
347.4920406999999045
 20
-275.1228870599999823
 30
0.0
 11
347.4920406999999045
 21
-267.6228867699999796
 31
0.0
  0
LINE
  5
88
  8
LAYER0003
  6
CONTINUOUS
 62
     7
 10
339.9920413300000064
 20
-275.1228870599999823
 30
0.0
 11
347.4920406999999045
 21
-275.1228870599999823
 31
0.0
  0
LINE
  5
89
  8
LAYER0003
  6
CONTINUOUS
 62
     7
 10
339.9920413300000064
 20
-267.6228867699999796
 30
0.0
 11
339.9920413300000064
 21
-275.1228870599999823
 31
0.0
  0
LINE
  5
8A
  8
LAYER0003
  6
CONTINUOUS
 62
     7
 10
347.4920406999999045
 20
-277.1528867600000012
 30
0.0
 11
339.9920413300000064
 21
-277.1528867600000012
 31
0.0
  0
LINE
  5
8B
  8
LAYER0003
  6
CONTINUOUS
 62
     7
 10
347.4920406999999045
 20
-284.6528870500000039
 30
0.0
 11
347.4920406999999045
 21
-277.1528867600000012
 31
0.0
  0
LINE
  5
8C
  8
LAYER0003
  6
CONTINUOUS
 62
     7
 10
339.9920413300000064
 20
-284.6528870500000039
 30
0.0
 11
347.4920406999999045
 21
-284.6528870500000039
 31
0.0
  0
LINE
  5
8D
  8
LAYER0003
  6
CONTINUOUS
 62
     7
 10
339.9920413300000064
 20
-277.1528867600000012
 30
0.0
 11
339.9920413300000064
 21
-284.6528870500000039
 31
0.0
  0
LINE
  5
8E
  8
LAYER0003
  6
CONTINUOUS
 62
     7
 10
347.4920406999999045
 20
-286.6828867599999739
 30
0.0
 11
339.9920413300000064
 21
-286.6828867599999739
 31
0.0
  0
LINE
  5
8F
  8
LAYER0003
  6
CONTINUOUS
 62
     7
 10
347.4920406999999045
 20
-294.1828870499999766
 30
0.0
 11
347.4920406999999045
 21
-286.6828867599999739
 31
0.0
  0
LINE
  5
90
  8
LAYER0003
  6
CONTINUOUS
 62
     7
 10
339.9920413300000064
 20
-294.1828870499999766
 30
0.0
 11
347.4920406999999045
 21
-294.1828870499999766
 31
0.0
  0
LINE
  5
91
  8
LAYER0003
  6
CONTINUOUS
 62
     7
 10
339.9920413300000064
 20
-286.6828867599999739
 30
0.0
 11
339.9920413300000064
 21
-294.1828870499999766
 31
0.0
  0
LINE
  5
92
  8
LAYER0003
  6
CONTINUOUS
 62
     7
 10
110.7911588300000005
 20
-307.7478913699999907
 30
0.0
 11
96.9911636500000043
 21
-307.7478913699999907
 31
0.0
  0
LINE
  5
93
  8
LAYER0003
  6
CONTINUOUS
 62
     7
 10
96.191165010000006
 20
-307.7478913699999907
 30
0.0
 11
-15.7088367499999997
 21
-307.7478913699999907
 31
0.0
  0
LINE
  5
94
  8
LAYER0003
  6
CONTINUOUS
 62
     7
 10
-17.3088377599999994
 20
-307.7478913699999907
 30
0.0
 11
-42.1088366099999902
 21
-307.7478913699999907
 31
0.0
  0
LINE
  5
95
  8
LAYER0003
  6
CONTINUOUS
 62
     7
 10
95.9911634900000053
 20
-311.7478901499999893
 30
0.0
 11
96.1911668700000035
 21
-311.7478901499999893
 31
0.0
  0
LINE
  5
96
  8
LAYER0003
  6
CONTINUOUS
 62
     7
 10
96.9911636500000043
 20
-311.7478920099999868
 30
0.0
 11
110.7911588300000005
 21
-311.7478920099999868
 31
0.0
  0
LINE
  5
97
  8
LAYER0003
  6
CONTINUOUS
 62
     7
 10
-101.6725938600000063
 20
-296.8978870099999767
 30
0.0
 11
-101.6725938600000063
 21
-303.8978900199999771
 31
0.0
  0
LINE
  5
98
  8
LAYER0003
  6
CONTINUOUS
 62
     7
 10
-100.6388369799999936
 20
-296.8978870099999767
 30
0.0
 11
-100.6388369799999936
 21
-303.8978900199999771
 31
0.0
  0
LINE
  5
99
  8
LAYER0003
  6
CONTINUOUS
 62
     7
 10
-79.3088376799999963
 20
-307.5978888199999801
 30
0.0
 11
-79.3088376799999963
 21
-163.5978885799999887
 31
0.0
  0
LINE
  5
9A
  8
LAYER0003
  6
CONTINUOUS
 62
     7
 10
-100.1388360699999964
 20
-304.2978870000000029
 30
0.0
 11
-100.1388360699999964
 21
-296.4978869899999836
 31
0.0
  0
LINE
  5
9B
  8
LAYER0003
  6
CONTINUOUS
 62
     7
 10
-75.8091603299999974
 20
-307.5978888199999801
 30
0.0
 11
-99.3048469200000028
 21
-307.5978888199999801
 31
0.0
  0
LINE
  5
9C
  8
LAYER0003
  6
CONTINUOUS
 62
     7
 10
179.3911730400000124
 20
-166.347890439999901
 30
0.0
 11
179.3911730400000124
 21
-304.8478869699999905
 31
0.0
  0
LINE
  5
9D
  8
LAYER0003
  6
CONTINUOUS
 62
     7
 10
224.1911565499999881
 20
-167.3478904399999863
 30
0.0
 11
224.1911565499999881
 21
-303.8478869699999905
 31
0.0
  0
LINE
  5
9E
  8
LAYER0003
  6
CONTINUOUS
 62
     7
 10
-64.5088376799999992
 20
-166.8478914400000122
 30
0.0
 11
-64.5088376799999992
 21
-304.3478859599999851
 31
0.0
  0
LINE
  5
9F
  8
LAYER0003
  6
CONTINUOUS
 62
     7
 10
-64.5088376799999992
 20
-304.3478859599999851
 30
0.0
 11
-75.8091603299999974
 21
-304.3478859599999851
 31
0.0
  0
LINE
  5
A0
  8
LAYER0003
  6
CONTINUOUS
 62
     7
 10
179.3911730400000124
 20
-303.7478907000000277
 30
0.0
 11
-64.5088376799999992
 21
-303.7478907000000277
 31
0.0
  0
LINE
  5
A1
  8
LAYER0003
  6
CONTINUOUS
 62
     7
 10
-74.2088377299999848
 20
-311.7478920099999868
 30
0.0
 11
-74.2088377299999848
 21
-307.7478913699999907
 31
0.0
  0
LINE
  5
A2
  8
LAYER0003
  6
CONTINUOUS
 62
     7
 10
-24.2088390800000006
 20
-311.7478920099999868
 30
0.0
 11
-24.2088390800000006
 21
-307.7478913699999907
 31
0.0
  0
LINE
  5
A3
  8
LAYER0003
  6
CONTINUOUS
 62
     7
 10
110.7911588300000005
 20
-307.7478913699999907
 30
0.0
 11
110.7911588300000005
 21
-311.7478920099999868
 31
0.0
  0
LINE
  5
A4
  8
LAYER0003
  6
CONTINUOUS
 62
     7
 10
-42.1088366099999902
 20
-311.7478920099999868
 30
0.0
 11
-42.1088366099999902
 21
-305.7478873000000021
 31
0.0
  0
LINE
  5
A5
  8
LAYER0003
  6
CONTINUOUS
 62
     7
 10
-41.9088365899999928
 20
-305.3478883500000052
 30
0.0
 11
-17.508837419999999
 21
-305.3478890700000079
 31
0.0
  0
LINE
  5
A6
  8
LAYER0003
  6
CONTINUOUS
 62
     7
 10
-15.7088369100000005
 20
-305.5478917400000114
 30
0.0
 11
-15.7088369100000005
 21
-311.7478923799999961
 31
0.0
  0
LINE
  5
A7
  8
LAYER0003
  6
CONTINUOUS
 62
     7
 10
-17.3088374199999997
 20
-305.5478890599999886
 30
0.0
 11
-17.3088374199999997
 21
-311.7478923799999961
 31
0.0
  0
LINE
  5
A8
  8
LAYER0003
  6
CONTINUOUS
 62
     7
 10
-42.1088366099999902
 20
-305.7478873000000021
 30
0.0
 11
-42.1088377800000018
 21
-305.5478887099999952
 31
0.0
  0
LINE
  5
A9
  8
LAYER0003
  6
CONTINUOUS
 62
     7
 10
95.9911634900000053
 20
-317.5978853799999797
 30
0.0
 11
-43.5088361000000035
 21
-317.5978853799999797
 31
0.0
  0
LINE
  5
AA
  8
LAYER0003
  6
CONTINUOUS
 62
     7
 10
95.9911634900000053
 20
-311.7478901499999893
 30
0.0
 11
-43.5088361000000035
 21
-311.7478901499999893
 31
0.0
  0
LINE
  5
AB
  8
LAYER0003
  6
CONTINUOUS
 62
     7
 10
-43.5088361000000035
 20
-311.7478901499999893
 30
0.0
 11
-43.5088361000000035
 21
-317.5978853799999797
 31
0.0
  0
LINE
  5
AC
  8
LAYER0003
  6
CONTINUOUS
 62
     7
 10
95.9911634900000053
 20
-311.7478901499999893
 30
0.0
 11
95.9911634900000053
 21
-317.5978853799999797
 31
0.0
  0
LINE
  5
AD
  8
LAYER0003
  6
CONTINUOUS
 62
     7
 10
-43.7088376700000012
 20
-316.5978852299999744
 30
0.0
 11
-43.7088376700000012
 21
-306.7478893300000209
 31
0.0
  0
LINE
  5
AE
  8
LAYER0003
  6
CONTINUOUS
 62
     7
 10
-44.5088362600000025
 20
-306.7478893300000209
 30
0.0
 11
-44.5088362600000025
 21
-316.5978852299999744
 31
0.0
  0
LINE
  5
AF
  8
LAYER0003
  6
CONTINUOUS
 62
     7
 10
-44.5088362600000025
 20
-304.7478852799999913
 30
0.0
 11
-43.7088376700000012
 21
-304.7478852799999913
 31
0.0
  0
LINE
  5
B0
  8
LAYER0003
  6
CONTINUOUS
 62
     7
 10
-43.7088376700000012
 20
-304.7478852799999913
 30
0.0
 11
-43.7088376700000012
 21
-306.7478893300000209
 31
0.0
  0
LINE
  5
B1
  8
LAYER0003
  6
CONTINUOUS
 62
     7
 10
-44.5088362600000025
 20
-306.7478893300000209
 30
0.0
 11
-44.5088362600000025
 21
-304.7478852799999913
 31
0.0
  0
LINE
  5
B2
  8
LAYER0003
  6
CONTINUOUS
 62
     7
 10
96.9911617399999955
 20
-303.7478907000000277
 30
0.0
 11
96.9911617399999955
 21
-305.7478873000000021
 31
0.0
  0
LINE
  5
B3
  8
LAYER0003
  6
CONTINUOUS
 62
     7
 10
96.191165010000006
 20
-305.7478873000000021
 30
0.0
 11
96.191165010000006
 21
-303.7478907000000277
 31
0.0
  0
LINE
  5
B4
  8
LAYER0003
  6
CONTINUOUS
 62
     7
 10
96.9911617399999955
 20
-305.7478873000000021
 30
0.0
 11
96.9911617399999955
 21
-316.5978852299999744
 31
0.0
  0
LINE
  5
B5
  8
LAYER0003
  6
CONTINUOUS
 62
     7
 10
96.191165010000006
 20
-305.7478873000000021
 30
0.0
 11
96.191165010000006
 21
-316.5978852299999744
 31
0.0
  0
LINE
  5
B6
  8
LAYER0003
  6
CONTINUOUS
 62
     7
 10
-100.6388369799999936
 20
-73.3637252099999984
 30
0.0
 11
-101.6725938600000063
 21
-73.3637252099999984
 31
0.0
  0
LINE
  5
B7
  8
LAYER0003
  6
CONTINUOUS
 62
     7
 10
-101.6725938600000063
 20
-80.3637254300000023
 30
0.0
 11
-100.6388369799999936
 21
-80.3637254300000023
 31
0.0
  0
LINE
  5
B8
  8
LAYER0003
  6
CONTINUOUS
 62
     7
 10
-100.1388378200000062
 20
-73.863725290000005
 30
0.0
 11
-100.4388373200000046
 21
-73.863725290000005
 31
0.0
  0
LINE
  5
B9
  8
LAYER0003
  6
CONTINUOUS
 62
     7
 10
-100.4388373200000046
 20
-79.8637253499999957
 30
0.0
 11
-100.1388378200000062
 21
-79.8637253499999957
 31
0.0
  0
LINE
  5
BA
  8
LAYER0003
  6
CONTINUOUS
 62
     7
 10
-99.8048469200000028
 20
-41.3637138400000026
 30
0.0
 11
-99.8048469200000028
 21
-112.363736810000006
 31
0.0
  0
LINE
  5
BB
  8
LAYER0003
  6
CONTINUOUS
 62
     7
 10
-99.9388377800000001
 20
-80.9637253199999947
 30
0.0
 11
-99.8048469200000028
 21
-80.9637253199999947
 31
0.0
  0
LINE
  5
BC
  8
LAYER0003
  6
CONTINUOUS
 62
     7
 10
-99.8048469200000028
 20
-72.763725320000006
 30
0.0
 11
-99.9388377800000001
 21
-72.763725320000006
 31
0.0
  0
LINE
  5
BD
  8
LAYER0003
  6
CONTINUOUS
 62
     7
 10
-75.8091603299999974
 20
-112.8637252700000033
 30
0.0
 11
-75.8091603299999974
 21
-40.8637253599999895
 31
0.0
  0
LINE
  5
BE
  8
LAYER0003
  6
CONTINUOUS
 62
     7
 10
110.7911588300000005
 20
-74.8637252200000063
 30
0.0
 11
96.9911636500000043
 21
-74.8637252200000063
 31
0.0
  0
LINE
  5
BF
  8
LAYER0003
  6
CONTINUOUS
 62
     7
 10
96.9911636500000043
 20
-78.8637254199999944
 30
0.0
 11
110.7911588300000005
 21
-78.8637254199999944
 31
0.0
  0
LINE
  5
C0
  8
LAYER0003
  6
CONTINUOUS
 62
     7
 10
-101.6725938600000063
 20
-76.8637253100000066
 30
0.0
 11
-101.6725938600000063
 21
-80.3637254300000023
 31
0.0
  0
LINE
  5
C1
  8
LAYER0003
  6
CONTINUOUS
 62
     7
 10
-101.6725938600000063
 20
-73.3637252099999984
 30
0.0
 11
-101.6725938600000063
 21
-76.8637253100000066
 31
0.0
  0
LINE
  5
C2
  8
LAYER0003
  6
CONTINUOUS
 62
     7
 10
-100.6388369799999936
 20
-76.8637253100000066
 30
0.0
 11
-100.6388369799999936
 21
-80.3637254300000023
 31
0.0
  0
LINE
  5
C3
  8
LAYER0003
  6
CONTINUOUS
 62
     7
 10
-100.6388369799999936
 20
-73.3637252099999984
 30
0.0
 11
-100.6388369799999936
 21
-76.8637253100000066
 31
0.0
  0
LINE
  5
C4
  8
LAYER0003
  6
CONTINUOUS
 62
     7
 10
-79.3088376799999963
 20
-112.8637269900000035
 30
0.0
 11
-79.3088376799999963
 21
-40.8637236400000035
 31
0.0
  0
LINE
  5
C5
  8
LAYER0003
  6
CONTINUOUS
 62
     7
 10
-100.1388377800000029
 20
-80.763725320000006
 30
0.0
 11
-100.1388377800000029
 21
-72.9637253199999947
 31
0.0
  0
LINE
  5
C6
  8
LAYER0003
  6
CONTINUOUS
 62
     7
 10
-99.8388383300000015
 20
-72.7637253000000044
 30
0.0
 11
-99.8388383300000015
 21
-72.681992429999994
 31
0.0
  0
LINE
  5
C7
  8
LAYER0003
  6
CONTINUOUS
 62
     7
 10
-99.8388383300000015
 20
-81.0454582100000067
 30
0.0
 11
-99.8388383300000015
 21
-80.9637253399999963
 31
0.0
  0
LINE
  5
C8
  8
LAYER0003
  6
CONTINUOUS
 62
     7
 10
-75.8091603299999974
 20
-112.8637252700000033
 30
0.0
 11
-99.3048466799999971
 21
-112.863736810000006
 31
0.0
  0
LINE
  5
C9
  8
LAYER0003
  6
CONTINUOUS
 62
     7
 10
218.791154540000008
 20
-49.2963778100000027
 30
0.0
 11
218.7911622199999897
 21
-104.2564694400000036
 31
0.0
  0
LINE
  5
CA
  8
LAYER0003
  6
CONTINUOUS
 62
     7
 10
184.8736976799999923
 20
-46.1805766700000007
 30
0.0
 11
216.8609475300000042
 21
-47.2975956499999981
 31
0.0
  0
LINE
  5
CB
  8
LAYER0003
  6
CONTINUOUS
 62
     7
 10
216.8609475300000042
 20
-106.2552506399999999
 30
0.0
 11
179.8737024499999961
 21
-107.5468739699999929
 31
0.0
  0
LINE
  5
CC
  8
LAYER0003
  6
CONTINUOUS
 62
     7
 10
222.6911758599999871
 20
-110.7018670199999946
 30
0.0
 11
222.6911758599999871
 21
-110.7079206300000038
 31
0.0
  0
LINE
  5
CD
  8
LAYER0003
  6
CONTINUOUS
 62
     7
 10
222.6911758599999871
 20
-110.7079206300000038
 30
0.0
 11
179.3911730400000124
 21
-111.4637261400000057
 31
0.0
  0
LINE
  5
CE
  8
LAYER0003
  6
CONTINUOUS
 62
     7
 10
179.3911730400000124
 20
-111.4637261400000057
 30
0.0
 11
179.3911730400000124
 21
-108.049859699999999
 31
0.0
  0
LINE
  5
CF
  8
LAYER0003
  6
CONTINUOUS
 62
     7
 10
184.3911705799999936
 20
-42.2637244800000005
 30
0.0
 11
222.6911781599999927
 21
-42.93225391
 31
0.0
  0
LINE
  5
D0
  8
LAYER0003
  6
CONTINUOUS
 62
     7
 10
222.6911781599999927
 20
-42.93225391
 30
0.0
 11
222.6911781599999927
 21
-42.9383075000000005
 31
0.0
  0
LINE
  5
D1
  8
LAYER0003
  6
CONTINUOUS
 62
     7
 10
184.3911645199999896
 20
-45.6808809199999928
 30
0.0
 11
184.3911705799999936
 21
-42.2637244800000005
 31
0.0
  0
LINE
  5
D2
  8
LAYER0003
  6
CONTINUOUS
 62
     7
 10
224.1911565499999881
 20
-44.9409825999999981
 30
0.0
 11
224.1911565499999881
 21
-108.6991919400000057
 31
0.0
  0
LINE
  5
D3
  8
LAYER0003
  6
CONTINUOUS
 62
     7
 10
224.1911565499999881
 20
-43.9649416399999922
 30
0.0
 11
224.1911565499999881
 21
-44.9409825999999981
 31
0.0
  0
LINE
  5
D4
  8
LAYER0003
  6
CONTINUOUS
 62
     7
 10
224.1911565499999881
 20
-108.6991919400000057
 30
0.0
 11
224.1911565499999881
 21
-109.6752328900000037
 31
0.0
  0
LINE
  5
D5
  8
LAYER0003
  6
CONTINUOUS
 62
     7
 10
222.6911781599999927
 20
-42.93225391
 30
0.0
 11
223.2086060800000098
 21
-42.9412877399999928
 31
0.0
  0
LINE
  5
D6
  8
LAYER0003
  6
CONTINUOUS
 62
     7
 10
224.1911565499999881
 20
-43.9649416399999922
 30
0.0
 11
224.1911565499999881
 21
-43.94113329999999
 31
0.0
  0
LINE
  5
D7
  8
LAYER0003
  6
CONTINUOUS
 62
     7
 10
222.6911758599999871
 20
-110.7079206300000038
 30
0.0
 11
223.2086037800000042
 21
-110.6988905099999982
 31
0.0
  0
LINE
  5
D8
  8
LAYER0003
  6
CONTINUOUS
 62
     7
 10
224.1911565499999881
 20
-109.6990412399999997
 30
0.0
 11
224.1911565499999881
 21
-109.6752328900000037
 31
0.0
  0
LINE
  5
D9
  8
LAYER0003
  6
CONTINUOUS
 62
     7
 10
-85.9088378200000022
 20
-95.3637257400000067
 30
0.0
 11
-86.7088379599999968
 21
-95.3637257400000067
 31
0.0
  0
LINE
  5
DA
  8
LAYER0003
  6
CONTINUOUS
 62
     7
 10
-86.7088379599999968
 20
-95.3637257400000067
 30
0.0
 11
-86.7088379599999968
 21
-95.9637247200000019
 31
0.0
  0
LINE
  5
DB
  8
LAYER0003
  6
CONTINUOUS
 62
     7
 10
-87.2088377799999961
 20
-96.4637253199999947
 30
0.0
 11
-87.808838140000006
 21
-96.4637255500000066
 31
0.0
  0
LINE
  5
DC
  8
LAYER0003
  6
CONTINUOUS
 62
     7
 10
-87.808838140000006
 20
-96.4637255500000066
 30
0.0
 11
-87.808838140000006
 21
-97.2637260599999962
 31
0.0
  0
LINE
  5
DD
  8
LAYER0003
  6
CONTINUOUS
 62
     7
 10
-87.808838140000006
 20
-97.2637260599999962
 30
0.0
 11
-87.2088382299999836
 21
-97.2637260599999962
 31
0.0
  0
LINE
  5
DE
  8
LAYER0003
  6
CONTINUOUS
 62
     7
 10
-86.7088381500000054
 20
-97.7637256799999932
 30
0.0
 11
-86.7088385200000147
 21
-98.3637264200000061
 31
0.0
  0
LINE
  5
DF
  8
LAYER0003
  6
CONTINUOUS
 62
     7
 10
-86.7088385200000147
 20
-98.3637264200000061
 30
0.0
 11
-85.9088380099999966
 21
-98.3637264200000061
 31
0.0
  0
LINE
  5
E0
  8
LAYER0003
  6
CONTINUOUS
 62
     7
 10
-85.9088380099999966
 20
-98.3637264200000061
 30
0.0
 11
-85.9088380099999966
 21
-97.7637255700000054
 31
0.0
  0
LINE
  5
E1
  8
LAYER0003
  6
CONTINUOUS
 62
     7
 10
-85.4088380799999953
 20
-97.2637257500000061
 30
0.0
 11
-84.8088379499999974
 21
-97.2637264899999963
 31
0.0
  0
LINE
  5
E2
  8
LAYER0003
  6
CONTINUOUS
 62
     7
 10
-84.8088379499999974
 20
-97.2637264899999963
 30
0.0
 11
-84.8088379499999974
 21
-96.463725850000003
 31
0.0
  0
LINE
  5
E3
  8
LAYER0003
  6
CONTINUOUS
 62
     7
 10
-84.8088379499999974
 20
-96.463725850000003
 30
0.0
 11
-85.4088375500000154
 21
-96.4637259800000066
 31
0.0
  0
LINE
  5
E4
  8
LAYER0003
  6
CONTINUOUS
 62
     7
 10
-85.9088379500000059
 20
-95.9637254999999953
 30
0.0
 11
-85.9088378200000022
 21
-95.3637257400000067
 31
0.0
  0
LINE
  5
E5
  8
LAYER0003
  6
CONTINUOUS
 62
     7
 10
-87.7213487700000059
 20
-97.1762357500000036
 30
0.0
 11
-87.808838140000006
 21
-97.2637260599999962
 31
0.0
  0
LINE
  5
E6
  8
LAYER0003
  6
CONTINUOUS
 62
     7
 10
-87.7213487700000059
 20
-97.1762357500000036
 30
0.0
 11
-87.2088382299999836
 21
-97.1762357500000036
 31
0.0
  0
LINE
  5
E7
  8
LAYER0003
  6
CONTINUOUS
 62
     7
 10
-84.8963263899999845
 20
-96.5512142900000043
 30
0.0
 11
-84.8088379499999974
 21
-96.463725850000003
 31
0.0
  0
LINE
  5
E8
  8
LAYER0003
  6
CONTINUOUS
 62
     7
 10
-84.8963263899999845
 20
-96.5512142900000043
 30
0.0
 11
-85.4088378600000055
 21
-96.5512142900000043
 31
0.0
  0
LINE
  5
E9
  8
LAYER0003
  6
CONTINUOUS
 62
     7
 10
-86.6213478399999985
 20
-97.7637255700000054
 30
0.0
 11
-86.6213491400000066
 21
-98.276236109999985
 31
0.0
  0
LINE
  5
EA
  8
LAYER0003
  6
CONTINUOUS
 62
     7
 10
-86.6213491400000066
 20
-98.276236109999985
 30
0.0
 11
-86.7088385200000147
 21
-98.3637264200000061
 31
0.0
  0
LINE
  5
EB
  8
LAYER0003
  6
CONTINUOUS
 62
     7
 10
-85.9963264600000059
 20
-98.276236109999985
 30
0.0
 11
-85.9088380099999966
 21
-98.3637264200000061
 31
0.0
  0
LINE
  5
EC
  8
LAYER0003
  6
CONTINUOUS
 62
     7
 10
-85.9963264600000059
 20
-98.276236109999985
 30
0.0
 11
-85.9963268099999993
 21
-97.7637256799999932
 31
0.0
  0
LINE
  5
ED
  8
LAYER0003
  6
CONTINUOUS
 62
     7
 10
-86.6213491400000066
 20
-98.276236109999985
 30
0.0
 11
-85.9963264600000059
 21
-98.276236109999985
 31
0.0
  0
LINE
  5
EE
  8
LAYER0003
  6
CONTINUOUS
 62
     7
 10
-87.2088377799999961
 20
-96.5512139899999937
 30
0.0
 11
-87.7213487700000059
 21
-96.5512139899999937
 31
0.0
  0
LINE
  5
EF
  8
LAYER0003
  6
CONTINUOUS
 62
     7
 10
-87.7213487700000059
 20
-96.5512139899999937
 30
0.0
 11
-87.808838140000006
 21
-96.4637255500000066
 31
0.0
  0
LINE
  5
F0
  8
LAYER0003
  6
CONTINUOUS
 62
     7
 10
-86.6213489499999838
 20
-95.4512141799999938
 30
0.0
 11
-86.7088379599999968
 21
-95.3637257400000067
 31
0.0
  0
LINE
  5
F1
  8
LAYER0003
  6
CONTINUOUS
 62
     7
 10
-86.6213489499999838
 20
-95.4512141799999938
 30
0.0
 11
-86.6213492899999977
 21
-95.9637254999999953
 31
0.0
  0
LINE
  5
F2
  8
LAYER0003
  6
CONTINUOUS
 62
     7
 10
-87.7213487700000059
 20
-96.5512139899999937
 30
0.0
 11
-87.7213487700000059
 21
-97.1762357500000036
 31
0.0
  0
LINE
  5
F3
  8
LAYER0003
  6
CONTINUOUS
 62
     7
 10
-85.9963262600000036
 20
-95.4512141799999938
 30
0.0
 11
-85.9088378200000022
 21
-95.3637257400000067
 31
0.0
  0
LINE
  5
F4
  8
LAYER0003
  6
CONTINUOUS
 62
     7
 10
-85.9963262600000036
 20
-95.4512141799999938
 30
0.0
 11
-86.6213489499999838
 21
-95.4512141799999938
 31
0.0
  0
LINE
  5
F5
  8
LAYER0003
  6
CONTINUOUS
 62
     7
 10
-85.9963262600000036
 20
-95.9637247200000019
 30
0.0
 11
-85.9963262600000036
 21
-95.4512141799999938
 31
0.0
  0
LINE
  5
F6
  8
LAYER0003
  6
CONTINUOUS
 62
     7
 10
-84.8963263899999845
 20
-97.1762360400000063
 30
0.0
 11
-84.8088379499999974
 21
-97.2637264899999963
 31
0.0
  0
LINE
  5
F7
  8
LAYER0003
  6
CONTINUOUS
 62
     7
 10
-84.8963263899999845
 20
-97.1762360400000063
 30
0.0
 11
-84.8963263899999845
 21
-96.5512142900000043
 31
0.0
  0
LINE
  5
F8
  8
LAYER0003
  6
CONTINUOUS
 62
     7
 10
-85.4088380799999953
 20
-97.1762369599999971
 30
0.0
 11
-84.8963263899999845
 21
-97.1762360400000063
 31
0.0
  0
LINE
  5
F9
  8
LAYER0003
  6
CONTINUOUS
 62
     7
 10
-85.908837829999996
 20
-55.3637247699999975
 30
0.0
 11
-86.7088379599999968
 21
-55.3637247699999975
 31
0.0
  0
LINE
  5
FA
  8
LAYER0003
  6
CONTINUOUS
 62
     7
 10
-86.7088379599999968
 20
-55.3637247699999975
 30
0.0
 11
-86.7088379599999968
 21
-55.9637256199999911
 31
0.0
  0
LINE
  5
FB
  8
LAYER0003
  6
CONTINUOUS
 62
     7
 10
-87.2088377799999961
 20
-56.4637253200000018
 30
0.0
 11
-87.808838140000006
 21
-56.4637245799999974
 31
0.0
  0
LINE
  5
FC
  8
LAYER0003
  6
CONTINUOUS
 62
     7
 10
-87.808838140000006
 20
-56.4637245799999974
 30
0.0
 11
-87.808838140000006
 21
-57.2637250900000012
 31
0.0
  0
LINE
  5
FD
  8
LAYER0003
  6
CONTINUOUS
 62
     7
 10
-87.808838140000006
 20
-57.2637250900000012
 30
0.0
 11
-87.2088382299999836
 21
-57.2637250900000012
 31
0.0
  0
LINE
  5
FE
  8
LAYER0003
  6
CONTINUOUS
 62
     7
 10
-86.7088376600000146
 20
-57.7637252099999898
 30
0.0
 11
-86.7088380299999955
 21
-58.3637249699999998
 31
0.0
  0
LINE
  5
FF
  8
LAYER0003
  6
CONTINUOUS
 62
     7
 10
-86.7088380299999955
 20
-58.3637249699999998
 30
0.0
 11
-85.9088375299999853
 21
-58.3637249699999998
 31
0.0
  0
LINE
  5
100
  8
LAYER0003
  6
CONTINUOUS
 62
     7
 10
-85.9088375299999853
 20
-58.3637249699999998
 30
0.0
 11
-85.9088375299999853
 21
-57.7637259799999967
 31
0.0
  0
LINE
  5
101
  8
LAYER0003
  6
CONTINUOUS
 62
     7
 10
-85.408837599999984
 20
-57.2637252700000019
 30
0.0
 11
-84.8088374700000003
 21
-57.2637250399999971
 31
0.0
  0
LINE
  5
102
  8
LAYER0003
  6
CONTINUOUS
 62
     7
 10
-84.8088374700000003
 20
-57.2637250399999971
 30
0.0
 11
-84.8088374700000003
 21
-56.463724759999991
 31
0.0
  0
LINE
  5
103
  8
LAYER0003
  6
CONTINUOUS
 62
     7
 10
-84.8088374700000003
 20
-56.463724759999991
 30
0.0
 11
-85.4088371200000154
 21
-56.463726770000001
 31
0.0
  0
LINE
  5
104
  8
LAYER0003
  6
CONTINUOUS
 62
     7
 10
-85.9088379599999854
 20
-55.9637255100000033
 30
0.0
 11
-85.908837829999996
 21
-55.3637247699999975
 31
0.0
  0
LINE
  5
105
  8
LAYER0003
  6
CONTINUOUS
 62
     7
 10
-87.7213487700000059
 20
-57.1762366499999999
 30
0.0
 11
-87.808838140000006
 21
-57.2637250900000012
 31
0.0
  0
LINE
  5
106
  8
LAYER0003
  6
CONTINUOUS
 62
     7
 10
-87.7213487700000059
 20
-57.1762366499999999
 30
0.0
 11
-87.2088382299999836
 21
-57.1762366499999999
 31
0.0
  0
LINE
  5
107
  8
LAYER0003
  6
CONTINUOUS
 62
     7
 10
-86.6213489600000059
 20
-55.4512150799999972
 30
0.0
 11
-86.7088379599999968
 21
-55.3637247699999975
 31
0.0
  0
LINE
  5
108
  8
LAYER0003
  6
CONTINUOUS
 62
     7
 10
-86.6213489600000059
 20
-55.4512150799999972
 30
0.0
 11
-86.6213493000000057
 21
-55.9637255100000033
 31
0.0
  0
LINE
  5
109
  8
LAYER0003
  6
CONTINUOUS
 62
     7
 10
-84.8963259100000158
 20
-56.5512150799999986
 30
0.0
 11
-84.8088374700000003
 21
-56.463724759999991
 31
0.0
  0
LINE
  5
10A
  8
LAYER0003
  6
CONTINUOUS
 62
     7
 10
-84.8963259100000158
 20
-56.5512150799999986
 30
0.0
 11
-85.4088373799999943
 21
-56.5512150799999986
 31
0.0
  0
LINE
  5
10B
  8
LAYER0003
  6
CONTINUOUS
 62
     7
 10
-85.9963262699999973
 20
-55.4512150799999972
 30
0.0
 11
-85.908837829999996
 21
-55.3637247699999975
 31
0.0
  0
LINE
  5
10C
  8
LAYER0003
  6
CONTINUOUS
 62
     7
 10
-85.9963262699999973
 20
-55.4512150799999972
 30
0.0
 11
-86.6213489600000059
 21
-55.4512150799999972
 31
0.0
  0
LINE
  5
10D
  8
LAYER0003
  6
CONTINUOUS
 62
     7
 10
-86.6213486599999953
 20
-58.2762365099999897
 30
0.0
 11
-86.7088380299999955
 21
-58.3637249699999998
 31
0.0
  0
LINE
  5
10E
  8
LAYER0003
  6
CONTINUOUS
 62
     7
 10
-86.6213486599999953
 20
-58.2762365099999897
 30
0.0
 11
-85.9963259700000151
 21
-58.2762365099999897
 31
0.0
  0
LINE
  5
10F
  8
LAYER0003
  6
CONTINUOUS
 62
     7
 10
-85.9963259700000151
 20
-58.2762365099999897
 30
0.0
 11
-85.9088375299999853
 21
-58.3637249699999998
 31
0.0
  0
LINE
  5
110
  8
LAYER0003
  6
CONTINUOUS
 62
     7
 10
-87.2088377799999961
 20
-56.5512139900000008
 30
0.0
 11
-87.7213487700000059
 21
-56.55121488999999
 31
0.0
  0
LINE
  5
111
  8
LAYER0003
  6
CONTINUOUS
 62
     7
 10
-87.7213487700000059
 20
-56.55121488999999
 30
0.0
 11
-87.808838140000006
 21
-56.4637245799999974
 31
0.0
  0
LINE
  5
112
  8
LAYER0003
  6
CONTINUOUS
 62
     7
 10
-86.6213492199999848
 20
-57.7637252099999898
 30
0.0
 11
-86.6213486599999953
 21
-58.2762365099999897
 31
0.0
  0
LINE
  5
113
  8
LAYER0003
  6
CONTINUOUS
 62
     7
 10
-87.7213487700000059
 20
-56.55121488999999
 30
0.0
 11
-87.7213487700000059
 21
-57.1762366499999999
 31
0.0
  0
LINE
  5
114
  8
LAYER0003
  6
CONTINUOUS
 62
     7
 10
-85.9963259700000151
 20
-58.2762365099999897
 30
0.0
 11
-85.9963259700000151
 21
-57.7637259799999967
 31
0.0
  0
LINE
  5
115
  8
LAYER0003
  6
CONTINUOUS
 62
     7
 10
-85.4088373799999943
 20
-57.1762368300000006
 30
0.0
 11
-84.8963259100000158
 21
-57.1762368300000006
 31
0.0
  0
LINE
  5
116
  8
LAYER0003
  6
CONTINUOUS
 62
     7
 10
-84.8963259100000158
 20
-57.1762368300000006
 30
0.0
 11
-84.8088374700000003
 21
-57.2637250399999971
 31
0.0
  0
LINE
  5
117
  8
LAYER0003
  6
CONTINUOUS
 62
     7
 10
-85.9963262699999973
 20
-55.9637256199999911
 30
0.0
 11
-85.9963262699999973
 21
-55.4512150799999972
 31
0.0
  0
LINE
  5
118
  8
LAYER0003
  6
CONTINUOUS
 62
     7
 10
-84.8963259100000158
 20
-57.1762368300000006
 30
0.0
 11
-84.8963259100000158
 21
-56.5512150799999986
 31
0.0
  0
LINE
  5
119
  8
LAYER0003
  6
CONTINUOUS
 62
     7
 10
193.3911716099999865
 20
-47.3637251399999997
 30
0.0
 11
217.3058067899999912
 21
-47.3637251399999997
 31
0.0
  0
LINE
  5
11A
  8
LAYER0003
  6
CONTINUOUS
 62
     7
 10
218.791154540000008
 20
-67.3637256300000047
 30
0.0
 11
193.3911716099999865
 21
-67.3637256300000047
 31
0.0
  0
LINE
  5
11B
  8
LAYER0003
  6
CONTINUOUS
 62
     7
 10
188.3911763799999903
 20
-86.363725020000004
 30
0.0
 11
216.8911670800000024
 21
-86.363725020000004
 31
0.0
  0
LINE
  5
11C
  8
LAYER0003
  6
CONTINUOUS
 62
     7
 10
188.3911763799999903
 20
-89.6585347399999932
 30
0.0
 11
188.3911763799999903
 21
-86.363725020000004
 31
0.0
  0
LINE
  5
11D
  8
LAYER0003
  6
CONTINUOUS
 62
     7
 10
213.7546514699999989
 20
-106.363725500000001
 30
0.0
 11
188.3911763799999903
 21
-106.363725500000001
 31
0.0
  0
LINE
  5
11E
  8
LAYER0003
  6
CONTINUOUS
 62
     7
 10
216.8911670800000024
 20
-86.363725020000004
 30
0.0
 11
216.8911670800000024
 21
-106.253967270000004
 31
0.0
  0
LINE
  5
11F
  8
LAYER0003
  6
CONTINUOUS
 62
     7
 10
175.3911649400000101
 20
-43.5637246499999904
 30
0.0
 11
175.3911649400000101
 21
-110.1637259900000032
 31
0.0
  0
LINE
  5
120
  8
LAYER0003
  6
CONTINUOUS
 62
     7
 10
193.3911716099999865
 20
-64.3637253800000053
 30
0.0
 11
180.3911601700000062
 21
-64.5906409499999938
 31
0.0
  0
LINE
  5
121
  8
LAYER0003
  6
CONTINUOUS
 62
     7
 10
180.3911622200000124
 20
-64.5905970400000058
 30
0.0
 11
180.3911601700000062
 21
-89.2241286399999893
 31
0.0
  0
LINE
  5
122
  8
LAYER0003
  6
CONTINUOUS
 62
     7
 10
180.3911601700000062
 20
-89.2240848600000049
 30
0.0
 11
188.0964016099999867
 21
-89.3585799500000064
 31
0.0
  0
LINE
  5
123
  8
LAYER0003
  6
CONTINUOUS
 62
     7
 10
188.3911763799999903
 20
-89.6585347399999932
 30
0.0
 11
188.3911763799999903
 21
-107.2494371599999994
 31
0.0
  0
LINE
  5
124
  8
LAYER0003
  6
CONTINUOUS
 62
     7
 10
193.3911716099999865
 20
-46.4780133000000006
 30
0.0
 11
193.3911716099999865
 21
-67.3637256300000047
 31
0.0
  0
LINE
  5
125
  8
LAYER0003
  6
CONTINUOUS
 62
     7
 10
182.3911642200000074
 20
-64.5557312499999938
 30
0.0
 11
182.3911642200000074
 21
-89.258994549999997
 31
0.0
  0
LINE
  5
126
  8
LAYER0003
  6
CONTINUOUS
 62
     7
 10
-64.5088376799999992
 20
-110.7637249600000047
 30
0.0
 11
-75.8091603299999974
 21
-110.7637249600000047
 31
0.0
  0
LINE
  5
127
  8
LAYER0003
  6
CONTINUOUS
 62
     7
 10
-64.5088376799999992
 20
-42.9637256600000015
 30
0.0
 11
-64.5088376799999992
 21
-74.8637252200000063
 31
0.0
  0
LINE
  5
128
  8
LAYER0003
  6
CONTINUOUS
 62
     7
 10
-64.5088376799999992
 20
-78.8637254199999944
 30
0.0
 11
-64.5088376799999992
 21
-110.7637249600000047
 31
0.0
  0
LINE
  5
129
  8
LAYER0003
  6
CONTINUOUS
 62
     7
 10
179.3911730400000124
 20
-110.1637259900000032
 30
0.0
 11
-64.5088376799999992
 21
-110.1637259900000032
 31
0.0
  0
LINE
  5
12A
  8
LAYER0003
  6
CONTINUOUS
 62
     7
 10
-74.2088377299999848
 20
-78.8637254199999944
 30
0.0
 11
-74.2088377299999848
 21
-74.8637252200000063
 31
0.0
  0
LINE
  5
12B
  8
LAYER0003
  6
CONTINUOUS
 62
     7
 10
109.3911649399999959
 20
-77.4137253100000038
 30
0.0
 11
110.2911652699999934
 21
-77.4137253100000038
 31
0.0
  0
LINE
  5
12C
  8
LAYER0003
  6
CONTINUOUS
 62
     7
 10
109.3911649399999959
 20
-76.3137253299999969
 30
0.0
 11
110.2911652699999934
 21
-76.3137253299999969
 31
0.0
  0
LINE
  5
12D
  8
LAYER0003
  6
CONTINUOUS
 62
     7
 10
109.3911649399999959
 20
-76.3137253299999969
 30
0.0
 11
109.3911649399999959
 21
-77.4137253100000038
 31
0.0
  0
LINE
  5
12E
  8
LAYER0003
  6
CONTINUOUS
 62
     7
 10
110.7911588300000005
 20
-74.8637252200000063
 30
0.0
 11
110.7911588300000005
 21
-76.3137253299999969
 31
0.0
  0
LINE
  5
12F
  8
LAYER0003
  6
CONTINUOUS
 62
     7
 10
110.7911588300000005
 20
-77.4137253100000038
 30
0.0
 11
110.7911588300000005
 21
-78.8637254199999944
 31
0.0
  0
LINE
  5
130
  8
LAYER0003
  6
CONTINUOUS
 62
     7
 10
110.2911652699999934
 20
-77.4137253100000038
 30
0.0
 11
110.7911588300000005
 21
-77.4137253100000038
 31
0.0
  0
LINE
  5
131
  8
LAYER0003
  6
CONTINUOUS
 62
     7
 10
-44.5088362600000025
 20
-46.8637259899999989
 30
0.0
 11
96.9911636500000043
 21
-46.8637259899999989
 31
0.0
  0
LINE
  5
132
  8
LAYER0003
  6
CONTINUOUS
 62
     7
 10
85.4911623400000167
 20
-57.8637262800000016
 30
0.0
 11
85.4911618600000054
 21
-68.8637256699999938
 31
0.0
  0
LINE
  5
133
  8
LAYER0003
  6
CONTINUOUS
 62
     7
 10
57.4911654200000015
 20
-55.8637254499999898
 30
0.0
 11
83.4911620799999952
 21
-55.8637251800000101
 31
0.0
  0
LINE
  5
134
  8
LAYER0003
  6
CONTINUOUS
 62
     7
 10
55.4911614999999898
 20
-68.8637249300000036
 30
0.0
 11
55.4911622199999996
 21
-57.8637253099999995
 31
0.0
  0
LINE
  5
135
  8
LAYER0003
  6
CONTINUOUS
 62
     7
 10
83.4911618600000054
 20
-70.8637256699999938
 30
0.0
 11
57.4911618599999983
 21
-70.8637256699999938
 31
0.0
  0
LINE
  5
136
  8
LAYER0003
  6
CONTINUOUS
 62
     7
 10
10.4911597200000006
 20
-84.8637257000000034
 30
0.0
 11
10.4911597200000006
 21
-95.8637247099999996
 31
0.0
  0
LINE
  5
137
  8
LAYER0003
  6
CONTINUOUS
 62
     7
 10
12.4911609699999993
 20
-97.8637265700000114
 30
0.0
 11
38.4911630499999973
 21
-97.8637262900000025
 31
0.0
  0
LINE
  5
138
  8
LAYER0003
  6
CONTINUOUS
 62
     7
 10
40.4911608299999983
 20
-95.8637264299999998
 30
0.0
 11
40.4911595199999965
 21
-84.8637268100000028
 31
0.0
  0
LINE
  5
139
  8
LAYER0003
  6
CONTINUOUS
 62
     7
 10
38.4911609400000003
 20
-82.8637240900000052
 30
0.0
 11
12.4911624900000007
 21
-82.8637240900000052
 31
0.0
  0
LINE
  5
13A
  8
LAYER0003
  6
CONTINUOUS
 62
     7
 10
55.4911614999999898
 20
-84.8637257000000034
 30
0.0
 11
55.4911614999999898
 21
-95.8637247099999996
 31
0.0
  0
LINE
  5
13B
  8
LAYER0003
  6
CONTINUOUS
 62
     7
 10
57.4911618599999983
 20
-97.8637256699999938
 30
0.0
 11
83.4911582900000013
 21
-97.863725389999999
 31
0.0
  0
LINE
  5
13C
  8
LAYER0003
  6
CONTINUOUS
 62
     7
 10
85.4911617199999938
 20
-95.8637255299999964
 30
0.0
 11
85.4911622000000051
 21
-84.8637259199999932
 31
0.0
  0
LINE
  5
13D
  8
LAYER0003
  6
CONTINUOUS
 62
     7
 10
83.4911618400000037
 20
-82.8637249899999944
 30
0.0
 11
57.4911651700000021
 21
-82.8637249899999944
 31
0.0
  0
LINE
  5
13E
  8
LAYER0003
  6
CONTINUOUS
 62
     7
 10
40.491159660000001
 20
-57.86372716999999
 30
0.0
 11
40.4911609700000028
 21
-68.863726569999983
 31
0.0
  0
LINE
  5
13F
  8
LAYER0003
  6
CONTINUOUS
 62
     7
 10
12.4911636300000009
 20
-55.8637254499999898
 30
0.0
 11
38.4911620800000023
 21
-55.8637251800000101
 31
0.0
  0
LINE
  5
140
  8
LAYER0003
  6
CONTINUOUS
 62
     7
 10
10.4911597200000006
 20
-68.8637249300000036
 30
0.0
 11
10.4911622199999996
 21
-57.8637253099999995
 31
0.0
  0
LINE
  5
141
  8
LAYER0003
  6
CONTINUOUS
 62
     7
 10
38.4911609700000028
 20
-70.8637265699999972
 30
0.0
 11
12.4911609699999993
 21
-70.8637265699999972
 31
0.0
  0
LINE
  5
142
  8
LAYER0003
  6
CONTINUOUS
 62
     7
 10
96.9911636500000043
 20
-46.8637259899999989
 30
0.0
 11
96.9911636500000043
 21
-106.8637246499999947
 31
0.0
  0
LINE
  5
143
  8
LAYER0003
  6
CONTINUOUS
 62
     7
 10
-44.5088362600000025
 20
-106.8637246499999947
 30
0.0
 11
-44.5088362600000025
 21
-46.8637259899999989
 31
0.0
  0
LINE
  5
144
  8
LAYER0003
  6
CONTINUOUS
 62
     7
 10
96.9911636500000043
 20
-106.8637246499999947
 30
0.0
 11
-44.5088362600000025
 21
-106.8637246499999947
 31
0.0
  0
LINE
  5
145
  8
LAYER0003
  6
CONTINUOUS
 62
     7
 10
-238.4328277799999967
 20
-306.197885250000013
 30
0.0
 11
-238.4328277799999967
 21
-300.397886939999978
 31
0.0
  0
LINE
  5
146
  8
LAYER0003
  6
CONTINUOUS
 62
     7
 10
-230.2328277599999922
 20
-300.397886939999978
 30
0.0
 11
-230.2328277599999922
 21
-306.197885250000013
 31
0.0
  0
LINE
  5
147
  8
LAYER0003
  6
CONTINUOUS
 62
     7
 10
-268.1328294499999743
 20
-306.6978884900000253
 30
0.0
 11
-267.9943529600000147
 21
-306.6978884900000253
 31
0.0
  0
LINE
  5
148
  8
LAYER0003
  6
CONTINUOUS
 62
     7
 10
-229.732827670000006
 20
-306.6978884900000253
 30
0.0
 11
-200.5328260899999862
 21
-306.6978884900000253
 31
0.0
  0
LINE
  5
149
  8
LAYER0003
  6
CONTINUOUS
 62
     7
 10
-269.4328291100000001
 20
-165.7978885800000057
 30
0.0
 11
-269.4328291100000001
 21
-305.3978888400000073
 31
0.0
  0
LINE
  5
14A
  8
LAYER0003
  6
CONTINUOUS
 62
     7
 10
-199.2328264399999966
 20
-305.3978888400000073
 30
0.0
 11
-199.2328264399999966
 21
-165.7978885800000057
 31
0.0
  0
LINE
  5
14B
  8
LAYER0003
  6
CONTINUOUS
 62
     7
 10
-200.5328260899999862
 20
-164.4978889200000083
 30
0.0
 11
-268.1328294499999743
 21
-164.4978889200000083
 31
0.0
  0
LINE
  5
14C
  8
LAYER0003
  6
CONTINUOUS
 62
     7
 10
-200.3325231599999938
 20
-163.5978887100000065
 30
0.0
 11
-268.333132379999995
 21
-163.5978887100000065
 31
0.0
  0
LINE
  5
14D
  8
LAYER0003
  6
CONTINUOUS
 62
     7
 10
-270.3328277699999944
 20
-165.5975841000000059
 30
0.0
 11
-270.3328277699999944
 21
-305.5981933200000071
 31
0.0
  0
LINE
  5
14E
  8
LAYER0003
  6
CONTINUOUS
 62
     7
 10
-268.333132379999995
 20
-307.5978886999999986
 30
0.0
 11
-200.3328277699999944
 21
-307.5978886999999986
 31
0.0
  0
LINE
  5
14F
  8
LAYER0003
  6
CONTINUOUS
 62
     7
 10
-198.3328277699999944
 20
-165.5975841000000059
 30
0.0
 11
-198.3328277699999944
 21
-305.5981933200000071
 31
0.0
  0
LINE
  5
150
  8
LAYER0003
  6
CONTINUOUS
 62
     7
 10
-205.3328280099999859
 20
-307.5978882300000237
 30
0.0
 11
-205.3328280099999859
 21
-317.5978866599999719
 31
0.0
  0
LINE
  5
151
  8
LAYER0003
  6
CONTINUOUS
 62
     7
 10
-263.3328263399999969
 20
-307.5978882300000237
 30
0.0
 11
-263.3328263399999969
 21
-317.5978866599999719
 31
0.0
  0
LINE
  5
152
  8
LAYER0003
  6
CONTINUOUS
 62
     7
 10
-205.3328280099999859
 20
-317.5978866599999719
 30
0.0
 11
-263.3328263399999969
 21
-317.5978866599999719
 31
0.0
  0
LINE
  5
153
  8
LAYER0003
  6
CONTINUOUS
 62
     7
 10
-205.1328251600000101
 20
-311.7478923599999803
 30
0.0
 11
-205.132825849999989
 21
-316.5978890399999841
 31
0.0
  0
LINE
  5
154
  8
LAYER0003
  6
CONTINUOUS
 62
     7
 10
-204.3328269099999943
 20
-311.7478923599999803
 30
0.0
 11
-204.3328269099999943
 21
-316.5978855500000009
 31
0.0
  0
LINE
  5
155
  8
LAYER0003
  6
CONTINUOUS
 62
     7
 10
-204.3328269099999943
 20
-311.7478923599999803
 30
0.0
 11
-205.1328251600000101
 21
-311.7478923599999803
 31
0.0
  0
LINE
  5
156
  8
LAYER0003
  6
CONTINUOUS
 62
     7
 10
-263.5328291899999726
 20
-311.7478920099999868
 30
0.0
 11
-263.5328284999999937
 21
-316.5978886999999986
 31
0.0
  0
LINE
  5
157
  8
LAYER0003
  6
CONTINUOUS
 62
     7
 10
-264.3328270999999745
 20
-311.7478920099999868
 30
0.0
 11
-264.3328277699999944
 21
-316.5978886999999986
 31
0.0
  0
LINE
  5
158
  8
LAYER0003
  6
CONTINUOUS
 62
     7
 10
-263.5328291899999726
 20
-311.7478920099999868
 30
0.0
 11
-264.3328270999999745
 21
-311.7478920099999868
 31
0.0
  0
LINE
  5
159
  8
LAYER0003
  6
CONTINUOUS
 62
     7
 10
-263.3328260100000193
 20
-153.5978910800000108
 30
0.0
 11
-205.3328276700000004
 21
-153.5978910800000108
 31
0.0
  0
LINE
  5
15A
  8
LAYER0003
  6
CONTINUOUS
 62
     7
 10
-263.3328260100000193
 20
-163.5978895099999875
 30
0.0
 11
-263.3328260100000193
 21
-153.5978910800000108
 31
0.0
  0
LINE
  5
15B
  8
LAYER0003
  6
CONTINUOUS
 62
     7
 10
-205.3328276700000004
 20
-163.5978895099999875
 30
0.0
 11
-205.3328276700000004
 21
-153.5978910800000108
 31
0.0
  0
LINE
  5
15C
  8
LAYER0003
  6
CONTINUOUS
 62
     7
 10
-264.3328270999999745
 20
-159.4478853900000104
 30
0.0
 11
-264.3328270999999745
 21
-154.5978921900000103
 31
0.0
  0
LINE
  5
15D
  8
LAYER0003
  6
CONTINUOUS
 62
     7
 10
-264.3328270999999745
 20
-159.4478853900000104
 30
0.0
 11
-263.5328285100000016
 21
-159.4478853900000104
 31
0.0
  0
LINE
  5
15E
  8
LAYER0003
  6
CONTINUOUS
 62
     7
 10
-263.5328285100000016
 20
-159.4478853900000104
 30
0.0
 11
-263.5328285100000016
 21
-154.5978921900000103
 31
0.0
  0
LINE
  5
15F
  8
LAYER0003
  6
CONTINUOUS
 62
     7
 10
-204.3328265799999883
 20
-159.4478853900000104
 30
0.0
 11
-204.3328265799999883
 21
-154.5978921900000103
 31
0.0
  0
LINE
  5
160
  8
LAYER0003
  6
CONTINUOUS
 62
     7
 10
-205.1328248300000041
 20
-159.4478853900000104
 30
0.0
 11
-204.3328265799999883
 21
-159.4478853900000104
 31
0.0
  0
LINE
  5
161
  8
LAYER0003
  6
CONTINUOUS
 62
     7
 10
-205.1328248300000041
 20
-159.4478853900000104
 30
0.0
 11
-205.1328255200000115
 21
-154.5978887100000065
 31
0.0
  0
LINE
  5
162
  8
LAYER0003
  6
CONTINUOUS
 62
     7
 10
355.1420409699999823
 20
-174.3978883499999881
 30
0.0
 11
355.1420409699999823
 21
-175.5978900499999895
 31
0.0
  0
LINE
  5
163
  8
LAYER0003
  6
CONTINUOUS
 62
     7
 10
355.1420409699999823
 20
-175.5978900499999895
 30
0.0
 11
354.0920406600000092
 21
-175.5978900499999895
 31
0.0
  0
LINE
  5
164
  8
LAYER0003
  6
CONTINUOUS
 62
     7
 10
354.0920406600000092
 20
-175.5978900499999895
 30
0.0
 11
354.0920406600000092
 21
-176.0978873299999918
 31
0.0
  0
LINE
  5
165
  8
LAYER0003
  6
CONTINUOUS
 62
     7
 10
354.0920406600000092
 20
-176.0978873299999918
 30
0.0
 11
352.3420408399999815
 21
-176.0978873299999918
 31
0.0
  0
LINE
  5
166
  8
LAYER0003
  6
CONTINUOUS
 62
     7
 10
352.3420408399999815
 20
-176.0978873299999918
 30
0.0
 11
352.3420408399999815
 21
-182.897886949999986
 31
0.0
  0
LINE
  5
167
  8
LAYER0003
  6
CONTINUOUS
 62
     7
 10
352.3420408399999815
 20
-182.897886949999986
 30
0.0
 11
364.342040940000004
 21
-182.897886949999986
 31
0.0
  0
LINE
  5
168
  8
LAYER0003
  6
CONTINUOUS
 62
     7
 10
364.342040940000004
 20
-182.897886949999986
 30
0.0
 11
364.342040940000004
 21
-176.0978873299999918
 31
0.0
  0
LINE
  5
169
  8
LAYER0003
  6
CONTINUOUS
 62
     7
 10
364.342040940000004
 20
-176.0978873299999918
 30
0.0
 11
362.5920411199999762
 21
-176.0978873299999918
 31
0.0
  0
LINE
  5
16A
  8
LAYER0003
  6
CONTINUOUS
 62
     7
 10
362.5920411199999762
 20
-176.0978873299999918
 30
0.0
 11
362.5920411199999762
 21
-175.5978900499999895
 31
0.0
  0
LINE
  5
16B
  8
LAYER0003
  6
CONTINUOUS
 62
     7
 10
362.5920411199999762
 20
-175.5978900499999895
 30
0.0
 11
361.5420408100000031
 21
-175.5978900499999895
 31
0.0
  0
LINE
  5
16C
  8
LAYER0003
  6
CONTINUOUS
 62
     7
 10
361.5420408100000031
 20
-175.5978900499999895
 30
0.0
 11
361.5420408100000031
 21
-174.3978883499999881
 31
0.0
  0
LINE
  5
16D
  8
LAYER0003
  6
CONTINUOUS
 62
     7
 10
361.5420408100000031
 20
-174.3978883499999881
 30
0.0
 11
360.5920408000000066
 21
-174.3978883499999881
 31
0.0
  0
LINE
  5
16E
  8
LAYER0003
  6
CONTINUOUS
 62
     7
 10
360.5920408000000066
 20
-174.3978883499999881
 30
0.0
 11
360.5920408000000066
 21
-173.0978887100000065
 31
0.0
  0
LINE
  5
16F
  8
LAYER0003
  6
CONTINUOUS
 62
     7
 10
350.8420410599999855
 20
-184.5978896500000133
 30
0.0
 11
366.5420409299999847
 21
-184.5978896500000133
 31
0.0
  0
LINE
  5
170
  8
LAYER0003
  6
CONTINUOUS
 62
     7
 10
350.8420410599999855
 20
-172.3978917500000136
 30
0.0
 11
350.8420410599999855
 21
-184.5978896500000133
 31
0.0
  0
LINE
  5
171
  8
LAYER0003
  6
CONTINUOUS
 62
     7
 10
356.0920409899999868
 20
-173.0978887100000065
 30
0.0
 11
356.0920409899999868
 21
-174.3978883499999881
 31
0.0
  0
LINE
  5
172
  8
LAYER0003
  6
CONTINUOUS
 62
     7
 10
356.0920409899999868
 20
-174.3978883499999881
 30
0.0
 11
355.1420409699999823
 21
-174.3978883499999881
 31
0.0
  0
LINE
  5
173
  8
LAYER0003
  6
CONTINUOUS
 62
     7
 10
360.5920408000000066
 20
-173.0978887100000065
 30
0.0
 11
356.0920409899999868
 21
-173.0978887100000065
 31
0.0
  0
LINE
  5
174
  8
LAYER0003
  6
CONTINUOUS
 62
     7
 10
339.8420406500000013
 20
-170.0478892300000098
 30
0.0
 11
339.8420406500000013
 21
-301.1478881699999874
 31
0.0
  0
LINE
  5
175
  8
LAYER0003
  6
CONTINUOUS
 62
     7
 10
339.8420406500000013
 20
-172.0103870499999914
 30
0.0
 11
328.842040709999992
 21
-172.0103870499999914
 31
0.0
  0
LINE
  5
176
  8
LAYER0003
  6
CONTINUOUS
 62
     7
 10
328.842040709999992
 20
-172.0103870499999914
 30
0.0
 11
328.842040709999992
 21
-171.0478912499999922
 31
0.0
  0
LINE
  5
177
  8
LAYER0003
  6
CONTINUOUS
 62
     7
 10
339.8420406500000013
 20
-299.1978924200000165
 30
0.0
 11
348.8420411999999828
 21
-299.1978924200000165
 31
0.0
  0
LINE
  5
178
  8
LAYER0003
  6
CONTINUOUS
 62
     7
 10
329.842040709999992
 20
-301.1478887100000179
 30
0.0
 11
347.8420818100000247
 21
-301.1478881699999874
 31
0.0
  0
LINE
  5
179
  8
LAYER0003
  6
CONTINUOUS
 62
     7
 10
339.8420406500000013
 20
-172.0103870499999914
 30
0.0
 11
348.8420411999999828
 21
-172.0103870499999914
 31
0.0
  0
LINE
  5
17A
  8
LAYER0003
  6
CONTINUOUS
 62
     7
 10
347.8420408000000066
 20
-170.047888620000009
 30
0.0
 11
329.8420408000000066
 21
-170.047888620000009
 31
0.0
  0
LINE
  5
17B
  8
LAYER0003
  6
CONTINUOUS
 62
     7
 10
348.8420817800000009
 20
-300.1478878600000257
 30
0.0
 11
348.8420408000000066
 21
-171.047888620000009
 31
0.0
  0
LINE
  5
17C
  8
LAYER0003
  6
CONTINUOUS
 62
     7
 10
329.8420408800000132
 20
-172.0103870499999914
 30
0.0
 11
329.8420408800000132
 21
-175.2728882700000099
 31
0.0
  0
LINE
  5
17D
  8
LAYER0003
  6
CONTINUOUS
 62
     7
 10
329.8420408800000132
 20
-184.897887279999992
 30
0.0
 11
329.8420408800000132
 21
-176.7728875900000105
 31
0.0
  0
LINE
  5
17E
  8
LAYER0003
  6
CONTINUOUS
 62
     7
 10
339.8420406500000013
 20
-186.2978886299999886
 30
0.0
 11
329.8420408800000132
 21
-186.2978886299999886
 31
0.0
  0
LINE
  5
17F
  8
LAYER0003
  6
CONTINUOUS
 62
     7
 10
329.8420408800000132
 20
-194.4228883300000064
 30
0.0
 11
329.8420408800000132
 21
-186.2978886299999886
 31
0.0
  0
LINE
  5
180
  8
LAYER0003
  6
CONTINUOUS
 62
     7
 10
329.8420408800000132
 20
-194.4228883300000064
 30
0.0
 11
339.8420406500000013
 21
-194.4228883300000064
 31
0.0
  0
LINE
  5
181
  8
LAYER0003
  6
CONTINUOUS
 62
     7
 10
339.8420406500000013
 20
-195.822889680000003
 30
0.0
 11
329.8420408800000132
 21
-195.822889680000003
 31
0.0
  0
LINE
  5
182
  8
LAYER0003
  6
CONTINUOUS
 62
     7
 10
329.8420408800000132
 20
-203.9478893799999923
 30
0.0
 11
329.8420408800000132
 21
-195.822889680000003
 31
0.0
  0
LINE
  5
183
  8
LAYER0003
  6
CONTINUOUS
 62
     7
 10
329.8420408800000132
 20
-203.9478893799999923
 30
0.0
 11
339.8420406500000013
 21
-203.9478893799999923
 31
0.0
  0
LINE
  5
184
  8
LAYER0003
  6
CONTINUOUS
 62
     7
 10
339.8420406500000013
 20
-205.3478888600000118
 30
0.0
 11
329.8420408800000132
 21
-205.3478888600000118
 31
0.0
  0
LINE
  5
185
  8
LAYER0003
  6
CONTINUOUS
 62
     7
 10
329.8420408800000132
 20
-213.4728885600000012
 30
0.0
 11
329.8420408800000132
 21
-205.3478888600000118
 31
0.0
  0
LINE
  5
186
  8
LAYER0003
  6
CONTINUOUS
 62
     7
 10
329.8420408800000132
 20
-222.9978886899999964
 30
0.0
 11
329.8420408800000132
 21
-214.8728880600000082
 31
0.0
  0
LINE
  5
187
  8
LAYER0003
  6
CONTINUOUS
 62
     7
 10
329.8420408800000132
 20
-222.9978886899999964
 30
0.0
 11
339.8420406500000013
 21
-222.9978886899999964
 31
0.0
  0
LINE
  5
188
  8
LAYER0003
  6
CONTINUOUS
 62
     7
 10
329.8420408800000132
 20
-232.522888810000012
 30
0.0
 11
329.8420408800000132
 21
-224.3978891099999942
 31
0.0
  0
LINE
  5
189
  8
LAYER0003
  6
CONTINUOUS
 62
     7
 10
329.8420408800000132
 20
-242.0478889199999912
 30
0.0
 11
329.8420408800000132
 21
-233.9228887499999985
 31
0.0
  0
LINE
  5
18A
  8
LAYER0003
  6
CONTINUOUS
 62
     7
 10
329.8420408800000132
 20
-251.5728890499999864
 30
0.0
 11
329.8420408800000132
 21
-243.4478884000000107
 31
0.0
  0
LINE
  5
18B
  8
LAYER0003
  6
CONTINUOUS
 62
     7
 10
329.8420408800000132
 20
-261.0978882300000237
 30
0.0
 11
329.8420408800000132
 21
-252.9728885199999979
 31
0.0
  0
LINE
  5
18C
  8
LAYER0003
  6
CONTINUOUS
 62
     7
 10
329.8420408800000132
 20
-270.6228892699999733
 30
0.0
 11
329.8420408800000132
 21
-262.4978895699999839
 31
0.0
  0
LINE
  5
18D
  8
LAYER0003
  6
CONTINUOUS
 62
     7
 10
339.8420406500000013
 20
-272.0228868899999952
 30
0.0
 11
329.8420408800000132
 21
-272.0228868899999952
 31
0.0
  0
LINE
  5
18E
  8
LAYER0003
  6
CONTINUOUS
 62
     7
 10
329.8420408800000132
 20
-280.1478903199999877
 30
0.0
 11
329.8420408800000132
 21
-272.0228868899999952
 31
0.0
  0
LINE
  5
18F
  8
LAYER0003
  6
CONTINUOUS
 62
     7
 10
329.8420408800000132
 20
-289.672887639999999
 30
0.0
 11
329.8420408800000132
 21
-281.5478879400000096
 31
0.0
  0
LINE
  5
190
  8
LAYER0003
  6
CONTINUOUS
 62
     7
 10
339.8420406500000013
 20
-291.0728890000000888
 30
0.0
 11
329.8420408800000132
 21
-291.0728890000000888
 31
0.0
  0
LINE
  5
191
  8
LAYER0003
  6
CONTINUOUS
 62
     7
 10
329.8420408800000132
 20
-299.1978924200000165
 30
0.0
 11
329.8420408800000132
 21
-291.0728890000000888
 31
0.0
  0
LINE
  5
192
  8
LAYER0003
  6
CONTINUOUS
 62
     7
 10
339.8420406500000013
 20
-176.7728875900000105
 30
0.0
 11
329.8420408800000132
 21
-176.7728875900000105
 31
0.0
  0
LINE
  5
193
  8
LAYER0003
  6
CONTINUOUS
 62
     7
 10
339.8420406500000013
 20
-224.3978891099999942
 30
0.0
 11
329.8420408800000132
 21
-224.3978891099999942
 31
0.0
  0
LINE
  5
194
  8
LAYER0003
  6
CONTINUOUS
 62
     7
 10
329.8420408800000132
 20
-184.897887279999992
 30
0.0
 11
339.8420406500000013
 21
-184.897887279999992
 31
0.0
  0
LINE
  5
195
  8
LAYER0003
  6
CONTINUOUS
 62
     7
 10
339.8420406500000013
 20
-214.8728880600000082
 30
0.0
 11
329.8420408800000132
 21
-214.8728880600000082
 31
0.0
  0
LINE
  5
196
  8
LAYER0003
  6
CONTINUOUS
 62
     7
 10
329.8420408800000132
 20
-270.6228892699999733
 30
0.0
 11
339.8420406500000013
 21
-270.6228892699999733
 31
0.0
  0
LINE
  5
197
  8
LAYER0003
  6
CONTINUOUS
 62
     7
 10
339.8420406500000013
 20
-262.4978895699999839
 30
0.0
 11
329.8420408800000132
 21
-262.4978895699999839
 31
0.0
  0
LINE
  5
198
  8
LAYER0003
  6
CONTINUOUS
 62
     7
 10
329.8420408800000132
 20
-261.0978882300000237
 30
0.0
 11
339.8420406500000013
 21
-261.0978882300000237
 31
0.0
  0
LINE
  5
199
  8
LAYER0003
  6
CONTINUOUS
 62
     7
 10
329.8420408800000132
 20
-280.1478903199999877
 30
0.0
 11
339.8420406500000013
 21
-280.1478903199999877
 31
0.0
  0
LINE
  5
19A
  8
LAYER0003
  6
CONTINUOUS
 62
     7
 10
329.8420408800000132
 20
-213.4728885600000012
 30
0.0
 11
339.8420406500000013
 21
-213.4728885600000012
 31
0.0
  0
LINE
  5
19B
  8
LAYER0003
  6
CONTINUOUS
 62
     7
 10
329.8420408800000132
 20
-289.672887639999999
 30
0.0
 11
339.8420406500000013
 21
-289.672887639999999
 31
0.0
  0
LINE
  5
19C
  8
LAYER0003
  6
CONTINUOUS
 62
     7
 10
329.8420408800000132
 20
-251.5728890499999864
 30
0.0
 11
339.8420406500000013
 21
-251.5728890499999864
 31
0.0
  0
LINE
  5
19D
  8
LAYER0003
  6
CONTINUOUS
 62
     7
 10
329.8420408800000132
 20
-242.0478889199999912
 30
0.0
 11
339.8420406500000013
 21
-242.0478889199999912
 31
0.0
  0
LINE
  5
19E
  8
LAYER0003
  6
CONTINUOUS
 62
     7
 10
329.8420408800000132
 20
-175.2728882700000099
 30
0.0
 11
338.3420413399999802
 21
-175.2728882700000099
 31
0.0
  0
LINE
  5
19F
  8
LAYER0003
  6
CONTINUOUS
 62
     7
 10
339.8420406500000013
 20
-281.5478879400000096
 30
0.0
 11
329.8420408800000132
 21
-281.5478879400000096
 31
0.0
  0
LINE
  5
1A0
  8
LAYER0003
  6
CONTINUOUS
 62
     7
 10
338.3420413399999802
 20
-175.2728882700000099
 30
0.0
 11
338.3420413399999802
 21
-172.0103870499999914
 31
0.0
  0
LINE
  5
1A1
  8
LAYER0003
  6
CONTINUOUS
 62
     7
 10
339.8420406500000013
 20
-243.4478884000000107
 30
0.0
 11
329.8420408800000132
 21
-243.4478884000000107
 31
0.0
  0
LINE
  5
1A2
  8
LAYER0003
  6
CONTINUOUS
 62
     7
 10
339.8420406500000013
 20
-233.9228887499999985
 30
0.0
 11
329.8420408800000132
 21
-233.9228887499999985
 31
0.0
  0
LINE
  5
1A3
  8
LAYER0003
  6
CONTINUOUS
 62
     7
 10
329.8420408800000132
 20
-232.522888810000012
 30
0.0
 11
339.8420406500000013
 21
-232.522888810000012
 31
0.0
  0
LINE
  5
1A4
  8
LAYER0003
  6
CONTINUOUS
 62
     7
 10
328.842040709999992
 20
-172.0103870499999914
 30
0.0
 11
328.842040709999992
 21
-300.1478887100000179
 31
0.0
  0
LINE
  5
1A5
  8
LAYER0003
  6
CONTINUOUS
 62
     7
 10
329.8420408800000132
 20
-299.1978924200000165
 30
0.0
 11
339.8420406500000013
 21
-299.1978924200000165
 31
0.0
  0
LINE
  5
1A6
  8
LAYER0003
  6
CONTINUOUS
 62
     7
 10
347.3420409500000119
 20
-297.6978893799999923
 30
0.0
 11
348.8420411999999828
 21
-297.6978893799999923
 31
0.0
  0
LINE
  5
1A7
  8
LAYER0003
  6
CONTINUOUS
 62
     7
 10
347.3420409500000119
 20
-299.1978924200000165
 30
0.0
 11
347.3420409500000119
 21
-297.6978893799999923
 31
0.0
  0
LINE
  5
1A8
  8
LAYER0003
  6
CONTINUOUS
 62
     7
 10
347.3420409500000119
 20
-295.9353874899999823
 30
0.0
 11
348.8420411999999828
 21
-295.9353874899999823
 31
0.0
  0
LINE
  5
1A9
  8
LAYER0003
  6
CONTINUOUS
 62
     7
 10
347.3420409500000119
 20
-297.6978893799999923
 30
0.0
 11
347.3420409500000119
 21
-295.9353874899999823
 31
0.0
  0
LINE
  5
1AA
  8
LAYER0003
  6
CONTINUOUS
 62
     7
 10
348.8420411999999828
 20
-189.6603878100000031
 30
0.0
 11
339.8420406500000013
 21
-189.6603878100000031
 31
0.0
  0
LINE
  5
1AB
  8
LAYER0003
  6
CONTINUOUS
 62
     7
 10
339.8420406500000013
 20
-191.0603891499999918
 30
0.0
 11
348.8420411999999828
 21
-191.0603891499999918
 31
0.0
  0
LINE
  5
1AC
  8
LAYER0003
  6
CONTINUOUS
 62
     7
 10
348.8420411999999828
 20
-199.1853888500000096
 30
0.0
 11
339.8420406500000013
 21
-199.1853888500000096
 31
0.0
  0
LINE
  5
1AD
  8
LAYER0003
  6
CONTINUOUS
 62
     7
 10
339.8420406500000013
 20
-200.5853902000000062
 30
0.0
 11
348.8420411999999828
 21
-200.5853902000000062
 31
0.0
  0
LINE
  5
1AE
  8
LAYER0003
  6
CONTINUOUS
 62
     7
 10
348.8420411999999828
 20
-208.710388039999998
 30
0.0
 11
339.8420406500000013
 21
-208.710388039999998
 31
0.0
  0
LINE
  5
1AF
  8
LAYER0003
  6
CONTINUOUS
 62
     7
 10
339.8420406500000013
 20
-210.1103893899999946
 30
0.0
 11
348.8420411999999828
 21
-210.1103893899999946
 31
0.0
  0
LINE
  5
1B0
  8
LAYER0003
  6
CONTINUOUS
 62
     7
 10
348.8420411999999828
 20
-180.1353904800000123
 30
0.0
 11
339.8420406500000013
 21
-180.1353904800000123
 31
0.0
  0
LINE
  5
1B1
  8
LAYER0003
  6
CONTINUOUS
 62
     7
 10
339.8420406500000013
 20
-181.5353881100000137
 30
0.0
 11
348.8420411999999828
 21
-181.5353881100000137
 31
0.0
  0
LINE
  5
1B2
  8
LAYER0003
  6
CONTINUOUS
 62
     7
 10
348.8420411999999828
 20
-237.2853887500000098
 30
0.0
 11
339.8420406500000013
 21
-237.2853887500000098
 31
0.0
  0
LINE
  5
1B3
  8
LAYER0003
  6
CONTINUOUS
 62
     7
 10
339.8420406500000013
 20
-238.6853888199999858
 30
0.0
 11
348.8420411999999828
 21
-238.6853888199999858
 31
0.0
  0
LINE
  5
1B4
  8
LAYER0003
  6
CONTINUOUS
 62
     7
 10
339.8420406500000013
 20
-286.3103884700000208
 30
0.0
 11
348.8420411999999828
 21
-286.3103884700000208
 31
0.0
  0
LINE
  5
1B5
  8
LAYER0003
  6
CONTINUOUS
 62
     7
 10
348.8420411999999828
 20
-284.9103871199999958
 30
0.0
 11
339.8420406500000013
 21
-284.9103871199999958
 31
0.0
  0
LINE
  5
1B6
  8
LAYER0003
  6
CONTINUOUS
 62
     7
 10
339.8420406500000013
 20
-219.6353885800000114
 30
0.0
 11
348.8420411999999828
 21
-219.6353885800000114
 31
0.0
  0
LINE
  5
1B7
  8
LAYER0003
  6
CONTINUOUS
 62
     7
 10
348.8420411999999828
 20
-218.2353890900000124
 30
0.0
 11
339.8420406500000013
 21
-218.2353890900000124
 31
0.0
  0
LINE
  5
1B8
  8
LAYER0003
  6
CONTINUOUS
 62
     7
 10
348.8420411999999828
 20
-275.3853897999999845
 30
0.0
 11
339.8420406500000013
 21
-275.3853897999999845
 31
0.0
  0
LINE
  5
1B9
  8
LAYER0003
  6
CONTINUOUS
 62
     7
 10
339.8420406500000013
 20
-276.7853874200000064
 30
0.0
 11
348.8420411999999828
 21
-276.7853874200000064
 31
0.0
  0
LINE
  5
1BA
  8
LAYER0003
  6
CONTINUOUS
 62
     7
 10
348.8420411999999828
 20
-294.4353881700000102
 30
0.0
 11
339.8420406500000013
 21
-294.4353881700000102
 31
0.0
  0
LINE
  5
1BB
  8
LAYER0003
  6
CONTINUOUS
 62
     7
 10
347.3420409500000119
 20
-295.9353874899999823
 30
0.0
 11
339.8420406500000013
 21
-295.9353874899999823
 31
0.0
  0
LINE
  5
1BC
  8
LAYER0003
  6
CONTINUOUS
 62
     7
 10
339.8420406500000013
 20
-267.2603900899999871
 30
0.0
 11
348.8420411999999828
 21
-267.2603900899999871
 31
0.0
  0
LINE
  5
1BD
  8
LAYER0003
  6
CONTINUOUS
 62
     7
 10
348.8420411999999828
 20
-265.8603887500000269
 30
0.0
 11
339.8420406500000013
 21
-265.8603887500000269
 31
0.0
  0
LINE
  5
1BE
  8
LAYER0003
  6
CONTINUOUS
 62
     7
 10
348.8420411999999828
 20
-227.7603882900000087
 30
0.0
 11
339.8420406500000013
 21
-227.7603882900000087
 31
0.0
  0
LINE
  5
1BF
  8
LAYER0003
  6
CONTINUOUS
 62
     7
 10
339.8420406500000013
 20
-229.1603886899999907
 30
0.0
 11
348.8420411999999828
 21
-229.1603886899999907
 31
0.0
  0
LINE
  5
1C0
  8
LAYER0003
  6
CONTINUOUS
 62
     7
 10
339.8420406500000013
 20
-257.7353890399999727
 30
0.0
 11
348.8420411999999828
 21
-257.7353890399999727
 31
0.0
  0
LINE
  5
1C1
  8
LAYER0003
  6
CONTINUOUS
 62
     7
 10
348.8420411999999828
 20
-256.335389570000018
 30
0.0
 11
339.8420406500000013
 21
-256.335389570000018
 31
0.0
  0
LINE
  5
1C2
  8
LAYER0003
  6
CONTINUOUS
 62
     7
 10
339.8420406500000013
 20
-248.2103889299999935
 30
0.0
 11
348.8420411999999828
 21
-248.2103889299999935
 31
0.0
  0
LINE
  5
1C3
  8
LAYER0003
  6
CONTINUOUS
 62
     7
 10
348.8420411999999828
 20
-246.8103885200000036
 30
0.0
 11
339.8420406500000013
 21
-246.8103885200000036
 31
0.0
  0
LINE
  5
1C4
  8
LAYER0003
  6
CONTINUOUS
 62
     7
 10
347.4920406999999045
 20
-172.3228867599999887
 30
0.0
 11
339.9920413300000064
 21
-172.3228867599999887
 31
0.0
  0
LINE
  5
1C5
  8
LAYER0003
  6
CONTINUOUS
 62
     7
 10
347.4920406999999045
 20
-179.8228870499999914
 30
0.0
 11
347.4920406999999045
 21
-172.3228867599999887
 31
0.0
  0
LINE
  5
1C6
  8
LAYER0003
  6
CONTINUOUS
 62
     7
 10
339.9920413300000064
 20
-179.8228870499999914
 30
0.0
 11
347.4920406999999045
 21
-179.8228870499999914
 31
0.0
  0
LINE
  5
1C7
  8
LAYER0003
  6
CONTINUOUS
 62
     7
 10
339.9920413300000064
 20
-172.3228867599999887
 30
0.0
 11
339.9920413300000064
 21
-179.8228870499999914
 31
0.0
  0
LINE
  5
1C8
  8
LAYER0003
  6
CONTINUOUS
 62
     7
 10
366.5420409299999847
 20
-184.5978896500000133
 30
0.0
 11
366.5420409299999847
 21
-172.3978917500000136
 31
0.0
  0
LINE
  5
1C9
  8
LAYER0003
  6
CONTINUOUS
 62
     7
 10
366.5420409299999847
 20
-172.3978917500000136
 30
0.0
 11
350.8420410599999855
 21
-172.3978917500000136
 31
0.0
  0
LINE
  5
1CA
  8
LAYER0003
  6
CONTINUOUS
 62
     7
 10
-229.3328278799999964
 20
-289.8978877299999795
 30
0.0
 11
-223.3328278300000136
 21
-289.8978877299999795
 31
0.0
  0
LINE
  5
1CB
  8
LAYER0003
  6
CONTINUOUS
 62
     7
 10
-223.3328277699999944
 20
-293.8978887100000179
 30
0.0
 11
-229.3328278799999964
 21
-293.8978883899999914
 31
0.0
  0
LINE
  5
1CC
  8
LAYER0003
  6
CONTINUOUS
 62
     7
 10
-209.5328277600000035
 20
-276.4478880099999856
 30
0.0
 11
-264.0328283100000135
 21
-276.4478880099999856
 31
0.0
  0
LINE
  5
1CD
  8
LAYER0003
  6
CONTINUOUS
 62
     7
 10
-265.032827769999983
 20
-275.4478887000000213
 30
0.0
 11
-265.032827769999983
 21
-179.7478895099999932
 31
0.0
  0
LINE
  5
1CE
  8
LAYER0003
  6
CONTINUOUS
 62
     7
 10
-208.5328287400000136
 20
-179.7478882700000042
 30
0.0
 11
-208.5328287400000136
 21
-275.447888550000016
 31
0.0
  0
LINE
  5
1CF
  8
LAYER0003
  6
CONTINUOUS
 62
     7
 10
-264.0328269999999975
 20
-178.7478881000000115
 30
0.0
 11
-209.5328271600000107
 21
-178.747889320000013
 31
0.0
  0
LINE
  5
1D0
  8
LAYER0003
  6
CONTINUOUS
 62
     7
 10
-245.6328281300000071
 20
-289.8978877299999795
 30
0.0
 11
-239.6328277700000058
 21
-289.8978887100000179
 31
0.0
  0
LINE
  5
1D1
  8
LAYER0003
  6
CONTINUOUS
 62
     7
 10
-261.9328274499999907
 20
-289.8978877299999795
 30
0.0
 11
-255.9328277699999887
 21
-289.8978887100000179
 31
0.0
  0
LINE
  5
1D2
  8
LAYER0003
  6
CONTINUOUS
 62
     7
 10
-239.6328277700000058
 20
-293.8978887100000179
 30
0.0
 11
-245.6328281300000071
 21
-293.8978883899999914
 31
0.0
  0
LINE
  5
1D3
  8
LAYER0003
  6
CONTINUOUS
 62
     7
 10
-255.9328277699999887
 20
-293.8978887100000179
 30
0.0
 11
-261.9328274499999907
 21
-293.8978883899999914
 31
0.0
  0
LINE
  5
1D4
  8
LAYER0003
  6
CONTINUOUS
 62
     7
 10
-99.9388381600000031
 20
-304.4978852899999993
 30
0.0
 11
-99.8048469200000028
 21
-304.4978852799999913
 31
0.0
  0
LINE
  5
1D5
  8
LAYER0003
  6
CONTINUOUS
 62
     7
 10
179.3911730400000124
 20
-304.8478869699999905
 30
0.0
 11
223.1911565499999881
 21
-304.8478869699999905
 31
0.0
  0
LINE
  5
1D6
  8
LAYER0003
  6
CONTINUOUS
 62
     7
 10
-44.5088362600000025
 20
-74.8637252200000063
 30
0.0
 11
-74.2088377299999848
 21
-74.8637252200000063
 31
0.0
  0
LINE
  5
1D7
  8
LAYER0003
  6
CONTINUOUS
 62
     7
 10
-44.5088362600000025
 20
-311.7478920099999868
 30
0.0
 11
-74.2088377299999848
 21
-311.7478920099999868
 31
0.0
  0
LINE
  5
1D8
  8
LAYER0003
  6
CONTINUOUS
 62
     7
 10
-44.5088362600000025
 20
-307.7478913699999907
 30
0.0
 11
-74.2088377299999848
 21
-307.7478913699999907
 31
0.0
  0
LINE
  5
1D9
  8
LAYER0003
  6
CONTINUOUS
 62
     7
 10
-44.5088362600000025
 20
-78.8637254199999944
 30
0.0
 11
-74.2088377299999848
 21
-78.8637254199999944
 31
0.0
  0
LINE
  5
1DA
  8
LAYER0003
  6
CONTINUOUS
 62
     7
 10
-268.1328294499999743
 20
-306.6978884900000253
 30
0.0
 11
-238.9328278700000112
 21
-306.6978884900000253
 31
0.0
  0
LINE
  5
1DB
  8
LAYER0003
  6
CONTINUOUS
 62
     7
 10
329.8420408800000132
 20
-252.9728885199999979
 30
0.0
 11
339.8420406500000013
 21
-252.9728885199999979
 31
0.0
  0
LINE
  5
1DC
  8
LAYER0003
  6
CONTINUOUS
 62
     7
 10
324.5920408900000211
 20
-166.8478887100000065
 30
0.0
 11
324.5920408900000211
 21
-304.3478886999999986
 31
0.0
  0
LINE
  5
1DD
  8
LAYER0003
  6
CONTINUOUS
 62
     7
 10
392.0920408900000211
 20
-166.8478887100000065
 30
0.0
 11
392.0920408900000211
 21
-304.3478886999999986
 31
0.0
  0
LINE
  5
1DE
  8
LAYER0003
  6
CONTINUOUS
 62
     7
 10
392.0920408900000211
 20
-166.8478887100000065
 30
0.0
 11
324.5920408900000211
 21
-166.8478887100000065
 31
0.0
  0
LINE
  5
1DF
  8
LAYER0003
  6
CONTINUOUS
 62
     7
 10
392.0920408900000211
 20
-304.3478886999999986
 30
0.0
 11
324.5920408900000211
 21
-304.3478886999999986
 31
0.0
  0
LINE
  5
1E0
  8
LAYER0003
  6
CONTINUOUS
 62
     7
 10
-44.5088362600000025
 20
-163.4478860399999007
 30
0.0
 11
-74.2088377299999848
 21
-163.4478860399999007
 31
0.0
  0
LINE
  5
1E1
  8
LAYER0003
  6
CONTINUOUS
 62
     7
 10
-44.5088362600000025
 20
-159.4478853900000104
 30
0.0
 11
-74.2088377299999848
 21
-159.4478853900000104
 31
0.0
  0
LINE
  5
1E2
  8
LAYER0003
  6
CONTINUOUS
 62
     7
 10
179.3911730400000124
 20
-166.347890439999901
 30
0.0
 11
223.1911565499999881
 21
-166.347890439999901
 31
0.0
  0
LINE
  5
1E3
  8
LAYER0003
  6
CONTINUOUS
 62
     7
 10
-99.8331870699999939
 20
-81.0464440099999877
 30
0.0
 11
-99.8334250000000054
 21
-81.0593939900000038
 31
0.0
  0
LINE
  5
1E4
  8
LAYER0003
  6
CONTINUOUS
 62
     7
 10
-99.8334250000000054
 20
-81.0593939900000038
 30
0.0
 11
-99.8336314900000019
 21
-81.0723561500000045
 31
0.0
  0
LINE
  5
1E5
  8
LAYER0003
  6
CONTINUOUS
 62
     7
 10
-99.8336314900000019
 20
-81.0723561500000045
 30
0.0
 11
-99.8337751100000048
 21
-81.0853427299999936
 31
0.0
  0
LINE
  5
1E6
  8
LAYER0003
  6
CONTINUOUS
 62
     7
 10
-99.8337751100000048
 20
-81.0853427299999936
 30
0.0
 11
-99.8338244199999849
 21
-81.0983658800000029
 31
0.0
  0
LINE
  5
1E7
  8
LAYER0003
  6
CONTINUOUS
 62
     7
 10
-99.8338244199999849
 20
-81.0983658800000029
 30
0.0
 11
-99.8337479900000062
 21
-81.1114378399999936
 31
0.0
  0
LINE
  5
1E8
  8
LAYER0003
  6
CONTINUOUS
 62
     7
 10
-99.8337479900000062
 20
-81.1114378399999936
 30
0.0
 11
-99.8335143700000032
 21
-81.1245707700000054
 31
0.0
  0
LINE
  5
1E9
  8
LAYER0003
  6
CONTINUOUS
 62
     7
 10
-99.8335143700000032
 20
-81.1245707700000054
 30
0.0
 11
-99.8330921400000051
 21
-81.1377768800000041
 31
0.0
  0
LINE
  5
1EA
  8
LAYER0003
  6
CONTINUOUS
 62
     7
 10
-99.8330921400000051
 20
-81.1377768800000041
 30
0.0
 11
-99.8324498500000033
 21
-81.151068390000006
 31
0.0
  0
LINE
  5
1EB
  8
LAYER0003
  6
CONTINUOUS
 62
     7
 10
-99.8324498500000033
 20
-81.151068390000006
 30
0.0
 11
-99.8315561800000069
 21
-81.1644574400000067
 31
0.0
  0
LINE
  5
1EC
  8
LAYER0003
  6
CONTINUOUS
 62
     7
 10
-99.8315561800000069
 20
-81.1644574400000067
 30
0.0
 11
-99.830399259999993
 21
-81.1779514800000044
 31
0.0
  0
LINE
  5
1ED
  8
LAYER0003
  6
CONTINUOUS
 62
     7
 10
-99.830399259999993
 20
-81.1779514800000044
 30
0.0
 11
-99.8290100100000046
 21
-81.191547540000002
 31
0.0
  0
LINE
  5
1EE
  8
LAYER0003
  6
CONTINUOUS
 62
     7
 10
-99.8290100100000046
 20
-81.191547540000002
 30
0.0
 11
-99.8274250300000006
 21
-81.2052412400000065
 31
0.0
  0
LINE
  5
1EF
  8
LAYER0003
  6
CONTINUOUS
 62
     7
 10
-99.8274250300000006
 20
-81.2052412400000065
 30
0.0
 11
-99.8256809200000106
 21
-81.219028260000016
 31
0.0
  0
LINE
  5
1F0
  8
LAYER0003
  6
CONTINUOUS
 62
     7
 10
-99.8256809200000106
 20
-81.219028260000016
 30
0.0
 11
-99.8238142699999855
 21
-81.2329042399999963
 31
0.0
  0
LINE
  5
1F1
  8
LAYER0003
  6
CONTINUOUS
 62
     7
 10
-99.8238142699999855
 20
-81.2329042399999963
 30
0.0
 11
-99.8218616799999978
 21
-81.2468648100000053
 31
0.0
  0
LINE
  5
1F2
  8
LAYER0003
  6
CONTINUOUS
 62
     7
 10
-99.8218616799999978
 20
-81.2468648100000053
 30
0.0
 11
-99.8198597399999983
 21
-81.2609056099999947
 31
0.0
  0
LINE
  5
1F3
  8
LAYER0003
  6
CONTINUOUS
 62
     7
 10
-99.8198597399999983
 20
-81.2609056099999947
 30
0.0
 11
-99.8178450500000025
 21
-81.275022320000005
 31
0.0
  0
LINE
  5
1F4
  8
LAYER0003
  6
CONTINUOUS
 62
     7
 10
-99.8178450500000025
 20
-81.275022320000005
 30
0.0
 11
-99.8158542099999977
 21
-81.2892105500000071
 31
0.0
  0
LINE
  5
1F5
  8
LAYER0003
  6
CONTINUOUS
 62
     7
 10
-99.8158542099999977
 20
-81.2892105500000071
 30
0.0
 11
-99.8139237999999978
 21
-81.3034659700000049
 31
0.0
  0
LINE
  5
1F6
  8
LAYER0003
  6
CONTINUOUS
 62
     7
 10
-99.8139237999999978
 20
-81.3034659700000049
 30
0.0
 11
-99.8120904299999836
 21
-81.317784209999985
 31
0.0
  0
LINE
  5
1F7
  8
LAYER0003
  6
CONTINUOUS
 62
     7
 10
-99.8120904299999836
 20
-81.317784209999985
 30
0.0
 11
-99.8103906900000055
 21
-81.3321609299999864
 31
0.0
  0
LINE
  5
1F8
  8
LAYER0003
  6
CONTINUOUS
 62
     7
 10
-99.8103906900000055
 20
-81.3321609299999864
 30
0.0
 11
-99.8088611799999939
 21
-81.346591750000016
 31
0.0
  0
LINE
  5
1F9
  8
LAYER0003
  6
CONTINUOUS
 62
     7
 10
-99.8088611799999939
 20
-81.346591750000016
 30
0.0
 11
-99.8075385000000068
 21
-81.3610723599999943
 31
0.0
  0
LINE
  5
1FA
  8
LAYER0003
  6
CONTINUOUS
 62
     7
 10
-99.8075385000000068
 20
-81.3610723599999943
 30
0.0
 11
-99.8064592300000015
 21
-81.3755983700000058
 31
0.0
  0
LINE
  5
1FB
  8
LAYER0003
  6
CONTINUOUS
 62
     7
 10
-99.8064592300000015
 20
-81.3755983700000058
 30
0.0
 11
-99.8056599800000157
 21
-81.3901654200000024
 31
0.0
  0
LINE
  5
1FC
  8
LAYER0003
  6
CONTINUOUS
 62
     7
 10
-99.8056599800000157
 20
-81.3901654200000024
 30
0.0
 11
-99.8051773400000144
 21
-81.4047691800000024
 31
0.0
  0
LINE
  5
1FD
  8
LAYER0003
  6
CONTINUOUS
 62
     7
 10
-99.8051773400000144
 20
-81.4047691800000024
 30
0.0
 11
-99.8050479100000132
 21
-81.419405299999994
 31
0.0
  0
LINE
  5
1FE
  8
LAYER0003
  6
CONTINUOUS
 62
     7
 10
-99.8050479100000132
 20
-81.419405299999994
 30
0.0
 11
-99.8053082699999976
 21
-81.4340693900000048
 31
0.0
  0
LINE
  5
1FF
  8
LAYER0003
  6
CONTINUOUS
 62
     7
 10
-99.8053082699999976
 20
-81.4340693900000048
 30
0.0
 11
-99.8059505500000057
 21
-81.4487558000000007
 31
0.0
  0
LINE
  5
200
  8
LAYER0003
  6
CONTINUOUS
 62
     7
 10
-99.8059505500000057
 20
-81.4487558000000007
 30
0.0
 11
-99.8068027000000058
 21
-81.46345393
 31
0.0
  0
LINE
  5
201
  8
LAYER0003
  6
CONTINUOUS
 62
     7
 10
-99.806912600000004
 20
-72.2636348799999979
 30
0.0
 11
-99.8068717000000163
 21
-72.278545120000004
 31
0.0
  0
LINE
  5
202
  8
LAYER0003
  6
CONTINUOUS
 62
     7
 10
-99.8068717000000163
 20
-72.278545120000004
 30
0.0
 11
-99.8068788100000148
 21
-72.2934408699999977
 31
0.0
  0
LINE
  5
203
  8
LAYER0003
  6
CONTINUOUS
 62
     7
 10
-99.8068788100000148
 20
-72.2934408699999977
 30
0.0
 11
-99.8069819100000046
 21
-72.308307599999992
 31
0.0
  0
LINE
  5
204
  8
LAYER0003
  6
CONTINUOUS
 62
     7
 10
-99.8069819100000046
 20
-72.308307599999992
 30
0.0
 11
-99.8072290100000004
 21
-72.3231308400000046
 31
0.0
  0
LINE
  5
205
  8
LAYER0003
  6
CONTINUOUS
 62
     7
 10
-99.8072290100000004
 20
-72.3231308400000046
 30
0.0
 11
-99.8076681099999945
 21
-72.3378960600000056
 31
0.0
  0
LINE
  5
206
  8
LAYER0003
  6
CONTINUOUS
 62
     7
 10
-99.8076681099999945
 20
-72.3378960600000056
 30
0.0
 11
-99.8083472
 21
-72.352588769999997
 31
0.0
  0
LINE
  5
207
  8
LAYER0003
  6
CONTINUOUS
 62
     7
 10
-99.8083472
 20
-72.352588769999997
 30
0.0
 11
-99.8093031199999956
 21
-72.3671963000000034
 31
0.0
  0
LINE
  5
208
  8
LAYER0003
  6
CONTINUOUS
 62
     7
 10
-99.8093031199999956
 20
-72.3671963000000034
 30
0.0
 11
-99.8105137999999954
 21
-72.3817155100000065
 31
0.0
  0
LINE
  5
209
  8
LAYER0003
  6
CONTINUOUS
 62
     7
 10
-99.8105137999999954
 20
-72.3817155100000065
 30
0.0
 11
-99.8119378100000034
 21
-72.3961464599999971
 31
0.0
  0
LINE
  5
20A
  8
LAYER0003
  6
CONTINUOUS
 62
     7
 10
-99.8119378100000034
 20
-72.3961464599999971
 30
0.0
 11
-99.8135337400000111
 21
-72.4104891700000053
 31
0.0
  0
LINE
  5
20B
  8
LAYER0003
  6
CONTINUOUS
 62
     7
 10
-99.8135337400000111
 20
-72.4104891700000053
 30
0.0
 11
-99.815260159999994
 21
-72.424743680000006
 31
0.0
  0
LINE
  5
20C
  8
LAYER0003
  6
CONTINUOUS
 62
     7
 10
-99.815260159999994
 20
-72.424743680000006
 30
0.0
 11
-99.8170756199999971
 21
-72.438910050000004
 31
0.0
  0
LINE
  5
20D
  8
LAYER0003
  6
CONTINUOUS
 62
     7
 10
-99.8170756199999971
 20
-72.438910050000004
 30
0.0
 11
-99.8189387099999976
 21
-72.4529882899999933
 31
0.0
  0
LINE
  5
20E
  8
LAYER0003
  6
CONTINUOUS
 62
     7
 10
-99.8189387099999976
 20
-72.4529882899999933
 30
0.0
 11
-99.8208079999999995
 21
-72.4669784400000054
 31
0.0
  0
LINE
  5
20F
  8
LAYER0003
  6
CONTINUOUS
 62
     7
 10
-99.8208079999999995
 20
-72.4669784400000054
 30
0.0
 11
-99.8226420499999847
 21
-72.4808805600000028
 31
0.0
  0
LINE
  5
210
  8
LAYER0003
  6
CONTINUOUS
 62
     7
 10
-99.8226420499999847
 20
-72.4808805600000028
 30
0.0
 11
-99.8243994399999934
 21
-72.4946946599999933
 31
0.0
  0
LINE
  5
211
  8
LAYER0003
  6
CONTINUOUS
 62
     7
 10
-99.8243994399999934
 20
-72.4946946599999933
 30
0.0
 11
-99.8260387400000013
 21
-72.5084207999999961
 31
0.0
  0
LINE
  5
212
  8
LAYER0003
  6
CONTINUOUS
 62
     7
 10
-99.8260387400000013
 20
-72.5084207999999961
 30
0.0
 11
-99.8275185100000044
 21
-72.5220589999999845
 31
0.0
  0
LINE
  5
213
  8
LAYER0003
  6
CONTINUOUS
 62
     7
 10
-99.8275185100000044
 20
-72.5220589999999845
 30
0.0
 11
-99.8287973399999942
 21
-72.5356093200000061
 31
0.0
  0
LINE
  5
214
  8
LAYER0003
  6
CONTINUOUS
 62
     7
 10
-99.8287973399999942
 20
-72.5356093200000061
 30
0.0
 11
-99.8298338799999954
 21
-72.5490717699999834
 31
0.0
  0
LINE
  5
215
  8
LAYER0003
  6
CONTINUOUS
 62
     7
 10
-99.8298338799999954
 20
-72.5490717699999834
 30
0.0
 11
-99.8306062200000071
 21
-72.5624488600000035
 31
0.0
  0
LINE
  5
216
  8
LAYER0003
  6
CONTINUOUS
 62
     7
 10
-99.8306062200000071
 20
-72.5624488600000035
 30
0.0
 11
-99.831135560000007
 21
-72.5757484800000015
 31
0.0
  0
LINE
  5
217
  8
LAYER0003
  6
CONTINUOUS
 62
     7
 10
-99.831135560000007
 20
-72.5757484800000015
 30
0.0
 11
-99.8314489000000123
 21
-72.5889792300000067
 31
0.0
  0
LINE
  5
218
  8
LAYER0003
  6
CONTINUOUS
 62
     7
 10
-99.8314489000000123
 20
-72.5889792300000067
 30
0.0
 11
-99.8315732300000036
 21
-72.6021497100000062
 31
0.0
  0
LINE
  5
219
  8
LAYER0003
  6
CONTINUOUS
 62
     7
 10
-99.8315732300000036
 20
-72.6021497100000062
 30
0.0
 11
-99.831535570000014
 21
-72.6152685400000024
 31
0.0
  0
LINE
  5
21A
  8
LAYER0003
  6
CONTINUOUS
 62
     7
 10
-99.831535570000014
 20
-72.6152685400000024
 30
0.0
 11
-99.8313629099999957
 21
-72.6283443199999965
 31
0.0
  0
LINE
  5
21B
  8
LAYER0003
  6
CONTINUOUS
 62
     7
 10
-99.8313629099999957
 20
-72.6283443199999965
 30
0.0
 11
-99.8310822400000006
 21
-72.6413856500000037
 31
0.0
  0
LINE
  5
21C
  8
LAYER0003
  6
CONTINUOUS
 62
     7
 10
-99.8310822400000006
 20
-72.6413856500000037
 30
0.0
 11
-99.8307205800000048
 21
-72.6544011600000061
 31
0.0
  0
LINE
  5
21D
  8
LAYER0003
  6
CONTINUOUS
 62
     7
 10
-99.8307205800000048
 20
-72.6544011600000061
 30
0.0
 11
-99.8303049099999953
 21
-72.6673994599999986
 31
0.0
  0
LINE
  5
21E
  8
LAYER0003
  6
CONTINUOUS
 62
     7
 10
-99.8303049099999953
 20
-72.6673994599999986
 30
0.0
 11
-99.829862250000005
 21
-72.6803891600000043
 31
0.0
  0
LINE
  5
21F
  8
LAYER0003
  6
CONTINUOUS
 62
     7
 10
223.2101236999999969
 20
-42.9496733599999985
 30
0.0
 11
223.2491142199999956
 21
-42.9544337100000035
 31
0.0
  0
LINE
  5
220
  8
LAYER0003
  6
CONTINUOUS
 62
     7
 10
223.2491142199999956
 20
-42.9544337100000035
 30
0.0
 11
223.2880409599999894
 21
-42.9594105899999903
 31
0.0
  0
LINE
  5
221
  8
LAYER0003
  6
CONTINUOUS
 62
     7
 10
223.2880409599999894
 20
-42.9594105899999903
 30
0.0
 11
223.3268401400000016
 21
-42.9648205499999989
 31
0.0
  0
LINE
  5
222
  8
LAYER0003
  6
CONTINUOUS
 62
     7
 10
223.3268401400000016
 20
-42.9648205499999989
 30
0.0
 11
223.3654479900000069
 21
-42.9708801299999905
 31
0.0
  0
LINE
  5
223
  8
LAYER0003
  6
CONTINUOUS
 62
     7
 10
223.3654479900000069
 20
-42.9708801299999905
 30
0.0
 11
223.4038007100000129
 21
-42.9778058599999966
 31
0.0
  0
LINE
  5
224
  8
LAYER0003
  6
CONTINUOUS
 62
     7
 10
223.4038007100000129
 20
-42.9778058599999966
 30
0.0
 11
223.4418345299999942
 21
-42.9858142699999988
 31
0.0
  0
LINE
  5
225
  8
LAYER0003
  6
CONTINUOUS
 62
     7
 10
223.4418345299999942
 20
-42.9858142699999988
 30
0.0
 11
223.4794856700000025
 21
-42.9951219399999971
 31
0.0
  0
LINE
  5
226
  8
LAYER0003
  6
CONTINUOUS
 62
     7
 10
223.4794856700000025
 20
-42.9951219399999971
 30
0.0
 11
223.5166903500000046
 21
-43.0059453699999992
 31
0.0
  0
LINE
  5
227
  8
LAYER0003
  6
CONTINUOUS
 62
     7
 10
223.5166903500000046
 20
-43.0059453699999992
 30
0.0
 11
223.5533848899999896
 21
-43.0184980200000027
 31
0.0
  0
LINE
  5
228
  8
LAYER0003
  6
CONTINUOUS
 62
     7
 10
223.5533848899999896
 20
-43.0184980200000027
 30
0.0
 11
223.5895099299999913
 21
-43.0328669299999902
 31
0.0
  0
LINE
  5
229
  8
LAYER0003
  6
CONTINUOUS
 62
     7
 10
223.5895099299999913
 20
-43.0328669299999902
 30
0.0
 11
223.6250118199999974
 21
-43.048971250000001
 31
0.0
  0
LINE
  5
22A
  8
LAYER0003
  6
CONTINUOUS
 62
     7
 10
223.6250118199999974
 20
-43.048971250000001
 30
0.0
 11
223.6598372999999924
 21
-43.0667185499999974
 31
0.0
  0
LINE
  5
22B
  8
LAYER0003
  6
CONTINUOUS
 62
     7
 10
223.6598372999999924
 20
-43.0667185499999974
 30
0.0
 11
223.6939331300000049
 21
-43.0860163500000013
 31
0.0
  0
LINE
  5
22C
  8
LAYER0003
  6
CONTINUOUS
 62
     7
 10
223.6939331300000049
 20
-43.0860163500000013
 30
0.0
 11
223.7272460599999988
 21
-43.10677222999999
 31
0.0
  0
LINE
  5
22D
  8
LAYER0003
  6
CONTINUOUS
 62
     7
 10
223.7272460599999988
 20
-43.10677222999999
 30
0.0
 11
223.7597228200000075
 21
-43.1288937199999936
 31
0.0
  0
LINE
  5
22E
  8
LAYER0003
  6
CONTINUOUS
 62
     7
 10
223.7597228200000075
 20
-43.1288937199999936
 30
0.0
 11
223.7913101800000106
 21
-43.1522883800000017
 31
0.0
  0
LINE
  5
22F
  8
LAYER0003
  6
CONTINUOUS
 62
     7
 10
223.7913101800000106
 20
-43.1522883800000017
 30
0.0
 11
223.8219548700000132
 21
-43.1768637699999971
 31
0.0
  0
LINE
  5
230
  8
LAYER0003
  6
CONTINUOUS
 62
     7
 10
223.8219548700000132
 20
-43.1768637699999971
 30
0.0
 11
223.8516058300000111
 21
-43.2025325199999912
 31
0.0
  0
LINE
  5
231
  8
LAYER0003
  6
CONTINUOUS
 62
     7
 10
223.8516058300000111
 20
-43.2025325199999912
 30
0.0
 11
223.8802291000000082
 21
-43.2292471299999903
 31
0.0
  0
LINE
  5
232
  8
LAYER0003
  6
CONTINUOUS
 62
     7
 10
223.8802291000000082
 20
-43.2292471299999903
 30
0.0
 11
223.9077987199999882
 21
-43.2569787899999909
 31
0.0
  0
LINE
  5
233
  8
LAYER0003
  6
CONTINUOUS
 62
     7
 10
223.9077987199999882
 20
-43.2569787899999909
 30
0.0
 11
223.9342887800000028
 21
-43.2856987500000017
 31
0.0
  0
LINE
  5
234
  8
LAYER0003
  6
CONTINUOUS
 62
     7
 10
223.9342887800000028
 20
-43.2856987500000017
 30
0.0
 11
223.9596733600000107
 21
-43.3153783500000031
 31
0.0
  0
LINE
  5
235
  8
LAYER0003
  6
CONTINUOUS
 62
     7
 10
223.9596733600000107
 20
-43.3153783500000031
 30
0.0
 11
223.9839265800000021
 21
-43.3459888300000031
 31
0.0
  0
LINE
  5
236
  8
LAYER0003
  6
CONTINUOUS
 62
     7
 10
223.9839265800000021
 20
-43.3459888300000031
 30
0.0
 11
224.007022510000013
 21
-43.3775014900000002
 31
0.0
  0
LINE
  5
237
  8
LAYER0003
  6
CONTINUOUS
 62
     7
 10
224.007022510000013
 20
-43.3775014900000002
 30
0.0
 11
224.0289352400000098
 21
-43.4098876199999992
 31
0.0
  0
LINE
  5
238
  8
LAYER0003
  6
CONTINUOUS
 62
     7
 10
224.0289352400000098
 20
-43.4098876199999992
 30
0.0
 11
224.0496388599999875
 21
-43.4431184800000025
 31
0.0
  0
LINE
  5
239
  8
LAYER0003
  6
CONTINUOUS
 62
     7
 10
224.0496388599999875
 20
-43.4431184800000025
 30
0.0
 11
224.0690980400000001
 21
-43.4771565200000012
 31
0.0
  0
LINE
  5
23A
  8
LAYER0003
  6
CONTINUOUS
 62
     7
 10
224.0690980400000001
 20
-43.4771565200000012
 30
0.0
 11
224.0872536800000034
 21
-43.5119417999999882
 31
0.0
  0
LINE
  5
23B
  8
LAYER0003
  6
CONTINUOUS
 62
     7
 10
224.0872536800000034
 20
-43.5119417999999882
 30
0.0
 11
224.104042910000004
 21
-43.5474108699999931
 31
0.0
  0
LINE
  5
23C
  8
LAYER0003
  6
CONTINUOUS
 62
     7
 10
224.104042910000004
 20
-43.5474108699999931
 30
0.0
 11
224.1194028900000035
 21
-43.5835002800000026
 31
0.0
  0
LINE
  5
23D
  8
LAYER0003
  6
CONTINUOUS
 62
     7
 10
224.1194028900000035
 20
-43.5835002800000026
 30
0.0
 11
224.1332707699999958
 21
-43.6201465700000028
 31
0.0
  0
LINE
  5
23E
  8
LAYER0003
  6
CONTINUOUS
 62
     7
 10
224.1332707699999958
 20
-43.6201465700000028
 30
0.0
 11
224.1455837000000031
 21
-43.6572862999999884
 31
0.0
  0
LINE
  5
23F
  8
LAYER0003
  6
CONTINUOUS
 62
     7
 10
224.1455837000000031
 20
-43.6572862999999884
 30
0.0
 11
224.1562788399999988
 21
-43.6948560200000031
 31
0.0
  0
LINE
  5
240
  8
LAYER0003
  6
CONTINUOUS
 62
     7
 10
224.1562788399999988
 20
-43.6948560200000031
 30
0.0
 11
224.1652933299999972
 21
-43.732792289999999
 31
0.0
  0
LINE
  5
241
  8
LAYER0003
  6
CONTINUOUS
 62
     7
 10
224.1652933299999972
 20
-43.732792289999999
 30
0.0
 11
224.1725711900000135
 21
-43.7710318900000033
 31
0.0
  0
LINE
  5
242
  8
LAYER0003
  6
CONTINUOUS
 62
     7
 10
224.1725711900000135
 20
-43.7710318900000033
 30
0.0
 11
224.1782356500000049
 21
-43.8095182100000002
 31
0.0
  0
LINE
  5
243
  8
LAYER0003
  6
CONTINUOUS
 62
     7
 10
224.1782356500000049
 20
-43.8095182100000002
 30
0.0
 11
224.1826018399999896
 21
-43.8482016099999896
 31
0.0
  0
LINE
  5
244
  8
LAYER0003
  6
CONTINUOUS
 62
     7
 10
224.1826018399999896
 20
-43.8482016099999896
 30
0.0
 11
224.1859943499999872
 21
-43.8870328400000034
 31
0.0
  0
LINE
  5
245
  8
LAYER0003
  6
CONTINUOUS
 62
     7
 10
224.1859943499999872
 20
-43.8870328400000034
 30
0.0
 11
224.1887377300000139
 21
-43.9259625999999983
 31
0.0
  0
LINE
  5
246
  8
LAYER0003
  6
CONTINUOUS
 62
     7
 10
224.1887377300000139
 20
-43.9259625999999983
 30
0.0
 11
224.1911565499999881
 21
-43.9649416399999922
 31
0.0
  0
LINE
  5
247
  8
LAYER0003
  6
CONTINUOUS
 62
     7
 10
224.1911565499999881
 20
-109.6752328900000037
 30
0.0
 11
224.1873529599999983
 21
-109.7143467700000059
 31
0.0
  0
LINE
  5
248
  8
LAYER0003
  6
CONTINUOUS
 62
     7
 10
224.1873529599999983
 20
-109.7143467700000059
 30
0.0
 11
224.1833427500000084
 21
-109.7534053100000051
 31
0.0
  0
LINE
  5
249
  8
LAYER0003
  6
CONTINUOUS
 62
     7
 10
224.1833427500000084
 20
-109.7534053100000051
 30
0.0
 11
224.1789192699999944
 21
-109.7923531600000047
 31
0.0
  0
LINE
  5
24A
  8
LAYER0003
  6
CONTINUOUS
 62
     7
 10
224.1789192699999944
 20
-109.7923531600000047
 30
0.0
 11
224.173875890000005
 21
-109.8311350000000033
 31
0.0
  0
LINE
  5
24B
  8
LAYER0003
  6
CONTINUOUS
 62
     7
 10
224.173875890000005
 20
-109.8311350000000033
 30
0.0
 11
224.1680059699999958
 21
-109.8696954800000043
 31
0.0
  0
LINE
  5
24C
  8
LAYER0003
  6
CONTINUOUS
 62
     7
 10
224.1680059699999958
 20
-109.8696954800000043
 30
0.0
 11
224.1611028899999951
 21
-109.9079792600000047
 31
0.0
  0
LINE
  5
24D
  8
LAYER0003
  6
CONTINUOUS
 62
     7
 10
224.1611028899999951
 20
-109.9079792600000047
 30
0.0
 11
224.1529600099999868
 21
-109.94593098
 31
0.0
  0
LINE
  5
24E
  8
LAYER0003
  6
CONTINUOUS
 62
     7
 10
224.1529600099999868
 20
-109.94593098
 30
0.0
 11
224.1433706999999913
 21
-109.9834953400000046
 31
0.0
  0
LINE
  5
24F
  8
LAYER0003
  6
CONTINUOUS
 62
     7
 10
224.1433706999999913
 20
-109.9834953400000046
 30
0.0
 11
224.1321284699999978
 21
-110.0206169700000061
 31
0.0
  0
LINE
  5
250
  8
LAYER0003
  6
CONTINUOUS
 62
     7
 10
224.1321284699999978
 20
-110.0206169700000061
 30
0.0
 11
224.1190990499999884
 21
-110.0572404499999948
 31
0.0
  0
LINE
  5
251
  8
LAYER0003
  6
CONTINUOUS
 62
     7
 10
224.1190990499999884
 20
-110.0572404499999948
 30
0.0
 11
224.1043361399999867
 21
-110.0933101100000044
 31
0.0
  0
LINE
  5
252
  8
LAYER0003
  6
CONTINUOUS
 62
     7
 10
224.1043361399999867
 20
-110.0933101100000044
 30
0.0
 11
224.0879236400000138
 21
-110.128770270000004
 31
0.0
  0
LINE
  5
253
  8
LAYER0003
  6
CONTINUOUS
 62
     7
 10
224.0879236400000138
 20
-110.128770270000004
 30
0.0
 11
224.0699454500000058
 21
-110.1635652199999953
 31
0.0
  0
LINE
  5
254
  8
LAYER0003
  6
CONTINUOUS
 62
     7
 10
224.0699454500000058
 20
-110.1635652199999953
 30
0.0
 11
224.0504854700000124
 21
-110.1976392600000025
 31
0.0
  0
LINE
  5
255
  8
LAYER0003
  6
CONTINUOUS
 62
     7
 10
224.0504854700000124
 20
-110.1976392600000025
 30
0.0
 11
224.0296275800000103
 21
-110.2309367200000025
 31
0.0
  0
LINE
  5
256
  8
LAYER0003
  6
CONTINUOUS
 62
     7
 10
224.0296275800000103
 20
-110.2309367200000025
 30
0.0
 11
224.0074556900000005
 21
-110.2634018499999939
 31
0.0
  0
LINE
  5
257
  8
LAYER0003
  6
CONTINUOUS
 62
     7
 10
224.0074556900000005
 20
-110.2634018499999939
 30
0.0
 11
223.984053710000012
 21
-110.2949789900000042
 31
0.0
  0
LINE
  5
258
  8
LAYER0003
  6
CONTINUOUS
 62
     7
 10
223.984053710000012
 20
-110.2949789900000042
 30
0.0
 11
223.9595052900000098
 21
-110.3256125399999945
 31
0.0
  0
LINE
  5
259
  8
LAYER0003
  6
CONTINUOUS
 62
     7
 10
223.9595052900000098
 20
-110.3256125399999945
 30
0.0
 11
223.9338750199999879
 21
-110.3552560199999988
 31
0.0
  0
LINE
  5
25A
  8
LAYER0003
  6
CONTINUOUS
 62
     7
 10
223.9338750199999879
 20
-110.3552560199999988
 30
0.0
 11
223.907193790000008
 21
-110.3838791099999952
 31
0.0
  0
LINE
  5
25B
  8
LAYER0003
  6
CONTINUOUS
 62
     7
 10
223.907193790000008
 20
-110.3838791099999952
 30
0.0
 11
223.8794890599999974
 21
-110.4114530699999932
 31
0.0
  0
LINE
  5
25C
  8
LAYER0003
  6
CONTINUOUS
 62
     7
 10
223.8794890599999974
 20
-110.4114530699999932
 30
0.0
 11
223.8507882799999891
 21
-110.4379491800000039
 31
0.0
  0
LINE
  5
25D
  8
LAYER0003
  6
CONTINUOUS
 62
     7
 10
223.8507882799999891
 20
-110.4379491800000039
 30
0.0
 11
223.8211189200000035
 21
-110.4633387399999975
 31
0.0
  0
LINE
  5
25E
  8
LAYER0003
  6
CONTINUOUS
 62
     7
 10
223.8211189200000035
 20
-110.4633387399999975
 30
0.0
 11
223.7905084299999885
 21
-110.4875930200000056
 31
0.0
  0
LINE
  5
25F
  8
LAYER0003
  6
CONTINUOUS
 62
     7
 10
223.7905084299999885
 20
-110.4875930200000056
 30
0.0
 11
223.7589842700000133
 21
-110.5106833300000062
 31
0.0
  0
LINE
  5
260
  8
LAYER0003
  6
CONTINUOUS
 62
     7
 10
223.7589842700000133
 20
-110.5106833300000062
 30
0.0
 11
223.7265739000000053
 21
-110.5325809200000009
 31
0.0
  0
LINE
  5
261
  8
LAYER0003
  6
CONTINUOUS
 62
     7
 10
223.7265739000000053
 20
-110.5325809200000009
 30
0.0
 11
223.6933057699999949
 21
-110.5532560399999937
 31
0.0
  0
LINE
  5
262
  8
LAYER0003
  6
CONTINUOUS
 62
     7
 10
223.6933057699999949
 20
-110.5532560399999937
 30
0.0
 11
223.6592267700000036
 21
-110.572659509999994
 31
0.0
  0
LINE
  5
263
  8
LAYER0003
  6
CONTINUOUS
 62
     7
 10
223.6592267700000036
 20
-110.572659509999994
 30
0.0
 11
223.6244000799999867
 21
-110.5907249100000058
 31
0.0
  0
LINE
  5
264
  8
LAYER0003
  6
CONTINUOUS
 62
     7
 10
223.6244000799999867
 20
-110.5907249100000058
 30
0.0
 11
223.5888894599999901
 21
-110.6073852699999946
 31
0.0
  0
LINE
  5
265
  8
LAYER0003
  6
CONTINUOUS
 62
     7
 10
223.5888894599999901
 20
-110.6073852699999946
 30
0.0
 11
223.552758659999995
 21
-110.6225735999999955
 31
0.0
  0
LINE
  5
266
  8
LAYER0003
  6
CONTINUOUS
 62
     7
 10
223.552758659999995
 20
-110.6225735999999955
 30
0.0
 11
223.5160714399999904
 21
-110.6362229100000008
 31
0.0
  0
LINE
  5
267
  8
LAYER0003
  6
CONTINUOUS
 62
     7
 10
223.5160714399999904
 20
-110.6362229100000008
 30
0.0
 11
223.4788915400000064
 21
-110.6482662199999965
 31
0.0
  0
LINE
  5
268
  8
LAYER0003
  6
CONTINUOUS
 62
     7
 10
223.4788915400000064
 20
-110.6482662199999965
 30
0.0
 11
223.4412827300000117
 21
-110.6586365200000017
 31
0.0
  0
LINE
  5
269
  8
LAYER0003
  6
CONTINUOUS
 62
     7
 10
223.4412827300000117
 20
-110.6586365200000017
 30
0.0
 11
223.4033087599999874
 21
-110.6672668500000043
 31
0.0
  0
LINE
  5
26A
  8
LAYER0003
  6
CONTINUOUS
 62
     7
 10
223.4033087599999874
 20
-110.6672668500000043
 30
0.0
 11
223.3650329600000077
 21
-110.6741412399999973
 31
0.0
  0
LINE
  5
26B
  8
LAYER0003
  6
CONTINUOUS
 62
     7
 10
223.3650329600000077
 20
-110.6741412399999973
 30
0.0
 11
223.3265163499999915
 21
-110.6795306500000038
 31
0.0
  0
LINE
  5
26C
  8
LAYER0003
  6
CONTINUOUS
 62
     7
 10
223.3265163499999915
 20
-110.6795306500000038
 30
0.0
 11
223.2878191400000105
 21
-110.6838062700000052
 31
0.0
  0
LINE
  5
26D
  8
LAYER0003
  6
CONTINUOUS
 62
     7
 10
223.2878191400000105
 20
-110.6838062700000052
 30
0.0
 11
223.2490015200000073
 21
-110.6873393599999957
 31
0.0
  0
LINE
  5
26E
  8
LAYER0003
  6
CONTINUOUS
 62
     7
 10
223.2490015200000073
 20
-110.6873393599999957
 30
0.0
 11
223.2101236999999969
 21
-110.6905011700000045
 31
0.0
  0
LINE
  5
26F
  8
LAYER0003
  6
CONTINUOUS
 62
     7
 10
110.7911588300000005
 20
-76.3137253299999969
 30
0.0
 11
110.771284499999993
 21
-76.3137253299999969
 31
0.0
  0
LINE
  5
270
  8
LAYER0003
  6
CONTINUOUS
 62
     7
 10
110.771284499999993
 20
-76.3137253299999969
 30
0.0
 11
110.7514085699999953
 21
-76.3137253299999969
 31
0.0
  0
LINE
  5
271
  8
LAYER0003
  6
CONTINUOUS
 62
     7
 10
110.7514085699999953
 20
-76.3137253299999969
 30
0.0
 11
110.7315294499999965
 21
-76.3137253299999969
 31
0.0
  0
LINE
  5
272
  8
LAYER0003
  6
CONTINUOUS
 62
     7
 10
110.7315294499999965
 20
-76.3137253299999969
 30
0.0
 11
110.7116455599999938
 21
-76.3137253299999969
 31
0.0
  0
LINE
  5
273
  8
LAYER0003
  6
CONTINUOUS
 62
     7
 10
110.7116455599999938
 20
-76.3137253299999969
 30
0.0
 11
110.691755299999997
 21
-76.3137253299999969
 31
0.0
  0
LINE
  5
274
  8
LAYER0003
  6
CONTINUOUS
 62
     7
 10
110.691755299999997
 20
-76.3137253299999969
 30
0.0
 11
110.6718570700000015
 21
-76.3137253299999969
 31
0.0
  0
LINE
  5
275
  8
LAYER0003
  6
CONTINUOUS
 62
     7
 10
110.6718570700000015
 20
-76.3137253299999969
 30
0.0
 11
110.6519492999999983
 21
-76.3137253299999969
 31
0.0
  0
LINE
  5
276
  8
LAYER0003
  6
CONTINUOUS
 62
     7
 10
110.6519492999999983
 20
-76.3137253299999969
 30
0.0
 11
110.6320303699999954
 21
-76.3137253299999969
 31
0.0
  0
LINE
  5
277
  8
LAYER0003
  6
CONTINUOUS
 62
     7
 10
110.6320303699999954
 20
-76.3137253299999969
 30
0.0
 11
110.6120987099999979
 21
-76.3137253299999969
 31
0.0
  0
LINE
  5
278
  8
LAYER0003
  6
CONTINUOUS
 62
     7
 10
110.6120987099999979
 20
-76.3137253299999969
 30
0.0
 11
110.5921527200000014
 21
-76.3137253299999969
 31
0.0
  0
LINE
  5
279
  8
LAYER0003
  6
CONTINUOUS
 62
     7
 10
110.5921527200000014
 20
-76.3137253299999969
 30
0.0
 11
110.5721908000000013
 21
-76.3137253299999969
 31
0.0
  0
LINE
  5
27A
  8
LAYER0003
  6
CONTINUOUS
 62
     7
 10
110.5721908000000013
 20
-76.3137253299999969
 30
0.0
 11
110.5522113699999949
 21
-76.3137253299999969
 31
0.0
  0
LINE
  5
27B
  8
LAYER0003
  6
CONTINUOUS
 62
     7
 10
110.5522113699999949
 20
-76.3137253299999969
 30
0.0
 11
110.5322128399999997
 21
-76.3137253299999969
 31
0.0
  0
LINE
  5
27C
  8
LAYER0003
  6
CONTINUOUS
 62
     7
 10
110.5322128399999997
 20
-76.3137253299999969
 30
0.0
 11
110.5121947899999952
 21
-76.3137253299999969
 31
0.0
  0
LINE
  5
27D
  8
LAYER0003
  6
CONTINUOUS
 62
     7
 10
110.5121947899999952
 20
-76.3137253299999969
 30
0.0
 11
110.4921586699999949
 21
-76.3137253299999969
 31
0.0
  0
LINE
  5
27E
  8
LAYER0003
  6
CONTINUOUS
 62
     7
 10
110.4921586699999949
 20
-76.3137253299999969
 30
0.0
 11
110.472106139999994
 21
-76.3137253299999969
 31
0.0
  0
LINE
  5
27F
  8
LAYER0003
  6
CONTINUOUS
 62
     7
 10
110.472106139999994
 20
-76.3137253299999969
 30
0.0
 11
110.4520388199999985
 21
-76.3137253299999969
 31
0.0
  0
LINE
  5
280
  8
LAYER0003
  6
CONTINUOUS
 62
     7
 10
110.4520388199999985
 20
-76.3137253299999969
 30
0.0
 11
110.4319583599999959
 21
-76.3137253299999969
 31
0.0
  0
LINE
  5
281
  8
LAYER0003
  6
CONTINUOUS
 62
     7
 10
110.4319583599999959
 20
-76.3137253299999969
 30
0.0
 11
110.4118664100000018
 21
-76.3137253299999969
 31
0.0
  0
LINE
  5
282
  8
LAYER0003
  6
CONTINUOUS
 62
     7
 10
110.4118664100000018
 20
-76.3137253299999969
 30
0.0
 11
110.3917646099999956
 21
-76.3137253299999969
 31
0.0
  0
LINE
  5
283
  8
LAYER0003
  6
CONTINUOUS
 62
     7
 10
110.3917646099999956
 20
-76.3137253299999969
 30
0.0
 11
110.3716545999999994
 21
-76.3137253299999969
 31
0.0
  0
LINE
  5
284
  8
LAYER0003
  6
CONTINUOUS
 62
     7
 10
110.3716545999999994
 20
-76.3137253299999969
 30
0.0
 11
110.3515380099999987
 21
-76.3137253299999969
 31
0.0
  0
LINE
  5
285
  8
LAYER0003
  6
CONTINUOUS
 62
     7
 10
110.3515380099999987
 20
-76.3137253299999969
 30
0.0
 11
110.3314165000000031
 21
-76.3137253299999969
 31
0.0
  0
LINE
  5
286
  8
LAYER0003
  6
CONTINUOUS
 62
     7
 10
110.3314165000000031
 20
-76.3137253299999969
 30
0.0
 11
110.3112917100000061
 21
-76.3137253299999969
 31
0.0
  0
LINE
  5
287
  8
LAYER0003
  6
CONTINUOUS
 62
     7
 10
110.3112917100000061
 20
-76.3137253299999969
 30
0.0
 11
110.2911652699999934
 21
-76.3137253299999969
 31
0.0
  0
LINE
  5
288
  8
LAYER0003
  6
CONTINUOUS
 62
     7
 10
-200.5328260899999862
 20
-306.6978884900000253
 30
0.0
 11
-200.4876728099999923
 21
-306.6962300600000049
 31
0.0
  0
LINE
  5
289
  8
LAYER0003
  6
CONTINUOUS
 62
     7
 10
-200.4876728099999923
 20
-306.6962300600000049
 30
0.0
 11
-200.4425596400000131
 21
-306.6940137099999788
 31
0.0
  0
LINE
  5
28A
  8
LAYER0003
  6
CONTINUOUS
 62
     7
 10
-200.4425596400000131
 20
-306.6940137099999788
 30
0.0
 11
-200.3975266699999906
 21
-306.6906814999999824
 31
0.0
  0
LINE
  5
28B
  8
LAYER0003
  6
CONTINUOUS
 62
     7
 10
-200.3975266699999906
 20
-306.6906814999999824
 30
0.0
 11
-200.352615429999986
 21
-306.6857201799999757
 31
0.0
  0
LINE
  5
28C
  8
LAYER0003
  6
CONTINUOUS
 62
     7
 10
-200.352615429999986
 20
-306.6857201799999757
 30
0.0
 11
-200.3078791199999955
 21
-306.6789876700000264
 31
0.0
  0
LINE
  5
28D
  8
LAYER0003
  6
CONTINUOUS
 62
     7
 10
-200.3078791199999955
 20
-306.6789876700000264
 30
0.0
 11
-200.2633767499999919
 21
-306.6705259400000045
 31
0.0
  0
LINE
  5
28E
  8
LAYER0003
  6
CONTINUOUS
 62
     7
 10
-200.2633767499999919
 20
-306.6705259400000045
 30
0.0
 11
-200.2191673600000001
 21
-306.6603783000001044
 31
0.0
  0
LINE
  5
28F
  8
LAYER0003
  6
CONTINUOUS
 62
     7
 10
-200.2191673600000001
 20
-306.6603783000001044
 30
0.0
 11
-200.1753099999999961
 21
-306.6485880399999928
 31
0.0
  0
LINE
  5
290
  8
LAYER0003
  6
CONTINUOUS
 62
     7
 10
-200.1753099999999961
 20
-306.6485880399999928
 30
0.0
 11
-200.1318637200000126
 21
-306.6351984600000264
 31
0.0
  0
LINE
  5
291
  8
LAYER0003
  6
CONTINUOUS
 62
     7
 10
-200.1318637200000126
 20
-306.6351984600000264
 30
0.0
 11
-200.0888875699999971
 21
-306.6202528900000175
 31
0.0
  0
LINE
  5
292
  8
LAYER0003
  6
CONTINUOUS
 62
     7
 10
-200.0888875699999971
 20
-306.6202528900000175
 30
0.0
 11
-200.0464405900000031
 21
-306.6037945900000068
 31
0.0
  0
LINE
  5
293
  8
LAYER0003
  6
CONTINUOUS
 62
     7
 10
-200.0464405900000031
 20
-306.6037945900000068
 30
0.0
 11
-200.004581839999986
 21
-306.585866899999985
 31
0.0
  0
LINE
  5
294
  8
LAYER0003
  6
CONTINUOUS
 62
     7
 10
-200.004581839999986
 20
-306.585866899999985
 30
0.0
 11
-199.963370349999991
 21
-306.5665130900000008
 31
0.0
  0
LINE
  5
295
  8
LAYER0003
  6
CONTINUOUS
 62
     7
 10
-199.963370349999991
 20
-306.5665130900000008
 30
0.0
 11
-199.9228624499999967
 21
-306.5457725100000062
 31
0.0
  0
LINE
  5
296
  8
LAYER0003
  6
CONTINUOUS
 62
     7
 10
-199.9228624499999967
 20
-306.5457725100000062
 30
0.0
 11
-199.8831061600000112
 21
-306.523672509999983
 31
0.0
  0
LINE
  5
297
  8
LAYER0003
  6
CONTINUOUS
 62
     7
 10
-199.8831061600000112
 20
-306.523672509999983
 30
0.0
 11
-199.8441479299999912
 21
-306.500238109999998
 31
0.0
  0
LINE
  5
298
  8
LAYER0003
  6
CONTINUOUS
 62
     7
 10
-199.8441479299999912
 20
-306.500238109999998
 30
0.0
 11
-199.8060341899999912
 21
-306.4754943400000116
 31
0.0
  0
LINE
  5
299
  8
LAYER0003
  6
CONTINUOUS
 62
     7
 10
-199.8060341899999912
 20
-306.4754943400000116
 30
0.0
 11
-199.7688113700000088
 21
-306.4494662299999845
 31
0.0
  0
LINE
  5
29A
  8
LAYER0003
  6
CONTINUOUS
 62
     7
 10
-199.7688113700000088
 20
-306.4494662299999845
 30
0.0
 11
-199.7325259300000084
 21
-306.4221788300000071
 31
0.0
  0
LINE
  5
29B
  8
LAYER0003
  6
CONTINUOUS
 62
     7
 10
-199.7325259300000084
 20
-306.4221788300000071
 30
0.0
 11
-199.6972243099999957
 21
-306.3936571599999752
 31
0.0
  0
LINE
  5
29C
  8
LAYER0003
  6
CONTINUOUS
 62
     7
 10
-199.6972243099999957
 20
-306.3936571599999752
 30
0.0
 11
-199.6629529299999888
 21
-306.363926269999979
 31
0.0
  0
LINE
  5
29D
  8
LAYER0003
  6
CONTINUOUS
 62
     7
 10
-199.6629529299999888
 20
-306.363926269999979
 30
0.0
 11
-199.629758250000009
 21
-306.3330111800000282
 31
0.0
  0
LINE
  5
29E
  8
LAYER0003
  6
CONTINUOUS
 62
     7
 10
-199.629758250000009
 20
-306.3330111800000282
 30
0.0
 11
-199.597686259999989
 21
-306.3009373900000014
 31
0.0
  0
LINE
  5
29F
  8
LAYER0003
  6
CONTINUOUS
 62
     7
 10
-199.597686259999989
 20
-306.3009373900000014
 30
0.0
 11
-199.5667726899999934
 21
-306.2677406799999744
 31
0.0
  0
LINE
  5
2A0
  8
LAYER0003
  6
CONTINUOUS
 62
     7
 10
-199.5667726899999934
 20
-306.2677406799999744
 30
0.0
 11
-199.5370430300000066
 21
-306.2334672200000227
 31
0.0
  0
LINE
  5
2A1
  8
LAYER0003
  6
CONTINUOUS
 62
     7
 10
-199.5370430300000066
 20
-306.2334672200000227
 30
0.0
 11
-199.5085223400000132
 21
-306.198163529999988
 31
0.0
  0
LINE
  5
2A2
  8
LAYER0003
  6
CONTINUOUS
 62
     7
 10
-199.5085223400000132
 20
-306.198163529999988
 30
0.0
 11
-199.4812356399999942
 21
-306.1618762400000264
 31
0.0
  0
LINE
  5
2A3
  8
LAYER0003
  6
CONTINUOUS
 62
     7
 10
-199.4812356399999942
 20
-306.1618762400000264
 30
0.0
 11
-199.455207989999991
 21
-306.1246518899999955
 31
0.0
  0
LINE
  5
2A4
  8
LAYER0003
  6
CONTINUOUS
 62
     7
 10
-199.455207989999991
 20
-306.1246518899999955
 30
0.0
 11
-199.4304644300000007
 21
-306.0865370800000278
 31
0.0
  0
LINE
  5
2A5
  8
LAYER0003
  6
CONTINUOUS
 62
     7
 10
-199.4304644300000007
 20
-306.0865370800000278
 30
0.0
 11
-199.4070300099999997
 21
-306.0475783599999886
 31
0.0
  0
LINE
  5
2A6
  8
LAYER0003
  6
CONTINUOUS
 62
     7
 10
-199.4070300099999997
 20
-306.0475783599999886
 30
0.0
 11
-199.3849297600000057
 21
-306.0078223400000184
 31
0.0
  0
LINE
  5
2A7
  8
LAYER0003
  6
CONTINUOUS
 62
     7
 10
-199.3849297600000057
 20
-306.0078223400000184
 30
0.0
 11
-199.364188740000003
 21
-305.9673155599999745
 31
0.0
  0
LINE
  5
2A8
  8
LAYER0003
  6
CONTINUOUS
 62
     7
 10
-199.364188740000003
 20
-305.9673155599999745
 30
0.0
 11
-199.3448342000000082
 21
-305.9261060599999951
 31
0.0
  0
LINE
  5
2A9
  8
LAYER0003
  6
CONTINUOUS
 62
     7
 10
-199.3448342000000082
 20
-305.9261060599999951
 30
0.0
 11
-199.3269056599999942
 21
-305.88424993000001
 31
0.0
  0
LINE
  5
2AA
  8
LAYER0003
  6
CONTINUOUS
 62
     7
 10
-199.3269056599999942
 20
-305.88424993000001
 30
0.0
 11
-199.310446909999996
 21
-305.8418060800000262
 31
0.0
  0
LINE
  5
2AB
  8
LAYER0003
  6
CONTINUOUS
 62
     7
 10
-199.310446909999996
 20
-305.8418060800000262
 30
0.0
 11
-199.2955017099999964
 21
-305.7988333600000033
 31
0.0
  0
LINE
  5
2AC
  8
LAYER0003
  6
CONTINUOUS
 62
     7
 10
-199.2955017099999964
 20
-305.7988333600000033
 30
0.0
 11
-199.2821138500000018
 21
-305.755390669999997
 31
0.0
  0
LINE
  5
2AD
  8
LAYER0003
  6
CONTINUOUS
 62
     7
 10
-199.2821138500000018
 20
-305.755390669999997
 30
0.0
 11
-199.2703271000000029
 21
-305.7115369200000146
 31
0.0
  0
LINE
  5
2AE
  8
LAYER0003
  6
CONTINUOUS
 62
     7
 10
-199.2703271000000029
 20
-305.7115369200000146
 30
0.0
 11
-199.260185220000011
 21
-305.6673309500000073
 31
0.0
  0
LINE
  5
2AF
  8
LAYER0003
  6
CONTINUOUS
 62
     7
 10
-199.260185220000011
 20
-305.6673309500000073
 30
0.0
 11
-199.251732010000012
 21
-305.6228316599999744
 31
0.0
  0
LINE
  5
2B0
  8
LAYER0003
  6
CONTINUOUS
 62
     7
 10
-199.251732010000012
 20
-305.6228316599999744
 30
0.0
 11
-199.2450112399999966
 21
-305.5780979400000206
 31
0.0
  0
LINE
  5
2B1
  8
LAYER0003
  6
CONTINUOUS
 62
     7
 10
-199.2450112399999966
 20
-305.5780979400000206
 30
0.0
 11
-199.240064469999993
 21
-305.5331886299999837
 31
0.0
  0
LINE
  5
2B2
  8
LAYER0003
  6
CONTINUOUS
 62
     7
 10
-199.240064469999993
 20
-305.5331886299999837
 30
0.0
 11
-199.2367336099999875
 21
-305.4881563700000129
 31
0.0
  0
LINE
  5
2B3
  8
LAYER0003
  6
CONTINUOUS
 62
     7
 10
-199.2367336099999875
 20
-305.4881563700000129
 30
0.0
 11
-199.2345045700000128
 21
-305.4430428900000152
 31
0.0
  0
LINE
  5
2B4
  8
LAYER0003
  6
CONTINUOUS
 62
     7
 10
-199.2345045700000128
 20
-305.4430428900000152
 30
0.0
 11
-199.2328264399999966
 21
-305.3978888400000073
 31
0.0
  0
LINE
  5
2B5
  8
LAYER0003
  6
CONTINUOUS
 62
     7
 10
-268.1328294499999743
 20
-164.4978889200000083
 30
0.0
 11
-268.1779827299999965
 21
-164.4995473600000082
 31
0.0
  0
LINE
  5
2B6
  8
LAYER0003
  6
CONTINUOUS
 62
     7
 10
-268.1779827299999965
 20
-164.4995473600000082
 30
0.0
 11
-268.2230959099999836
 21
-164.5017637100000059
 31
0.0
  0
LINE
  5
2B7
  8
LAYER0003
  6
CONTINUOUS
 62
     7
 10
-268.2230959099999836
 20
-164.5017637100000059
 30
0.0
 11
-268.2681288699999982
 21
-164.5050958999999864
 31
0.0
  0
LINE
  5
2B8
  8
LAYER0003
  6
CONTINUOUS
 62
     7
 10
-268.2681288699999982
 20
-164.5050958999999864
 30
0.0
 11
-268.3130401099999744
 21
-164.5100572199999931
 31
0.0
  0
LINE
  5
2B9
  8
LAYER0003
  6
CONTINUOUS
 62
     7
 10
-268.3130401099999744
 20
-164.5100572199999931
 30
0.0
 11
-268.3577764199999933
 21
-164.5167897400000072
 31
0.0
  0
LINE
  5
2BA
  8
LAYER0003
  6
CONTINUOUS
 62
     7
 10
-268.3577764199999933
 20
-164.5167897400000072
 30
0.0
 11
-268.4022787999999764
 21
-164.5252514599999927
 31
0.0
  0
LINE
  5
2BB
  8
LAYER0003
  6
CONTINUOUS
 62
     7
 10
-268.4022787999999764
 20
-164.5252514599999927
 30
0.0
 11
-268.4464881800000171
 21
-164.535399109999986
 31
0.0
  0
LINE
  5
2BC
  8
LAYER0003
  6
CONTINUOUS
 62
     7
 10
-268.4464881800000171
 20
-164.535399109999986
 30
0.0
 11
-268.4903455400000212
 21
-164.5471893700000123
 31
0.0
  0
LINE
  5
2BD
  8
LAYER0003
  6
CONTINUOUS
 62
     7
 10
-268.4903455400000212
 20
-164.5471893700000123
 30
0.0
 11
-268.5337918199999763
 21
-164.5605789299999913
 31
0.0
  0
LINE
  5
2BE
  8
LAYER0003
  6
CONTINUOUS
 62
     7
 10
-268.5337918199999763
 20
-164.5605789299999913
 30
0.0
 11
-268.5767679699999917
 21
-164.5755245199999877
 31
0.0
  0
LINE
  5
2BF
  8
LAYER0003
  6
CONTINUOUS
 62
     7
 10
-268.5767679699999917
 20
-164.5755245199999877
 30
0.0
 11
-268.6192149500000141
 21
-164.5919828000000109
 31
0.0
  0
LINE
  5
2C0
  8
LAYER0003
  6
CONTINUOUS
 62
     7
 10
-268.6192149500000141
 20
-164.5919828000000109
 30
0.0
 11
-268.6610737099999824
 21
-164.6099105099999917
 31
0.0
  0
LINE
  5
2C1
  8
LAYER0003
  6
CONTINUOUS
 62
     7
 10
-268.6610737099999824
 20
-164.6099105099999917
 30
0.0
 11
-268.7022852000000057
 21
-164.6292643300000123
 31
0.0
  0
LINE
  5
2C2
  8
LAYER0003
  6
CONTINUOUS
 62
     7
 10
-268.7022852000000057
 20
-164.6292643300000123
 30
0.0
 11
-268.7427930900000206
 21
-164.6500048899999911
 31
0.0
  0
LINE
  5
2C3
  8
LAYER0003
  6
CONTINUOUS
 62
     7
 10
-268.7427930900000206
 20
-164.6500048899999911
 30
0.0
 11
-268.7825493799999776
 21
-164.6721048900000142
 31
0.0
  0
LINE
  5
2C4
  8
LAYER0003
  6
CONTINUOUS
 62
     7
 10
-268.7825493799999776
 20
-164.6721048900000142
 30
0.0
 11
-268.821507610000026
 21
-164.6955393099999867
 31
0.0
  0
LINE
  5
2C5
  8
LAYER0003
  6
CONTINUOUS
 62
     7
 10
-268.821507610000026
 20
-164.6955393099999867
 30
0.0
 11
-268.8596213600000056
 21
-164.7202830699999936
 31
0.0
  0
LINE
  5
2C6
  8
LAYER0003
  6
CONTINUOUS
 62
     7
 10
-268.8596213600000056
 20
-164.7202830699999936
 30
0.0
 11
-268.8968441700000085
 21
-164.7463111700000127
 31
0.0
  0
LINE
  5
2C7
  8
LAYER0003
  6
CONTINUOUS
 62
     7
 10
-268.8968441700000085
 20
-164.7463111700000127
 30
0.0
 11
-268.9331296099999804
 21
-164.7735985699999901
 31
0.0
  0
LINE
  5
2C8
  8
LAYER0003
  6
CONTINUOUS
 62
     7
 10
-268.9331296099999804
 20
-164.7735985699999901
 30
0.0
 11
-268.9684312399999726
 21
-164.8021202300000141
 31
0.0
  0
LINE
  5
2C9
  8
LAYER0003
  6
CONTINUOUS
 62
     7
 10
-268.9684312399999726
 20
-164.8021202300000141
 30
0.0
 11
-269.0027026099999716
 21
-164.8318511299999898
 31
0.0
  0
LINE
  5
2CA
  8
LAYER0003
  6
CONTINUOUS
 62
     7
 10
-269.0027026099999716
 20
-164.8318511299999898
 30
0.0
 11
-269.0358972899999799
 21
-164.8627662099999895
 31
0.0
  0
LINE
  5
2CB
  8
LAYER0003
  6
CONTINUOUS
 62
     7
 10
-269.0358972899999799
 20
-164.8627662099999895
 30
0.0
 11
-269.0679692799999998
 21
-164.8948400200000037
 31
0.0
  0
LINE
  5
2CC
  8
LAYER0003
  6
CONTINUOUS
 62
     7
 10
-269.0679692799999998
 20
-164.8948400200000037
 30
0.0
 11
-269.0988828499999954
 21
-164.9280367199999944
 31
0.0
  0
LINE
  5
2CD
  8
LAYER0003
  6
CONTINUOUS
 62
     7
 10
-269.0988828499999954
 20
-164.9280367199999944
 30
0.0
 11
-269.1286125099999822
 21
-164.9623101900000108
 31
0.0
  0
LINE
  5
2CE
  8
LAYER0003
  6
CONTINUOUS
 62
     7
 10
-269.1286125099999822
 20
-164.9623101900000108
 30
0.0
 11
-269.1571332099999836
 21
-164.9976138700000092
 31
0.0
  0
LINE
  5
2CF
  8
LAYER0003
  6
CONTINUOUS
 62
     7
 10
-269.1571332099999836
 20
-164.9976138700000092
 30
0.0
 11
-269.1844199000000231
 21
-165.0339011700000071
 31
0.0
  0
LINE
  5
2D0
  8
LAYER0003
  6
CONTINUOUS
 62
     7
 10
-269.1844199000000231
 20
-165.0339011700000071
 30
0.0
 11
-269.2104475500000262
 21
-165.0711255200000096
 31
0.0
  0
LINE
  5
2D1
  8
LAYER0003
  6
CONTINUOUS
 62
     7
 10
-269.2104475500000262
 20
-165.0711255200000096
 30
0.0
 11
-269.2351911100000166
 21
-165.1092403300000058
 31
0.0
  0
LINE
  5
2D2
  8
LAYER0003
  6
CONTINUOUS
 62
     7
 10
-269.2351911100000166
 20
-165.1092403300000058
 30
0.0
 11
-269.2586255400000255
 21
-165.1481990499999881
 31
0.0
  0
LINE
  5
2D3
  8
LAYER0003
  6
CONTINUOUS
 62
     7
 10
-269.2586255400000255
 20
-165.1481990499999881
 30
0.0
 11
-269.2807257800000116
 21
-165.1879550699999868
 31
0.0
  0
LINE
  5
2D4
  8
LAYER0003
  6
CONTINUOUS
 62
     7
 10
-269.2807257800000116
 20
-165.1879550699999868
 30
0.0
 11
-269.3014668000000142
 21
-165.2284618600000101
 31
0.0
  0
LINE
  5
2D5
  8
LAYER0003
  6
CONTINUOUS
 62
     7
 10
-269.3014668000000142
 20
-165.2284618600000101
 30
0.0
 11
-269.320821350000017
 21
-165.2696713599999896
 31
0.0
  0
LINE
  5
2D6
  8
LAYER0003
  6
CONTINUOUS
 62
     7
 10
-269.320821350000017
 20
-165.2696713599999896
 30
0.0
 11
-269.338749880000023
 21
-165.3115274699999873
 31
0.0
  0
LINE
  5
2D7
  8
LAYER0003
  6
CONTINUOUS
 62
     7
 10
-269.338749880000023
 20
-165.3115274699999873
 30
0.0
 11
-269.3552086299999928
 21
-165.3539713399999869
 31
0.0
  0
LINE
  5
2D8
  8
LAYER0003
  6
CONTINUOUS
 62
     7
 10
-269.3552086299999928
 20
-165.3539713399999869
 30
0.0
 11
-269.3701538299999925
 21
-165.3969440399999939
 31
0.0
  0
LINE
  5
2D9
  8
LAYER0003
  6
CONTINUOUS
 62
     7
 10
-269.3701538299999925
 20
-165.3969440399999939
 30
0.0
 11
-269.3835416900000155
 21
-165.4403867400000081
 31
0.0
  0
LINE
  5
2DA
  8
LAYER0003
  6
CONTINUOUS
 62
     7
 10
-269.3835416900000155
 20
-165.4403867400000081
 30
0.0
 11
-269.3953284500000223
 21
-165.4842404899999906
 31
0.0
  0
LINE
  5
2DB
  8
LAYER0003
  6
CONTINUOUS
 62
     7
 10
-269.3953284500000223
 20
-165.4842404899999906
 30
0.0
 11
-269.4054703200000063
 21
-165.5284464700000058
 31
0.0
  0
LINE
  5
2DC
  8
LAYER0003
  6
CONTINUOUS
 62
     7
 10
-269.4054703200000063
 20
-165.5284464700000058
 30
0.0
 11
-269.4139235299999768
 21
-165.5729457399999944
 31
0.0
  0
LINE
  5
2DD
  8
LAYER0003
  6
CONTINUOUS
 62
     7
 10
-269.4139235299999768
 20
-165.5729457399999944
 30
0.0
 11
-269.4206443100000001
 21
-165.617679470000013
 31
0.0
  0
LINE
  5
2DE
  8
LAYER0003
  6
CONTINUOUS
 62
     7
 10
-269.4206443100000001
 20
-165.617679470000013
 30
0.0
 11
-269.4255910800000038
 21
-165.662588779999993
 31
0.0
  0
LINE
  5
2DF
  8
LAYER0003
  6
CONTINUOUS
 62
     7
 10
-269.4255910800000038
 20
-165.662588779999993
 30
0.0
 11
-269.4289219300000013
 21
-165.7076210399999923
 31
0.0
  0
LINE
  5
2E0
  8
LAYER0003
  6
CONTINUOUS
 62
     7
 10
-269.4289219300000013
 20
-165.7076210399999923
 30
0.0
 11
-269.431150969999976
 21
-165.7527345100000105
 31
0.0
  0
LINE
  5
2E1
  8
LAYER0003
  6
CONTINUOUS
 62
     7
 10
-269.431150969999976
 20
-165.7527345100000105
 30
0.0
 11
-269.4328291100000001
 21
-165.7978885800000057
 31
0.0
  0
LINE
  5
2E2
  8
LAYER0003
  6
CONTINUOUS
 62
     7
 10
-269.4328291100000001
 20
-305.3978888400000073
 30
0.0
 11
-269.4311707900000101
 21
-305.4430421499999966
 31
0.0
  0
LINE
  5
2E3
  8
LAYER0003
  6
CONTINUOUS
 62
     7
 10
-269.4311707900000101
 20
-305.4430421499999966
 30
0.0
 11
-269.4289545500000145
 21
-305.4881553700000154
 31
0.0
  0
LINE
  5
2E4
  8
LAYER0003
  6
CONTINUOUS
 62
     7
 10
-269.4289545500000145
 20
-305.4881553700000154
 30
0.0
 11
-269.4256224599999996
 21
-305.5331883700000049
 31
0.0
  0
LINE
  5
2E5
  8
LAYER0003
  6
CONTINUOUS
 62
     7
 10
-269.4256224599999996
 20
-305.5331883700000049
 30
0.0
 11
-269.4206612300000074
 21
-305.5780996400000049
 31
0.0
  0
LINE
  5
2E6
  8
LAYER0003
  6
CONTINUOUS
 62
     7
 10
-269.4206612300000074
 20
-305.5780996400000049
 30
0.0
 11
-269.4139287599999761
 21
-305.6228359899999987
 31
0.0
  0
LINE
  5
2E7
  8
LAYER0003
  6
CONTINUOUS
 62
     7
 10
-269.4139287599999761
 20
-305.6228359899999987
 30
0.0
 11
-269.4054670400000191
 21
-305.6673384100000135
 31
0.0
  0
LINE
  5
2E8
  8
LAYER0003
  6
CONTINUOUS
 62
     7
 10
-269.4054670400000191
 20
-305.6673384100000135
 30
0.0
 11
-269.3953193699999815
 21
-305.7115478299999722
 31
0.0
  0
LINE
  5
2E9
  8
LAYER0003
  6
CONTINUOUS
 62
     7
 10
-269.3953193699999815
 20
-305.7115478299999722
 30
0.0
 11
-269.3835290600000008
 21
-305.7554051999999842
 31
0.0
  0
LINE
  5
2EA
  8
LAYER0003
  6
CONTINUOUS
 62
     7
 10
-269.3835290600000008
 20
-305.7554051999999842
 30
0.0
 11
-269.3701394099999789
 21
-305.798851500000012
 31
0.0
  0
LINE
  5
2EB
  8
LAYER0003
  6
CONTINUOUS
 62
     7
 10
-269.3701394099999789
 20
-305.798851500000012
 30
0.0
 11
-269.3551937400000043
 21
-305.8418276400000195
 31
0.0
  0
LINE
  5
2EC
  8
LAYER0003
  6
CONTINUOUS
 62
     7
 10
-269.3551937400000043
 20
-305.8418276400000195
 30
0.0
 11
-269.3387353400000279
 21
-305.8842746099999772
 31
0.0
  0
LINE
  5
2ED
  8
LAYER0003
  6
CONTINUOUS
 62
     7
 10
-269.3387353400000279
 20
-305.8842746099999772
 30
0.0
 11
-269.3208075200000167
 21
-305.9261333300000274
 31
0.0
  0
LINE
  5
2EE
  8
LAYER0003
  6
CONTINUOUS
 62
     7
 10
-269.3208075200000167
 20
-305.9261333300000274
 30
0.0
 11
-269.3014535899999942
 21
-305.967344780000019
 31
0.0
  0
LINE
  5
2EF
  8
LAYER0003
  6
CONTINUOUS
 62
     7
 10
-269.3014535899999942
 20
-305.967344780000019
 30
0.0
 11
-269.280712909999977
 21
-306.0078525999999783
 31
0.0
  0
LINE
  5
2F0
  8
LAYER0003
  6
CONTINUOUS
 62
     7
 10
-269.280712909999977
 20
-306.0078525999999783
 30
0.0
 11
-269.2586128099999883
 21
-306.0476088199999936
 31
0.0
  0
LINE
  5
2F1
  8
LAYER0003
  6
CONTINUOUS
 62
     7
 10
-269.2586128099999883
 20
-306.0476088199999936
 30
0.0
 11
-269.2351783199999886
 21
-306.0865669899999943
 31
0.0
  0
LINE
  5
2F2
  8
LAYER0003
  6
CONTINUOUS
 62
     7
 10
-269.2351783199999886
 20
-306.0865669899999943
 30
0.0
 11
-269.2104344800000035
 21
-306.1246806699999752
 31
0.0
  0
LINE
  5
2F3
  8
LAYER0003
  6
CONTINUOUS
 62
     7
 10
-269.2104344800000035
 20
-306.1246806699999752
 30
0.0
 11
-269.1844063300000016
 21
-306.1619034500000112
 31
0.0
  0
LINE
  5
2F4
  8
LAYER0003
  6
CONTINUOUS
 62
     7
 10
-269.1844063300000016
 20
-306.1619034500000112
 30
0.0
 11
-269.1571189000000004
 21
-306.1981888799999751
 31
0.0
  0
LINE
  5
2F5
  8
LAYER0003
  6
CONTINUOUS
 62
     7
 10
-269.1571189000000004
 20
-306.1981888799999751
 30
0.0
 11
-269.1285972499999843
 21
-306.2334905700000149
 31
0.0
  0
LINE
  5
2F6
  8
LAYER0003
  6
CONTINUOUS
 62
     7
 10
-269.1285972499999843
 20
-306.2334905700000149
 30
0.0
 11
-269.0988664000000199
 21
-306.2677620399999796
 31
0.0
  0
LINE
  5
2F7
  8
LAYER0003
  6
CONTINUOUS
 62
     7
 10
-269.0988664000000199
 20
-306.2677620399999796
 30
0.0
 11
-269.0679514000000268
 21
-306.3009569100000249
 31
0.0
  0
LINE
  5
2F8
  8
LAYER0003
  6
CONTINUOUS
 62
     7
 10
-269.0679514000000268
 20
-306.3009569100000249
 30
0.0
 11
-269.0358777299999815
 21
-306.3330291500000158
 31
0.0
  0
LINE
  5
2F9
  8
LAYER0003
  6
CONTINUOUS
 62
     7
 10
-269.0358777299999815
 20
-306.3330291500000158
 30
0.0
 11
-269.0026811999999836
 21
-306.3639430499999889
 31
0.0
  0
LINE
  5
2FA
  8
LAYER0003
  6
CONTINUOUS
 62
     7
 10
-269.0026811999999836
 20
-306.3639430499999889
 30
0.0
 11
-268.9684079200000042
 21
-306.393673079999985
 31
0.0
  0
LINE
  5
2FB
  8
LAYER0003
  6
CONTINUOUS
 62
     7
 10
-268.9684079200000042
 20
-306.393673079999985
 30
0.0
 11
-268.9331044599999814
 21
-306.4221941700000116
 31
0.0
  0
LINE
  5
2FC
  8
LAYER0003
  6
CONTINUOUS
 62
     7
 10
-268.9331044599999814
 20
-306.4221941700000116
 30
0.0
 11
-268.8968173800000159
 21
-306.4494812699999784
 31
0.0
  0
LINE
  5
2FD
  8
LAYER0003
  6
CONTINUOUS
 62
     7
 10
-268.8968173800000159
 20
-306.4494812699999784
 30
0.0
 11
-268.8595932399999811
 21
-306.4755092899999909
 31
0.0
  0
LINE
  5
2FE
  8
LAYER0003
  6
CONTINUOUS
 62
     7
 10
-268.8595932399999811
 20
-306.4755092899999909
 30
0.0
 11
-268.8214786199999935
 21
-306.5002531800000156
 31
0.0
  0
LINE
  5
2FF
  8
LAYER0003
  6
CONTINUOUS
 62
     7
 10
-268.8214786199999935
 20
-306.5002531800000156
 30
0.0
 11
-268.7825200699999755
 21
-306.5236878499999875
 31
0.0
  0
LINE
  5
300
  8
LAYER0003
  6
CONTINUOUS
 62
     7
 10
-268.7825200699999755
 20
-306.5236878499999875
 30
0.0
 11
-268.7427641500000277
 21
-306.5457882399999789
 31
0.0
  0
LINE
  5
301
  8
LAYER0003
  6
CONTINUOUS
 62
     7
 10
-268.7427641500000277
 20
-306.5457882399999789
 30
0.0
 11
-268.7022574299999746
 21
-306.5665293100000213
 31
0.0
  0
LINE
  5
302
  8
LAYER0003
  6
CONTINUOUS
 62
     7
 10
-268.7022574299999746
 20
-306.5665293100000213
 30
0.0
 11
-268.6610479299999952
 21
-306.5858837299999777
 31
0.0
  0
LINE
  5
303
  8
LAYER0003
  6
CONTINUOUS
 62
     7
 10
-268.6610479299999952
 20
-306.5858837299999777
 30
0.0
 11
-268.6191917500000272
 21
-306.6038120299999719
 31
0.0
  0
LINE
  5
304
  8
LAYER0003
  6
CONTINUOUS
 62
     7
 10
-268.6191917500000272
 20
-306.6038120299999719
 30
0.0
 11
-268.5767477800000052
 21
-306.6202704500000209
 31
0.0
  0
LINE
  5
305
  8
LAYER0003
  6
CONTINUOUS
 62
     7
 10
-268.5767477800000052
 20
-306.6202704500000209
 30
0.0
 11
-268.5337749299999928
 21
-306.6352152499999875
 31
0.0
  0
LINE
  5
306
  8
LAYER0003
  6
CONTINUOUS
 62
     7
 10
-268.5337749299999928
 20
-306.6352152499999875
 30
0.0
 11
-268.4903320799999733
 21
-306.6486026900000184
 31
0.0
  0
LINE
  5
307
  8
LAYER0003
  6
CONTINUOUS
 62
     7
 10
-268.4903320799999733
 20
-306.6486026900000184
 30
0.0
 11
-268.4464781400000106
 21
-306.6603890000000092
 31
0.0
  0
LINE
  5
308
  8
LAYER0003
  6
CONTINUOUS
 62
     7
 10
-268.4464781400000106
 20
-306.6603890000000092
 30
0.0
 11
-268.4022720000000959
 21
-306.670530460000009
 31
0.0
  0
LINE
  5
309
  8
LAYER0003
  6
CONTINUOUS
 62
     7
 10
-268.4022720000000959
 20
-306.670530460000009
 30
0.0
 11
-268.3577725700000087
 21
-306.6789833199999862
 31
0.0
  0
LINE
  5
30A
  8
LAYER0003
  6
CONTINUOUS
 62
     7
 10
-268.3577725700000087
 20
-306.6789833199999862
 30
0.0
 11
-268.3130387300000166
 21
-306.6857038200000147
 31
0.0
  0
LINE
  5
30B
  8
LAYER0003
  6
CONTINUOUS
 62
     7
 10
-268.3130387300000166
 20
-306.6857038200000147
 30
0.0
 11
-268.2681293100000062
 21
-306.6906504099999893
 31
0.0
  0
LINE
  5
30C
  8
LAYER0003
  6
CONTINUOUS
 62
     7
 10
-268.2681293100000062
 20
-306.6906504099999893
 30
0.0
 11
-268.2230969999999957
 21
-306.6939812200000119
 31
0.0
  0
LINE
  5
30D
  8
LAYER0003
  6
CONTINUOUS
 62
     7
 10
-268.2230969999999957
 20
-306.6939812200000119
 30
0.0
 11
-268.177983519999998
 21
-306.6962102900000104
 31
0.0
  0
LINE
  5
30E
  8
LAYER0003
  6
CONTINUOUS
 62
     7
 10
-268.177983519999998
 20
-306.6962102900000104
 30
0.0
 11
-268.1328294499999743
 21
-306.6978884900000253
 31
0.0
  0
LINE
  5
30F
  8
LAYER0003
  6
CONTINUOUS
 62
     7
 10
-199.2328264399999966
 20
-165.7978885800000057
 30
0.0
 11
-199.2344847599999866
 21
-165.7527352600000086
 31
0.0
  0
LINE
  5
310
  8
LAYER0003
  6
CONTINUOUS
 62
     7
 10
-199.2344847599999866
 20
-165.7527352600000086
 30
0.0
 11
-199.2367010000000107
 21
-165.7076220399999897
 31
0.0
  0
LINE
  5
311
  8
LAYER0003
  6
CONTINUOUS
 62
     7
 10
-199.2367010000000107
 20
-165.7076220399999897
 30
0.0
 11
-199.2400330799999892
 21
-165.6625890299999924
 31
0.0
  0
LINE
  5
312
  8
LAYER0003
  6
CONTINUOUS
 62
     7
 10
-199.2400330799999892
 20
-165.6625890299999924
 30
0.0
 11
-199.2449943100000098
 21
-165.6176777599999923
 31
0.0
  0
LINE
  5
313
  8
LAYER0003
  6
CONTINUOUS
 62
     7
 10
-199.2449943100000098
 20
-165.6176777599999923
 30
0.0
 11
-199.2517267800000127
 21
-165.5729414200000065
 31
0.0
  0
LINE
  5
314
  8
LAYER0003
  6
CONTINUOUS
 62
     7
 10
-199.2517267800000127
 20
-165.5729414200000065
 30
0.0
 11
-199.2601884999999982
 21
-165.5284389999999917
 31
0.0
  0
LINE
  5
315
  8
LAYER0003
  6
CONTINUOUS
 62
     7
 10
-199.2601884999999982
 20
-165.5284389999999917
 30
0.0
 11
-199.2703361700000073
 21
-165.4842295900000124
 31
0.0
  0
LINE
  5
316
  8
LAYER0003
  6
CONTINUOUS
 62
     7
 10
-199.2703361700000073
 20
-165.4842295900000124
 30
0.0
 11
-199.2821264799999881
 21
-165.440372200000013
 31
0.0
  0
LINE
  5
317
  8
LAYER0003
  6
CONTINUOUS
 62
     7
 10
-199.2821264799999881
 20
-165.440372200000013
 30
0.0
 11
-199.29551613000001
 21
-165.3969259099999931
 31
0.0
  0
LINE
  5
318
  8
LAYER0003
  6
CONTINUOUS
 62
     7
 10
-199.29551613000001
 20
-165.3969259099999931
 30
0.0
 11
-199.3104618099999925
 21
-165.353949770000014
 31
0.0
  0
LINE
  5
319
  8
LAYER0003
  6
CONTINUOUS
 62
     7
 10
-199.3104618099999925
 20
-165.353949770000014
 30
0.0
 11
-199.3269202099999973
 21
-165.3115028100000075
 31
0.0
  0
LINE
  5
31A
  8
LAYER0003
  6
CONTINUOUS
 62
     7
 10
-199.3269202099999973
 20
-165.3115028100000075
 30
0.0
 11
-199.3448480200000006
 21
-165.2696440800000062
 31
0.0
  0
LINE
  5
31B
  8
LAYER0003
  6
CONTINUOUS
 62
     7
 10
-199.3448480200000006
 20
-165.2696440800000062
 30
0.0
 11
-199.3642019499999947
 21
-165.2284326299999861
 31
0.0
  0
LINE
  5
31C
  8
LAYER0003
  6
CONTINUOUS
 62
     7
 10
-199.3642019499999947
 20
-165.2284326299999861
 30
0.0
 11
-199.3849426300000118
 21
-165.1879247999999905
 31
0.0
  0
LINE
  5
31D
  8
LAYER0003
  6
CONTINUOUS
 62
     7
 10
-199.3849426300000118
 20
-165.1879247999999905
 30
0.0
 11
-199.4070427300000006
 21
-165.1481685900000116
 31
0.0
  0
LINE
  5
31E
  8
LAYER0003
  6
CONTINUOUS
 62
     7
 10
-199.4070427300000006
 20
-165.1481685900000116
 30
0.0
 11
-199.4304772300000081
 21
-165.1092104200000108
 31
0.0
  0
LINE
  5
31F
  8
LAYER0003
  6
CONTINUOUS
 62
     7
 10
-199.4304772300000081
 20
-165.1092104200000108
 30
0.0
 11
-199.4552210699999932
 21
-165.0710967299999936
 31
0.0
  0
LINE
  5
320
  8
LAYER0003
  6
CONTINUOUS
 62
     7
 10
-199.4552210699999932
 20
-165.0710967299999936
 30
0.0
 11
-199.4812492199999951
 21
-165.033873959999994
 31
0.0
  0
LINE
  5
321
  8
LAYER0003
  6
CONTINUOUS
 62
     7
 10
-199.4812492199999951
 20
-165.033873959999994
 30
0.0
 11
-199.5085366399999884
 21
-164.9975885100000141
 31
0.0
  0
LINE
  5
322
  8
LAYER0003
  6
CONTINUOUS
 62
     7
 10
-199.5085366399999884
 20
-164.9975885100000141
 30
0.0
 11
-199.5370582900000045
 21
-164.9622868399999902
 31
0.0
  0
LINE
  5
323
  8
LAYER0003
  6
CONTINUOUS
 62
     7
 10
-199.5370582900000045
 20
-164.9622868399999902
 30
0.0
 11
-199.5667891399999974
 21
-164.9280153599999892
 31
0.0
  0
LINE
  5
324
  8
LAYER0003
  6
CONTINUOUS
 62
     7
 10
-199.5667891399999974
 20
-164.9280153599999892
 30
0.0
 11
-199.5977041399999905
 21
-164.8948205099999882
 31
0.0
  0
LINE
  5
325
  8
LAYER0003
  6
CONTINUOUS
 62
     7
 10
-199.5977041399999905
 20
-164.8948205099999882
 30
0.0
 11
-199.6297778199999868
 21
-164.8627482599999894
 31
0.0
  0
LINE
  5
326
  8
LAYER0003
  6
CONTINUOUS
 62
     7
 10
-199.6297778199999868
 20
-164.8627482599999894
 30
0.0
 11
-199.6629743500000131
 21
-164.8318343599999878
 31
0.0
  0
LINE
  5
327
  8
LAYER0003
  6
CONTINUOUS
 62
     7
 10
-199.6629743500000131
 20
-164.8318343599999878
 30
0.0
 11
-199.6972476299999926
 21
-164.8021043200000122
 31
0.0
  0
LINE
  5
328
  8
LAYER0003
  6
CONTINUOUS
 62
     7
 10
-199.6972476299999926
 20
-164.8021043200000122
 30
0.0
 11
-199.732551089999987
 21
-164.7735832300000141
 31
0.0
  0
LINE
  5
329
  8
LAYER0003
  6
CONTINUOUS
 62
     7
 10
-199.732551089999987
 20
-164.7735832300000141
 30
0.0
 11
-199.7688381700000093
 21
-164.7462961299999904
 31
0.0
  0
LINE
  5
32A
  8
LAYER0003
  6
CONTINUOUS
 62
     7
 10
-199.7688381700000093
 20
-164.7462961299999904
 30
0.0
 11
-199.8060623000000078
 21
-164.7202681199999859
 31
0.0
  0
LINE
  5
32B
  8
LAYER0003
  6
CONTINUOUS
 62
     7
 10
-199.8060623000000078
 20
-164.7202681199999859
 30
0.0
 11
-199.8441769199999953
 21
-164.6955242299999895
 31
0.0
  0
LINE
  5
32C
  8
LAYER0003
  6
CONTINUOUS
 62
     7
 10
-199.8441769199999953
 20
-164.6955242299999895
 30
0.0
 11
-199.8831354799999929
 21
-164.6720895599999892
 31
0.0
  0
LINE
  5
32D
  8
LAYER0003
  6
CONTINUOUS
 62
     7
 10
-199.8831354799999929
 20
-164.6720895599999892
 30
0.0
 11
-199.9228913999999975
 21
-164.6499891599999899
 31
0.0
  0
LINE
  5
32E
  8
LAYER0003
  6
CONTINUOUS
 62
     7
 10
-199.9228913999999975
 20
-164.6499891599999899
 30
0.0
 11
-199.9633981100000142
 21
-164.6292481000000123
 31
0.0
  0
LINE
  5
32F
  8
LAYER0003
  6
CONTINUOUS
 62
     7
 10
-199.9633981100000142
 20
-164.6292481000000123
 30
0.0
 11
-200.0046076200000016
 21
-164.6098936699999911
 31
0.0
  0
LINE
  5
330
  8
LAYER0003
  6
CONTINUOUS
 62
     7
 10
-200.0046076200000016
 20
-164.6098936699999911
 30
0.0
 11
-200.0464637999999979
 21
-164.5919653800000049
 31
0.0
  0
LINE
  5
331
  8
LAYER0003
  6
CONTINUOUS
 62
     7
 10
-200.0464637999999979
 20
-164.5919653800000049
 30
0.0
 11
-200.0889077600000121
 21
-164.5755069600000127
 31
0.0
  0
LINE
  5
332
  8
LAYER0003
  6
CONTINUOUS
 62
     7
 10
-200.0889077600000121
 20
-164.5755069600000127
 30
0.0
 11
-200.131880620000004
 21
-164.5605621599999893
 31
0.0
  0
LINE
  5
333
  8
LAYER0003
  6
CONTINUOUS
 62
     7
 10
-200.131880620000004
 20
-164.5605621599999893
 30
0.0
 11
-200.1753234599999871
 21
-164.5471747199999868
 31
0.0
  0
LINE
  5
334
  8
LAYER0003
  6
CONTINUOUS
 62
     7
 10
-200.1753234599999871
 20
-164.5471747199999868
 30
0.0
 11
-200.2191774000000066
 21
-164.535388399999988
 31
0.0
  0
LINE
  5
335
  8
LAYER0003
  6
CONTINUOUS
 62
     7
 10
-200.2191774000000066
 20
-164.535388399999988
 30
0.0
 11
-200.2633835400000066
 21
-164.5252469399999882
 31
0.0
  0
LINE
  5
336
  8
LAYER0003
  6
CONTINUOUS
 62
     7
 10
-200.2633835400000066
 20
-164.5252469399999882
 30
0.0
 11
-200.307882979999988
 21
-164.5167940899999905
 31
0.0
  0
LINE
  5
337
  8
LAYER0003
  6
CONTINUOUS
 62
     7
 10
-200.307882979999988
 20
-164.5167940899999905
 30
0.0
 11
-200.3526168200000086
 21
-164.5100735899999904
 31
0.0
  0
LINE
  5
338
  8
LAYER0003
  6
CONTINUOUS
 62
     7
 10
-200.3526168200000086
 20
-164.5100735899999904
 30
0.0
 11
-200.3975262300000111
 21
-164.5051269999999874
 31
0.0
  0
LINE
  5
339
  8
LAYER0003
  6
CONTINUOUS
 62
     7
 10
-200.3975262300000111
 20
-164.5051269999999874
 30
0.0
 11
-200.4425585399999932
 21
-164.5017961899999932
 31
0.0
  0
LINE
  5
33A
  8
LAYER0003
  6
CONTINUOUS
 62
     7
 10
-200.4425585399999932
 20
-164.5017961899999932
 30
0.0
 11
-200.4876720199999909
 21
-164.4995671300000026
 31
0.0
  0
LINE
  5
33B
  8
LAYER0003
  6
CONTINUOUS
 62
     7
 10
-200.4876720199999909
 20
-164.4995671300000026
 30
0.0
 11
-200.5328260899999862
 21
-164.4978889200000083
 31
0.0
  0
LINE
  5
33C
  8
LAYER0003
  6
CONTINUOUS
 62
     7
 10
-238.9328278700000112
 20
-306.6978884900000253
 30
0.0
 11
-238.9221260500000028
 21
-306.6969201300000236
 31
0.0
  0
LINE
  5
33D
  8
LAYER0003
  6
CONTINUOUS
 62
     7
 10
-238.9221260500000028
 20
-306.6969201300000236
 30
0.0
 11
-238.911429389999995
 21
-306.6959324300000276
 31
0.0
  0
LINE
  5
33E
  8
LAYER0003
  6
CONTINUOUS
 62
     7
 10
-238.911429389999995
 20
-306.6959324300000276
 30
0.0
 11
-238.900743030000001
 21
-306.694906020000019
 31
0.0
  0
LINE
  5
33F
  8
LAYER0003
  6
CONTINUOUS
 62
     7
 10
-238.900743030000001
 20
-306.694906020000019
 30
0.0
 11
-238.8900721500000088
 21
-306.6938215800000194
 31
0.0
  0
LINE
  5
340
  8
LAYER0003
  6
CONTINUOUS
 62
     7
 10
-238.8900721500000088
 20
-306.6938215800000194
 30
0.0
 11
-238.8794218900000033
 21
-306.6926597400000105
 31
0.0
  0
LINE
  5
341
  8
LAYER0003
  6
CONTINUOUS
 62
     7
 10
-238.8794218900000033
 20
-306.6926597400000105
 30
0.0
 11
-238.8687974199999928
 21
-306.6914011599999981
 31
0.0
  0
LINE
  5
342
  8
LAYER0003
  6
CONTINUOUS
 62
     7
 10
-238.8687974199999928
 20
-306.6914011599999981
 30
0.0
 11
-238.8582038799999907
 21
-306.6900264999999877
 31
0.0
  0
LINE
  5
343
  8
LAYER0003
  6
CONTINUOUS
 62
     7
 10
-238.8582038799999907
 20
-306.6900264999999877
 30
0.0
 11
-238.8476464400000054
 21
-306.68851638000001
 31
0.0
  0
LINE
  5
344
  8
LAYER0003
  6
CONTINUOUS
 62
     7
 10
-238.8476464400000054
 20
-306.68851638000001
 30
0.0
 11
-238.8371302600000092
 21
-306.6868514999999888
 31
0.0
  0
LINE
  5
345
  8
LAYER0003
  6
CONTINUOUS
 62
     7
 10
-238.8371302600000092
 20
-306.6868514999999888
 30
0.0
 11
-238.8266604799999868
 21
-306.6850125000000276
 31
0.0
  0
LINE
  5
346
  8
LAYER0003
  6
CONTINUOUS
 62
     7
 10
-238.8266604799999868
 20
-306.6850125000000276
 30
0.0
 11
-238.8162422599999957
 21
-306.6829799999999864
 31
0.0
  0
LINE
  5
347
  8
LAYER0003
  6
CONTINUOUS
 62
     7
 10
-238.8162422599999957
 20
-306.6829799999999864
 30
0.0
 11
-238.8058807699999875
 21
-306.6807346699999925
 31
0.0
  0
LINE
  5
348
  8
LAYER0003
  6
CONTINUOUS
 62
     7
 10
-238.8058807699999875
 20
-306.6807346699999925
 30
0.0
 11
-238.7955811600000118
 21
-306.6782571800000028
 31
0.0
  0
LINE
  5
349
  8
LAYER0003
  6
CONTINUOUS
 62
     7
 10
-238.7955811600000118
 20
-306.6782571800000028
 30
0.0
 11
-238.7853485800000044
 21
-306.675528149999991
 31
0.0
  0
LINE
  5
34A
  8
LAYER0003
  6
CONTINUOUS
 62
     7
 10
-238.7853485800000044
 20
-306.675528149999991
 30
0.0
 11
-238.7751881499999911
 21
-306.6725291600000105
 31
0.0
  0
LINE
  5
34B
  8
LAYER0003
  6
CONTINUOUS
 62
     7
 10
-238.7751881499999911
 20
-306.6725291600000105
 30
0.0
 11
-238.7651042999999902
 21
-306.6692558600000211
 31
0.0
  0
LINE
  5
34C
  8
LAYER0003
  6
CONTINUOUS
 62
     7
 10
-238.7651042999999902
 20
-306.6692558600000211
 30
0.0
 11
-238.7551009000000022
 21
-306.6657153400000198
 31
0.0
  0
LINE
  5
34D
  8
LAYER0003
  6
CONTINUOUS
 62
     7
 10
-238.7551009000000022
 20
-306.6657153400000198
 30
0.0
 11
-238.7451818199999991
 21
-306.6619149599999901
 31
0.0
  0
LINE
  5
34E
  8
LAYER0003
  6
CONTINUOUS
 62
     7
 10
-238.7451818199999991
 20
-306.6619149599999901
 30
0.0
 11
-238.7353509200000019
 21
-306.6578620799999726
 31
0.0
  0
LINE
  5
34F
  8
LAYER0003
  6
CONTINUOUS
 62
     7
 10
-238.7353509200000019
 20
-306.6578620799999726
 30
0.0
 11
-238.725612070000011
 21
-306.6535641099999907
 31
0.0
  0
LINE
  5
350
  8
LAYER0003
  6
CONTINUOUS
 62
     7
 10
-238.725612070000011
 20
-306.6535641099999907
 30
0.0
 11
-238.7159691200000111
 21
-306.6490283699999964
 31
0.0
  0
LINE
  5
351
  8
LAYER0003
  6
CONTINUOUS
 62
     7
 10
-238.7159691200000111
 20
-306.6490283699999964
 30
0.0
 11
-238.7064259400000026
 21
-306.6442622800000208
 31
0.0
  0
LINE
  5
352
  8
LAYER0003
  6
CONTINUOUS
 62
     7
 10
-238.7064259400000026
 20
-306.6442622800000208
 30
0.0
 11
-238.6969863999999859
 21
-306.639273199999991
 31
0.0
  0
LINE
  5
353
  8
LAYER0003
  6
CONTINUOUS
 62
     7
 10
-238.6969863999999859
 20
-306.639273199999991
 30
0.0
 11
-238.6876543500000025
 21
-306.6340684900000042
 31
0.0
  0
LINE
  5
354
  8
LAYER0003
  6
CONTINUOUS
 62
     7
 10
-238.6876543500000025
 20
-306.6340684900000042
 30
0.0
 11
-238.6784336599999961
 21
-306.6286555400000111
 31
0.0
  0
LINE
  5
355
  8
LAYER0003
  6
CONTINUOUS
 62
     7
 10
-238.6784336599999961
 20
-306.6286555400000111
 30
0.0
 11
-238.6693281899999874
 21
-306.6230417200000034
 31
0.0
  0
LINE
  5
356
  8
LAYER0003
  6
CONTINUOUS
 62
     7
 10
-238.6693281899999874
 20
-306.6230417200000034
 30
0.0
 11
-238.6603418100000056
 21
-306.6172343800000135
 31
0.0
  0
LINE
  5
357
  8
LAYER0003
  6
CONTINUOUS
 62
     7
 10
-238.6603418100000056
 20
-306.6172343800000135
 30
0.0
 11
-238.6514783799999861
 21
-306.6112409300000081
 31
0.0
  0
LINE
  5
358
  8
LAYER0003
  6
CONTINUOUS
 62
     7
 10
-238.6514783799999861
 20
-306.6112409300000081
 30
0.0
 11
-238.6427359900000056
 21
-306.6050757500000259
 31
0.0
  0
LINE
  5
359
  8
LAYER0003
  6
CONTINUOUS
 62
     7
 10
-238.6427359900000056
 20
-306.6050757500000259
 30
0.0
 11
-238.6340656399999887
 21
-306.5988106699999776
 31
0.0
  0
LINE
  5
35A
  8
LAYER0003
  6
CONTINUOUS
 62
     7
 10
-230.0315898899999922
 20
-306.5988106699999776
 30
0.0
 11
-230.0206545700000049
 21
-306.6057079199999862
 31
0.0
  0
LINE
  5
35B
  8
LAYER0003
  6
CONTINUOUS
 62
     7
 10
-230.0206545700000049
 20
-306.6057079199999862
 30
0.0
 11
-230.0097056500000008
 21
-306.6125659100000007
 31
0.0
  0
LINE
  5
35C
  8
LAYER0003
  6
CONTINUOUS
 62
     7
 10
-230.0097056500000008
 20
-306.6125659100000007
 30
0.0
 11
-229.9987295500000073
 21
-306.6193453199999794
 31
0.0
  0
LINE
  5
35D
  8
LAYER0003
  6
CONTINUOUS
 62
     7
 10
-229.9987295500000073
 20
-306.6193453199999794
 30
0.0
 11
-229.9877126799999871
 21
-306.6260068899999851
 31
0.0
  0
LINE
  5
35E
  8
LAYER0003
  6
CONTINUOUS
 62
     7
 10
-229.9877126799999871
 20
-306.6260068899999851
 30
0.0
 11
-229.9766414499999883
 21
-306.6325113600000236
 31
0.0
  0
LINE
  5
35F
  8
LAYER0003
  6
CONTINUOUS
 62
     7
 10
-229.9766414499999883
 20
-306.6325113600000236
 30
0.0
 11
-229.9655022700000018
 21
-306.6388194099999964
 31
0.0
  0
LINE
  5
360
  8
LAYER0003
  6
CONTINUOUS
 62
     7
 10
-229.9655022700000018
 20
-306.6388194099999964
 30
0.0
 11
-229.9542815499999904
 21
-306.6448917899999742
 31
0.0
  0
LINE
  5
361
  8
LAYER0003
  6
CONTINUOUS
 62
     7
 10
-229.9542815499999904
 20
-306.6448917899999742
 30
0.0
 11
-229.9429656899999941
 21
-306.650689199999988
 31
0.0
  0
LINE
  5
362
  8
LAYER0003
  6
CONTINUOUS
 62
     7
 10
-229.9429656899999941
 20
-306.650689199999988
 30
0.0
 11
-229.9315411199999915
 21
-306.6561723899999947
 31
0.0
  0
LINE
  5
363
  8
LAYER0003
  6
CONTINUOUS
 62
     7
 10
-229.9315411199999915
 20
-306.6561723899999947
 30
0.0
 11
-229.9199942299999861
 21
-306.6613020300000017
 31
0.0
  0
LINE
  5
364
  8
LAYER0003
  6
CONTINUOUS
 62
     7
 10
-229.9199942299999861
 20
-306.6613020300000017
 30
0.0
 11
-229.9083114400000056
 21
-306.6660388899999816
 31
0.0
  0
LINE
  5
365
  8
LAYER0003
  6
CONTINUOUS
 62
     7
 10
-229.9083114400000056
 20
-306.6660388899999816
 30
0.0
 11
-229.8964792399999908
 21
-306.6703438800000185
 31
0.0
  0
LINE
  5
366
  8
LAYER0003
  6
CONTINUOUS
 62
     7
 10
-229.8964792399999908
 20
-306.6703438800000185
 30
0.0
 11
-229.8844923300000005
 21
-306.6742017500000088
 31
0.0
  0
LINE
  5
367
  8
LAYER0003
  6
CONTINUOUS
 62
     7
 10
-229.8844923300000005
 20
-306.6742017500000088
 30
0.0
 11
-229.8723610199999996
 21
-306.6776422400000115
 31
0.0
  0
LINE
  5
368
  8
LAYER0003
  6
CONTINUOUS
 62
     7
 10
-229.8723610199999996
 20
-306.6776422400000115
 30
0.0
 11
-229.8600973499999895
 21
-306.6807001199999831
 31
0.0
  0
LINE
  5
369
  8
LAYER0003
  6
CONTINUOUS
 62
     7
 10
-229.8600973499999895
 20
-306.6807001199999831
 30
0.0
 11
-229.8477133300000048
 21
-306.6834102199999847
 31
0.0
  0
LINE
  5
36A
  8
LAYER0003
  6
CONTINUOUS
 62
     7
 10
-229.8477133300000048
 20
-306.6834102199999847
 30
0.0
 11
-229.8352210200000059
 21
-306.6858072800000059
 31
0.0
  0
LINE
  5
36B
  8
LAYER0003
  6
CONTINUOUS
 62
     7
 10
-229.8352210200000059
 20
-306.6858072800000059
 30
0.0
 11
-229.8226324400000067
 21
-306.687926090000019
 31
0.0
  0
LINE
  5
36C
  8
LAYER0003
  6
CONTINUOUS
 62
     7
 10
-229.8226324400000067
 20
-306.687926090000019
 30
0.0
 11
-229.8099596200000008
 21
-306.6898014399999965
 31
0.0
  0
LINE
  5
36D
  8
LAYER0003
  6
CONTINUOUS
 62
     7
 10
-229.8099596200000008
 20
-306.6898014399999965
 30
0.0
 11
-229.7972145999999896
 21
-306.6914681100000166
 31
0.0
  0
LINE
  5
36E
  8
LAYER0003
  6
CONTINUOUS
 62
     7
 10
-229.7972145999999896
 20
-306.6914681100000166
 30
0.0
 11
-229.7844094200000029
 21
-306.6929608600000279
 31
0.0
  0
LINE
  5
36F
  8
LAYER0003
  6
CONTINUOUS
 62
     7
 10
-229.7844094200000029
 20
-306.6929608600000279
 30
0.0
 11
-229.771556099999998
 21
-306.6943145000000186
 31
0.0
  0
LINE
  5
370
  8
LAYER0003
  6
CONTINUOUS
 62
     7
 10
-229.771556099999998
 20
-306.6943145000000186
 30
0.0
 11
-229.7586666800000046
 21
-306.6955638100000101
 31
0.0
  0
LINE
  5
371
  8
LAYER0003
  6
CONTINUOUS
 62
     7
 10
-229.7586666800000046
 20
-306.6955638100000101
 30
0.0
 11
-229.7457531899999879
 21
-306.6967435399999999
 31
0.0
  0
LINE
  5
372
  8
LAYER0003
  6
CONTINUOUS
 62
     7
 10
-229.7457531899999879
 20
-306.6967435399999999
 30
0.0
 11
-229.732827670000006
 21
-306.6978884900000253
 31
0.0
  0
ARC
  5
373
  8
LAYER0003
  6
CONTINUOUS
 62
     7
 10
-91.1388377799999887
 20
-300.3978885299999888
 30
0.0
 40
11.10000125
 50
161.6201437400000032
 51
198.3798561099999915
  0
ARC
  5
374
  8
LAYER0003
  6
CONTINUOUS
 62
     7
 10
-100.4388377800000001
 20
-303.1978888599999777
 30
0.0
 40
0.20000016
 50
180.0
 51
270.0001317800000038
  0
ARC
  5
375
  8
LAYER0003
  6
CONTINUOUS
 62
     7
 10
-100.4388377800000001
 20
-297.597888370000021
 30
0.0
 40
0.20000034
 50
89.9998682199999962
 51
180.0
  0
ARC
  5
376
  8
LAYER0003
  6
CONTINUOUS
 62
     7
 10
-99.938835740000016
 20
-296.4978869899999836
 30
0.0
 40
0.20000034
 50
90.0001088599999974
 51
180.0
  0
ARC
  5
377
  8
LAYER0003
  6
CONTINUOUS
 62
     7
 10
-99.9388377800000001
 20
-304.2978870000000029
 30
0.0
 40
0.19999829
 50
180.0
 51
269.9998911399999884
  0
ARC
  5
378
  8
LAYER0003
  6
CONTINUOUS
 62
     7
 10
95.9911615799999964
 20
-154.5978921900000103
 30
0.0
 40
1.0000001700000001
 50
0.0
 51
89.9998905700000051
  0
ARC
  5
379
  8
LAYER0003
  6
CONTINUOUS
 62
     7
 10
95.9911615799999964
 20
-154.5978921900000103
 30
0.0
 40
0.20000343
 50
0.0
 51
89.9998292300000031
  0
ARC
  5
37A
  8
LAYER0003
  6
CONTINUOUS
 62
     7
 10
-43.5088361000000035
 20
-154.5978921900000103
 30
0.0
 40
1.0000001700000001
 50
90.0
 51
180.0
  0
ARC
  5
37B
  8
LAYER0003
  6
CONTINUOUS
 62
     7
 10
-43.5088361000000035
 20
-154.5978921900000103
 30
0.0
 40
0.20000157
 50
89.9999487799999969
 51
180.0
  0
ARC
  5
37C
  8
LAYER0003
  6
CONTINUOUS
 62
     7
 10
-17.508837419999999
 20
-165.6478883499999881
 30
0.0
 40
1.8000005100000001
 50
270.0
 51
360.0000853099999745
  0
ARC
  5
37D
  8
LAYER0003
  6
CONTINUOUS
 62
     7
 10
-41.9088374199999905
 20
-165.6478887099999895
 30
0.0
 40
1.8
 50
180.0
 51
270.0
  0
ARC
  5
37E
  8
LAYER0003
  6
CONTINUOUS
 62
     7
 10
-41.9088374199999905
 20
-165.6478887099999895
 30
0.0
 40
0.20000036
 50
180.0
 51
270.0002377800000204
  0
ARC
  5
37F
  8
LAYER0003
  6
CONTINUOUS
 62
     7
 10
-17.508837419999999
 20
-165.6478883499999881
 30
0.0
 40
0.2
 50
270.0
 51
360.0
  0
ARC
  5
380
  8
LAYER0003
  6
CONTINUOUS
 62
     7
 10
-17.508837419999999
 20
-305.5478890599999886
 30
0.0
 40
0.2
 50
0.0
 51
90.0
  0
ARC
  5
381
  8
LAYER0003
  6
CONTINUOUS
 62
     7
 10
-41.9088374199999905
 20
-305.5478887099999952
 30
0.0
 40
0.20000036
 50
89.9997622199999938
 51
180.0
  0
ARC
  5
382
  8
LAYER0003
  6
CONTINUOUS
 62
     7
 10
-41.9088374199999905
 20
-305.5478887099999952
 30
0.0
 40
1.8
 50
90.0
 51
180.0
  0
ARC
  5
383
  8
LAYER0003
  6
CONTINUOUS
 62
     7
 10
-17.508837419999999
 20
-305.5478890599999886
 30
0.0
 40
1.8000005100000001
 50
359.9999146900000255
 51
450.0
  0
ARC
  5
384
  8
LAYER0003
  6
CONTINUOUS
 62
     7
 10
-43.5088361000000035
 20
-316.5978852299999744
 30
0.0
 40
0.20000157
 50
180.0
 51
270.0000512199999889
  0
ARC
  5
385
  8
LAYER0003
  6
CONTINUOUS
 62
     7
 10
-43.5088361000000035
 20
-316.5978852299999744
 30
0.0
 40
1.000000159999999
 50
180.0
 51
270.0
  0
ARC
  5
386
  8
LAYER0003
  6
CONTINUOUS
 62
     7
 10
95.9911615799999964
 20
-316.5978852299999744
 30
0.0
 40
0.20000343
 50
270.0001707700000111
 51
360.0
  0
ARC
  5
387
  8
LAYER0003
  6
CONTINUOUS
 62
     7
 10
95.9911615799999964
 20
-316.5978852299999744
 30
0.0
 40
1.000000159999999
 50
270.0001094300000091
 51
360.0
  0
ARC
  5
388
  8
LAYER0003
  6
CONTINUOUS
 62
     7
 10
-91.1388377799999887
 20
-76.8637253100000066
 30
0.0
 40
11.1000008099999992
 50
161.6201507000000106
 51
198.3798494000000119
  0
ARC
  5
389
  8
LAYER0003
  6
CONTINUOUS
 62
     7
 10
-100.4388377800000001
 20
-79.6637253399999992
 30
0.0
 40
0.20000001
 50
180.0
 51
270.0001317800000038
  0
ARC
  5
38A
  8
LAYER0003
  6
CONTINUOUS
 62
     7
 10
-100.4388377800000001
 20
-74.0637253099999953
 30
0.0
 40
0.20000002
 50
89.9998682199999962
 51
180.0
  0
ARC
  5
38B
  8
LAYER0003
  6
CONTINUOUS
 62
     7
 10
-99.9388377800000001
 20
-72.9637253199999947
 30
0.0
 40
0.2
 50
90.0
 51
180.0
  0
ARC
  5
38C
  8
LAYER0003
  6
CONTINUOUS
 62
     7
 10
-99.9388377800000001
 20
-80.763725320000006
 30
0.0
 40
0.2
 50
180.0
 51
270.0
  0
ARC
  5
38D
  8
LAYER0003
  6
CONTINUOUS
 62
     7
 10
-99.7446908600000057
 20
-72.6880181700000065
 30
0.0
 40
0.09434012
 50
129.6168813499999999
 51
176.3378814300000101
  0
ARC
  5
38E
  8
LAYER0003
  6
CONTINUOUS
 62
     7
 10
216.7911622199999897
 20
-104.2564694400000036
 30
0.0
 40
2.0
 50
272.0
 51
360.0
  0
ARC
  5
38F
  8
LAYER0003
  6
CONTINUOUS
 62
     7
 10
216.791158380000013
 20
-49.2963773399999923
 30
0.0
 40
1.9999996900000001
 50
359.999986540000009
 51
448.0002818599999728
  0
ARC
  5
390
  8
LAYER0003
  6
CONTINUOUS
 62
     7
 10
184.8911645199999896
 20
-45.6808809199999928
 30
0.0
 40
0.5
 50
180.0
 51
268.0
  0
ARC
  5
391
  8
LAYER0003
  6
CONTINUOUS
 62
     7
 10
179.8911622200000124
 20
-108.0465697000000063
 30
0.0
 40
0.5
 50
92.0
 51
180.0
  0
CIRCLE
  5
392
  8
LAYER0003
  6
CONTINUOUS
 62
     7
 10
-86.3088377800000046
 20
-96.8637253100000066
 30
0.0
 40
3.0
  0
ARC
  5
393
  8
LAYER0003
  6
CONTINUOUS
 62
     7
 10
-87.2088377799999961
 20
-95.9637254999999953
 30
0.0
 40
0.4999998200000001
 50
270.0
 51
360.0000893800000199
  0
ARC
  5
394
  8
LAYER0003
  6
CONTINUOUS
 62
     7
 10
-87.2088377799999961
 20
-97.7637256799999932
 30
0.0
 40
0.49999963
 50
0.0
 51
90.0000515699999966
  0
ARC
  5
395
  8
LAYER0003
  6
CONTINUOUS
 62
     7
 10
-85.4088380799999953
 20
-97.7637256799999932
 30
0.0
 40
0.49999993
 50
90.0
 51
179.9999873900000011
  0
ARC
  5
396
  8
LAYER0003
  6
CONTINUOUS
 62
     7
 10
-85.4088377700000052
 20
-95.9637257999999775
 30
0.0
 40
0.50000018
 50
179.9999656200000118
 51
270.0000252099999898
  0
ARC
  5
397
  8
LAYER0003
  6
CONTINUOUS
 62
     7
 10
-87.2088377799999961
 20
-95.9637254999999953
 30
0.0
 40
0.5874884900000001
 50
270.0
 51
360.0
  0
ARC
  5
398
  8
LAYER0003
  6
CONTINUOUS
 62
     7
 10
-87.2088377799999961
 20
-97.7637256799999932
 30
0.0
 40
0.5874899400000001
 50
0.00001073
 51
90.0000438900000006
  0
ARC
  5
399
  8
LAYER0003
  6
CONTINUOUS
 62
     7
 10
-85.4088380799999953
 20
-97.7637256799999932
 30
0.0
 40
0.5874887300000001
 50
90.0
 51
180.0
  0
ARC
  5
39A
  8
LAYER0003
  6
CONTINUOUS
 62
     7
 10
-85.4088377700000052
 20
-95.9637257999999775
 30
0.0
 40
0.5874884900000001
 50
179.9998946700000033
 51
269.9999912200000267
  0
CIRCLE
  5
39B
  8
LAYER0003
  6
CONTINUOUS
 62
     7
 10
-86.3088377800000046
 20
-56.8637253099999924
 30
0.0
 40
3.0
  0
ARC
  5
39C
  8
LAYER0003
  6
CONTINUOUS
 62
     7
 10
-87.2088377799999961
 20
-55.9637255100000033
 30
0.0
 40
0.4999998200000001
 50
270.0
 51
359.9999873900000011
  0
ARC
  5
39D
  8
LAYER0003
  6
CONTINUOUS
 62
     7
 10
-87.2088377799999961
 20
-57.7637252099999898
 30
0.0
 40
0.50000012
 50
0.0
 51
90.0000515699999966
  0
ARC
  5
39E
  8
LAYER0003
  6
CONTINUOUS
 62
     7
 10
-85.408837599999984
 20
-57.7637252099999898
 30
0.0
 40
0.49999994
 50
90.0
 51
180.0000882399999966
  0
ARC
  5
39F
  8
LAYER0003
  6
CONTINUOUS
 62
     7
 10
-85.408837329999983
 20
-55.9637261399999915
 30
0.0
 40
0.5000006299999999
 50
179.9999278100000026
 51
270.000024059999987
  0
ARC
  5
3A0
  8
LAYER0003
  6
CONTINUOUS
 62
     7
 10
-87.2088377799999961
 20
-55.9637255100000033
 30
0.0
 40
0.5874884800000001
 50
270.0
 51
360.0
  0
ARC
  5
3A1
  8
LAYER0003
  6
CONTINUOUS
 62
     7
 10
-87.2088377799999961
 20
-57.7637252099999898
 30
0.0
 40
0.58748856
 50
0.0
 51
90.0000438900000006
  0
ARC
  5
3A2
  8
LAYER0003
  6
CONTINUOUS
 62
     7
 10
-85.408837329999983
 20
-55.9637261399999915
 30
0.0
 40
0.58748894
 50
179.9999492899999893
 51
269.9999951199999941
  0
ARC
  5
3A3
  8
LAYER0003
  6
CONTINUOUS
 62
     7
 10
-85.408837599999984
 20
-57.7637252099999898
 30
0.0
 40
0.58748838
 50
89.9999785400000007
 51
180.0000751000000037
  0
ARC
  5
3A4
  8
LAYER0003
  6
CONTINUOUS
 62
     7
 10
188.0911622200000011
 20
-89.658534340000017
 30
0.0
 40
0.30000015
 50
0.0
 51
88.999299829999984
  0
ARC
  5
3A5
  8
LAYER0003
  6
CONTINUOUS
 62
     7
 10
83.4911618600000054
 20
-68.8637256699999938
 30
0.0
 40
2.0
 50
270.0
 51
360.0
  0
ARC
  5
3A6
  8
LAYER0003
  6
CONTINUOUS
 62
     7
 10
83.4911620999999968
 20
-57.8637254200000015
 30
0.0
 40
2.000000239999999
 50
359.9999753600000076
 51
450.0000005699999974
  0
ARC
  5
3A7
  8
LAYER0003
  6
CONTINUOUS
 62
     7
 10
57.4911620800000023
 20
-57.8637253099999995
 30
0.0
 40
1.9999998599999991
 50
89.9999043199999988
 51
180.0
  0
ARC
  5
3A8
  8
LAYER0003
  6
CONTINUOUS
 62
     7
 10
57.4911618599999983
 20
-68.8637253100000066
 30
0.0
 40
2.00000036
 50
179.9999891100000013
 51
270.0
  0
ARC
  5
3A9
  8
LAYER0003
  6
CONTINUOUS
 62
     7
 10
12.4911609699999993
 20
-95.8637253100000066
 30
0.0
 40
2.000001259999999
 50
179.9999828100000059
 51
270.0
  0
ARC
  5
3AA
  8
LAYER0003
  6
CONTINUOUS
 62
     7
 10
38.4911609700000028
 20
-95.8637264299999998
 30
0.0
 40
1.9999998599999991
 50
270.000059589999978
 51
360.0
  0
ARC
  5
3AB
  8
LAYER0003
  6
CONTINUOUS
 62
     7
 10
38.4911601700000006
 20
-84.8637234299999932
 30
0.0
 40
1.9999993499999991
 50
359.9999031699999819
 51
449.9999779400000079
  0
ARC
  5
3AC
  8
LAYER0003
  6
CONTINUOUS
 62
     7
 10
12.4911609400000003
 20
-84.8637253100000066
 30
0.0
 40
2.0000012200000001
 50
89.9999556000000069
 51
180.0000111699999934
  0
ARC
  5
3AD
  8
LAYER0003
  6
CONTINUOUS
 62
     7
 10
57.4911618599999983
 20
-95.8637253100000066
 30
0.0
 40
2.00000036
 50
179.9999828100000059
 51
270.0
  0
ARC
  5
3AE
  8
LAYER0003
  6
CONTINUOUS
 62
     7
 10
83.4911618600000054
 20
-95.8637255299999964
 30
0.0
 40
1.9999998599999991
 50
269.9998977299999865
 51
360.0
  0
ARC
  5
3AF
  8
LAYER0003
  6
CONTINUOUS
 62
     7
 10
83.4911619599999995
 20
-84.8637252200000063
 30
0.0
 40
2.000000239999999
 50
359.9999799500000108
 51
450.0000034400000004
  0
ARC
  5
3B0
  8
LAYER0003
  6
CONTINUOUS
 62
     7
 10
57.4911618399999966
 20
-84.8637253100000066
 30
0.0
 40
2.0000003400000002
 50
89.9999045999999936
 51
180.0000111699999934
  0
ARC
  5
3B1
  8
LAYER0003
  6
CONTINUOUS
 62
     7
 10
38.4911609700000028
 20
-68.863726569999983
 30
0.0
 40
2.0
 50
270.0
 51
360.0
  0
ARC
  5
3B2
  8
LAYER0003
  6
CONTINUOUS
 62
     7
 10
38.4911603099999979
 20
-57.8637245199999981
 30
0.0
 40
1.9999993499999991
 50
359.999924080000028
 51
449.9999492900000178
  0
ARC
  5
3B3
  8
LAYER0003
  6
CONTINUOUS
 62
     7
 10
12.4911620800000005
 20
-57.8637253099999995
 30
0.0
 40
1.9999998599999991
 50
89.9999556000000069
 51
180.0
  0
ARC
  5
3B4
  8
LAYER0003
  6
CONTINUOUS
 62
     7
 10
12.4911609699999993
 20
-68.8637253100000066
 30
0.0
 40
2.000001259999999
 50
179.9999891100000013
 51
270.0
  0
CIRCLE
  5
3B5
  8
LAYER0003
  6
CONTINUOUS
 62
     7
 10
-234.3328277699999944
 20
-300.3978887100000179
 30
0.0
 40
3.5
  0
CIRCLE
  5
3B6
  8
LAYER0003
  6
CONTINUOUS
 62
     7
 10
-234.3328277699999944
 20
-300.3978887100000179
 30
0.0
 40
4.0999999999999988
  0
ARC
  5
3B7
  8
LAYER0003
  6
CONTINUOUS
 62
     7
 10
-238.9328277799999967
 20
-306.197885250000013
 30
0.0
 40
0.5000000100000001
 50
306.6927915300000222
 51
360.0
  0
ARC
  5
3B8
  8
LAYER0003
  6
CONTINUOUS
 62
     7
 10
-229.7328277599999922
 20
-306.197885250000013
 30
0.0
 40
0.5
 50
180.0
 51
233.307209389999997
  0
CIRCLE
  5
3B9
  8
LAYER0003
  6
CONTINUOUS
 62
     7
 10
-234.3328277699999944
 20
-309.7478886999999759
 30
0.0
 40
2.0
  0
CIRCLE
  5
3BA
  8
LAYER0003
  6
CONTINUOUS
 62
     7
 10
-234.3328277699999944
 20
-161.4478886999999929
 30
0.0
 40
2.0
  0
ARC
  5
3BB
  8
LAYER0003
  6
CONTINUOUS
 62
     7
 10
-205.3328280099999859
 20
-316.5978855500000009
 30
0.0
 40
0.20000216
 50
270.0002390600000126
 51
359.9990002000000118
  0
ARC
  5
3BC
  8
LAYER0003
  6
CONTINUOUS
 62
     7
 10
-205.3328280099999859
 20
-316.5978855500000009
 30
0.0
 40
1.000001109999999
 50
270.0
 51
360.0
  0
ARC
  5
3BD
  8
LAYER0003
  6
CONTINUOUS
 62
     7
 10
-263.3328263399999969
 20
-316.5978852299999744
 30
0.0
 40
0.20000216
 50
180.0009940699999902
 51
269.9997609700000112
  0
ARC
  5
3BE
  8
LAYER0003
  6
CONTINUOUS
 62
     7
 10
-263.3328263399999969
 20
-316.5978852299999744
 30
0.0
 40
1.0000014299999991
 50
180.0001988200000085
 51
270.0
  0
ARC
  5
3BF
  8
LAYER0003
  6
CONTINUOUS
 62
     7
 10
-263.3328260100000193
 20
-154.5978921900000103
 30
0.0
 40
1.000001109999999
 50
90.0
 51
180.0
  0
ARC
  5
3C0
  8
LAYER0003
  6
CONTINUOUS
 62
     7
 10
-263.3328260100000193
 20
-154.5978921900000103
 30
0.0
 40
0.2000025
 50
90.000239030000003
 51
180.0
  0
ARC
  5
3C1
  8
LAYER0003
  6
CONTINUOUS
 62
     7
 10
-205.3328276700000004
 20
-154.5978921900000103
 30
0.0
 40
0.20000216
 50
0.00099694
 51
89.9997609400000016
  0
ARC
  5
3C2
  8
LAYER0003
  6
CONTINUOUS
 62
     7
 10
-205.3328276700000004
 20
-154.5978921900000103
 30
0.0
 40
1.000001109999999
 50
0.0
 51
90.0
  0
ARC
  5
3C3
  8
LAYER0003
  6
CONTINUOUS
 62
     7
 10
329.8420408000000066
 20
-171.0478886999999872
 30
0.0
 40
1.000000089999999
 50
90.0
 51
180.0001460999999949
  0
ARC
  5
3C4
  8
LAYER0003
  6
CONTINUOUS
 62
     7
 10
347.8420408000000066
 20
-171.047888620000009
 30
0.0
 40
1.0
 50
0.0
 51
90.0
  0
ARC
  5
3C5
  8
LAYER0003
  6
CONTINUOUS
 62
     7
 10
329.842040709999992
 20
-300.1478887100000179
 30
0.0
 40
1.0
 50
180.0
 51
270.0
  0
ARC
  5
3C6
  8
LAYER0003
  6
CONTINUOUS
 62
     7
 10
-223.3328277999999898
 20
-291.8978882100000192
 30
0.0
 40
2.0000005000000001
 50
270.0000008600000001
 51
450.0000008599998864
  0
ARC
  5
3C7
  8
LAYER0003
  6
CONTINUOUS
 62
     7
 10
-209.5328287400000136
 20
-179.747889320000013
 30
0.0
 40
1.0
 50
0.00006016
 51
89.9999094700000057
  0
ARC
  5
3C8
  8
LAYER0003
  6
CONTINUOUS
 62
     7
 10
-264.0328284700000268
 20
-275.4478887000000213
 30
0.0
 40
0.9999993099999999
 50
180.0
 51
270.0000091699999984
  0
ARC
  5
3C9
  8
LAYER0003
  6
CONTINUOUS
 62
     7
 10
-255.9328277699999887
 20
-291.8978887100000179
 30
0.0
 40
2.0
 50
270.0
 51
450.0
  0
CIRCLE
  5
3CA
  8
LAYER0003
  6
CONTINUOUS
 62
     7
 10
-210.8328277699999944
 20
-291.8978887100000179
 30
0.0
 40
5.0
  0
ARC
  5
3CB
  8
LAYER0003
  6
CONTINUOUS
 62
     7
 10
-229.3328277699999944
 20
-291.8978880600000139
 30
0.0
 40
2.0000003300000002
 50
90.0000031499999835
 51
269.9999968500000023
  0
ARC
  5
3CC
  8
LAYER0003
  6
CONTINUOUS
 62
     7
 10
-239.6328277700000058
 20
-291.8978887100000179
 30
0.0
 40
2.0
 50
270.0
 51
450.0
  0
ARC
  5
3CD
  8
LAYER0003
  6
CONTINUOUS
 62
     7
 10
-264.0328271600000107
 20
-179.7478887100000122
 30
0.0
 40
1.0000006100000001
 50
89.9999908300000016
 51
180.0000458400000127
  0
ARC
  5
3CE
  8
LAYER0003
  6
CONTINUOUS
 62
     7
 10
-209.5328284699999983
 20
-275.4478882600000134
 30
0.0
 40
0.9999997499999999
 50
270.0000406799999837
 51
359.9999833800000033
  0
ARC
  5
3CF
  8
LAYER0003
  6
CONTINUOUS
 62
     7
 10
-261.9328277700000172
 20
-291.8978880600000139
 30
0.0
 40
2.0000003300000002
 50
89.9999908300000016
 51
270.0000091699999984
  0
ARC
  5
3D0
  8
LAYER0003
  6
CONTINUOUS
 62
     7
 10
-245.6328277700000058
 20
-291.8978880600000139
 30
0.0
 40
2.0000003300000002
 50
90.0000103099999933
 51
269.9999896900000067
  0
CIRCLE
  5
3D1
  8
LAYER0003
  6
CONTINUOUS
 62
     7
 10
-210.8328277699999944
 20
-283.7978887099999952
 30
0.0
 40
1.0
  0
ARC
  5
3D2
  8
LAYER0003
  6
CONTINUOUS
 62
     7
 10
-99.3048469200000028
 20
-307.0978888199999801
 30
0.0
 40
0.5
 50
180.0
 51
270.0
  0
ARC
  5
3D3
  8
LAYER0003
  6
CONTINUOUS
 62
     7
 10
-99.3048469200000028
 20
-164.0978885799999887
 30
0.0
 40
0.5
 50
90.0
 51
180.0
  0
ARC
  5
3D4
  8
LAYER0003
  6
CONTINUOUS
 62
     7
 10
-99.3048469200000028
 20
-112.363736810000006
 30
0.0
 40
0.5
 50
180.0
 51
270.0000274999999874
  0
ARC
  5
3D5
  8
LAYER0003
  6
CONTINUOUS
 62
     7
 10
347.8420817800000009
 20
-300.1478881699999874
 30
0.0
 40
1.0
 50
270.0000017200000002
 51
360.0000177599999915
  0
CIRCLE
  5
3D6
  8
LAYER0003
  6
CONTINUOUS
 62
     7
 10
343.7420408899999984
 20
-176.0728886999999929
 30
0.0
 40
3.0
  0
CIRCLE
  5
3D7
  8
LAYER0003
  6
CONTINUOUS
 62
     7
 10
343.7420408899999984
 20
-185.6028886999999941
 30
0.0
 40
3.0
  0
CIRCLE
  5
3D8
  8
LAYER0003
  6
CONTINUOUS
 62
     7
 10
343.7420408899999984
 20
-195.1328887100000031
 30
0.0
 40
3.0
  0
CIRCLE
  5
3D9
  8
LAYER0003
  6
CONTINUOUS
 62
     7
 10
343.7420408899999984
 20
-204.6628887100000043
 30
0.0
 40
3.0
  0
CIRCLE
  5
3DA
  8
LAYER0003
  6
CONTINUOUS
 62
     7
 10
343.7420408899999984
 20
-214.1928887100000054
 30
0.0
 40
3.0
  0
CIRCLE
  5
3DB
  8
LAYER0003
  6
CONTINUOUS
 62
     7
 10
343.7420408899999984
 20
-223.7228886999999986
 30
0.0
 40
3.0
  0
CIRCLE
  5
3DC
  8
LAYER0003
  6
CONTINUOUS
 62
     7
 10
343.7420408899999984
 20
-233.2528886999999997
 30
0.0
 40
3.0
  0
CIRCLE
  5
3DD
  8
LAYER0003
  6
CONTINUOUS
 62
     7
 10
343.7420408899999984
 20
-242.7828887100000088
 30
0.0
 40
3.0
  0
CIRCLE
  5
3DE
  8
LAYER0003
  6
CONTINUOUS
 62
     7
 10
343.7420408899999984
 20
-252.31288871000001
 30
0.0
 40
3.0
  0
CIRCLE
  5
3DF
  8
LAYER0003
  6
CONTINUOUS
 62
     7
 10
343.7420408899999984
 20
-261.8428887000000032
 30
0.0
 40
3.0
  0
CIRCLE
  5
3E0
  8
LAYER0003
  6
CONTINUOUS
 62
     7
 10
343.7420408899999984
 20
-271.3728886999999759
 30
0.0
 40
3.0
  0
CIRCLE
  5
3E1
  8
LAYER0003
  6
CONTINUOUS
 62
     7
 10
343.7420408899999984
 20
-280.9028887100000134
 30
0.0
 40
3.0
  0
CIRCLE
  5
3E2
  8
LAYER0003
  6
CONTINUOUS
 62
     7
 10
343.7420408899999984
 20
-290.4328887099999861
 30
0.0
 40
3.0
  0
ARC
  5
3E3
  8
LAYER0003
  6
CONTINUOUS
 62
     7
 10
223.1911565499999881
 20
-303.8478869699999905
 30
0.0
 40
1.0
 50
270.0
 51
360.0
  0
ARC
  5
3E4
  8
LAYER0003
  6
CONTINUOUS
 62
     7
 10
-99.3048469200000028
 20
-41.3637138400000026
 30
0.0
 40
0.5
 50
89.9999724999999842
 51
180.0
  0
ARC
  5
3E5
  8
LAYER0003
  6
CONTINUOUS
 62
     7
 10
223.1911565499999881
 20
-167.3478904399999863
 30
0.0
 40
1.0
 50
0.0
 51
90.0
  0
POLYLINE
  5
3E6
  8
LAYER0003
  6
CONTINUOUS
 62
     7
 10
222.6911622130281216
 20
-110.7018674153247275
 30
0.0
 66
     1
 70
     8
  0
VERTEX
  8
LAYER0003
  5
A6D
 10
222.691
 20
-110.702
 30
0.000000
  70
    32
  0
VERTEX
  8
LAYER0003
  5
A6E
 10
222.695
 20
-110.702
 30
0.000000
  70
    32
  0
VERTEX
  8
LAYER0003
  5
A6F
 10
222.699
 20
-110.702
 30
0.000000
  70
    32
  0
VERTEX
  8
LAYER0003
  5
A70
 10
222.703
 20
-110.702
 30
0.000000
  70
    32
  0
VERTEX
  8
LAYER0003
  5
A71
 10
222.707
 20
-110.702
 30
0.000000
  70
    32
  0
VERTEX
  8
LAYER0003
  5
A72
 10
222.711
 20
-110.701
 30
0.000000
  70
    32
  0
VERTEX
  8
LAYER0003
  5
A73
 10
222.716
 20
-110.701
 30
0.000000
  70
    32
  0
VERTEX
  8
LAYER0003
  5
A74
 10
222.720
 20
-110.701
 30
0.000000
  70
    32
  0
VERTEX
  8
LAYER0003
  5
A75
 10
222.724
 20
-110.701
 30
0.000000
  70
    32
  0
VERTEX
  8
LAYER0003
  5
A76
 10
222.728
 20
-110.701
 30
0.000000
  70
    32
  0
VERTEX
  8
LAYER0003
  5
A77
 10
222.732
 20
-110.701
 30
0.000000
  70
    32
  0
VERTEX
  8
LAYER0003
  5
A78
 10
222.736
 20
-110.701
 30
0.000000
  70
    32
  0
VERTEX
  8
LAYER0003
  5
A79
 10
222.740
 20
-110.701
 30
0.000000
  70
    32
  0
VERTEX
  8
LAYER0003
  5
A7A
 10
222.744
 20
-110.701
 30
0.000000
  70
    32
  0
VERTEX
  8
LAYER0003
  5
A7B
 10
222.748
 20
-110.701
 30
0.000000
  70
    32
  0
VERTEX
  8
LAYER0003
  5
A7C
 10
222.752
 20
-110.701
 30
0.000000
  70
    32
  0
VERTEX
  8
LAYER0003
  5
A7D
 10
222.756
 20
-110.700
 30
0.000000
  70
    32
  0
VERTEX
  8
LAYER0003
  5
A7E
 10
222.760
 20
-110.700
 30
0.000000
  70
    32
  0
VERTEX
  8
LAYER0003
  5
A7F
 10
222.764
 20
-110.700
 30
0.000000
  70
    32
  0
VERTEX
  8
LAYER0003
  5
A80
 10
222.768
 20
-110.700
 30
0.000000
  70
    32
  0
VERTEX
  8
LAYER0003
  5
A81
 10
222.772
 20
-110.700
 30
0.000000
  70
    32
  0
VERTEX
  8
LAYER0003
  5
A82
 10
222.776
 20
-110.700
 30
0.000000
  70
    32
  0
VERTEX
  8
LAYER0003
  5
A83
 10
222.780
 20
-110.700
 30
0.000000
  70
    32
  0
VERTEX
  8
LAYER0003
  5
A84
 10
222.784
 20
-110.700
 30
0.000000
  70
    32
  0
VERTEX
  8
LAYER0003
  5
A85
 10
222.789
 20
-110.700
 30
0.000000
  70
    32
  0
VERTEX
  8
LAYER0003
  5
A86
 10
222.793
 20
-110.700
 30
0.000000
  70
    32
  0
VERTEX
  8
LAYER0003
  5
A87
 10
222.797
 20
-110.700
 30
0.000000
  70
    32
  0
VERTEX
  8
LAYER0003
  5
A88
 10
222.801
 20
-110.700
 30
0.000000
  70
    32
  0
VERTEX
  8
LAYER0003
  5
A89
 10
222.805
 20
-110.699
 30
0.000000
  70
    32
  0
VERTEX
  8
LAYER0003
  5
A8A
 10
222.809
 20
-110.699
 30
0.000000
  70
    32
  0
VERTEX
  8
LAYER0003
  5
A8B
 10
222.813
 20
-110.699
 30
0.000000
  70
    32
  0
VERTEX
  8
LAYER0003
  5
A8C
 10
222.817
 20
-110.699
 30
0.000000
  70
    32
  0
VERTEX
  8
LAYER0003
  5
A8D
 10
222.821
 20
-110.699
 30
0.000000
  70
    32
  0
VERTEX
  8
LAYER0003
  5
A8E
 10
222.825
 20
-110.699
 30
0.000000
  70
    32
  0
VERTEX
  8
LAYER0003
  5
A8F
 10
222.829
 20
-110.699
 30
0.000000
  70
    32
  0
VERTEX
  8
LAYER0003
  5
A90
 10
222.833
 20
-110.699
 30
0.000000
  70
    32
  0
VERTEX
  8
LAYER0003
  5
A91
 10
222.837
 20
-110.699
 30
0.000000
  70
    32
  0
VERTEX
  8
LAYER0003
  5
A92
 10
222.841
 20
-110.699
 30
0.000000
  70
    32
  0
VERTEX
  8
LAYER0003
  5
A93
 10
222.845
 20
-110.699
 30
0.000000
  70
    32
  0
VERTEX
  8
LAYER0003
  5
A94
 10
222.849
 20
-110.698
 30
0.000000
  70
    32
  0
VERTEX
  8
LAYER0003
  5
A95
 10
222.853
 20
-110.698
 30
0.000000
  70
    32
  0
VERTEX
  8
LAYER0003
  5
A96
 10
222.857
 20
-110.698
 30
0.000000
  70
    32
  0
VERTEX
  8
LAYER0003
  5
A97
 10
222.862
 20
-110.698
 30
0.000000
  70
    32
  0
VERTEX
  8
LAYER0003
  5
A98
 10
222.866
 20
-110.698
 30
0.000000
  70
    32
  0
VERTEX
  8
LAYER0003
  5
A99
 10
222.870
 20
-110.698
 30
0.000000
  70
    32
  0
VERTEX
  8
LAYER0003
  5
A9A
 10
222.874
 20
-110.698
 30
0.000000
  70
    32
  0
VERTEX
  8
LAYER0003
  5
A9B
 10
222.878
 20
-110.698
 30
0.000000
  70
    32
  0
VERTEX
  8
LAYER0003
  5
A9C
 10
222.882
 20
-110.698
 30
0.000000
  70
    32
  0
VERTEX
  8
LAYER0003
  5
A9D
 10
222.886
 20
-110.698
 30
0.000000
  70
    32
  0
VERTEX
  8
LAYER0003
  5
A9E
 10
222.890
 20
-110.698
 30
0.000000
  70
    32
  0
VERTEX
  8
LAYER0003
  5
A9F
 10
222.894
 20
-110.697
 30
0.000000
  70
    32
  0
VERTEX
  8
LAYER0003
  5
AA0
 10
222.898
 20
-110.697
 30
0.000000
  70
    32
  0
VERTEX
  8
LAYER0003
  5
AA1
 10
222.902
 20
-110.697
 30
0.000000
  70
    32
  0
VERTEX
  8
LAYER0003
  5
AA2
 10
222.906
 20
-110.697
 30
0.000000
  70
    32
  0
VERTEX
  8
LAYER0003
  5
AA3
 10
222.910
 20
-110.697
 30
0.000000
  70
    32
  0
VERTEX
  8
LAYER0003
  5
AA4
 10
222.914
 20
-110.697
 30
0.000000
  70
    32
  0
VERTEX
  8
LAYER0003
  5
AA5
 10
222.918
 20
-110.697
 30
0.000000
  70
    32
  0
VERTEX
  8
LAYER0003
  5
AA6
 10
222.922
 20
-110.697
 30
0.000000
  70
    32
  0
VERTEX
  8
LAYER0003
  5
AA7
 10
222.926
 20
-110.697
 30
0.000000
  70
    32
  0
VERTEX
  8
LAYER0003
  5
AA8
 10
222.930
 20
-110.697
 30
0.000000
  70
    32
  0
VERTEX
  8
LAYER0003
  5
AA9
 10
222.935
 20
-110.697
 30
0.000000
  70
    32
  0
VERTEX
  8
LAYER0003
  5
AAA
 10
222.939
 20
-110.696
 30
0.000000
  70
    32
  0
VERTEX
  8
LAYER0003
  5
AAB
 10
222.943
 20
-110.696
 30
0.000000
  70
    32
  0
VERTEX
  8
LAYER0003
  5
AAC
 10
222.947
 20
-110.696
 30
0.000000
  70
    32
  0
VERTEX
  8
LAYER0003
  5
AAD
 10
222.951
 20
-110.696
 30
0.000000
  70
    32
  0
VERTEX
  8
LAYER0003
  5
AAE
 10
222.955
 20
-110.696
 30
0.000000
  70
    32
  0
VERTEX
  8
LAYER0003
  5
AAF
 10
222.959
 20
-110.696
 30
0.000000
  70
    32
  0
VERTEX
  8
LAYER0003
  5
AB0
 10
222.963
 20
-110.696
 30
0.000000
  70
    32
  0
VERTEX
  8
LAYER0003
  5
AB1
 10
222.967
 20
-110.696
 30
0.000000
  70
    32
  0
VERTEX
  8
LAYER0003
  5
AB2
 10
222.971
 20
-110.696
 30
0.000000
  70
    32
  0
VERTEX
  8
LAYER0003
  5
AB3
 10
222.975
 20
-110.696
 30
0.000000
  70
    32
  0
VERTEX
  8
LAYER0003
  5
AB4
 10
222.979
 20
-110.696
 30
0.000000
  70
    32
  0
VERTEX
  8
LAYER0003
  5
AB5
 10
222.983
 20
-110.696
 30
0.000000
  70
    32
  0
VERTEX
  8
LAYER0003
  5
AB6
 10
222.987
 20
-110.695
 30
0.000000
  70
    32
  0
VERTEX
  8
LAYER0003
  5
AB7
 10
222.991
 20
-110.695
 30
0.000000
  70
    32
  0
VERTEX
  8
LAYER0003
  5
AB8
 10
222.995
 20
-110.695
 30
0.000000
  70
    32
  0
VERTEX
  8
LAYER0003
  5
AB9
 10
222.999
 20
-110.695
 30
0.000000
  70
    32
  0
VERTEX
  8
LAYER0003
  5
ABA
 10
223.003
 20
-110.695
 30
0.000000
  70
    32
  0
VERTEX
  8
LAYER0003
  5
ABB
 10
223.007
 20
-110.695
 30
0.000000
  70
    32
  0
VERTEX
  8
LAYER0003
  5
ABC
 10
223.012
 20
-110.695
 30
0.000000
  70
    32
  0
VERTEX
  8
LAYER0003
  5
ABD
 10
223.016
 20
-110.695
 30
0.000000
  70
    32
  0
VERTEX
  8
LAYER0003
  5
ABE
 10
223.020
 20
-110.695
 30
0.000000
  70
    32
  0
VERTEX
  8
LAYER0003
  5
ABF
 10
223.024
 20
-110.695
 30
0.000000
  70
    32
  0
VERTEX
  8
LAYER0003
  5
AC0
 10
223.028
 20
-110.695
 30
0.000000
  70
    32
  0
VERTEX
  8
LAYER0003
  5
AC1
 10
223.032
 20
-110.694
 30
0.000000
  70
    32
  0
VERTEX
  8
LAYER0003
  5
AC2
 10
223.036
 20
-110.694
 30
0.000000
  70
    32
  0
VERTEX
  8
LAYER0003
  5
AC3
 10
223.040
 20
-110.694
 30
0.000000
  70
    32
  0
VERTEX
  8
LAYER0003
  5
AC4
 10
223.044
 20
-110.694
 30
0.000000
  70
    32
  0
VERTEX
  8
LAYER0003
  5
AC5
 10
223.048
 20
-110.694
 30
0.000000
  70
    32
  0
VERTEX
  8
LAYER0003
  5
AC6
 10
223.052
 20
-110.694
 30
0.000000
  70
    32
  0
VERTEX
  8
LAYER0003
  5
AC7
 10
223.056
 20
-110.694
 30
0.000000
  70
    32
  0
VERTEX
  8
LAYER0003
  5
AC8
 10
223.060
 20
-110.694
 30
0.000000
  70
    32
  0
VERTEX
  8
LAYER0003
  5
AC9
 10
223.064
 20
-110.694
 30
0.000000
  70
    32
  0
VERTEX
  8
LAYER0003
  5
ACA
 10
223.068
 20
-110.694
 30
0.000000
  70
    32
  0
VERTEX
  8
LAYER0003
  5
ACB
 10
223.072
 20
-110.694
 30
0.000000
  70
    32
  0
VERTEX
  8
LAYER0003
  5
ACC
 10
223.076
 20
-110.693
 30
0.000000
  70
    32
  0
VERTEX
  8
LAYER0003
  5
ACD
 10
223.080
 20
-110.693
 30
0.000000
  70
    32
  0
VERTEX
  8
LAYER0003
  5
ACE
 10
223.085
 20
-110.693
 30
0.000000
  70
    32
  0
VERTEX
  8
LAYER0003
  5
ACF
 10
223.089
 20
-110.693
 30
0.000000
  70
    32
  0
VERTEX
  8
LAYER0003
  5
AD0
 10
223.093
 20
-110.693
 30
0.000000
  70
    32
  0
VERTEX
  8
LAYER0003
  5
AD1
 10
223.097
 20
-110.693
 30
0.000000
  70
    32
  0
VERTEX
  8
LAYER0003
  5
AD2
 10
223.101
 20
-110.693
 30
0.000000
  70
    32
  0
VERTEX
  8
LAYER0003
  5
AD3
 10
223.105
 20
-110.693
 30
0.000000
  70
    32
  0
VERTEX
  8
LAYER0003
  5
AD4
 10
223.109
 20
-110.693
 30
0.000000
  70
    32
  0
VERTEX
  8
LAYER0003
  5
AD5
 10
223.113
 20
-110.693
 30
0.000000
  70
    32
  0
VERTEX
  8
LAYER0003
  5
AD6
 10
223.117
 20
-110.693
 30
0.000000
  70
    32
  0
VERTEX
  8
LAYER0003
  5
AD7
 10
223.121
 20
-110.692
 30
0.000000
  70
    32
  0
VERTEX
  8
LAYER0003
  5
AD8
 10
223.125
 20
-110.692
 30
0.000000
  70
    32
  0
VERTEX
  8
LAYER0003
  5
AD9
 10
223.129
 20
-110.692
 30
0.000000
  70
    32
  0
VERTEX
  8
LAYER0003
  5
ADA
 10
223.133
 20
-110.692
 30
0.000000
  70
    32
  0
VERTEX
  8
LAYER0003
  5
ADB
 10
223.137
 20
-110.692
 30
0.000000
  70
    32
  0
VERTEX
  8
LAYER0003
  5
ADC
 10
223.141
 20
-110.692
 30
0.000000
  70
    32
  0
VERTEX
  8
LAYER0003
  5
ADD
 10
223.145
 20
-110.692
 30
0.000000
  70
    32
  0
VERTEX
  8
LAYER0003
  5
ADE
 10
223.149
 20
-110.692
 30
0.000000
  70
    32
  0
VERTEX
  8
LAYER0003
  5
ADF
 10
223.153
 20
-110.692
 30
0.000000
  70
    32
  0
VERTEX
  8
LAYER0003
  5
AE0
 10
223.157
 20
-110.692
 30
0.000000
  70
    32
  0
VERTEX
  8
LAYER0003
  5
AE1
 10
223.162
 20
-110.692
 30
0.000000
  70
    32
  0
VERTEX
  8
LAYER0003
  5
AE2
 10
223.166
 20
-110.691
 30
0.000000
  70
    32
  0
VERTEX
  8
LAYER0003
  5
AE3
 10
223.170
 20
-110.691
 30
0.000000
  70
    32
  0
VERTEX
  8
LAYER0003
  5
AE4
 10
223.174
 20
-110.691
 30
0.000000
  70
    32
  0
VERTEX
  8
LAYER0003
  5
AE5
 10
223.178
 20
-110.691
 30
0.000000
  70
    32
  0
VERTEX
  8
LAYER0003
  5
AE6
 10
223.182
 20
-110.691
 30
0.000000
  70
    32
  0
VERTEX
  8
LAYER0003
  5
AE7
 10
223.186
 20
-110.691
 30
0.000000
  70
    32
  0
VERTEX
  8
LAYER0003
  5
AE8
 10
223.190
 20
-110.691
 30
0.000000
  70
    32
  0
VERTEX
  8
LAYER0003
  5
AE9
 10
223.194
 20
-110.691
 30
0.000000
  70
    32
  0
VERTEX
  8
LAYER0003
  5
AEA
 10
223.198
 20
-110.691
 30
0.000000
  70
    32
  0
VERTEX
  8
LAYER0003
  5
AEB
 10
223.202
 20
-110.691
 30
0.000000
  70
    32
  0
VERTEX
  8
LAYER0003
  5
AEC
 10
223.206
 20
-110.691
 30
0.000000
  70
    32
  0
VERTEX
  8
LAYER0003
  5
AED
 10
223.210
 20
-110.691
 30
0.000000
  70
    32
  0
SEQEND
  8
LAYER0003
  5
AEE
  0
POLYLINE
  5
3E7
  8
LAYER0003
  6
CONTINUOUS
 62
     7
 10
223.2101350920457037
 20
-42.9496727260824827
 30
0.0
 66
     1
 70
     8
  0
VERTEX
  8
LAYER0003
  5
AEF
 10
223.210
 20
-42.9497
 30
0.000000
  70
    32
  0
VERTEX
  8
LAYER0003
  5
AF0
 10
223.206
 20
-42.9496
 30
0.000000
  70
    32
  0
VERTEX
  8
LAYER0003
  5
AF1
 10
223.202
 20
-42.9495
 30
0.000000
  70
    32
  0
VERTEX
  8
LAYER0003
  5
AF2
 10
223.198
 20
-42.9494
 30
0.000000
  70
    32
  0
VERTEX
  8
LAYER0003
  5
AF3
 10
223.194
 20
-42.9493
 30
0.000000
  70
    32
  0
VERTEX
  8
LAYER0003
  5
AF4
 10
223.190
 20
-42.9492
 30
0.000000
  70
    32
  0
VERTEX
  8
LAYER0003
  5
AF5
 10
223.186
 20
-42.9491
 30
0.000000
  70
    32
  0
VERTEX
  8
LAYER0003
  5
AF6
 10
223.182
 20
-42.9490
 30
0.000000
  70
    32
  0
VERTEX
  8
LAYER0003
  5
AF7
 10
223.178
 20
-42.9490
 30
0.000000
  70
    32
  0
VERTEX
  8
LAYER0003
  5
AF8
 10
223.174
 20
-42.9489
 30
0.000000
  70
    32
  0
VERTEX
  8
LAYER0003
  5
AF9
 10
223.170
 20
-42.9488
 30
0.000000
  70
    32
  0
VERTEX
  8
LAYER0003
  5
AFA
 10
223.166
 20
-42.9487
 30
0.000000
  70
    32
  0
VERTEX
  8
LAYER0003
  5
AFB
 10
223.162
 20
-42.9486
 30
0.000000
  70
    32
  0
VERTEX
  8
LAYER0003
  5
AFC
 10
223.157
 20
-42.9485
 30
0.000000
  70
    32
  0
VERTEX
  8
LAYER0003
  5
AFD
 10
223.153
 20
-42.9484
 30
0.000000
  70
    32
  0
VERTEX
  8
LAYER0003
  5
AFE
 10
223.149
 20
-42.9483
 30
0.000000
  70
    32
  0
VERTEX
  8
LAYER0003
  5
AFF
 10
223.145
 20
-42.9482
 30
0.000000
  70
    32
  0
VERTEX
  8
LAYER0003
  5
B00
 10
223.141
 20
-42.9481
 30
0.000000
  70
    32
  0
VERTEX
  8
LAYER0003
  5
B01
 10
223.137
 20
-42.9481
 30
0.000000
  70
    32
  0
VERTEX
  8
LAYER0003
  5
B02
 10
223.133
 20
-42.9480
 30
0.000000
  70
    32
  0
VERTEX
  8
LAYER0003
  5
B03
 10
223.129
 20
-42.9479
 30
0.000000
  70
    32
  0
VERTEX
  8
LAYER0003
  5
B04
 10
223.125
 20
-42.9478
 30
0.000000
  70
    32
  0
VERTEX
  8
LAYER0003
  5
B05
 10
223.121
 20
-42.9477
 30
0.000000
  70
    32
  0
VERTEX
  8
LAYER0003
  5
B06
 10
223.117
 20
-42.9476
 30
0.000000
  70
    32
  0
VERTEX
  8
LAYER0003
  5
B07
 10
223.113
 20
-42.9475
 30
0.000000
  70
    32
  0
VERTEX
  8
LAYER0003
  5
B08
 10
223.109
 20
-42.9474
 30
0.000000
  70
    32
  0
VERTEX
  8
LAYER0003
  5
B09
 10
223.105
 20
-42.9473
 30
0.000000
  70
    32
  0
VERTEX
  8
LAYER0003
  5
B0A
 10
223.101
 20
-42.9472
 30
0.000000
  70
    32
  0
VERTEX
  8
LAYER0003
  5
B0B
 10
223.097
 20
-42.9472
 30
0.000000
  70
    32
  0
VERTEX
  8
LAYER0003
  5
B0C
 10
223.093
 20
-42.9471
 30
0.000000
  70
    32
  0
VERTEX
  8
LAYER0003
  5
B0D
 10
223.089
 20
-42.9470
 30
0.000000
  70
    32
  0
VERTEX
  8
LAYER0003
  5
B0E
 10
223.085
 20
-42.9469
 30
0.000000
  70
    32
  0
VERTEX
  8
LAYER0003
  5
B0F
 10
223.080
 20
-42.9468
 30
0.000000
  70
    32
  0
VERTEX
  8
LAYER0003
  5
B10
 10
223.076
 20
-42.9467
 30
0.000000
  70
    32
  0
VERTEX
  8
LAYER0003
  5
B11
 10
223.072
 20
-42.9466
 30
0.000000
  70
    32
  0
VERTEX
  8
LAYER0003
  5
B12
 10
223.068
 20
-42.9465
 30
0.000000
  70
    32
  0
VERTEX
  8
LAYER0003
  5
B13
 10
223.064
 20
-42.9464
 30
0.000000
  70
    32
  0
VERTEX
  8
LAYER0003
  5
B14
 10
223.060
 20
-42.9464
 30
0.000000
  70
    32
  0
VERTEX
  8
LAYER0003
  5
B15
 10
223.056
 20
-42.9463
 30
0.000000
  70
    32
  0
VERTEX
  8
LAYER0003
  5
B16
 10
223.052
 20
-42.9462
 30
0.000000
  70
    32
  0
VERTEX
  8
LAYER0003
  5
B17
 10
223.048
 20
-42.9461
 30
0.000000
  70
    32
  0
VERTEX
  8
LAYER0003
  5
B18
 10
223.044
 20
-42.9460
 30
0.000000
  70
    32
  0
VERTEX
  8
LAYER0003
  5
B19
 10
223.040
 20
-42.9459
 30
0.000000
  70
    32
  0
VERTEX
  8
LAYER0003
  5
B1A
 10
223.036
 20
-42.9458
 30
0.000000
  70
    32
  0
VERTEX
  8
LAYER0003
  5
B1B
 10
223.032
 20
-42.9457
 30
0.000000
  70
    32
  0
VERTEX
  8
LAYER0003
  5
B1C
 10
223.028
 20
-42.9456
 30
0.000000
  70
    32
  0
VERTEX
  8
LAYER0003
  5
B1D
 10
223.024
 20
-42.9455
 30
0.000000
  70
    32
  0
VERTEX
  8
LAYER0003
  5
B1E
 10
223.020
 20
-42.9455
 30
0.000000
  70
    32
  0
VERTEX
  8
LAYER0003
  5
B1F
 10
223.016
 20
-42.9454
 30
0.000000
  70
    32
  0
VERTEX
  8
LAYER0003
  5
B20
 10
223.012
 20
-42.9453
 30
0.000000
  70
    32
  0
VERTEX
  8
LAYER0003
  5
B21
 10
223.007
 20
-42.9452
 30
0.000000
  70
    32
  0
VERTEX
  8
LAYER0003
  5
B22
 10
223.003
 20
-42.9451
 30
0.000000
  70
    32
  0
VERTEX
  8
LAYER0003
  5
B23
 10
222.999
 20
-42.9450
 30
0.000000
  70
    32
  0
VERTEX
  8
LAYER0003
  5
B24
 10
222.995
 20
-42.9449
 30
0.000000
  70
    32
  0
VERTEX
  8
LAYER0003
  5
B25
 10
222.991
 20
-42.9448
 30
0.000000
  70
    32
  0
VERTEX
  8
LAYER0003
  5
B26
 10
222.987
 20
-42.9447
 30
0.000000
  70
    32
  0
VERTEX
  8
LAYER0003
  5
B27
 10
222.983
 20
-42.9447
 30
0.000000
  70
    32
  0
VERTEX
  8
LAYER0003
  5
B28
 10
222.979
 20
-42.9446
 30
0.000000
  70
    32
  0
VERTEX
  8
LAYER0003
  5
B29
 10
222.975
 20
-42.9445
 30
0.000000
  70
    32
  0
VERTEX
  8
LAYER0003
  5
B2A
 10
222.971
 20
-42.9444
 30
0.000000
  70
    32
  0
VERTEX
  8
LAYER0003
  5
B2B
 10
222.967
 20
-42.9443
 30
0.000000
  70
    32
  0
VERTEX
  8
LAYER0003
  5
B2C
 10
222.963
 20
-42.9442
 30
0.000000
  70
    32
  0
VERTEX
  8
LAYER0003
  5
B2D
 10
222.959
 20
-42.9441
 30
0.000000
  70
    32
  0
VERTEX
  8
LAYER0003
  5
B2E
 10
222.955
 20
-42.9440
 30
0.000000
  70
    32
  0
VERTEX
  8
LAYER0003
  5
B2F
 10
222.951
 20
-42.9439
 30
0.000000
  70
    32
  0
VERTEX
  8
LAYER0003
  5
B30
 10
222.947
 20
-42.9439
 30
0.000000
  70
    32
  0
VERTEX
  8
LAYER0003
  5
B31
 10
222.943
 20
-42.9438
 30
0.000000
  70
    32
  0
VERTEX
  8
LAYER0003
  5
B32
 10
222.939
 20
-42.9437
 30
0.000000
  70
    32
  0
VERTEX
  8
LAYER0003
  5
B33
 10
222.935
 20
-42.9436
 30
0.000000
  70
    32
  0
VERTEX
  8
LAYER0003
  5
B34
 10
222.930
 20
-42.9435
 30
0.000000
  70
    32
  0
VERTEX
  8
LAYER0003
  5
B35
 10
222.926
 20
-42.9434
 30
0.000000
  70
    32
  0
VERTEX
  8
LAYER0003
  5
B36
 10
222.922
 20
-42.9433
 30
0.000000
  70
    32
  0
VERTEX
  8
LAYER0003
  5
B37
 10
222.918
 20
-42.9432
 30
0.000000
  70
    32
  0
VERTEX
  8
LAYER0003
  5
B38
 10
222.914
 20
-42.9431
 30
0.000000
  70
    32
  0
VERTEX
  8
LAYER0003
  5
B39
 10
222.910
 20
-42.9431
 30
0.000000
  70
    32
  0
VERTEX
  8
LAYER0003
  5
B3A
 10
222.906
 20
-42.9430
 30
0.000000
  70
    32
  0
VERTEX
  8
LAYER0003
  5
B3B
 10
222.902
 20
-42.9429
 30
0.000000
  70
    32
  0
VERTEX
  8
LAYER0003
  5
B3C
 10
222.898
 20
-42.9428
 30
0.000000
  70
    32
  0
VERTEX
  8
LAYER0003
  5
B3D
 10
222.894
 20
-42.9427
 30
0.000000
  70
    32
  0
VERTEX
  8
LAYER0003
  5
B3E
 10
222.890
 20
-42.9426
 30
0.000000
  70
    32
  0
VERTEX
  8
LAYER0003
  5
B3F
 10
222.886
 20
-42.9425
 30
0.000000
  70
    32
  0
VERTEX
  8
LAYER0003
  5
B40
 10
222.882
 20
-42.9424
 30
0.000000
  70
    32
  0
VERTEX
  8
LAYER0003
  5
B41
 10
222.878
 20
-42.9424
 30
0.000000
  70
    32
  0
VERTEX
  8
LAYER0003
  5
B42
 10
222.874
 20
-42.9423
 30
0.000000
  70
    32
  0
VERTEX
  8
LAYER0003
  5
B43
 10
222.870
 20
-42.9422
 30
0.000000
  70
    32
  0
VERTEX
  8
LAYER0003
  5
B44
 10
222.866
 20
-42.9421
 30
0.000000
  70
    32
  0
VERTEX
  8
LAYER0003
  5
B45
 10
222.862
 20
-42.9420
 30
0.000000
  70
    32
  0
VERTEX
  8
LAYER0003
  5
B46
 10
222.857
 20
-42.9419
 30
0.000000
  70
    32
  0
VERTEX
  8
LAYER0003
  5
B47
 10
222.853
 20
-42.9418
 30
0.000000
  70
    32
  0
VERTEX
  8
LAYER0003
  5
B48
 10
222.849
 20
-42.9417
 30
0.000000
  70
    32
  0
VERTEX
  8
LAYER0003
  5
B49
 10
222.845
 20
-42.9416
 30
0.000000
  70
    32
  0
VERTEX
  8
LAYER0003
  5
B4A
 10
222.841
 20
-42.9416
 30
0.000000
  70
    32
  0
VERTEX
  8
LAYER0003
  5
B4B
 10
222.837
 20
-42.9415
 30
0.000000
  70
    32
  0
VERTEX
  8
LAYER0003
  5
B4C
 10
222.833
 20
-42.9414
 30
0.000000
  70
    32
  0
VERTEX
  8
LAYER0003
  5
B4D
 10
222.829
 20
-42.9413
 30
0.000000
  70
    32
  0
VERTEX
  8
LAYER0003
  5
B4E
 10
222.825
 20
-42.9412
 30
0.000000
  70
    32
  0
VERTEX
  8
LAYER0003
  5
B4F
 10
222.821
 20
-42.9411
 30
0.000000
  70
    32
  0
VERTEX
  8
LAYER0003
  5
B50
 10
222.817
 20
-42.9410
 30
0.000000
  70
    32
  0
VERTEX
  8
LAYER0003
  5
B51
 10
222.813
 20
-42.9409
 30
0.000000
  70
    32
  0
VERTEX
  8
LAYER0003
  5
B52
 10
222.809
 20
-42.9409
 30
0.000000
  70
    32
  0
VERTEX
  8
LAYER0003
  5
B53
 10
222.805
 20
-42.9408
 30
0.000000
  70
    32
  0
VERTEX
  8
LAYER0003
  5
B54
 10
222.801
 20
-42.9407
 30
0.000000
  70
    32
  0
VERTEX
  8
LAYER0003
  5
B55
 10
222.797
 20
-42.9406
 30
0.000000
  70
    32
  0
VERTEX
  8
LAYER0003
  5
B56
 10
222.793
 20
-42.9405
 30
0.000000
  70
    32
  0
VERTEX
  8
LAYER0003
  5
B57
 10
222.789
 20
-42.9404
 30
0.000000
  70
    32
  0
VERTEX
  8
LAYER0003
  5
B58
 10
222.784
 20
-42.9403
 30
0.000000
  70
    32
  0
VERTEX
  8
LAYER0003
  5
B59
 10
222.780
 20
-42.9402
 30
0.000000
  70
    32
  0
VERTEX
  8
LAYER0003
  5
B5A
 10
222.776
 20
-42.9401
 30
0.000000
  70
    32
  0
VERTEX
  8
LAYER0003
  5
B5B
 10
222.772
 20
-42.9401
 30
0.000000
  70
    32
  0
VERTEX
  8
LAYER0003
  5
B5C
 10
222.768
 20
-42.9400
 30
0.000000
  70
    32
  0
VERTEX
  8
LAYER0003
  5
B5D
 10
222.764
 20
-42.9399
 30
0.000000
  70
    32
  0
VERTEX
  8
LAYER0003
  5
B5E
 10
222.760
 20
-42.9398
 30
0.000000
  70
    32
  0
VERTEX
  8
LAYER0003
  5
B5F
 10
222.756
 20
-42.9397
 30
0.000000
  70
    32
  0
VERTEX
  8
LAYER0003
  5
B60
 10
222.752
 20
-42.9396
 30
0.000000
  70
    32
  0
VERTEX
  8
LAYER0003
  5
B61
 10
222.748
 20
-42.9395
 30
0.000000
  70
    32
  0
VERTEX
  8
LAYER0003
  5
B62
 10
222.744
 20
-42.9394
 30
0.000000
  70
    32
  0
VERTEX
  8
LAYER0003
  5
B63
 10
222.740
 20
-42.9394
 30
0.000000
  70
    32
  0
VERTEX
  8
LAYER0003
  5
B64
 10
222.736
 20
-42.9393
 30
0.000000
  70
    32
  0
VERTEX
  8
LAYER0003
  5
B65
 10
222.732
 20
-42.9392
 30
0.000000
  70
    32
  0
VERTEX
  8
LAYER0003
  5
B66
 10
222.728
 20
-42.9391
 30
0.000000
  70
    32
  0
VERTEX
  8
LAYER0003
  5
B67
 10
222.724
 20
-42.9390
 30
0.000000
  70
    32
  0
VERTEX
  8
LAYER0003
  5
B68
 10
222.720
 20
-42.9389
 30
0.000000
  70
    32
  0
VERTEX
  8
LAYER0003
  5
B69
 10
222.716
 20
-42.9388
 30
0.000000
  70
    32
  0
VERTEX
  8
LAYER0003
  5
B6A
 10
222.711
 20
-42.9387
 30
0.000000
  70
    32
  0
VERTEX
  8
LAYER0003
  5
B6B
 10
222.707
 20
-42.9387
 30
0.000000
  70
    32
  0
VERTEX
  8
LAYER0003
  5
B6C
 10
222.703
 20
-42.9386
 30
0.000000
  70
    32
  0
VERTEX
  8
LAYER0003
  5
B6D
 10
222.699
 20
-42.9385
 30
0.000000
  70
    32
  0
VERTEX
  8
LAYER0003
  5
B6E
 10
222.695
 20
-42.9384
 30
0.000000
  70
    32
  0
VERTEX
  8
LAYER0003
  5
B6F
 10
222.691
 20
-42.9383
 30
0.000000
  70
    32
  0
SEQEND
  8
LAYER0003
  5
B70
  0
POLYLINE
  5
3E8
  8
LAYER0003
  6
CONTINUOUS
 62
     7
 10
-268.3331323800019277
 20
-163.5978887037941263
 30
0.0
 66
     1
 70
     8
  0
VERTEX
  8
LAYER0003
  5
B71
 10
-268.333
 20
-163.598
 30
0.000000
  70
    32
  0
VERTEX
  8
LAYER0003
  5
B72
 10
-268.358
 20
-163.598
 30
0.000000
  70
    32
  0
VERTEX
  8
LAYER0003
  5
B73
 10
-268.382
 20
-163.598
 30
0.000000
  70
    32
  0
VERTEX
  8
LAYER0003
  5
B74
 10
-268.407
 20
-163.599
 30
0.000000
  70
    32
  0
VERTEX
  8
LAYER0003
  5
B75
 10
-268.431
 20
-163.600
 30
0.000000
  70
    32
  0
VERTEX
  8
LAYER0003
  5
B76
 10
-268.456
 20
-163.602
 30
0.000000
  70
    32
  0
VERTEX
  8
LAYER0003
  5
B77
 10
-268.480
 20
-163.603
 30
0.000000
  70
    32
  0
VERTEX
  8
LAYER0003
  5
B78
 10
-268.505
 20
-163.605
 30
0.000000
  70
    32
  0
VERTEX
  8
LAYER0003
  5
B79
 10
-268.529
 20
-163.608
 30
0.000000
  70
    32
  0
VERTEX
  8
LAYER0003
  5
B7A
 10
-268.554
 20
-163.610
 30
0.000000
  70
    32
  0
VERTEX
  8
LAYER0003
  5
B7B
 10
-268.578
 20
-163.613
 30
0.000000
  70
    32
  0
VERTEX
  8
LAYER0003
  5
B7C
 10
-268.602
 20
-163.616
 30
0.000000
  70
    32
  0
VERTEX
  8
LAYER0003
  5
B7D
 10
-268.627
 20
-163.620
 30
0.000000
  70
    32
  0
VERTEX
  8
LAYER0003
  5
B7E
 10
-268.651
 20
-163.623
 30
0.000000
  70
    32
  0
VERTEX
  8
LAYER0003
  5
B7F
 10
-268.675
 20
-163.627
 30
0.000000
  70
    32
  0
VERTEX
  8
LAYER0003
  5
B80
 10
-268.699
 20
-163.632
 30
0.000000
  70
    32
  0
VERTEX
  8
LAYER0003
  5
B81
 10
-268.723
 20
-163.636
 30
0.000000
  70
    32
  0
VERTEX
  8
LAYER0003
  5
B82
 10
-268.747
 20
-163.641
 30
0.000000
  70
    32
  0
VERTEX
  8
LAYER0003
  5
B83
 10
-268.771
 20
-163.646
 30
0.000000
  70
    32
  0
VERTEX
  8
LAYER0003
  5
B84
 10
-268.795
 20
-163.652
 30
0.000000
  70
    32
  0
VERTEX
  8
LAYER0003
  5
B85
 10
-268.819
 20
-163.658
 30
0.000000
  70
    32
  0
VERTEX
  8
LAYER0003
  5
B86
 10
-268.843
 20
-163.664
 30
0.000000
  70
    32
  0
VERTEX
  8
LAYER0003
  5
B87
 10
-268.867
 20
-163.670
 30
0.000000
  70
    32
  0
VERTEX
  8
LAYER0003
  5
B88
 10
-268.890
 20
-163.677
 30
0.000000
  70
    32
  0
VERTEX
  8
LAYER0003
  5
B89
 10
-268.914
 20
-163.684
 30
0.000000
  70
    32
  0
VERTEX
  8
LAYER0003
  5
B8A
 10
-268.937
 20
-163.691
 30
0.000000
  70
    32
  0
VERTEX
  8
LAYER0003
  5
B8B
 10
-268.960
 20
-163.699
 30
0.000000
  70
    32
  0
VERTEX
  8
LAYER0003
  5
B8C
 10
-268.984
 20
-163.707
 30
0.000000
  70
    32
  0
VERTEX
  8
LAYER0003
  5
B8D
 10
-269.007
 20
-163.715
 30
0.000000
  70
    32
  0
VERTEX
  8
LAYER0003
  5
B8E
 10
-269.030
 20
-163.723
 30
0.000000
  70
    32
  0
VERTEX
  8
LAYER0003
  5
B8F
 10
-269.053
 20
-163.732
 30
0.000000
  70
    32
  0
VERTEX
  8
LAYER0003
  5
B90
 10
-269.076
 20
-163.741
 30
0.000000
  70
    32
  0
VERTEX
  8
LAYER0003
  5
B91
 10
-269.098
 20
-163.750
 30
0.000000
  70
    32
  0
VERTEX
  8
LAYER0003
  5
B92
 10
-269.121
 20
-163.760
 30
0.000000
  70
    32
  0
VERTEX
  8
LAYER0003
  5
B93
 10
-269.144
 20
-163.769
 30
0.000000
  70
    32
  0
VERTEX
  8
LAYER0003
  5
B94
 10
-269.166
 20
-163.780
 30
0.000000
  70
    32
  0
VERTEX
  8
LAYER0003
  5
B95
 10
-269.188
 20
-163.790
 30
0.000000
  70
    32
  0
VERTEX
  8
LAYER0003
  5
B96
 10
-269.210
 20
-163.800
 30
0.000000
  70
    32
  0
VERTEX
  8
LAYER0003
  5
B97
 10
-269.232
 20
-163.811
 30
0.000000
  70
    32
  0
VERTEX
  8
LAYER0003
  5
B98
 10
-269.254
 20
-163.823
 30
0.000000
  70
    32
  0
VERTEX
  8
LAYER0003
  5
B99
 10
-269.276
 20
-163.834
 30
0.000000
  70
    32
  0
VERTEX
  8
LAYER0003
  5
B9A
 10
-269.297
 20
-163.846
 30
0.000000
  70
    32
  0
VERTEX
  8
LAYER0003
  5
B9B
 10
-269.319
 20
-163.858
 30
0.000000
  70
    32
  0
VERTEX
  8
LAYER0003
  5
B9C
 10
-269.340
 20
-163.870
 30
0.000000
  70
    32
  0
VERTEX
  8
LAYER0003
  5
B9D
 10
-269.361
 20
-163.882
 30
0.000000
  70
    32
  0
VERTEX
  8
LAYER0003
  5
B9E
 10
-269.382
 20
-163.895
 30
0.000000
  70
    32
  0
VERTEX
  8
LAYER0003
  5
B9F
 10
-269.403
 20
-163.908
 30
0.000000
  70
    32
  0
VERTEX
  8
LAYER0003
  5
BA0
 10
-269.424
 20
-163.921
 30
0.000000
  70
    32
  0
VERTEX
  8
LAYER0003
  5
BA1
 10
-269.444
 20
-163.935
 30
0.000000
  70
    32
  0
VERTEX
  8
LAYER0003
  5
BA2
 10
-269.464
 20
-163.949
 30
0.000000
  70
    32
  0
VERTEX
  8
LAYER0003
  5
BA3
 10
-269.485
 20
-163.963
 30
0.000000
  70
    32
  0
VERTEX
  8
LAYER0003
  5
BA4
 10
-269.505
 20
-163.977
 30
0.000000
  70
    32
  0
VERTEX
  8
LAYER0003
  5
BA5
 10
-269.524
 20
-163.991
 30
0.000000
  70
    32
  0
VERTEX
  8
LAYER0003
  5
BA6
 10
-269.544
 20
-164.006
 30
0.000000
  70
    32
  0
VERTEX
  8
LAYER0003
  5
BA7
 10
-269.563
 20
-164.021
 30
0.000000
  70
    32
  0
VERTEX
  8
LAYER0003
  5
BA8
 10
-269.583
 20
-164.036
 30
0.000000
  70
    32
  0
VERTEX
  8
LAYER0003
  5
BA9
 10
-269.602
 20
-164.052
 30
0.000000
  70
    32
  0
VERTEX
  8
LAYER0003
  5
BAA
 10
-269.621
 20
-164.067
 30
0.000000
  70
    32
  0
VERTEX
  8
LAYER0003
  5
BAB
 10
-269.639
 20
-164.083
 30
0.000000
  70
    32
  0
VERTEX
  8
LAYER0003
  5
BAC
 10
-269.658
 20
-164.100
 30
0.000000
  70
    32
  0
VERTEX
  8
LAYER0003
  5
BAD
 10
-269.676
 20
-164.116
 30
0.000000
  70
    32
  0
VERTEX
  8
LAYER0003
  5
BAE
 10
-269.694
 20
-164.132
 30
0.000000
  70
    32
  0
VERTEX
  8
LAYER0003
  5
BAF
 10
-269.712
 20
-164.149
 30
0.000000
  70
    32
  0
VERTEX
  8
LAYER0003
  5
BB0
 10
-269.730
 20
-164.166
 30
0.000000
  70
    32
  0
VERTEX
  8
LAYER0003
  5
BB1
 10
-269.747
 20
-164.184
 30
0.000000
  70
    32
  0
VERTEX
  8
LAYER0003
  5
BB2
 10
-269.764
 20
-164.201
 30
0.000000
  70
    32
  0
VERTEX
  8
LAYER0003
  5
BB3
 10
-269.781
 20
-164.219
 30
0.000000
  70
    32
  0
VERTEX
  8
LAYER0003
  5
BB4
 10
-269.798
 20
-164.237
 30
0.000000
  70
    32
  0
VERTEX
  8
LAYER0003
  5
BB5
 10
-269.815
 20
-164.255
 30
0.000000
  70
    32
  0
VERTEX
  8
LAYER0003
  5
BB6
 10
-269.831
 20
-164.273
 30
0.000000
  70
    32
  0
VERTEX
  8
LAYER0003
  5
BB7
 10
-269.847
 20
-164.291
 30
0.000000
  70
    32
  0
VERTEX
  8
LAYER0003
  5
BB8
 10
-269.863
 20
-164.310
 30
0.000000
  70
    32
  0
VERTEX
  8
LAYER0003
  5
BB9
 10
-269.879
 20
-164.329
 30
0.000000
  70
    32
  0
VERTEX
  8
LAYER0003
  5
BBA
 10
-269.894
 20
-164.348
 30
0.000000
  70
    32
  0
VERTEX
  8
LAYER0003
  5
BBB
 10
-269.910
 20
-164.367
 30
0.000000
  70
    32
  0
VERTEX
  8
LAYER0003
  5
BBC
 10
-269.925
 20
-164.387
 30
0.000000
  70
    32
  0
VERTEX
  8
LAYER0003
  5
BBD
 10
-269.939
 20
-164.406
 30
0.000000
  70
    32
  0
VERTEX
  8
LAYER0003
  5
BBE
 10
-269.954
 20
-164.426
 30
0.000000
  70
    32
  0
VERTEX
  8
LAYER0003
  5
BBF
 10
-269.968
 20
-164.446
 30
0.000000
  70
    32
  0
VERTEX
  8
LAYER0003
  5
BC0
 10
-269.982
 20
-164.466
 30
0.000000
  70
    32
  0
VERTEX
  8
LAYER0003
  5
BC1
 10
-269.996
 20
-164.487
 30
0.000000
  70
    32
  0
VERTEX
  8
LAYER0003
  5
BC2
 10
-270.009
 20
-164.507
 30
0.000000
  70
    32
  0
VERTEX
  8
LAYER0003
  5
BC3
 10
-270.023
 20
-164.528
 30
0.000000
  70
    32
  0
VERTEX
  8
LAYER0003
  5
BC4
 10
-270.036
 20
-164.549
 30
0.000000
  70
    32
  0
VERTEX
  8
LAYER0003
  5
BC5
 10
-270.048
 20
-164.569
 30
0.000000
  70
    32
  0
VERTEX
  8
LAYER0003
  5
BC6
 10
-270.061
 20
-164.591
 30
0.000000
  70
    32
  0
VERTEX
  8
LAYER0003
  5
BC7
 10
-270.073
 20
-164.612
 30
0.000000
  70
    32
  0
VERTEX
  8
LAYER0003
  5
BC8
 10
-270.085
 20
-164.633
 30
0.000000
  70
    32
  0
VERTEX
  8
LAYER0003
  5
BC9
 10
-270.097
 20
-164.655
 30
0.000000
  70
    32
  0
VERTEX
  8
LAYER0003
  5
BCA
 10
-270.108
 20
-164.677
 30
0.000000
  70
    32
  0
VERTEX
  8
LAYER0003
  5
BCB
 10
-270.119
 20
-164.698
 30
0.000000
  70
    32
  0
VERTEX
  8
LAYER0003
  5
BCC
 10
-270.130
 20
-164.720
 30
0.000000
  70
    32
  0
VERTEX
  8
LAYER0003
  5
BCD
 10
-270.141
 20
-164.743
 30
0.000000
  70
    32
  0
VERTEX
  8
LAYER0003
  5
BCE
 10
-270.151
 20
-164.765
 30
0.000000
  70
    32
  0
VERTEX
  8
LAYER0003
  5
BCF
 10
-270.161
 20
-164.787
 30
0.000000
  70
    32
  0
VERTEX
  8
LAYER0003
  5
BD0
 10
-270.171
 20
-164.810
 30
0.000000
  70
    32
  0
VERTEX
  8
LAYER0003
  5
BD1
 10
-270.181
 20
-164.832
 30
0.000000
  70
    32
  0
VERTEX
  8
LAYER0003
  5
BD2
 10
-270.190
 20
-164.855
 30
0.000000
  70
    32
  0
VERTEX
  8
LAYER0003
  5
BD3
 10
-270.199
 20
-164.878
 30
0.000000
  70
    32
  0
VERTEX
  8
LAYER0003
  5
BD4
 10
-270.208
 20
-164.901
 30
0.000000
  70
    32
  0
VERTEX
  8
LAYER0003
  5
BD5
 10
-270.216
 20
-164.924
 30
0.000000
  70
    32
  0
VERTEX
  8
LAYER0003
  5
BD6
 10
-270.224
 20
-164.947
 30
0.000000
  70
    32
  0
VERTEX
  8
LAYER0003
  5
BD7
 10
-270.232
 20
-164.970
 30
0.000000
  70
    32
  0
VERTEX
  8
LAYER0003
  5
BD8
 10
-270.239
 20
-164.994
 30
0.000000
  70
    32
  0
VERTEX
  8
LAYER0003
  5
BD9
 10
-270.247
 20
-165.017
 30
0.000000
  70
    32
  0
VERTEX
  8
LAYER0003
  5
BDA
 10
-270.254
 20
-165.041
 30
0.000000
  70
    32
  0
VERTEX
  8
LAYER0003
  5
BDB
 10
-270.260
 20
-165.064
 30
0.000000
  70
    32
  0
VERTEX
  8
LAYER0003
  5
BDC
 10
-270.267
 20
-165.088
 30
0.000000
  70
    32
  0
VERTEX
  8
LAYER0003
  5
BDD
 10
-270.273
 20
-165.112
 30
0.000000
  70
    32
  0
VERTEX
  8
LAYER0003
  5
BDE
 10
-270.279
 20
-165.136
 30
0.000000
  70
    32
  0
VERTEX
  8
LAYER0003
  5
BDF
 10
-270.284
 20
-165.159
 30
0.000000
  70
    32
  0
VERTEX
  8
LAYER0003
  5
BE0
 10
-270.289
 20
-165.183
 30
0.000000
  70
    32
  0
VERTEX
  8
LAYER0003
  5
BE1
 10
-270.294
 20
-165.207
 30
0.000000
  70
    32
  0
VERTEX
  8
LAYER0003
  5
BE2
 10
-270.299
 20
-165.232
 30
0.000000
  70
    32
  0
VERTEX
  8
LAYER0003
  5
BE3
 10
-270.303
 20
-165.256
 30
0.000000
  70
    32
  0
VERTEX
  8
LAYER0003
  5
BE4
 10
-270.307
 20
-165.280
 30
0.000000
  70
    32
  0
VERTEX
  8
LAYER0003
  5
BE5
 10
-270.311
 20
-165.304
 30
0.000000
  70
    32
  0
VERTEX
  8
LAYER0003
  5
BE6
 10
-270.315
 20
-165.328
 30
0.000000
  70
    32
  0
VERTEX
  8
LAYER0003
  5
BE7
 10
-270.318
 20
-165.353
 30
0.000000
  70
    32
  0
VERTEX
  8
LAYER0003
  5
BE8
 10
-270.321
 20
-165.377
 30
0.000000
  70
    32
  0
VERTEX
  8
LAYER0003
  5
BE9
 10
-270.323
 20
-165.402
 30
0.000000
  70
    32
  0
VERTEX
  8
LAYER0003
  5
BEA
 10
-270.325
 20
-165.426
 30
0.000000
  70
    32
  0
VERTEX
  8
LAYER0003
  5
BEB
 10
-270.327
 20
-165.450
 30
0.000000
  70
    32
  0
VERTEX
  8
LAYER0003
  5
BEC
 10
-270.329
 20
-165.475
 30
0.000000
  70
    32
  0
VERTEX
  8
LAYER0003
  5
BED
 10
-270.330
 20
-165.499
 30
0.000000
  70
    32
  0
VERTEX
  8
LAYER0003
  5
BEE
 10
-270.331
 20
-165.524
 30
0.000000
  70
    32
  0
VERTEX
  8
LAYER0003
  5
BEF
 10
-270.332
 20
-165.549
 30
0.000000
  70
    32
  0
VERTEX
  8
LAYER0003
  5
BF0
 10
-270.333
 20
-165.573
 30
0.000000
  70
    32
  0
VERTEX
  8
LAYER0003
  5
BF1
 10
-270.333
 20
-165.598
 30
0.000000
  70
    32
  0
SEQEND
  8
LAYER0003
  5
BF2
  0
POLYLINE
  5
3E9
  8
LAYER0003
  6
CONTINUOUS
 62
     7
 10
-198.3328277737941221
 20
-165.5975841000011997
 30
0.0
 66
     1
 70
     8
  0
VERTEX
  8
LAYER0003
  5
BF3
 10
-198.333
 20
-165.598
 30
0.000000
  70
    32
  0
VERTEX
  8
LAYER0003
  5
BF4
 10
-198.333
 20
-165.573
 30
0.000000
  70
    32
  0
VERTEX
  8
LAYER0003
  5
BF5
 10
-198.333
 20
-165.549
 30
0.000000
  70
    32
  0
VERTEX
  8
LAYER0003
  5
BF6
 10
-198.334
 20
-165.524
 30
0.000000
  70
    32
  0
VERTEX
  8
LAYER0003
  5
BF7
 10
-198.335
 20
-165.499
 30
0.000000
  70
    32
  0
VERTEX
  8
LAYER0003
  5
BF8
 10
-198.337
 20
-165.475
 30
0.000000
  70
    32
  0
VERTEX
  8
LAYER0003
  5
BF9
 10
-198.338
 20
-165.450
 30
0.000000
  70
    32
  0
VERTEX
  8
LAYER0003
  5
BFA
 10
-198.340
 20
-165.426
 30
0.000000
  70
    32
  0
VERTEX
  8
LAYER0003
  5
BFB
 10
-198.342
 20
-165.402
 30
0.000000
  70
    32
  0
VERTEX
  8
LAYER0003
  5
BFC
 10
-198.345
 20
-165.377
 30
0.000000
  70
    32
  0
VERTEX
  8
LAYER0003
  5
BFD
 10
-198.348
 20
-165.353
 30
0.000000
  70
    32
  0
VERTEX
  8
LAYER0003
  5
BFE
 10
-198.351
 20
-165.328
 30
0.000000
  70
    32
  0
VERTEX
  8
LAYER0003
  5
BFF
 10
-198.354
 20
-165.304
 30
0.000000
  70
    32
  0
VERTEX
  8
LAYER0003
  5
C00
 10
-198.358
 20
-165.280
 30
0.000000
  70
    32
  0
VERTEX
  8
LAYER0003
  5
C01
 10
-198.362
 20
-165.256
 30
0.000000
  70
    32
  0
VERTEX
  8
LAYER0003
  5
C02
 10
-198.367
 20
-165.232
 30
0.000000
  70
    32
  0
VERTEX
  8
LAYER0003
  5
C03
 10
-198.371
 20
-165.207
 30
0.000000
  70
    32
  0
VERTEX
  8
LAYER0003
  5
C04
 10
-198.376
 20
-165.183
 30
0.000000
  70
    32
  0
VERTEX
  8
LAYER0003
  5
C05
 10
-198.381
 20
-165.159
 30
0.000000
  70
    32
  0
VERTEX
  8
LAYER0003
  5
C06
 10
-198.387
 20
-165.136
 30
0.000000
  70
    32
  0
VERTEX
  8
LAYER0003
  5
C07
 10
-198.393
 20
-165.112
 30
0.000000
  70
    32
  0
VERTEX
  8
LAYER0003
  5
C08
 10
-198.399
 20
-165.088
 30
0.000000
  70
    32
  0
VERTEX
  8
LAYER0003
  5
C09
 10
-198.405
 20
-165.064
 30
0.000000
  70
    32
  0
VERTEX
  8
LAYER0003
  5
C0A
 10
-198.412
 20
-165.041
 30
0.000000
  70
    32
  0
VERTEX
  8
LAYER0003
  5
C0B
 10
-198.419
 20
-165.017
 30
0.000000
  70
    32
  0
VERTEX
  8
LAYER0003
  5
C0C
 10
-198.426
 20
-164.994
 30
0.000000
  70
    32
  0
VERTEX
  8
LAYER0003
  5
C0D
 10
-198.434
 20
-164.970
 30
0.000000
  70
    32
  0
VERTEX
  8
LAYER0003
  5
C0E
 10
-198.442
 20
-164.947
 30
0.000000
  70
    32
  0
VERTEX
  8
LAYER0003
  5
C0F
 10
-198.450
 20
-164.924
 30
0.000000
  70
    32
  0
VERTEX
  8
LAYER0003
  5
C10
 10
-198.458
 20
-164.901
 30
0.000000
  70
    32
  0
VERTEX
  8
LAYER0003
  5
C11
 10
-198.467
 20
-164.878
 30
0.000000
  70
    32
  0
VERTEX
  8
LAYER0003
  5
C12
 10
-198.476
 20
-164.855
 30
0.000000
  70
    32
  0
VERTEX
  8
LAYER0003
  5
C13
 10
-198.485
 20
-164.832
 30
0.000000
  70
    32
  0
VERTEX
  8
LAYER0003
  5
C14
 10
-198.495
 20
-164.810
 30
0.000000
  70
    32
  0
VERTEX
  8
LAYER0003
  5
C15
 10
-198.504
 20
-164.787
 30
0.000000
  70
    32
  0
VERTEX
  8
LAYER0003
  5
C16
 10
-198.514
 20
-164.765
 30
0.000000
  70
    32
  0
VERTEX
  8
LAYER0003
  5
C17
 10
-198.525
 20
-164.743
 30
0.000000
  70
    32
  0
VERTEX
  8
LAYER0003
  5
C18
 10
-198.535
 20
-164.720
 30
0.000000
  70
    32
  0
VERTEX
  8
LAYER0003
  5
C19
 10
-198.546
 20
-164.698
 30
0.000000
  70
    32
  0
VERTEX
  8
LAYER0003
  5
C1A
 10
-198.557
 20
-164.677
 30
0.000000
  70
    32
  0
VERTEX
  8
LAYER0003
  5
C1B
 10
-198.569
 20
-164.655
 30
0.000000
  70
    32
  0
VERTEX
  8
LAYER0003
  5
C1C
 10
-198.581
 20
-164.633
 30
0.000000
  70
    32
  0
VERTEX
  8
LAYER0003
  5
C1D
 10
-198.593
 20
-164.612
 30
0.000000
  70
    32
  0
VERTEX
  8
LAYER0003
  5
C1E
 10
-198.605
 20
-164.591
 30
0.000000
  70
    32
  0
VERTEX
  8
LAYER0003
  5
C1F
 10
-198.617
 20
-164.569
 30
0.000000
  70
    32
  0
VERTEX
  8
LAYER0003
  5
C20
 10
-198.630
 20
-164.549
 30
0.000000
  70
    32
  0
VERTEX
  8
LAYER0003
  5
C21
 10
-198.643
 20
-164.528
 30
0.000000
  70
    32
  0
VERTEX
  8
LAYER0003
  5
C22
 10
-198.656
 20
-164.507
 30
0.000000
  70
    32
  0
VERTEX
  8
LAYER0003
  5
C23
 10
-198.670
 20
-164.487
 30
0.000000
  70
    32
  0
VERTEX
  8
LAYER0003
  5
C24
 10
-198.684
 20
-164.466
 30
0.000000
  70
    32
  0
VERTEX
  8
LAYER0003
  5
C25
 10
-198.698
 20
-164.446
 30
0.000000
  70
    32
  0
VERTEX
  8
LAYER0003
  5
C26
 10
-198.712
 20
-164.426
 30
0.000000
  70
    32
  0
VERTEX
  8
LAYER0003
  5
C27
 10
-198.726
 20
-164.406
 30
0.000000
  70
    32
  0
VERTEX
  8
LAYER0003
  5
C28
 10
-198.741
 20
-164.387
 30
0.000000
  70
    32
  0
VERTEX
  8
LAYER0003
  5
C29
 10
-198.756
 20
-164.367
 30
0.000000
  70
    32
  0
VERTEX
  8
LAYER0003
  5
C2A
 10
-198.771
 20
-164.348
 30
0.000000
  70
    32
  0
VERTEX
  8
LAYER0003
  5
C2B
 10
-198.787
 20
-164.329
 30
0.000000
  70
    32
  0
VERTEX
  8
LAYER0003
  5
C2C
 10
-198.802
 20
-164.310
 30
0.000000
  70
    32
  0
VERTEX
  8
LAYER0003
  5
C2D
 10
-198.818
 20
-164.291
 30
0.000000
  70
    32
  0
VERTEX
  8
LAYER0003
  5
C2E
 10
-198.834
 20
-164.273
 30
0.000000
  70
    32
  0
VERTEX
  8
LAYER0003
  5
C2F
 10
-198.851
 20
-164.255
 30
0.000000
  70
    32
  0
VERTEX
  8
LAYER0003
  5
C30
 10
-198.867
 20
-164.237
 30
0.000000
  70
    32
  0
VERTEX
  8
LAYER0003
  5
C31
 10
-198.884
 20
-164.219
 30
0.000000
  70
    32
  0
VERTEX
  8
LAYER0003
  5
C32
 10
-198.901
 20
-164.201
 30
0.000000
  70
    32
  0
VERTEX
  8
LAYER0003
  5
C33
 10
-198.918
 20
-164.184
 30
0.000000
  70
    32
  0
VERTEX
  8
LAYER0003
  5
C34
 10
-198.936
 20
-164.166
 30
0.000000
  70
    32
  0
VERTEX
  8
LAYER0003
  5
C35
 10
-198.954
 20
-164.149
 30
0.000000
  70
    32
  0
VERTEX
  8
LAYER0003
  5
C36
 10
-198.971
 20
-164.132
 30
0.000000
  70
    32
  0
VERTEX
  8
LAYER0003
  5
C37
 10
-198.990
 20
-164.116
 30
0.000000
  70
    32
  0
VERTEX
  8
LAYER0003
  5
C38
 10
-199.008
 20
-164.100
 30
0.000000
  70
    32
  0
VERTEX
  8
LAYER0003
  5
C39
 10
-199.026
 20
-164.083
 30
0.000000
  70
    32
  0
VERTEX
  8
LAYER0003
  5
C3A
 10
-199.045
 20
-164.067
 30
0.000000
  70
    32
  0
VERTEX
  8
LAYER0003
  5
C3B
 10
-199.064
 20
-164.052
 30
0.000000
  70
    32
  0
VERTEX
  8
LAYER0003
  5
C3C
 10
-199.083
 20
-164.036
 30
0.000000
  70
    32
  0
VERTEX
  8
LAYER0003
  5
C3D
 10
-199.102
 20
-164.021
 30
0.000000
  70
    32
  0
VERTEX
  8
LAYER0003
  5
C3E
 10
-199.122
 20
-164.006
 30
0.000000
  70
    32
  0
VERTEX
  8
LAYER0003
  5
C3F
 10
-199.141
 20
-163.991
 30
0.000000
  70
    32
  0
VERTEX
  8
LAYER0003
  5
C40
 10
-199.161
 20
-163.977
 30
0.000000
  70
    32
  0
VERTEX
  8
LAYER0003
  5
C41
 10
-199.181
 20
-163.963
 30
0.000000
  70
    32
  0
VERTEX
  8
LAYER0003
  5
C42
 10
-199.201
 20
-163.949
 30
0.000000
  70
    32
  0
VERTEX
  8
LAYER0003
  5
C43
 10
-199.222
 20
-163.935
 30
0.000000
  70
    32
  0
VERTEX
  8
LAYER0003
  5
C44
 10
-199.242
 20
-163.921
 30
0.000000
  70
    32
  0
VERTEX
  8
LAYER0003
  5
C45
 10
-199.263
 20
-163.908
 30
0.000000
  70
    32
  0
VERTEX
  8
LAYER0003
  5
C46
 10
-199.283
 20
-163.895
 30
0.000000
  70
    32
  0
VERTEX
  8
LAYER0003
  5
C47
 10
-199.304
 20
-163.882
 30
0.000000
  70
    32
  0
VERTEX
  8
LAYER0003
  5
C48
 10
-199.326
 20
-163.870
 30
0.000000
  70
    32
  0
VERTEX
  8
LAYER0003
  5
C49
 10
-199.347
 20
-163.858
 30
0.000000
  70
    32
  0
VERTEX
  8
LAYER0003
  5
C4A
 10
-199.368
 20
-163.846
 30
0.000000
  70
    32
  0
VERTEX
  8
LAYER0003
  5
C4B
 10
-199.390
 20
-163.834
 30
0.000000
  70
    32
  0
VERTEX
  8
LAYER0003
  5
C4C
 10
-199.412
 20
-163.823
 30
0.000000
  70
    32
  0
VERTEX
  8
LAYER0003
  5
C4D
 10
-199.433
 20
-163.811
 30
0.000000
  70
    32
  0
VERTEX
  8
LAYER0003
  5
C4E
 10
-199.455
 20
-163.800
 30
0.000000
  70
    32
  0
VERTEX
  8
LAYER0003
  5
C4F
 10
-199.477
 20
-163.790
 30
0.000000
  70
    32
  0
VERTEX
  8
LAYER0003
  5
C50
 10
-199.500
 20
-163.780
 30
0.000000
  70
    32
  0
VERTEX
  8
LAYER0003
  5
C51
 10
-199.522
 20
-163.769
 30
0.000000
  70
    32
  0
VERTEX
  8
LAYER0003
  5
C52
 10
-199.545
 20
-163.760
 30
0.000000
  70
    32
  0
VERTEX
  8
LAYER0003
  5
C53
 10
-199.567
 20
-163.750
 30
0.000000
  70
    32
  0
VERTEX
  8
LAYER0003
  5
C54
 10
-199.590
 20
-163.741
 30
0.000000
  70
    32
  0
VERTEX
  8
LAYER0003
  5
C55
 10
-199.613
 20
-163.732
 30
0.000000
  70
    32
  0
VERTEX
  8
LAYER0003
  5
C56
 10
-199.636
 20
-163.723
 30
0.000000
  70
    32
  0
VERTEX
  8
LAYER0003
  5
C57
 10
-199.659
 20
-163.715
 30
0.000000
  70
    32
  0
VERTEX
  8
LAYER0003
  5
C58
 10
-199.682
 20
-163.707
 30
0.000000
  70
    32
  0
VERTEX
  8
LAYER0003
  5
C59
 10
-199.705
 20
-163.699
 30
0.000000
  70
    32
  0
VERTEX
  8
LAYER0003
  5
C5A
 10
-199.729
 20
-163.691
 30
0.000000
  70
    32
  0
VERTEX
  8
LAYER0003
  5
C5B
 10
-199.752
 20
-163.684
 30
0.000000
  70
    32
  0
VERTEX
  8
LAYER0003
  5
C5C
 10
-199.776
 20
-163.677
 30
0.000000
  70
    32
  0
VERTEX
  8
LAYER0003
  5
C5D
 10
-199.799
 20
-163.670
 30
0.000000
  70
    32
  0
VERTEX
  8
LAYER0003
  5
C5E
 10
-199.823
 20
-163.664
 30
0.000000
  70
    32
  0
VERTEX
  8
LAYER0003
  5
C5F
 10
-199.847
 20
-163.658
 30
0.000000
  70
    32
  0
VERTEX
  8
LAYER0003
  5
C60
 10
-199.870
 20
-163.652
 30
0.000000
  70
    32
  0
VERTEX
  8
LAYER0003
  5
C61
 10
-199.894
 20
-163.646
 30
0.000000
  70
    32
  0
VERTEX
  8
LAYER0003
  5
C62
 10
-199.918
 20
-163.641
 30
0.000000
  70
    32
  0
VERTEX
  8
LAYER0003
  5
C63
 10
-199.942
 20
-163.636
 30
0.000000
  70
    32
  0
VERTEX
  8
LAYER0003
  5
C64
 10
-199.966
 20
-163.632
 30
0.000000
  70
    32
  0
VERTEX
  8
LAYER0003
  5
C65
 10
-199.991
 20
-163.627
 30
0.000000
  70
    32
  0
VERTEX
  8
LAYER0003
  5
C66
 10
-200.015
 20
-163.623
 30
0.000000
  70
    32
  0
VERTEX
  8
LAYER0003
  5
C67
 10
-200.039
 20
-163.620
 30
0.000000
  70
    32
  0
VERTEX
  8
LAYER0003
  5
C68
 10
-200.063
 20
-163.616
 30
0.000000
  70
    32
  0
VERTEX
  8
LAYER0003
  5
C69
 10
-200.088
 20
-163.613
 30
0.000000
  70
    32
  0
VERTEX
  8
LAYER0003
  5
C6A
 10
-200.112
 20
-163.610
 30
0.000000
  70
    32
  0
VERTEX
  8
LAYER0003
  5
C6B
 10
-200.136
 20
-163.608
 30
0.000000
  70
    32
  0
VERTEX
  8
LAYER0003
  5
C6C
 10
-200.161
 20
-163.605
 30
0.000000
  70
    32
  0
VERTEX
  8
LAYER0003
  5
C6D
 10
-200.185
 20
-163.603
 30
0.000000
  70
    32
  0
VERTEX
  8
LAYER0003
  5
C6E
 10
-200.210
 20
-163.602
 30
0.000000
  70
    32
  0
VERTEX
  8
LAYER0003
  5
C6F
 10
-200.234
 20
-163.600
 30
0.000000
  70
    32
  0
VERTEX
  8
LAYER0003
  5
C70
 10
-200.259
 20
-163.599
 30
0.000000
  70
    32
  0
VERTEX
  8
LAYER0003
  5
C71
 10
-200.283
 20
-163.598
 30
0.000000
  70
    32
  0
VERTEX
  8
LAYER0003
  5
C72
 10
-200.308
 20
-163.598
 30
0.000000
  70
    32
  0
VERTEX
  8
LAYER0003
  5
C73
 10
-200.333
 20
-163.598
 30
0.000000
  70
    32
  0
SEQEND
  8
LAYER0003
  5
C74
  0
POLYLINE
  5
3EA
  8
LAYER0003
  6
CONTINUOUS
 62
     7
 10
-200.33252316434303
 20
-307.5978886962059846
 30
0.0
 66
     1
 70
     8
  0
VERTEX
  8
LAYER0003
  5
C75
 10
-200.333
 20
-307.598
 30
0.000000
  70
    32
  0
VERTEX
  8
LAYER0003
  5
C76
 10
-200.308
 20
-307.598
 30
0.000000
  70
    32
  0
VERTEX
  8
LAYER0003
  5
C77
 10
-200.283
 20
-307.597
 30
0.000000
  70
    32
  0
VERTEX
  8
LAYER0003
  5
C78
 10
-200.259
 20
-307.597
 30
0.000000
  70
    32
  0
VERTEX
  8
LAYER0003
  5
C79
 10
-200.234
 20
-307.595
 30
0.000000
  70
    32
  0
VERTEX
  8
LAYER0003
  5
C7A
 10
-200.210
 20
-307.594
 30
0.000000
  70
    32
  0
VERTEX
  8
LAYER0003
  5
C7B
 10
-200.185
 20
-307.592
 30
0.000000
  70
    32
  0
VERTEX
  8
LAYER0003
  5
C7C
 10
-200.161
 20
-307.591
 30
0.000000
  70
    32
  0
VERTEX
  8
LAYER0003
  5
C7D
 10
-200.136
 20
-307.588
 30
0.000000
  70
    32
  0
VERTEX
  8
LAYER0003
  5
C7E
 10
-200.112
 20
-307.586
 30
0.000000
  70
    32
  0
VERTEX
  8
LAYER0003
  5
C7F
 10
-200.088
 20
-307.583
 30
0.000000
  70
    32
  0
VERTEX
  8
LAYER0003
  5
C80
 10
-200.063
 20
-307.580
 30
0.000000
  70
    32
  0
VERTEX
  8
LAYER0003
  5
C81
 10
-200.039
 20
-307.576
 30
0.000000
  70
    32
  0
VERTEX
  8
LAYER0003
  5
C82
 10
-200.015
 20
-307.572
 30
0.000000
  70
    32
  0
VERTEX
  8
LAYER0003
  5
C83
 10
-199.991
 20
-307.568
 30
0.000000
  70
    32
  0
VERTEX
  8
LAYER0003
  5
C84
 10
-199.966
 20
-307.564
 30
0.000000
  70
    32
  0
VERTEX
  8
LAYER0003
  5
C85
 10
-199.942
 20
-307.559
 30
0.000000
  70
    32
  0
VERTEX
  8
LAYER0003
  5
C86
 10
-199.918
 20
-307.555
 30
0.000000
  70
    32
  0
VERTEX
  8
LAYER0003
  5
C87
 10
-199.894
 20
-307.549
 30
0.000000
  70
    32
  0
VERTEX
  8
LAYER0003
  5
C88
 10
-199.870
 20
-307.544
 30
0.000000
  70
    32
  0
VERTEX
  8
LAYER0003
  5
C89
 10
-199.847
 20
-307.538
 30
0.000000
  70
    32
  0
VERTEX
  8
LAYER0003
  5
C8A
 10
-199.823
 20
-307.532
 30
0.000000
  70
    32
  0
VERTEX
  8
LAYER0003
  5
C8B
 10
-199.799
 20
-307.525
 30
0.000000
  70
    32
  0
VERTEX
  8
LAYER0003
  5
C8C
 10
-199.776
 20
-307.519
 30
0.000000
  70
    32
  0
VERTEX
  8
LAYER0003
  5
C8D
 10
-199.752
 20
-307.512
 30
0.000000
  70
    32
  0
VERTEX
  8
LAYER0003
  5
C8E
 10
-199.729
 20
-307.505
 30
0.000000
  70
    32
  0
VERTEX
  8
LAYER0003
  5
C8F
 10
-199.705
 20
-307.497
 30
0.000000
  70
    32
  0
VERTEX
  8
LAYER0003
  5
C90
 10
-199.682
 20
-307.489
 30
0.000000
  70
    32
  0
VERTEX
  8
LAYER0003
  5
C91
 10
-199.659
 20
-307.481
 30
0.000000
  70
    32
  0
VERTEX
  8
LAYER0003
  5
C92
 10
-199.636
 20
-307.473
 30
0.000000
  70
    32
  0
VERTEX
  8
LAYER0003
  5
C93
 10
-199.613
 20
-307.464
 30
0.000000
  70
    32
  0
VERTEX
  8
LAYER0003
  5
C94
 10
-199.590
 20
-307.455
 30
0.000000
  70
    32
  0
VERTEX
  8
LAYER0003
  5
C95
 10
-199.567
 20
-307.446
 30
0.000000
  70
    32
  0
VERTEX
  8
LAYER0003
  5
C96
 10
-199.545
 20
-307.436
 30
0.000000
  70
    32
  0
VERTEX
  8
LAYER0003
  5
C97
 10
-199.522
 20
-307.426
 30
0.000000
  70
    32
  0
VERTEX
  8
LAYER0003
  5
C98
 10
-199.500
 20
-307.416
 30
0.000000
  70
    32
  0
VERTEX
  8
LAYER0003
  5
C99
 10
-199.477
 20
-307.406
 30
0.000000
  70
    32
  0
VERTEX
  8
LAYER0003
  5
C9A
 10
-199.455
 20
-307.395
 30
0.000000
  70
    32
  0
VERTEX
  8
LAYER0003
  5
C9B
 10
-199.433
 20
-307.384
 30
0.000000
  70
    32
  0
VERTEX
  8
LAYER0003
  5
C9C
 10
-199.412
 20
-307.373
 30
0.000000
  70
    32
  0
VERTEX
  8
LAYER0003
  5
C9D
 10
-199.390
 20
-307.362
 30
0.000000
  70
    32
  0
VERTEX
  8
LAYER0003
  5
C9E
 10
-199.368
 20
-307.350
 30
0.000000
  70
    32
  0
VERTEX
  8
LAYER0003
  5
C9F
 10
-199.347
 20
-307.338
 30
0.000000
  70
    32
  0
VERTEX
  8
LAYER0003
  5
CA0
 10
-199.326
 20
-307.326
 30
0.000000
  70
    32
  0
VERTEX
  8
LAYER0003
  5
CA1
 10
-199.304
 20
-307.313
 30
0.000000
  70
    32
  0
VERTEX
  8
LAYER0003
  5
CA2
 10
-199.283
 20
-307.301
 30
0.000000
  70
    32
  0
VERTEX
  8
LAYER0003
  5
CA3
 10
-199.263
 20
-307.288
 30
0.000000
  70
    32
  0
VERTEX
  8
LAYER0003
  5
CA4
 10
-199.242
 20
-307.274
 30
0.000000
  70
    32
  0
VERTEX
  8
LAYER0003
  5
CA5
 10
-199.222
 20
-307.261
 30
0.000000
  70
    32
  0
VERTEX
  8
LAYER0003
  5
CA6
 10
-199.201
 20
-307.247
 30
0.000000
  70
    32
  0
VERTEX
  8
LAYER0003
  5
CA7
 10
-199.181
 20
-307.233
 30
0.000000
  70
    32
  0
VERTEX
  8
LAYER0003
  5
CA8
 10
-199.161
 20
-307.219
 30
0.000000
  70
    32
  0
VERTEX
  8
LAYER0003
  5
CA9
 10
-199.141
 20
-307.204
 30
0.000000
  70
    32
  0
VERTEX
  8
LAYER0003
  5
CAA
 10
-199.122
 20
-307.190
 30
0.000000
  70
    32
  0
VERTEX
  8
LAYER0003
  5
CAB
 10
-199.102
 20
-307.175
 30
0.000000
  70
    32
  0
VERTEX
  8
LAYER0003
  5
CAC
 10
-199.083
 20
-307.159
 30
0.000000
  70
    32
  0
VERTEX
  8
LAYER0003
  5
CAD
 10
-199.064
 20
-307.144
 30
0.000000
  70
    32
  0
VERTEX
  8
LAYER0003
  5
CAE
 10
-199.045
 20
-307.128
 30
0.000000
  70
    32
  0
VERTEX
  8
LAYER0003
  5
CAF
 10
-199.026
 20
-307.112
 30
0.000000
  70
    32
  0
VERTEX
  8
LAYER0003
  5
CB0
 10
-199.008
 20
-307.096
 30
0.000000
  70
    32
  0
VERTEX
  8
LAYER0003
  5
CB1
 10
-198.990
 20
-307.080
 30
0.000000
  70
    32
  0
VERTEX
  8
LAYER0003
  5
CB2
 10
-198.971
 20
-307.063
 30
0.000000
  70
    32
  0
VERTEX
  8
LAYER0003
  5
CB3
 10
-198.954
 20
-307.047
 30
0.000000
  70
    32
  0
VERTEX
  8
LAYER0003
  5
CB4
 10
-198.936
 20
-307.029
 30
0.000000
  70
    32
  0
VERTEX
  8
LAYER0003
  5
CB5
 10
-198.918
 20
-307.012
 30
0.000000
  70
    32
  0
VERTEX
  8
LAYER0003
  5
CB6
 10
-198.901
 20
-306.995
 30
0.000000
  70
    32
  0
VERTEX
  8
LAYER0003
  5
CB7
 10
-198.884
 20
-306.977
 30
0.000000
  70
    32
  0
VERTEX
  8
LAYER0003
  5
CB8
 10
-198.867
 20
-306.959
 30
0.000000
  70
    32
  0
VERTEX
  8
LAYER0003
  5
CB9
 10
-198.851
 20
-306.941
 30
0.000000
  70
    32
  0
VERTEX
  8
LAYER0003
  5
CBA
 10
-198.834
 20
-306.923
 30
0.000000
  70
    32
  0
VERTEX
  8
LAYER0003
  5
CBB
 10
-198.818
 20
-306.904
 30
0.000000
  70
    32
  0
VERTEX
  8
LAYER0003
  5
CBC
 10
-198.802
 20
-306.886
 30
0.000000
  70
    32
  0
VERTEX
  8
LAYER0003
  5
CBD
 10
-198.787
 20
-306.867
 30
0.000000
  70
    32
  0
VERTEX
  8
LAYER0003
  5
CBE
 10
-198.771
 20
-306.848
 30
0.000000
  70
    32
  0
VERTEX
  8
LAYER0003
  5
CBF
 10
-198.756
 20
-306.829
 30
0.000000
  70
    32
  0
VERTEX
  8
LAYER0003
  5
CC0
 10
-198.741
 20
-306.809
 30
0.000000
  70
    32
  0
VERTEX
  8
LAYER0003
  5
CC1
 10
-198.726
 20
-306.789
 30
0.000000
  70
    32
  0
VERTEX
  8
LAYER0003
  5
CC2
 10
-198.712
 20
-306.770
 30
0.000000
  70
    32
  0
VERTEX
  8
LAYER0003
  5
CC3
 10
-198.698
 20
-306.750
 30
0.000000
  70
    32
  0
VERTEX
  8
LAYER0003
  5
CC4
 10
-198.684
 20
-306.730
 30
0.000000
  70
    32
  0
VERTEX
  8
LAYER0003
  5
CC5
 10
-198.670
 20
-306.709
 30
0.000000
  70
    32
  0
VERTEX
  8
LAYER0003
  5
CC6
 10
-198.656
 20
-306.689
 30
0.000000
  70
    32
  0
VERTEX
  8
LAYER0003
  5
CC7
 10
-198.643
 20
-306.668
 30
0.000000
  70
    32
  0
VERTEX
  8
LAYER0003
  5
CC8
 10
-198.630
 20
-306.647
 30
0.000000
  70
    32
  0
VERTEX
  8
LAYER0003
  5
CC9
 10
-198.617
 20
-306.626
 30
0.000000
  70
    32
  0
VERTEX
  8
LAYER0003
  5
CCA
 10
-198.605
 20
-306.605
 30
0.000000
  70
    32
  0
VERTEX
  8
LAYER0003
  5
CCB
 10
-198.593
 20
-306.584
 30
0.000000
  70
    32
  0
VERTEX
  8
LAYER0003
  5
CCC
 10
-198.581
 20
-306.562
 30
0.000000
  70
    32
  0
VERTEX
  8
LAYER0003
  5
CCD
 10
-198.569
 20
-306.541
 30
0.000000
  70
    32
  0
VERTEX
  8
LAYER0003
  5
CCE
 10
-198.557
 20
-306.519
 30
0.000000
  70
    32
  0
VERTEX
  8
LAYER0003
  5
CCF
 10
-198.546
 20
-306.497
 30
0.000000
  70
    32
  0
VERTEX
  8
LAYER0003
  5
CD0
 10
-198.535
 20
-306.475
 30
0.000000
  70
    32
  0
VERTEX
  8
LAYER0003
  5
CD1
 10
-198.525
 20
-306.453
 30
0.000000
  70
    32
  0
VERTEX
  8
LAYER0003
  5
CD2
 10
-198.514
 20
-306.431
 30
0.000000
  70
    32
  0
VERTEX
  8
LAYER0003
  5
CD3
 10
-198.504
 20
-306.409
 30
0.000000
  70
    32
  0
VERTEX
  8
LAYER0003
  5
CD4
 10
-198.495
 20
-306.386
 30
0.000000
  70
    32
  0
VERTEX
  8
LAYER0003
  5
CD5
 10
-198.485
 20
-306.363
 30
0.000000
  70
    32
  0
VERTEX
  8
LAYER0003
  5
CD6
 10
-198.476
 20
-306.341
 30
0.000000
  70
    32
  0
VERTEX
  8
LAYER0003
  5
CD7
 10
-198.467
 20
-306.318
 30
0.000000
  70
    32
  0
VERTEX
  8
LAYER0003
  5
CD8
 10
-198.458
 20
-306.295
 30
0.000000
  70
    32
  0
VERTEX
  8
LAYER0003
  5
CD9
 10
-198.450
 20
-306.272
 30
0.000000
  70
    32
  0
VERTEX
  8
LAYER0003
  5
CDA
 10
-198.442
 20
-306.249
 30
0.000000
  70
    32
  0
VERTEX
  8
LAYER0003
  5
CDB
 10
-198.434
 20
-306.226
 30
0.000000
  70
    32
  0
VERTEX
  8
LAYER0003
  5
CDC
 10
-198.426
 20
-306.202
 30
0.000000
  70
    32
  0
VERTEX
  8
LAYER0003
  5
CDD
 10
-198.419
 20
-306.179
 30
0.000000
  70
    32
  0
VERTEX
  8
LAYER0003
  5
CDE
 10
-198.412
 20
-306.155
 30
0.000000
  70
    32
  0
VERTEX
  8
LAYER0003
  5
CDF
 10
-198.405
 20
-306.132
 30
0.000000
  70
    32
  0
VERTEX
  8
LAYER0003
  5
CE0
 10
-198.399
 20
-306.108
 30
0.000000
  70
    32
  0
VERTEX
  8
LAYER0003
  5
CE1
 10
-198.393
 20
-306.084
 30
0.000000
  70
    32
  0
VERTEX
  8
LAYER0003
  5
CE2
 10
-198.387
 20
-306.060
 30
0.000000
  70
    32
  0
VERTEX
  8
LAYER0003
  5
CE3
 10
-198.381
 20
-306.036
 30
0.000000
  70
    32
  0
VERTEX
  8
LAYER0003
  5
CE4
 10
-198.376
 20
-306.012
 30
0.000000
  70
    32
  0
VERTEX
  8
LAYER0003
  5
CE5
 10
-198.371
 20
-305.988
 30
0.000000
  70
    32
  0
VERTEX
  8
LAYER0003
  5
CE6
 10
-198.367
 20
-305.964
 30
0.000000
  70
    32
  0
VERTEX
  8
LAYER0003
  5
CE7
 10
-198.362
 20
-305.940
 30
0.000000
  70
    32
  0
VERTEX
  8
LAYER0003
  5
CE8
 10
-198.358
 20
-305.916
 30
0.000000
  70
    32
  0
VERTEX
  8
LAYER0003
  5
CE9
 10
-198.354
 20
-305.892
 30
0.000000
  70
    32
  0
VERTEX
  8
LAYER0003
  5
CEA
 10
-198.351
 20
-305.867
 30
0.000000
  70
    32
  0
VERTEX
  8
LAYER0003
  5
CEB
 10
-198.348
 20
-305.843
 30
0.000000
  70
    32
  0
VERTEX
  8
LAYER0003
  5
CEC
 10
-198.345
 20
-305.819
 30
0.000000
  70
    32
  0
VERTEX
  8
LAYER0003
  5
CED
 10
-198.342
 20
-305.794
 30
0.000000
  70
    32
  0
VERTEX
  8
LAYER0003
  5
CEE
 10
-198.340
 20
-305.770
 30
0.000000
  70
    32
  0
VERTEX
  8
LAYER0003
  5
CEF
 10
-198.338
 20
-305.745
 30
0.000000
  70
    32
  0
VERTEX
  8
LAYER0003
  5
CF0
 10
-198.337
 20
-305.721
 30
0.000000
  70
    32
  0
VERTEX
  8
LAYER0003
  5
CF1
 10
-198.335
 20
-305.696
 30
0.000000
  70
    32
  0
VERTEX
  8
LAYER0003
  5
CF2
 10
-198.334
 20
-305.672
 30
0.000000
  70
    32
  0
VERTEX
  8
LAYER0003
  5
CF3
 10
-198.333
 20
-305.647
 30
0.000000
  70
    32
  0
VERTEX
  8
LAYER0003
  5
CF4
 10
-198.333
 20
-305.623
 30
0.000000
  70
    32
  0
VERTEX
  8
LAYER0003
  5
CF5
 10
-198.333
 20
-305.598
 30
0.000000
  70
    32
  0
SEQEND
  8
LAYER0003
  5
CF6
  0
POLYLINE
  5
3EB
  8
LAYER0003
  6
CONTINUOUS
 62
     7
 10
-270.3328277762059884
 20
-305.598193320001883
 30
0.0
 66
     1
 70
     8
  0
VERTEX
  8
LAYER0003
  5
CF7
 10
-270.333
 20
-305.598
 30
0.000000
  70
    32
  0
VERTEX
  8
LAYER0003
  5
CF8
 10
-270.333
 20
-305.623
 30
0.000000
  70
    32
  0
VERTEX
  8
LAYER0003
  5
CF9
 10
-270.332
 20
-305.647
 30
0.000000
  70
    32
  0
VERTEX
  8
LAYER0003
  5
CFA
 10
-270.331
 20
-305.672
 30
0.000000
  70
    32
  0
VERTEX
  8
LAYER0003
  5
CFB
 10
-270.330
 20
-305.696
 30
0.000000
  70
    32
  0
VERTEX
  8
LAYER0003
  5
CFC
 10
-270.329
 20
-305.721
 30
0.000000
  70
    32
  0
VERTEX
  8
LAYER0003
  5
CFD
 10
-270.327
 20
-305.745
 30
0.000000
  70
    32
  0
VERTEX
  8
LAYER0003
  5
CFE
 10
-270.325
 20
-305.770
 30
0.000000
  70
    32
  0
VERTEX
  8
LAYER0003
  5
CFF
 10
-270.323
 20
-305.794
 30
0.000000
  70
    32
  0
VERTEX
  8
LAYER0003
  5
D00
 10
-270.321
 20
-305.819
 30
0.000000
  70
    32
  0
VERTEX
  8
LAYER0003
  5
D01
 10
-270.318
 20
-305.843
 30
0.000000
  70
    32
  0
VERTEX
  8
LAYER0003
  5
D02
 10
-270.315
 20
-305.867
 30
0.000000
  70
    32
  0
VERTEX
  8
LAYER0003
  5
D03
 10
-270.311
 20
-305.892
 30
0.000000
  70
    32
  0
VERTEX
  8
LAYER0003
  5
D04
 10
-270.307
 20
-305.916
 30
0.000000
  70
    32
  0
VERTEX
  8
LAYER0003
  5
D05
 10
-270.303
 20
-305.940
 30
0.000000
  70
    32
  0
VERTEX
  8
LAYER0003
  5
D06
 10
-270.299
 20
-305.964
 30
0.000000
  70
    32
  0
VERTEX
  8
LAYER0003
  5
D07
 10
-270.294
 20
-305.988
 30
0.000000
  70
    32
  0
VERTEX
  8
LAYER0003
  5
D08
 10
-270.289
 20
-306.012
 30
0.000000
  70
    32
  0
VERTEX
  8
LAYER0003
  5
D09
 10
-270.284
 20
-306.036
 30
0.000000
  70
    32
  0
VERTEX
  8
LAYER0003
  5
D0A
 10
-270.279
 20
-306.060
 30
0.000000
  70
    32
  0
VERTEX
  8
LAYER0003
  5
D0B
 10
-270.273
 20
-306.084
 30
0.000000
  70
    32
  0
VERTEX
  8
LAYER0003
  5
D0C
 10
-270.267
 20
-306.108
 30
0.000000
  70
    32
  0
VERTEX
  8
LAYER0003
  5
D0D
 10
-270.260
 20
-306.132
 30
0.000000
  70
    32
  0
VERTEX
  8
LAYER0003
  5
D0E
 10
-270.254
 20
-306.155
 30
0.000000
  70
    32
  0
VERTEX
  8
LAYER0003
  5
D0F
 10
-270.247
 20
-306.179
 30
0.000000
  70
    32
  0
VERTEX
  8
LAYER0003
  5
D10
 10
-270.239
 20
-306.202
 30
0.000000
  70
    32
  0
VERTEX
  8
LAYER0003
  5
D11
 10
-270.232
 20
-306.226
 30
0.000000
  70
    32
  0
VERTEX
  8
LAYER0003
  5
D12
 10
-270.224
 20
-306.249
 30
0.000000
  70
    32
  0
VERTEX
  8
LAYER0003
  5
D13
 10
-270.216
 20
-306.272
 30
0.000000
  70
    32
  0
VERTEX
  8
LAYER0003
  5
D14
 10
-270.208
 20
-306.295
 30
0.000000
  70
    32
  0
VERTEX
  8
LAYER0003
  5
D15
 10
-270.199
 20
-306.318
 30
0.000000
  70
    32
  0
VERTEX
  8
LAYER0003
  5
D16
 10
-270.190
 20
-306.341
 30
0.000000
  70
    32
  0
VERTEX
  8
LAYER0003
  5
D17
 10
-270.181
 20
-306.363
 30
0.000000
  70
    32
  0
VERTEX
  8
LAYER0003
  5
D18
 10
-270.171
 20
-306.386
 30
0.000000
  70
    32
  0
VERTEX
  8
LAYER0003
  5
D19
 10
-270.161
 20
-306.409
 30
0.000000
  70
    32
  0
VERTEX
  8
LAYER0003
  5
D1A
 10
-270.151
 20
-306.431
 30
0.000000
  70
    32
  0
VERTEX
  8
LAYER0003
  5
D1B
 10
-270.141
 20
-306.453
 30
0.000000
  70
    32
  0
VERTEX
  8
LAYER0003
  5
D1C
 10
-270.130
 20
-306.475
 30
0.000000
  70
    32
  0
VERTEX
  8
LAYER0003
  5
D1D
 10
-270.119
 20
-306.497
 30
0.000000
  70
    32
  0
VERTEX
  8
LAYER0003
  5
D1E
 10
-270.108
 20
-306.519
 30
0.000000
  70
    32
  0
VERTEX
  8
LAYER0003
  5
D1F
 10
-270.097
 20
-306.541
 30
0.000000
  70
    32
  0
VERTEX
  8
LAYER0003
  5
D20
 10
-270.085
 20
-306.562
 30
0.000000
  70
    32
  0
VERTEX
  8
LAYER0003
  5
D21
 10
-270.073
 20
-306.584
 30
0.000000
  70
    32
  0
VERTEX
  8
LAYER0003
  5
D22
 10
-270.061
 20
-306.605
 30
0.000000
  70
    32
  0
VERTEX
  8
LAYER0003
  5
D23
 10
-270.048
 20
-306.626
 30
0.000000
  70
    32
  0
VERTEX
  8
LAYER0003
  5
D24
 10
-270.036
 20
-306.647
 30
0.000000
  70
    32
  0
VERTEX
  8
LAYER0003
  5
D25
 10
-270.023
 20
-306.668
 30
0.000000
  70
    32
  0
VERTEX
  8
LAYER0003
  5
D26
 10
-270.009
 20
-306.689
 30
0.000000
  70
    32
  0
VERTEX
  8
LAYER0003
  5
D27
 10
-269.996
 20
-306.709
 30
0.000000
  70
    32
  0
VERTEX
  8
LAYER0003
  5
D28
 10
-269.982
 20
-306.730
 30
0.000000
  70
    32
  0
VERTEX
  8
LAYER0003
  5
D29
 10
-269.968
 20
-306.750
 30
0.000000
  70
    32
  0
VERTEX
  8
LAYER0003
  5
D2A
 10
-269.954
 20
-306.770
 30
0.000000
  70
    32
  0
VERTEX
  8
LAYER0003
  5
D2B
 10
-269.939
 20
-306.789
 30
0.000000
  70
    32
  0
VERTEX
  8
LAYER0003
  5
D2C
 10
-269.925
 20
-306.809
 30
0.000000
  70
    32
  0
VERTEX
  8
LAYER0003
  5
D2D
 10
-269.910
 20
-306.829
 30
0.000000
  70
    32
  0
VERTEX
  8
LAYER0003
  5
D2E
 10
-269.894
 20
-306.848
 30
0.000000
  70
    32
  0
VERTEX
  8
LAYER0003
  5
D2F
 10
-269.879
 20
-306.867
 30
0.000000
  70
    32
  0
VERTEX
  8
LAYER0003
  5
D30
 10
-269.863
 20
-306.886
 30
0.000000
  70
    32
  0
VERTEX
  8
LAYER0003
  5
D31
 10
-269.847
 20
-306.904
 30
0.000000
  70
    32
  0
VERTEX
  8
LAYER0003
  5
D32
 10
-269.831
 20
-306.923
 30
0.000000
  70
    32
  0
VERTEX
  8
LAYER0003
  5
D33
 10
-269.815
 20
-306.941
 30
0.000000
  70
    32
  0
VERTEX
  8
LAYER0003
  5
D34
 10
-269.798
 20
-306.959
 30
0.000000
  70
    32
  0
VERTEX
  8
LAYER0003
  5
D35
 10
-269.781
 20
-306.977
 30
0.000000
  70
    32
  0
VERTEX
  8
LAYER0003
  5
D36
 10
-269.764
 20
-306.995
 30
0.000000
  70
    32
  0
VERTEX
  8
LAYER0003
  5
D37
 10
-269.747
 20
-307.012
 30
0.000000
  70
    32
  0
VERTEX
  8
LAYER0003
  5
D38
 10
-269.730
 20
-307.029
 30
0.000000
  70
    32
  0
VERTEX
  8
LAYER0003
  5
D39
 10
-269.712
 20
-307.047
 30
0.000000
  70
    32
  0
VERTEX
  8
LAYER0003
  5
D3A
 10
-269.694
 20
-307.063
 30
0.000000
  70
    32
  0
VERTEX
  8
LAYER0003
  5
D3B
 10
-269.676
 20
-307.080
 30
0.000000
  70
    32
  0
VERTEX
  8
LAYER0003
  5
D3C
 10
-269.658
 20
-307.096
 30
0.000000
  70
    32
  0
VERTEX
  8
LAYER0003
  5
D3D
 10
-269.639
 20
-307.112
 30
0.000000
  70
    32
  0
VERTEX
  8
LAYER0003
  5
D3E
 10
-269.621
 20
-307.128
 30
0.000000
  70
    32
  0
VERTEX
  8
LAYER0003
  5
D3F
 10
-269.602
 20
-307.144
 30
0.000000
  70
    32
  0
VERTEX
  8
LAYER0003
  5
D40
 10
-269.583
 20
-307.159
 30
0.000000
  70
    32
  0
VERTEX
  8
LAYER0003
  5
D41
 10
-269.563
 20
-307.175
 30
0.000000
  70
    32
  0
VERTEX
  8
LAYER0003
  5
D42
 10
-269.544
 20
-307.190
 30
0.000000
  70
    32
  0
VERTEX
  8
LAYER0003
  5
D43
 10
-269.524
 20
-307.204
 30
0.000000
  70
    32
  0
VERTEX
  8
LAYER0003
  5
D44
 10
-269.505
 20
-307.219
 30
0.000000
  70
    32
  0
VERTEX
  8
LAYER0003
  5
D45
 10
-269.485
 20
-307.233
 30
0.000000
  70
    32
  0
VERTEX
  8
LAYER0003
  5
D46
 10
-269.464
 20
-307.247
 30
0.000000
  70
    32
  0
VERTEX
  8
LAYER0003
  5
D47
 10
-269.444
 20
-307.261
 30
0.000000
  70
    32
  0
VERTEX
  8
LAYER0003
  5
D48
 10
-269.424
 20
-307.274
 30
0.000000
  70
    32
  0
VERTEX
  8
LAYER0003
  5
D49
 10
-269.403
 20
-307.288
 30
0.000000
  70
    32
  0
VERTEX
  8
LAYER0003
  5
D4A
 10
-269.382
 20
-307.301
 30
0.000000
  70
    32
  0
VERTEX
  8
LAYER0003
  5
D4B
 10
-269.361
 20
-307.313
 30
0.000000
  70
    32
  0
VERTEX
  8
LAYER0003
  5
D4C
 10
-269.340
 20
-307.326
 30
0.000000
  70
    32
  0
VERTEX
  8
LAYER0003
  5
D4D
 10
-269.319
 20
-307.338
 30
0.000000
  70
    32
  0
VERTEX
  8
LAYER0003
  5
D4E
 10
-269.297
 20
-307.350
 30
0.000000
  70
    32
  0
VERTEX
  8
LAYER0003
  5
D4F
 10
-269.276
 20
-307.362
 30
0.000000
  70
    32
  0
VERTEX
  8
LAYER0003
  5
D50
 10
-269.254
 20
-307.373
 30
0.000000
  70
    32
  0
VERTEX
  8
LAYER0003
  5
D51
 10
-269.232
 20
-307.384
 30
0.000000
  70
    32
  0
VERTEX
  8
LAYER0003
  5
D52
 10
-269.210
 20
-307.395
 30
0.000000
  70
    32
  0
VERTEX
  8
LAYER0003
  5
D53
 10
-269.188
 20
-307.406
 30
0.000000
  70
    32
  0
VERTEX
  8
LAYER0003
  5
D54
 10
-269.166
 20
-307.416
 30
0.000000
  70
    32
  0
VERTEX
  8
LAYER0003
  5
D55
 10
-269.144
 20
-307.426
 30
0.000000
  70
    32
  0
VERTEX
  8
LAYER0003
  5
D56
 10
-269.121
 20
-307.436
 30
0.000000
  70
    32
  0
VERTEX
  8
LAYER0003
  5
D57
 10
-269.098
 20
-307.446
 30
0.000000
  70
    32
  0
VERTEX
  8
LAYER0003
  5
D58
 10
-269.076
 20
-307.455
 30
0.000000
  70
    32
  0
VERTEX
  8
LAYER0003
  5
D59
 10
-269.053
 20
-307.464
 30
0.000000
  70
    32
  0
VERTEX
  8
LAYER0003
  5
D5A
 10
-269.030
 20
-307.473
 30
0.000000
  70
    32
  0
VERTEX
  8
LAYER0003
  5
D5B
 10
-269.007
 20
-307.481
 30
0.000000
  70
    32
  0
VERTEX
  8
LAYER0003
  5
D5C
 10
-268.984
 20
-307.489
 30
0.000000
  70
    32
  0
VERTEX
  8
LAYER0003
  5
D5D
 10
-268.960
 20
-307.497
 30
0.000000
  70
    32
  0
VERTEX
  8
LAYER0003
  5
D5E
 10
-268.937
 20
-307.505
 30
0.000000
  70
    32
  0
VERTEX
  8
LAYER0003
  5
D5F
 10
-268.914
 20
-307.512
 30
0.000000
  70
    32
  0
VERTEX
  8
LAYER0003
  5
D60
 10
-268.890
 20
-307.519
 30
0.000000
  70
    32
  0
VERTEX
  8
LAYER0003
  5
D61
 10
-268.867
 20
-307.525
 30
0.000000
  70
    32
  0
VERTEX
  8
LAYER0003
  5
D62
 10
-268.843
 20
-307.532
 30
0.000000
  70
    32
  0
VERTEX
  8
LAYER0003
  5
D63
 10
-268.819
 20
-307.538
 30
0.000000
  70
    32
  0
VERTEX
  8
LAYER0003
  5
D64
 10
-268.795
 20
-307.544
 30
0.000000
  70
    32
  0
VERTEX
  8
LAYER0003
  5
D65
 10
-268.771
 20
-307.549
 30
0.000000
  70
    32
  0
VERTEX
  8
LAYER0003
  5
D66
 10
-268.747
 20
-307.555
 30
0.000000
  70
    32
  0
VERTEX
  8
LAYER0003
  5
D67
 10
-268.723
 20
-307.559
 30
0.000000
  70
    32
  0
VERTEX
  8
LAYER0003
  5
D68
 10
-268.699
 20
-307.564
 30
0.000000
  70
    32
  0
VERTEX
  8
LAYER0003
  5
D69
 10
-268.675
 20
-307.568
 30
0.000000
  70
    32
  0
VERTEX
  8
LAYER0003
  5
D6A
 10
-268.651
 20
-307.572
 30
0.000000
  70
    32
  0
VERTEX
  8
LAYER0003
  5
D6B
 10
-268.627
 20
-307.576
 30
0.000000
  70
    32
  0
VERTEX
  8
LAYER0003
  5
D6C
 10
-268.602
 20
-307.580
 30
0.000000
  70
    32
  0
VERTEX
  8
LAYER0003
  5
D6D
 10
-268.578
 20
-307.583
 30
0.000000
  70
    32
  0
VERTEX
  8
LAYER0003
  5
D6E
 10
-268.554
 20
-307.586
 30
0.000000
  70
    32
  0
VERTEX
  8
LAYER0003
  5
D6F
 10
-268.529
 20
-307.588
 30
0.000000
  70
    32
  0
VERTEX
  8
LAYER0003
  5
D70
 10
-268.505
 20
-307.591
 30
0.000000
  70
    32
  0
VERTEX
  8
LAYER0003
  5
D71
 10
-268.480
 20
-307.592
 30
0.000000
  70
    32
  0
VERTEX
  8
LAYER0003
  5
D72
 10
-268.456
 20
-307.594
 30
0.000000
  70
    32
  0
VERTEX
  8
LAYER0003
  5
D73
 10
-268.431
 20
-307.595
 30
0.000000
  70
    32
  0
VERTEX
  8
LAYER0003
  5
D74
 10
-268.407
 20
-307.597
 30
0.000000
  70
    32
  0
VERTEX
  8
LAYER0003
  5
D75
 10
-268.382
 20
-307.597
 30
0.000000
  70
    32
  0
VERTEX
  8
LAYER0003
  5
D76
 10
-268.358
 20
-307.598
 30
0.000000
  70
    32
  0
VERTEX
  8
LAYER0003
  5
D77
 10
-268.333
 20
-307.598
 30
0.000000
  70
    32
  0
SEQEND
  8
LAYER0003
  5
D78
  0
LINE
  5
3EC
  8
LAYER0003
  6
CENTERX2
 62
     7
 10
239.2791846899999939
 20
-235.5978886999999986
 30
0.0
 11
-118.0205127400000009
 21
-235.5978886999999986
 31
0.0
  0
LINE
  5
3ED
  8
LAYER0003
  6
CENTERX2
 62
     7
 10
230.5857613999999955
 20
-76.8637253100000066
 30
0.0
 11
-109.3270894500000026
 21
-76.8637253100000066
 31
0.0
  0
LINE
  5
3EE
  8
LAYER0003
  6
CENTERX2
 62
     7
 10
-234.3328277699999944
 20
-140.7092133699999863
 30
0.0
 11
-234.3328277699999944
 21
-323.0203340200000071
 31
0.0
  0
LINE
  5
3EF
  8
LAYER0003
  6
CENTERX2
 62
     7
 10
-277.8014546800000062
 20
-235.5978886999999986
 30
0.0
 11
-196.5825231599999938
 21
-235.5978886999999986
 31
0.0
  0
LINE
  5
3F0
  8
LAYER0003
  6
CENTERX2
 62
     7
 10
358.3420408900000211
 20
-161.8478887100000065
 30
0.0
 11
358.3420408900000211
 21
-314.743151140000009
 31
0.0
  0
LINE
  5
3F1
  8
LAYER0003
  6
CENTERX2
 62
     7
 10
399.7604910499999846
 20
-235.5978886999999986
 30
0.0
 11
320.5920408900000211
 21
-235.5978886999999986
 31
0.0
  0
LINE
  5
3F2
  8
LAYER0002
  6
CONTINUOUS
 62
     7
 10
337.992040999999972
 20
-184.5803886299999874
 30
0.0
 11
337.992040999999972
 21
-177.0803883400000132
 31
0.0
  0
LINE
  5
3F3
  8
LAYER0002
  6
CONTINUOUS
 62
     7
 10
330.4920416400000249
 20
-177.0803883400000132
 30
0.0
 11
330.4920416400000249
 21
-184.5803886299999874
 31
0.0
  0
LINE
  5
3F4
  8
LAYER0002
  6
CONTINUOUS
 62
     7
 10
337.992040999999972
 20
-177.0803883400000132
 30
0.0
 11
330.4920416400000249
 21
-177.0803883400000132
 31
0.0
  0
LINE
  5
3F5
  8
LAYER0002
  6
CONTINUOUS
 62
     7
 10
330.4920416400000249
 20
-184.5803886299999874
 30
0.0
 11
337.992040999999972
 21
-184.5803886299999874
 31
0.0
  0
LINE
  5
3F6
  8
LAYER0002
  6
CONTINUOUS
 62
     7
 10
337.992040999999972
 20
-194.1103886299999886
 30
0.0
 11
337.992040999999972
 21
-186.6103883399999859
 31
0.0
  0
LINE
  5
3F7
  8
LAYER0002
  6
CONTINUOUS
 62
     7
 10
330.4920416400000249
 20
-186.6103883399999859
 30
0.0
 11
330.4920416400000249
 21
-194.1103886299999886
 31
0.0
  0
LINE
  5
3F8
  8
LAYER0002
  6
CONTINUOUS
 62
     7
 10
337.992040999999972
 20
-186.6103883399999859
 30
0.0
 11
330.4920416400000249
 21
-186.6103883399999859
 31
0.0
  0
LINE
  5
3F9
  8
LAYER0002
  6
CONTINUOUS
 62
     7
 10
330.4920416400000249
 20
-194.1103886299999886
 30
0.0
 11
337.992040999999972
 21
-194.1103886299999886
 31
0.0
  0
LINE
  5
3FA
  8
LAYER0002
  6
CONTINUOUS
 62
     7
 10
337.992040999999972
 20
-203.6403886399999976
 30
0.0
 11
337.992040999999972
 21
-196.140388339999987
 31
0.0
  0
LINE
  5
3FB
  8
LAYER0002
  6
CONTINUOUS
 62
     7
 10
330.4920416400000249
 20
-196.140388339999987
 30
0.0
 11
330.4920416400000249
 21
-203.6403886399999976
 31
0.0
  0
LINE
  5
3FC
  8
LAYER0002
  6
CONTINUOUS
 62
     7
 10
337.992040999999972
 20
-196.140388339999987
 30
0.0
 11
330.4920416400000249
 21
-196.140388339999987
 31
0.0
  0
LINE
  5
3FD
  8
LAYER0002
  6
CONTINUOUS
 62
     7
 10
330.4920416400000249
 20
-203.6403886399999976
 30
0.0
 11
337.992040999999972
 21
-203.6403886399999976
 31
0.0
  0
LINE
  5
3FE
  8
LAYER0002
  6
CONTINUOUS
 62
     7
 10
337.992040999999972
 20
-213.1703886399999988
 30
0.0
 11
337.992040999999972
 21
-205.6703883399999881
 31
0.0
  0
LINE
  5
3FF
  8
LAYER0002
  6
CONTINUOUS
 62
     7
 10
330.4920416400000249
 20
-205.6703883399999881
 30
0.0
 11
330.4920416400000249
 21
-213.1703886399999988
 31
0.0
  0
LINE
  5
400
  8
LAYER0002
  6
CONTINUOUS
 62
     7
 10
337.992040999999972
 20
-205.6703883399999881
 30
0.0
 11
330.4920416400000249
 21
-205.6703883399999881
 31
0.0
  0
LINE
  5
401
  8
LAYER0002
  6
CONTINUOUS
 62
     7
 10
330.4920416400000249
 20
-213.1703886399999988
 30
0.0
 11
337.992040999999972
 21
-213.1703886399999988
 31
0.0
  0
LINE
  5
402
  8
LAYER0002
  6
CONTINUOUS
 62
     7
 10
337.992040999999972
 20
-222.700388629999992
 30
0.0
 11
337.992040999999972
 21
-215.2003883300000098
 31
0.0
  0
LINE
  5
403
  8
LAYER0002
  6
CONTINUOUS
 62
     7
 10
330.4920416400000249
 20
-215.2003883300000098
 30
0.0
 11
330.4920416400000249
 21
-222.700388629999992
 31
0.0
  0
LINE
  5
404
  8
LAYER0002
  6
CONTINUOUS
 62
     7
 10
337.992040999999972
 20
-215.2003883300000098
 30
0.0
 11
330.4920416400000249
 21
-215.2003883300000098
 31
0.0
  0
LINE
  5
405
  8
LAYER0002
  6
CONTINUOUS
 62
     7
 10
330.4920416400000249
 20
-222.700388629999992
 30
0.0
 11
337.992040999999972
 21
-222.700388629999992
 31
0.0
  0
LINE
  5
406
  8
LAYER0002
  6
CONTINUOUS
 62
     7
 10
337.992040999999972
 20
-232.2303886299999931
 30
0.0
 11
337.992040999999972
 21
-224.7303883300000109
 31
0.0
  0
LINE
  5
407
  8
LAYER0002
  6
CONTINUOUS
 62
     7
 10
330.4920416400000249
 20
-224.7303883300000109
 30
0.0
 11
330.4920416400000249
 21
-232.2303886299999931
 31
0.0
  0
LINE
  5
408
  8
LAYER0002
  6
CONTINUOUS
 62
     7
 10
337.992040999999972
 20
-224.7303883300000109
 30
0.0
 11
330.4920416400000249
 21
-224.7303883300000109
 31
0.0
  0
LINE
  5
409
  8
LAYER0002
  6
CONTINUOUS
 62
     7
 10
330.4920416400000249
 20
-232.2303886299999931
 30
0.0
 11
337.992040999999972
 21
-232.2303886299999931
 31
0.0
  0
LINE
  5
40A
  8
LAYER0002
  6
CONTINUOUS
 62
     7
 10
337.992040999999972
 20
-241.7603886400000022
 30
0.0
 11
337.992040999999972
 21
-234.2603883399999916
 31
0.0
  0
LINE
  5
40B
  8
LAYER0002
  6
CONTINUOUS
 62
     7
 10
330.4920416400000249
 20
-234.2603883399999916
 30
0.0
 11
330.4920416400000249
 21
-241.7603886400000022
 31
0.0
  0
LINE
  5
40C
  8
LAYER0002
  6
CONTINUOUS
 62
     7
 10
337.992040999999972
 20
-234.2603883399999916
 30
0.0
 11
330.4920416400000249
 21
-234.2603883399999916
 31
0.0
  0
LINE
  5
40D
  8
LAYER0002
  6
CONTINUOUS
 62
     7
 10
330.4920416400000249
 20
-241.7603886400000022
 30
0.0
 11
337.992040999999972
 21
-241.7603886400000022
 31
0.0
  0
LINE
  5
40E
  8
LAYER0002
  6
CONTINUOUS
 62
     7
 10
337.992040999999972
 20
-251.2903886400000033
 30
0.0
 11
337.992040999999972
 21
-243.7903883399999927
 31
0.0
  0
LINE
  5
40F
  8
LAYER0002
  6
CONTINUOUS
 62
     7
 10
330.4920416400000249
 20
-243.7903883399999927
 30
0.0
 11
330.4920416400000249
 21
-251.2903886400000033
 31
0.0
  0
LINE
  5
410
  8
LAYER0002
  6
CONTINUOUS
 62
     7
 10
337.992040999999972
 20
-243.7903883399999927
 30
0.0
 11
330.4920416400000249
 21
-243.7903883399999927
 31
0.0
  0
LINE
  5
411
  8
LAYER0002
  6
CONTINUOUS
 62
     7
 10
330.4920416400000249
 20
-251.2903886400000033
 30
0.0
 11
337.992040999999972
 21
-251.2903886400000033
 31
0.0
  0
LINE
  5
412
  8
LAYER0002
  6
CONTINUOUS
 62
     7
 10
337.992040999999972
 20
-260.820388639999976
 30
0.0
 11
337.992040999999972
 21
-253.3203883299999859
 31
0.0
  0
LINE
  5
413
  8
LAYER0002
  6
CONTINUOUS
 62
     7
 10
330.4920416400000249
 20
-253.3203883299999859
 30
0.0
 11
330.4920416400000249
 21
-260.820388639999976
 31
0.0
  0
LINE
  5
414
  8
LAYER0002
  6
CONTINUOUS
 62
     7
 10
337.992040999999972
 20
-253.3203883299999859
 30
0.0
 11
330.4920416400000249
 21
-253.3203883299999859
 31
0.0
  0
LINE
  5
415
  8
LAYER0002
  6
CONTINUOUS
 62
     7
 10
330.4920416400000249
 20
-260.820388639999976
 30
0.0
 11
337.992040999999972
 21
-260.820388639999976
 31
0.0
  0
LINE
  5
416
  8
LAYER0002
  6
CONTINUOUS
 62
     7
 10
337.992040999999972
 20
-270.3503886299999976
 30
0.0
 11
337.992040999999972
 21
-262.850388329999987
 31
0.0
  0
LINE
  5
417
  8
LAYER0002
  6
CONTINUOUS
 62
     7
 10
330.4920416400000249
 20
-262.850388329999987
 30
0.0
 11
330.4920416400000249
 21
-270.3503886299999976
 31
0.0
  0
LINE
  5
418
  8
LAYER0002
  6
CONTINUOUS
 62
     7
 10
337.992040999999972
 20
-262.850388329999987
 30
0.0
 11
330.4920416400000249
 21
-262.850388329999987
 31
0.0
  0
LINE
  5
419
  8
LAYER0002
  6
CONTINUOUS
 62
     7
 10
330.4920416400000249
 20
-270.3503886299999976
 30
0.0
 11
337.992040999999972
 21
-270.3503886299999976
 31
0.0
  0
LINE
  5
41A
  8
LAYER0002
  6
CONTINUOUS
 62
     7
 10
337.992040999999972
 20
-279.8803886300000272
 30
0.0
 11
337.992040999999972
 21
-272.3803883400000245
 31
0.0
  0
LINE
  5
41B
  8
LAYER0002
  6
CONTINUOUS
 62
     7
 10
330.4920416400000249
 20
-272.3803883400000245
 30
0.0
 11
330.4920416400000249
 21
-279.8803886300000272
 31
0.0
  0
LINE
  5
41C
  8
LAYER0002
  6
CONTINUOUS
 62
     7
 10
337.992040999999972
 20
-272.3803883400000245
 30
0.0
 11
330.4920416400000249
 21
-272.3803883400000245
 31
0.0
  0
LINE
  5
41D
  8
LAYER0002
  6
CONTINUOUS
 62
     7
 10
330.4920416400000249
 20
-279.8803886300000272
 30
0.0
 11
337.992040999999972
 21
-279.8803886300000272
 31
0.0
  0
LINE
  5
41E
  8
LAYER0002
  6
CONTINUOUS
 62
     7
 10
337.992040999999972
 20
-289.4103886400000079
 30
0.0
 11
337.992040999999972
 21
-281.9103883399999972
 31
0.0
  0
LINE
  5
41F
  8
LAYER0002
  6
CONTINUOUS
 62
     7
 10
330.4920416400000249
 20
-281.9103883399999972
 30
0.0
 11
330.4920416400000249
 21
-289.4103886400000079
 31
0.0
  0
LINE
  5
420
  8
LAYER0002
  6
CONTINUOUS
 62
     7
 10
337.992040999999972
 20
-281.9103883399999972
 30
0.0
 11
330.4920416400000249
 21
-281.9103883399999972
 31
0.0
  0
LINE
  5
421
  8
LAYER0002
  6
CONTINUOUS
 62
     7
 10
330.4920416400000249
 20
-289.4103886400000079
 30
0.0
 11
337.992040999999972
 21
-289.4103886400000079
 31
0.0
  0
LINE
  5
422
  8
LAYER0002
  6
CONTINUOUS
 62
     7
 10
337.992040999999972
 20
-298.9403886399999806
 30
0.0
 11
337.992040999999972
 21
-291.4403883300000189
 31
0.0
  0
LINE
  5
423
  8
LAYER0002
  6
CONTINUOUS
 62
     7
 10
330.4920416400000249
 20
-291.4403883300000189
 30
0.0
 11
330.4920416400000249
 21
-298.9403886399999806
 31
0.0
  0
LINE
  5
424
  8
LAYER0002
  6
CONTINUOUS
 62
     7
 10
337.992040999999972
 20
-291.4403883300000189
 30
0.0
 11
330.4920416400000249
 21
-291.4403883300000189
 31
0.0
  0
LINE
  5
425
  8
LAYER0002
  6
CONTINUOUS
 62
     7
 10
330.4920416400000249
 20
-298.9403886399999806
 30
0.0
 11
337.992040999999972
 21
-298.9403886399999806
 31
0.0
  0
LINE
  5
426
  8
LAYER0002
  6
CONTINUOUS
 62
     7
 10
369.1920410899999752
 20
-281.8428903500000047
 30
0.0
 11
369.1920410899999752
 21
-289.3428906500000153
 31
0.0
  0
LINE
  5
427
  8
LAYER0002
  6
CONTINUOUS
 62
     7
 10
376.692040449999979
 20
-289.3428906500000153
 30
0.0
 11
376.692040449999979
 21
-281.8428903500000047
 31
0.0
  0
LINE
  5
428
  8
LAYER0002
  6
CONTINUOUS
 62
     7
 10
369.1920410899999752
 20
-272.3128903499999751
 30
0.0
 11
369.1920410899999752
 21
-279.8128906399999778
 31
0.0
  0
LINE
  5
429
  8
LAYER0002
  6
CONTINUOUS
 62
     7
 10
376.692040449999979
 20
-279.8128906399999778
 30
0.0
 11
376.692040449999979
 21
-272.3128903499999751
 31
0.0
  0
LINE
  5
42A
  8
LAYER0002
  6
CONTINUOUS
 62
     7
 10
369.1920410899999752
 20
-262.7828903399999945
 30
0.0
 11
369.1920410899999752
 21
-270.2828906400000051
 31
0.0
  0
LINE
  5
42B
  8
LAYER0002
  6
CONTINUOUS
 62
     7
 10
376.692040449999979
 20
-270.2828906400000051
 30
0.0
 11
376.692040449999979
 21
-262.7828903399999945
 31
0.0
  0
LINE
  5
42C
  8
LAYER0002
  6
CONTINUOUS
 62
     7
 10
369.1920410899999752
 20
-253.2528903399999933
 30
0.0
 11
369.1920410899999752
 21
-260.7528906499999835
 31
0.0
  0
LINE
  5
42D
  8
LAYER0002
  6
CONTINUOUS
 62
     7
 10
376.692040449999979
 20
-260.7528906499999835
 30
0.0
 11
376.692040449999979
 21
-253.2528903399999933
 31
0.0
  0
LINE
  5
42E
  8
LAYER0002
  6
CONTINUOUS
 62
     7
 10
369.1920410899999752
 20
-243.7228903500000001
 30
0.0
 11
369.1920410899999752
 21
-251.2228906500000107
 31
0.0
  0
LINE
  5
42F
  8
LAYER0002
  6
CONTINUOUS
 62
     7
 10
376.692040449999979
 20
-251.2228906500000107
 30
0.0
 11
376.692040449999979
 21
-243.7228903500000001
 31
0.0
  0
LINE
  5
430
  8
LAYER0002
  6
CONTINUOUS
 62
     7
 10
369.1920410899999752
 20
-234.192890349999999
 30
0.0
 11
369.1920410899999752
 21
-241.6928906400000017
 31
0.0
  0
LINE
  5
431
  8
LAYER0002
  6
CONTINUOUS
 62
     7
 10
376.692040449999979
 20
-241.6928906400000017
 30
0.0
 11
376.692040449999979
 21
-234.192890349999999
 31
0.0
  0
LINE
  5
432
  8
LAYER0002
  6
CONTINUOUS
 62
     7
 10
369.1920410899999752
 20
-224.6628903399999899
 30
0.0
 11
369.1920410899999752
 21
-232.1628906400000005
 31
0.0
  0
LINE
  5
433
  8
LAYER0002
  6
CONTINUOUS
 62
     7
 10
376.692040449999979
 20
-232.1628906400000005
 30
0.0
 11
376.692040449999979
 21
-224.6628903399999899
 31
0.0
  0
LINE
  5
434
  8
LAYER0002
  6
CONTINUOUS
 62
     7
 10
369.1920410899999752
 20
-215.1328903399999888
 30
0.0
 11
369.1920410899999752
 21
-222.6328906500000073
 31
0.0
  0
LINE
  5
435
  8
LAYER0002
  6
CONTINUOUS
 62
     7
 10
376.692040449999979
 20
-222.6328906500000073
 30
0.0
 11
376.692040449999979
 21
-215.1328903399999888
 31
0.0
  0
LINE
  5
436
  8
LAYER0002
  6
CONTINUOUS
 62
     7
 10
369.1920410899999752
 20
-205.6028903499999956
 30
0.0
 11
369.1920410899999752
 21
-213.1028906500000062
 31
0.0
  0
LINE
  5
437
  8
LAYER0002
  6
CONTINUOUS
 62
     7
 10
376.692040449999979
 20
-213.1028906500000062
 30
0.0
 11
376.692040449999979
 21
-205.6028903499999956
 31
0.0
  0
LINE
  5
438
  8
LAYER0002
  6
CONTINUOUS
 62
     7
 10
369.1920410899999752
 20
-196.0728903499999944
 30
0.0
 11
369.1920410899999752
 21
-203.5728906399999971
 31
0.0
  0
LINE
  5
439
  8
LAYER0002
  6
CONTINUOUS
 62
     7
 10
376.692040449999979
 20
-203.5728906399999971
 30
0.0
 11
376.692040449999979
 21
-196.0728903499999944
 31
0.0
  0
LINE
  5
43A
  8
LAYER0002
  6
CONTINUOUS
 62
     7
 10
369.1920410899999752
 20
-186.5428903400000138
 30
0.0
 11
369.1920410899999752
 21
-194.042890639999996
 31
0.0
  0
LINE
  5
43B
  8
LAYER0002
  6
CONTINUOUS
 62
     7
 10
376.692040449999979
 20
-194.042890639999996
 30
0.0
 11
376.692040449999979
 21
-186.5428903400000138
 31
0.0
  0
LINE
  5
43C
  8
LAYER0002
  6
CONTINUOUS
 62
     7
 10
369.1920410899999752
 20
-177.0128903400000127
 30
0.0
 11
369.1920410899999752
 21
-184.5128906500000028
 31
0.0
  0
LINE
  5
43D
  8
LAYER0002
  6
CONTINUOUS
 62
     7
 10
376.692040449999979
 20
-184.5128906500000028
 30
0.0
 11
376.692040449999979
 21
-177.0128903400000127
 31
0.0
  0
LINE
  5
43E
  8
LAYER0002
  6
CONTINUOUS
 62
     7
 10
386.1920401500000253
 20
-294.115389069999992
 30
0.0
 11
386.1920401500000253
 21
-286.6153887699999814
 31
0.0
  0
LINE
  5
43F
  8
LAYER0002
  6
CONTINUOUS
 62
     7
 10
386.1920401500000253
 20
-286.6153887699999814
 30
0.0
 11
378.6920407800000135
 21
-286.6153887699999814
 31
0.0
  0
LINE
  5
440
  8
LAYER0002
  6
CONTINUOUS
 62
     7
 10
378.6920407800000135
 20
-277.0853887700000087
 30
0.0
 11
378.6920407800000135
 21
-284.5853890700000193
 31
0.0
  0
LINE
  5
441
  8
LAYER0002
  6
CONTINUOUS
 62
     7
 10
392.3423455000000217
 20
-163.5978887100000065
 30
0.0
 11
324.3417362800000205
 21
-163.5978887100000065
 31
0.0
  0
LINE
  5
442
  8
LAYER0002
  6
CONTINUOUS
 62
     7
 10
394.3420408900000211
 20
-165.5975841000000059
 30
0.0
 11
394.3420408900000211
 21
-305.5981933200000071
 31
0.0
  0
LINE
  5
443
  8
LAYER0002
  6
CONTINUOUS
 62
     7
 10
322.3420408900000211
 20
-165.5975841000000059
 30
0.0
 11
322.3420408900000211
 21
-305.5981933200000071
 31
0.0
  0
LINE
  5
444
  8
LAYER0002
  6
CONTINUOUS
 62
     7
 10
324.3417362800000205
 20
-307.5978886999999986
 30
0.0
 11
392.3420408900000211
 21
-307.5978886999999986
 31
0.0
  0
LINE
  5
48F
  8
LAYER0002
  6
CONTINUOUS
 62
     7
 10
386.1920401500000253
 20
-277.0853887700000087
 30
0.0
 11
378.6920407800000135
 21
-277.0853887700000087
 31
0.0
  0
LINE
  5
490
  8
LAYER0002
  6
CONTINUOUS
 62
     7
 10
386.1920401500000253
 20
-275.0553890799999976
 30
0.0
 11
386.1920401500000253
 21
-267.555388779999987
 31
0.0
  0
LINE
  5
491
  8
LAYER0002
  6
CONTINUOUS
 62
     7
 10
386.1920401500000253
 20
-267.555388779999987
 30
0.0
 11
378.6920407800000135
 21
-267.555388779999987
 31
0.0
  0
LINE
  5
492
  8
LAYER0002
  6
CONTINUOUS
 62
     7
 10
386.1920401500000253
 20
-265.5253890800000249
 30
0.0
 11
386.1920401500000253
 21
-258.0253887800000143
 31
0.0
  0
LINE
  5
493
  8
LAYER0002
  6
CONTINUOUS
 62
     7
 10
386.1920401500000253
 20
-258.0253887800000143
 30
0.0
 11
378.6920407800000135
 21
-258.0253887800000143
 31
0.0
  0
LINE
  5
494
  8
LAYER0002
  6
CONTINUOUS
 62
     7
 10
386.1920401500000253
 20
-255.9953890699999874
 30
0.0
 11
386.1920401500000253
 21
-248.4953887700000053
 31
0.0
  0
LINE
  5
495
  8
LAYER0002
  6
CONTINUOUS
 62
     7
 10
386.1920401500000253
 20
-248.4953887700000053
 30
0.0
 11
378.6920407800000135
 21
-248.4953887700000053
 31
0.0
  0
LINE
  5
496
  8
LAYER0002
  6
CONTINUOUS
 62
     7
 10
386.1920401500000253
 20
-246.4653890699999863
 30
0.0
 11
386.1920401500000253
 21
-238.9653887700000041
 31
0.0
  0
LINE
  5
497
  8
LAYER0002
  6
CONTINUOUS
 62
     7
 10
386.1920401500000253
 20
-238.9653887700000041
 30
0.0
 11
378.6920407800000135
 21
-238.9653887700000041
 31
0.0
  0
LINE
  5
498
  8
LAYER0002
  6
CONTINUOUS
 62
     7
 10
386.1920401500000253
 20
-236.9353890799999931
 30
0.0
 11
386.1920401500000253
 21
-229.4353887800000109
 31
0.0
  0
LINE
  5
499
  8
LAYER0002
  6
CONTINUOUS
 62
     7
 10
386.1920401500000253
 20
-229.4353887800000109
 30
0.0
 11
378.6920407800000135
 21
-229.4353887800000109
 31
0.0
  0
LINE
  5
49A
  8
LAYER0002
  6
CONTINUOUS
 62
     7
 10
386.1920401500000253
 20
-227.405389079999992
 30
0.0
 11
386.1920401500000253
 21
-219.9053887800000098
 31
0.0
  0
LINE
  5
49B
  8
LAYER0002
  6
CONTINUOUS
 62
     7
 10
386.1920401500000253
 20
-219.9053887800000098
 30
0.0
 11
378.6920407800000135
 21
-219.9053887800000098
 31
0.0
  0
LINE
  5
49C
  8
LAYER0002
  6
CONTINUOUS
 62
     7
 10
386.1920401500000253
 20
-217.8753890700000113
 30
0.0
 11
386.1920401500000253
 21
-210.3753887700000007
 31
0.0
  0
LINE
  5
49D
  8
LAYER0002
  6
CONTINUOUS
 62
     7
 10
386.1920401500000253
 20
-210.3753887700000007
 30
0.0
 11
378.6920407800000135
 21
-210.3753887700000007
 31
0.0
  0
LINE
  5
49E
  8
LAYER0002
  6
CONTINUOUS
 62
     7
 10
386.1920401500000253
 20
-208.3453890700000102
 30
0.0
 11
386.1920401500000253
 21
-200.8453887699999996
 31
0.0
  0
LINE
  5
49F
  8
LAYER0002
  6
CONTINUOUS
 62
     7
 10
386.1920401500000253
 20
-200.8453887699999996
 30
0.0
 11
378.6920407800000135
 21
-200.8453887699999996
 31
0.0
  0
LINE
  5
4A0
  8
LAYER0002
  6
CONTINUOUS
 62
     7
 10
386.1920401500000253
 20
-198.8153890799999033
 30
0.0
 11
386.1920401500000253
 21
-191.3153887699999984
 31
0.0
  0
LINE
  5
4A1
  8
LAYER0002
  6
CONTINUOUS
 62
     7
 10
386.1920401500000253
 20
-191.3153887699999984
 30
0.0
 11
378.6920407800000135
 21
-191.3153887699999984
 31
0.0
  0
LINE
  5
4A2
  8
LAYER0002
  6
CONTINUOUS
 62
     7
 10
386.1920401500000253
 20
-189.2853890799999874
 30
0.0
 11
386.1920401500000253
 21
-181.7853887800000052
 31
0.0
  0
LINE
  5
4A3
  8
LAYER0002
  6
CONTINUOUS
 62
     7
 10
386.1920401500000253
 20
-181.7853887800000052
 30
0.0
 11
378.6920407800000135
 21
-181.7853887800000052
 31
0.0
  0
LINE
  5
4A4
  8
LAYER0002
  6
CONTINUOUS
 62
     7
 10
386.1920401500000253
 20
-179.7553890799999863
 30
0.0
 11
386.1920401500000253
 21
-172.2553887800000041
 31
0.0
  0
LINE
  5
4A5
  8
LAYER0002
  6
CONTINUOUS
 62
     7
 10
386.1920401500000253
 20
-172.2553887800000041
 30
0.0
 11
378.6920407800000135
 21
-172.2553887800000041
 31
0.0
  0
LINE
  5
57A
  8
LAYER0002
  6
CONTINUOUS
 62
     7
 10
376.8420411299999842
 20
-299.1853903499999774
 30
0.0
 11
387.8420410699999934
 21
-299.1853903499999774
 31
0.0
  0
LINE
  5
57B
  8
LAYER0002
  6
CONTINUOUS
 62
     7
 10
376.8420411299999842
 20
-171.9978849899999886
 30
0.0
 11
367.8420405900000105
 21
-171.9978849899999886
 31
0.0
  0
LINE
  5
57C
  8
LAYER0002
  6
CONTINUOUS
 62
     7
 10
376.8420411299999842
 20
-299.1853903499999774
 30
0.0
 11
367.8420405900000105
 21
-299.1853903499999774
 31
0.0
  0
LINE
  5
57D
  8
LAYER0002
  6
CONTINUOUS
 62
     7
 10
367.8420000099999925
 20
-171.0478895500000078
 30
0.0
 11
367.8420409799999788
 21
-300.1478887999999756
 31
0.0
  0
LINE
  5
57E
  8
LAYER0002
  6
CONTINUOUS
 62
     7
 10
386.8420409099999802
 20
-286.2978901299999848
 30
0.0
 11
386.8420409099999802
 21
-294.4228898299999742
 31
0.0
  0
LINE
  5
57F
  8
LAYER0002
  6
CONTINUOUS
 62
     7
 10
386.8420409099999802
 20
-276.7728890700000193
 30
0.0
 11
386.8420409099999802
 21
-284.8978887700000087
 31
0.0
  0
LINE
  5
580
  8
LAYER0002
  6
CONTINUOUS
 62
     7
 10
376.8420411299999842
 20
-275.3728877199999943
 30
0.0
 11
386.8420409099999802
 21
-275.3728877199999943
 31
0.0
  0
LINE
  5
581
  8
LAYER0002
  6
CONTINUOUS
 62
     7
 10
386.8420409099999802
 20
-267.2478880200000049
 30
0.0
 11
376.8420411299999842
 21
-267.2478880200000049
 31
0.0
  0
LINE
  5
582
  8
LAYER0002
  6
CONTINUOUS
 62
     7
 10
386.8420409099999802
 20
-257.722888829999988
 30
0.0
 11
386.8420409099999802
 21
-265.8478885299999774
 31
0.0
  0
LINE
  5
583
  8
LAYER0002
  6
CONTINUOUS
 62
     7
 10
386.8420409099999802
 20
-248.1978887299999883
 30
0.0
 11
376.8420411299999842
 21
-248.1978887299999883
 31
0.0
  0
LINE
  5
584
  8
LAYER0002
  6
CONTINUOUS
 62
     7
 10
386.8420409099999802
 20
-229.147888480000006
 30
0.0
 11
386.8420409099999802
 21
-237.2728886600000067
 31
0.0
  0
LINE
  5
585
  8
LAYER0002
  6
CONTINUOUS
 62
     7
 10
386.8420409099999802
 20
-210.0978891899999894
 30
0.0
 11
386.8420409099999802
 21
-218.2228888900000072
 31
0.0
  0
LINE
  5
586
  8
LAYER0002
  6
CONTINUOUS
 62
     7
 10
376.8420411299999842
 20
-199.1728904999999941
 30
0.0
 11
386.8420409099999802
 21
-199.1728904999999941
 31
0.0
  0
LINE
  5
587
  8
LAYER0002
  6
CONTINUOUS
 62
     7
 10
386.8420409099999802
 20
-181.5228897499999903
 30
0.0
 11
386.8420409099999802
 21
-189.6478894599999876
 31
0.0
  0
LINE
  5
588
  8
LAYER0002
  6
CONTINUOUS
 62
     7
 10
386.8420409099999802
 20
-171.9978849899999886
 30
0.0
 11
386.8420409099999802
 21
-180.1228884200000095
 31
0.0
  0
LINE
  5
589
  8
LAYER0002
  6
CONTINUOUS
 62
     7
 10
376.8420411299999842
 20
-246.7978883099999905
 30
0.0
 11
386.8420409099999802
 21
-246.7978883099999905
 31
0.0
  0
LINE
  5
58A
  8
LAYER0002
  6
CONTINUOUS
 62
     7
 10
376.8420411299999842
 20
-256.3228893500000254
 30
0.0
 11
386.8420409099999802
 21
-256.3228893500000254
 31
0.0
  0
LINE
  5
58B
  8
LAYER0002
  6
CONTINUOUS
 62
     7
 10
376.8420411299999842
 20
-208.6978878300000133
 30
0.0
 11
386.8420409099999802
 21
-208.6978878300000133
 31
0.0
  0
LINE
  5
58C
  8
LAYER0002
  6
CONTINUOUS
 62
     7
 10
386.8420409099999802
 20
-191.047887089999989
 30
0.0
 11
376.8420411299999842
 21
-191.047887089999989
 31
0.0
  0
LINE
  5
58D
  8
LAYER0002
  6
CONTINUOUS
 62
     7
 10
386.8420409099999802
 20
-181.5228897499999903
 30
0.0
 11
376.8420411299999842
 21
-181.5228897499999903
 31
0.0
  0
LINE
  5
58E
  8
LAYER0002
  6
CONTINUOUS
 62
     7
 10
386.8420409099999802
 20
-229.147888480000006
 30
0.0
 11
376.8420411299999842
 21
-229.147888480000006
 31
0.0
  0
LINE
  5
58F
  8
LAYER0002
  6
CONTINUOUS
 62
     7
 10
376.8420411299999842
 20
-189.6478894599999876
 30
0.0
 11
386.8420409099999802
 21
-189.6478894599999876
 31
0.0
  0
LINE
  5
590
  8
LAYER0002
  6
CONTINUOUS
 62
     7
 10
376.8420411299999842
 20
-227.7478889999999865
 30
0.0
 11
386.8420409099999802
 21
-227.7478889999999865
 31
0.0
  0
LINE
  5
591
  8
LAYER0002
  6
CONTINUOUS
 62
     7
 10
386.8420409099999802
 20
-238.6728886100000011
 30
0.0
 11
376.8420411299999842
 21
-238.6728886100000011
 31
0.0
  0
LINE
  5
592
  8
LAYER0002
  6
CONTINUOUS
 62
     7
 10
386.8420409099999802
 20
-171.9978849899999886
 30
0.0
 11
376.8420411299999842
 21
-171.9978849899999886
 31
0.0
  0
LINE
  5
593
  8
LAYER0002
  6
CONTINUOUS
 62
     7
 10
369.3420408299999735
 20
-171.9978849899999886
 30
0.0
 11
369.3420408299999735
 21
-173.4978880300000128
 31
0.0
  0
LINE
  5
594
  8
LAYER0002
  6
CONTINUOUS
 62
     7
 10
369.3420408299999735
 20
-173.4978880300000128
 30
0.0
 11
369.3420408299999735
 21
-175.2603899099999865
 31
0.0
  0
LINE
  5
595
  8
LAYER0002
  6
CONTINUOUS
 62
     7
 10
376.8420411299999842
 20
-280.1353882500000054
 30
0.0
 11
367.8420405900000105
 21
-280.1353882500000054
 31
0.0
  0
LINE
  5
596
  8
LAYER0002
  6
CONTINUOUS
 62
     7
 10
376.8420411299999842
 20
-270.610387199999991
 30
0.0
 11
367.8420405900000105
 21
-270.610387199999991
 31
0.0
  0
LINE
  5
597
  8
LAYER0002
  6
CONTINUOUS
 62
     7
 10
376.8420411299999842
 20
-261.0853880099999742
 30
0.0
 11
367.8420405900000105
 21
-261.0853880099999742
 31
0.0
  0
LINE
  5
598
  8
LAYER0002
  6
CONTINUOUS
 62
     7
 10
376.8420411299999842
 20
-289.6603892900000119
 30
0.0
 11
367.8420405900000105
 21
-289.6603892900000119
 31
0.0
  0
LINE
  5
599
  8
LAYER0002
  6
CONTINUOUS
 62
     7
 10
376.8420411299999842
 20
-232.5103885999999989
 30
0.0
 11
367.8420405900000105
 21
-232.5103885999999989
 31
0.0
  0
LINE
  5
59A
  8
LAYER0002
  6
CONTINUOUS
 62
     7
 10
367.8420405900000105
 20
-186.2853902900000094
 30
0.0
 11
376.8420411299999842
 21
-186.2853902900000094
 31
0.0
  0
LINE
  5
59B
  8
LAYER0002
  6
CONTINUOUS
 62
     7
 10
367.8420405900000105
 20
-252.9603883100000132
 30
0.0
 11
376.8420411299999842
 21
-252.9603883100000132
 31
0.0
  0
LINE
  5
59C
  8
LAYER0002
  6
CONTINUOUS
 62
     7
 10
376.8420411299999842
 20
-194.4103899799999908
 30
0.0
 11
367.8420405900000105
 21
-194.4103899799999908
 31
0.0
  0
LINE
  5
59D
  8
LAYER0002
  6
CONTINUOUS
 62
     7
 10
369.3420408299999735
 20
-175.2603899099999865
 30
0.0
 11
376.8420411299999842
 21
-175.2603899099999865
 31
0.0
  0
LINE
  5
59E
  8
LAYER0002
  6
CONTINUOUS
 62
     7
 10
367.8420405900000105
 20
-205.3353886600000067
 30
0.0
 11
376.8420411299999842
 21
-205.3353886600000067
 31
0.0
  0
LINE
  5
59F
  8
LAYER0002
  6
CONTINUOUS
 62
     7
 10
376.8420411299999842
 20
-242.0353887100000065
 30
0.0
 11
367.8420405900000105
 21
-242.0353887100000065
 31
0.0
  0
LINE
  5
5A0
  8
LAYER0002
  6
CONTINUOUS
 62
     7
 10
367.8420405900000105
 20
-214.8603878499999951
 30
0.0
 11
376.8420411299999842
 21
-214.8603878499999951
 31
0.0
  0
LINE
  5
5A1
  8
LAYER0002
  6
CONTINUOUS
 62
     7
 10
367.8420405900000105
 20
-224.3853889000000095
 30
0.0
 11
376.8420411299999842
 21
-224.3853889000000095
 31
0.0
  0
LINE
  5
5A2
  8
LAYER0002
  6
CONTINUOUS
 62
     7
 10
369.1920410899999752
 20
-291.3728903499999774
 30
0.0
 11
369.1920410899999752
 21
-298.872890649999988
 31
0.0
  0
LINE
  5
5A3
  8
LAYER0002
  6
CONTINUOUS
 62
     7
 10
376.692040449999979
 20
-298.872890649999988
 30
0.0
 11
376.692040449999979
 21
-291.3728903499999774
 31
0.0
  0
LINE
  5
5AF
  8
LAYER0002
  6
CONTINUOUS
 62
     7
 10
369.1920410899999752
 20
-289.3428906500000153
 30
0.0
 11
376.692040449999979
 21
-289.3428906500000153
 31
0.0
  0
LINE
  5
5B0
  8
LAYER0002
  6
CONTINUOUS
 62
     7
 10
376.692040449999979
 20
-281.8428903500000047
 30
0.0
 11
369.1920410899999752
 21
-281.8428903500000047
 31
0.0
  0
LINE
  5
5B1
  8
LAYER0002
  6
CONTINUOUS
 62
     7
 10
369.1920410899999752
 20
-279.8128906399999778
 30
0.0
 11
376.692040449999979
 21
-279.8128906399999778
 31
0.0
  0
LINE
  5
5B2
  8
LAYER0002
  6
CONTINUOUS
 62
     7
 10
376.692040449999979
 20
-272.3128903499999751
 30
0.0
 11
369.1920410899999752
 21
-272.3128903499999751
 31
0.0
  0
LINE
  5
5B3
  8
LAYER0002
  6
CONTINUOUS
 62
     7
 10
369.1920410899999752
 20
-270.2828906400000051
 30
0.0
 11
376.692040449999979
 21
-270.2828906400000051
 31
0.0
  0
LINE
  5
5B4
  8
LAYER0002
  6
CONTINUOUS
 62
     7
 10
376.692040449999979
 20
-262.7828903399999945
 30
0.0
 11
369.1920410899999752
 21
-262.7828903399999945
 31
0.0
  0
LINE
  5
5B5
  8
LAYER0002
  6
CONTINUOUS
 62
     7
 10
369.1920410899999752
 20
-260.7528906499999835
 30
0.0
 11
376.692040449999979
 21
-260.7528906499999835
 31
0.0
  0
LINE
  5
5B6
  8
LAYER0002
  6
CONTINUOUS
 62
     7
 10
376.692040449999979
 20
-253.2528903399999933
 30
0.0
 11
369.1920410899999752
 21
-253.2528903399999933
 31
0.0
  0
LINE
  5
5B7
  8
LAYER0002
  6
CONTINUOUS
 62
     7
 10
369.1920410899999752
 20
-251.2228906500000107
 30
0.0
 11
376.692040449999979
 21
-251.2228906500000107
 31
0.0
  0
LINE
  5
5B8
  8
LAYER0002
  6
CONTINUOUS
 62
     7
 10
376.692040449999979
 20
-243.7228903500000001
 30
0.0
 11
369.1920410899999752
 21
-243.7228903500000001
 31
0.0
  0
LINE
  5
5B9
  8
LAYER0002
  6
CONTINUOUS
 62
     7
 10
369.1920410899999752
 20
-241.6928906400000017
 30
0.0
 11
376.692040449999979
 21
-241.6928906400000017
 31
0.0
  0
LINE
  5
5BA
  8
LAYER0002
  6
CONTINUOUS
 62
     7
 10
376.692040449999979
 20
-234.192890349999999
 30
0.0
 11
369.1920410899999752
 21
-234.192890349999999
 31
0.0
  0
LINE
  5
5BB
  8
LAYER0002
  6
CONTINUOUS
 62
     7
 10
369.1920410899999752
 20
-232.1628906400000005
 30
0.0
 11
376.692040449999979
 21
-232.1628906400000005
 31
0.0
  0
LINE
  5
5BC
  8
LAYER0002
  6
CONTINUOUS
 62
     7
 10
376.692040449999979
 20
-224.6628903399999899
 30
0.0
 11
369.1920410899999752
 21
-224.6628903399999899
 31
0.0
  0
LINE
  5
5BD
  8
LAYER0002
  6
CONTINUOUS
 62
     7
 10
369.1920410899999752
 20
-222.6328906500000073
 30
0.0
 11
376.692040449999979
 21
-222.6328906500000073
 31
0.0
  0
LINE
  5
5BE
  8
LAYER0002
  6
CONTINUOUS
 62
     7
 10
376.692040449999979
 20
-215.1328903399999888
 30
0.0
 11
369.1920410899999752
 21
-215.1328903399999888
 31
0.0
  0
LINE
  5
5BF
  8
LAYER0002
  6
CONTINUOUS
 62
     7
 10
369.1920410899999752
 20
-213.1028906500000062
 30
0.0
 11
376.692040449999979
 21
-213.1028906500000062
 31
0.0
  0
LINE
  5
5C0
  8
LAYER0002
  6
CONTINUOUS
 62
     7
 10
376.692040449999979
 20
-205.6028903499999956
 30
0.0
 11
369.1920410899999752
 21
-205.6028903499999956
 31
0.0
  0
LINE
  5
5C1
  8
LAYER0002
  6
CONTINUOUS
 62
     7
 10
369.1920410899999752
 20
-203.5728906399999971
 30
0.0
 11
376.692040449999979
 21
-203.5728906399999971
 31
0.0
  0
LINE
  5
5C2
  8
LAYER0002
  6
CONTINUOUS
 62
     7
 10
376.692040449999979
 20
-196.0728903499999944
 30
0.0
 11
369.1920410899999752
 21
-196.0728903499999944
 31
0.0
  0
LINE
  5
5C3
  8
LAYER0002
  6
CONTINUOUS
 62
     7
 10
369.1920410899999752
 20
-194.042890639999996
 30
0.0
 11
376.692040449999979
 21
-194.042890639999996
 31
0.0
  0
LINE
  5
5C4
  8
LAYER0002
  6
CONTINUOUS
 62
     7
 10
376.692040449999979
 20
-186.5428903400000138
 30
0.0
 11
369.1920410899999752
 21
-186.5428903400000138
 31
0.0
  0
LINE
  5
5C5
  8
LAYER0002
  6
CONTINUOUS
 62
     7
 10
369.1920410899999752
 20
-184.5128906500000028
 30
0.0
 11
376.692040449999979
 21
-184.5128906500000028
 31
0.0
  0
LINE
  5
5C6
  8
LAYER0002
  6
CONTINUOUS
 62
     7
 10
376.692040449999979
 20
-177.0128903400000127
 30
0.0
 11
369.1920410899999752
 21
-177.0128903400000127
 31
0.0
  0
LINE
  5
5C7
  8
LAYER0002
  6
CONTINUOUS
 62
     7
 10
378.6920407800000135
 20
-286.6153887699999814
 30
0.0
 11
378.6920407800000135
 21
-294.115389069999992
 31
0.0
  0
LINE
  5
5C8
  8
LAYER0002
  6
CONTINUOUS
 62
     7
 10
378.6920407800000135
 20
-294.115389069999992
 30
0.0
 11
386.1920401500000253
 21
-294.115389069999992
 31
0.0
  0
LINE
  5
5C9
  8
LAYER0002
  6
CONTINUOUS
 62
     7
 10
386.1920401500000253
 20
-284.5853890700000193
 30
0.0
 11
386.1920401500000253
 21
-277.0853887700000087
 31
0.0
  0
LINE
  5
6A1
  8
LAYER0002
  6
CONTINUOUS
 62
     7
 10
378.6920407800000135
 20
-284.5853890700000193
 30
0.0
 11
386.1920401500000253
 21
-284.5853890700000193
 31
0.0
  0
LINE
  5
6A2
  8
LAYER0002
  6
CONTINUOUS
 62
     7
 10
378.6920407800000135
 20
-267.555388779999987
 30
0.0
 11
378.6920407800000135
 21
-275.0553890799999976
 31
0.0
  0
LINE
  5
6A3
  8
LAYER0002
  6
CONTINUOUS
 62
     7
 10
378.6920407800000135
 20
-275.0553890799999976
 30
0.0
 11
386.1920401500000253
 21
-275.0553890799999976
 31
0.0
  0
LINE
  5
6A4
  8
LAYER0002
  6
CONTINUOUS
 62
     7
 10
378.6920407800000135
 20
-258.0253887800000143
 30
0.0
 11
378.6920407800000135
 21
-265.5253890800000249
 31
0.0
  0
LINE
  5
6A5
  8
LAYER0002
  6
CONTINUOUS
 62
     7
 10
378.6920407800000135
 20
-265.5253890800000249
 30
0.0
 11
386.1920401500000253
 21
-265.5253890800000249
 31
0.0
  0
LINE
  5
6A6
  8
LAYER0002
  6
CONTINUOUS
 62
     7
 10
378.6920407800000135
 20
-248.4953887700000053
 30
0.0
 11
378.6920407800000135
 21
-255.9953890699999874
 31
0.0
  0
LINE
  5
6A7
  8
LAYER0002
  6
CONTINUOUS
 62
     7
 10
378.6920407800000135
 20
-255.9953890699999874
 30
0.0
 11
386.1920401500000253
 21
-255.9953890699999874
 31
0.0
  0
LINE
  5
6A8
  8
LAYER0002
  6
CONTINUOUS
 62
     7
 10
378.6920407800000135
 20
-238.9653887700000041
 30
0.0
 11
378.6920407800000135
 21
-246.4653890699999863
 31
0.0
  0
LINE
  5
6A9
  8
LAYER0002
  6
CONTINUOUS
 62
     7
 10
378.6920407800000135
 20
-246.4653890699999863
 30
0.0
 11
386.1920401500000253
 21
-246.4653890699999863
 31
0.0
  0
LINE
  5
6AA
  8
LAYER0002
  6
CONTINUOUS
 62
     7
 10
378.6920407800000135
 20
-229.4353887800000109
 30
0.0
 11
378.6920407800000135
 21
-236.9353890799999931
 31
0.0
  0
LINE
  5
6AB
  8
LAYER0002
  6
CONTINUOUS
 62
     7
 10
378.6920407800000135
 20
-236.9353890799999931
 30
0.0
 11
386.1920401500000253
 21
-236.9353890799999931
 31
0.0
  0
LINE
  5
6AC
  8
LAYER0002
  6
CONTINUOUS
 62
     7
 10
378.6920407800000135
 20
-219.9053887800000098
 30
0.0
 11
378.6920407800000135
 21
-227.405389079999992
 31
0.0
  0
LINE
  5
6AD
  8
LAYER0002
  6
CONTINUOUS
 62
     7
 10
378.6920407800000135
 20
-227.405389079999992
 30
0.0
 11
386.1920401500000253
 21
-227.405389079999992
 31
0.0
  0
LINE
  5
6AE
  8
LAYER0002
  6
CONTINUOUS
 62
     7
 10
378.6920407800000135
 20
-210.3753887700000007
 30
0.0
 11
378.6920407800000135
 21
-217.8753890700000113
 31
0.0
  0
LINE
  5
6AF
  8
LAYER0002
  6
CONTINUOUS
 62
     7
 10
378.6920407800000135
 20
-217.8753890700000113
 30
0.0
 11
386.1920401500000253
 21
-217.8753890700000113
 31
0.0
  0
LINE
  5
6B0
  8
LAYER0002
  6
CONTINUOUS
 62
     7
 10
378.6920407800000135
 20
-200.8453887699999996
 30
0.0
 11
378.6920407800000135
 21
-208.3453890700000102
 31
0.0
  0
LINE
  5
6B1
  8
LAYER0002
  6
CONTINUOUS
 62
     7
 10
378.6920407800000135
 20
-208.3453890700000102
 30
0.0
 11
386.1920401500000253
 21
-208.3453890700000102
 31
0.0
  0
LINE
  5
6B2
  8
LAYER0002
  6
CONTINUOUS
 62
     7
 10
378.6920407800000135
 20
-191.3153887699999984
 30
0.0
 11
378.6920407800000135
 21
-198.8153890799999033
 31
0.0
  0
LINE
  5
6B3
  8
LAYER0002
  6
CONTINUOUS
 62
     7
 10
378.6920407800000135
 20
-198.8153890799999033
 30
0.0
 11
386.1920401500000253
 21
-198.8153890799999033
 31
0.0
  0
LINE
  5
6B4
  8
LAYER0002
  6
CONTINUOUS
 62
     7
 10
378.6920407800000135
 20
-181.7853887800000052
 30
0.0
 11
378.6920407800000135
 21
-189.2853890799999874
 31
0.0
  0
LINE
  5
6B5
  8
LAYER0002
  6
CONTINUOUS
 62
     7
 10
378.6920407800000135
 20
-189.2853890799999874
 30
0.0
 11
386.1920401500000253
 21
-189.2853890799999874
 31
0.0
  0
LINE
  5
6B6
  8
LAYER0002
  6
CONTINUOUS
 62
     7
 10
378.6920407800000135
 20
-172.2553887800000041
 30
0.0
 11
378.6920407800000135
 21
-179.7553890799999863
 31
0.0
  0
LINE
  5
6B7
  8
LAYER0002
  6
CONTINUOUS
 62
     7
 10
378.6920407800000135
 20
-179.7553890799999863
 30
0.0
 11
386.1920401500000253
 21
-179.7553890799999863
 31
0.0
  0
LINE
  5
71F
  8
LAYER0002
  6
CONTINUOUS
 62
     7
 10
376.8420411299999842
 20
-301.1478881699999874
 30
0.0
 11
376.8420411299999842
 21
-170.0478892300000098
 31
0.0
  0
LINE
  5
720
  8
LAYER0002
  6
CONTINUOUS
 62
     7
 10
387.8420410699999934
 20
-299.1853903499999774
 30
0.0
 11
387.8420410699999934
 21
-300.1478861499999766
 31
0.0
  0
LINE
  5
721
  8
LAYER0002
  6
CONTINUOUS
 62
     7
 10
386.8420410699999934
 20
-170.0478886999999872
 30
0.0
 11
368.8419999800000255
 21
-170.0478892300000098
 31
0.0
  0
LINE
  5
722
  8
LAYER0002
  6
CONTINUOUS
 62
     7
 10
368.8420409799999788
 20
-301.1478887999999756
 30
0.0
 11
386.8420409799999788
 21
-301.1478887999999756
 31
0.0
  0
LINE
  5
723
  8
LAYER0002
  6
CONTINUOUS
 62
     7
 10
386.8420409099999802
 20
-299.1853903499999774
 30
0.0
 11
386.8420409099999802
 21
-295.9228891399999952
 31
0.0
  0
LINE
  5
724
  8
LAYER0002
  6
CONTINUOUS
 62
     7
 10
376.8420411299999842
 20
-284.8978887700000087
 30
0.0
 11
386.8420409099999802
 21
-284.8978887700000087
 31
0.0
  0
LINE
  5
725
  8
LAYER0002
  6
CONTINUOUS
 62
     7
 10
386.8420409099999802
 20
-276.7728890700000193
 30
0.0
 11
376.8420411299999842
 21
-276.7728890700000193
 31
0.0
  0
LINE
  5
726
  8
LAYER0002
  6
CONTINUOUS
 62
     7
 10
386.8420409099999802
 20
-267.2478880200000049
 30
0.0
 11
386.8420409099999802
 21
-275.3728877199999943
 31
0.0
  0
LINE
  5
727
  8
LAYER0002
  6
CONTINUOUS
 62
     7
 10
376.8420411299999842
 20
-265.8478885299999774
 30
0.0
 11
386.8420409099999802
 21
-265.8478885299999774
 31
0.0
  0
LINE
  5
728
  8
LAYER0002
  6
CONTINUOUS
 62
     7
 10
386.8420409099999802
 20
-248.1978887299999883
 30
0.0
 11
386.8420409099999802
 21
-256.3228893500000254
 31
0.0
  0
LINE
  5
729
  8
LAYER0002
  6
CONTINUOUS
 62
     7
 10
386.8420409099999802
 20
-238.6728886100000011
 30
0.0
 11
386.8420409099999802
 21
-246.7978883099999905
 31
0.0
  0
LINE
  5
72A
  8
LAYER0002
  6
CONTINUOUS
 62
     7
 10
386.8420409099999802
 20
-219.6228883699999983
 30
0.0
 11
386.8420409099999802
 21
-227.7478889999999865
 31
0.0
  0
LINE
  5
72B
  8
LAYER0002
  6
CONTINUOUS
 62
     7
 10
386.8420409099999802
 20
-200.5728881400000034
 30
0.0
 11
386.8420409099999802
 21
-208.6978878300000133
 31
0.0
  0
LINE
  5
72C
  8
LAYER0002
  6
CONTINUOUS
 62
     7
 10
386.8420409099999802
 20
-191.047887089999989
 30
0.0
 11
386.8420409099999802
 21
-199.1728904999999941
 31
0.0
  0
LINE
  5
72D
  8
LAYER0002
  6
CONTINUOUS
 62
     7
 10
376.8420411299999842
 20
-180.1228884200000095
 30
0.0
 11
386.8420409099999802
 21
-180.1228884200000095
 31
0.0
  0
LINE
  5
72E
  8
LAYER0002
  6
CONTINUOUS
 62
     7
 10
376.8420411299999842
 20
-294.4228898299999742
 30
0.0
 11
386.8420409099999802
 21
-294.4228898299999742
 31
0.0
  0
LINE
  5
72F
  8
LAYER0002
  6
CONTINUOUS
 62
     7
 10
386.8420409099999802
 20
-286.2978901299999848
 30
0.0
 11
376.8420411299999842
 21
-286.2978901299999848
 31
0.0
  0
LINE
  5
730
  8
LAYER0002
  6
CONTINUOUS
 62
     7
 10
386.8420409099999802
 20
-200.5728881400000034
 30
0.0
 11
376.8420411299999842
 21
-200.5728881400000034
 31
0.0
  0
LINE
  5
731
  8
LAYER0002
  6
CONTINUOUS
 62
     7
 10
386.8420409099999802
 20
-210.0978891899999894
 30
0.0
 11
376.8420411299999842
 21
-210.0978891899999894
 31
0.0
  0
LINE
  5
732
  8
LAYER0002
  6
CONTINUOUS
 62
     7
 10
386.8420409099999802
 20
-257.722888829999988
 30
0.0
 11
376.8420411299999842
 21
-257.722888829999988
 31
0.0
  0
LINE
  5
733
  8
LAYER0002
  6
CONTINUOUS
 62
     7
 10
386.8420409099999802
 20
-219.6228883699999983
 30
0.0
 11
376.8420411299999842
 21
-219.6228883699999983
 31
0.0
  0
LINE
  5
734
  8
LAYER0002
  6
CONTINUOUS
 62
     7
 10
386.8420409099999802
 20
-295.9228891399999952
 30
0.0
 11
378.3420404500000132
 21
-295.9228891399999952
 31
0.0
  0
LINE
  5
735
  8
LAYER0002
  6
CONTINUOUS
 62
     7
 10
378.3420404500000132
 20
-295.9228891399999952
 30
0.0
 11
378.3420404500000132
 21
-299.1853903499999774
 31
0.0
  0
LINE
  5
736
  8
LAYER0002
  6
CONTINUOUS
 62
     7
 10
376.8420411299999842
 20
-237.2728886600000067
 30
0.0
 11
386.8420409099999802
 21
-237.2728886600000067
 31
0.0
  0
LINE
  5
737
  8
LAYER0002
  6
CONTINUOUS
 62
     7
 10
387.8420410699999934
 20
-299.1853903499999774
 30
0.0
 11
387.8420410699999934
 21
-171.0478886999999872
 31
0.0
  0
LINE
  5
738
  8
LAYER0002
  6
CONTINUOUS
 62
     7
 10
369.3420408299999735
 20
-173.4978880300000128
 30
0.0
 11
367.8420405900000105
 21
-173.4978880300000128
 31
0.0
  0
LINE
  5
739
  8
LAYER0002
  6
CONTINUOUS
 62
     7
 10
369.3420408299999735
 20
-175.2603899099999865
 30
0.0
 11
367.8420405900000105
 21
-175.2603899099999865
 31
0.0
  0
LINE
  5
73A
  8
LAYER0002
  6
CONTINUOUS
 62
     7
 10
367.8420405900000105
 20
-281.5353895900000225
 30
0.0
 11
376.8420411299999842
 21
-281.5353895900000225
 31
0.0
  0
LINE
  5
73B
  8
LAYER0002
  6
CONTINUOUS
 62
     7
 10
367.8420405900000105
 20
-272.0103885400000081
 30
0.0
 11
376.8420411299999842
 21
-272.0103885400000081
 31
0.0
  0
LINE
  5
73C
  8
LAYER0002
  6
CONTINUOUS
 62
     7
 10
367.8420405900000105
 20
-262.4853893599999992
 30
0.0
 11
376.8420411299999842
 21
-262.4853893599999992
 31
0.0
  0
LINE
  5
73D
  8
LAYER0002
  6
CONTINUOUS
 62
     7
 10
367.8420405900000105
 20
-291.0603869299999928
 30
0.0
 11
376.8420411299999842
 21
-291.0603869299999928
 31
0.0
  0
LINE
  5
73E
  8
LAYER0002
  6
CONTINUOUS
 62
     7
 10
367.8420405900000105
 20
-233.9103886700000032
 30
0.0
 11
376.8420411299999842
 21
-233.9103886700000032
 31
0.0
  0
LINE
  5
73F
  8
LAYER0002
  6
CONTINUOUS
 62
     7
 10
376.8420411299999842
 20
-184.8853889400000128
 30
0.0
 11
367.8420405900000105
 21
-184.8853889400000128
 31
0.0
  0
LINE
  5
740
  8
LAYER0002
  6
CONTINUOUS
 62
     7
 10
376.8420411299999842
 20
-251.5603888299999937
 30
0.0
 11
367.8420405900000105
 21
-251.5603888299999937
 31
0.0
  0
LINE
  5
741
  8
LAYER0002
  6
CONTINUOUS
 62
     7
 10
367.8420405900000105
 20
-195.8103876000000128
 30
0.0
 11
376.8420411299999842
 21
-195.8103876000000128
 31
0.0
  0
LINE
  5
742
  8
LAYER0002
  6
CONTINUOUS
 62
     7
 10
367.8420405900000105
 20
-176.760389229999987
 30
0.0
 11
376.8420411299999842
 21
-176.760389229999987
 31
0.0
  0
LINE
  5
743
  8
LAYER0002
  6
CONTINUOUS
 62
     7
 10
376.8420411299999842
 20
-203.9353873000000021
 30
0.0
 11
367.8420405900000105
 21
-203.9353873000000021
 31
0.0
  0
LINE
  5
744
  8
LAYER0002
  6
CONTINUOUS
 62
     7
 10
367.8420405900000105
 20
-243.4353891199999964
 30
0.0
 11
376.8420411299999842
 21
-243.4353891199999964
 31
0.0
  0
LINE
  5
745
  8
LAYER0002
  6
CONTINUOUS
 62
     7
 10
376.8420411299999842
 20
-213.4603883499999881
 30
0.0
 11
367.8420405900000105
 21
-213.4603883499999881
 31
0.0
  0
LINE
  5
746
  8
LAYER0002
  6
CONTINUOUS
 62
     7
 10
376.8420411299999842
 20
-222.9853884700000037
 30
0.0
 11
367.8420405900000105
 21
-222.9853884700000037
 31
0.0
  0
LINE
  5
747
  8
LAYER0002
  6
CONTINUOUS
 62
     7
 10
369.1920410899999752
 20
-298.872890649999988
 30
0.0
 11
376.692040449999979
 21
-298.872890649999988
 31
0.0
  0
LINE
  5
748
  8
LAYER0002
  6
CONTINUOUS
 62
     7
 10
376.692040449999979
 20
-291.3728903499999774
 30
0.0
 11
369.1920410899999752
 21
-291.3728903499999774
 31
0.0
  0
LINE
  5
75E
  8
LAYER0002
  6
CONTINUOUS
 62
     7
 10
386.8420409099999802
 20
-218.2228888900000072
 30
0.0
 11
376.8420411299999842
 21
-218.2228888900000072
 31
0.0
  0
ARC
  5
895
  8
LAYER0002
  6
CONTINUOUS
 62
     7
 10
368.8420409799999788
 20
-300.1478887999999756
 30
0.0
 40
1.0
 50
180.0
 51
270.0
  0
ARC
  5
8C9
  8
LAYER0002
  6
CONTINUOUS
 62
     7
 10
386.8420409799999788
 20
-300.1478887100000179
 30
0.0
 40
1.000000089999999
 50
270.0
 51
360.0001466800000003
  0
ARC
  5
8CA
  8
LAYER0002
  6
CONTINUOUS
 62
     7
 10
386.8420410699999934
 20
-171.0478886999999872
 30
0.0
 40
1.0
 50
0.0
 51
90.0
  0
CIRCLE
  5
8D9
  8
LAYER0002
  6
CONTINUOUS
 62
     7
 10
334.2420412000000169
 20
-180.8303902799999889
 30
0.0
 40
3.0
  0
CIRCLE
  5
8DA
  8
LAYER0002
  6
CONTINUOUS
 62
     7
 10
334.2420412000000169
 20
-190.3603902799999901
 30
0.0
 40
3.0
  0
CIRCLE
  5
8DB
  8
LAYER0002
  6
CONTINUOUS
 62
     7
 10
334.2420412000000169
 20
-199.8903902700000117
 30
0.0
 40
3.0
  0
CIRCLE
  5
8DC
  8
LAYER0002
  6
CONTINUOUS
 62
     7
 10
334.2420412000000169
 20
-209.4203902700000128
 30
0.0
 40
3.0
  0
CIRCLE
  5
8DD
  8
LAYER0002
  6
CONTINUOUS
 62
     7
 10
334.2420412000000169
 20
-218.9503902799999935
 30
0.0
 40
3.0
  0
CIRCLE
  5
8DE
  8
LAYER0002
  6
CONTINUOUS
 62
     7
 10
334.2420412000000169
 20
-228.4803902799999946
 30
0.0
 40
3.0
  0
CIRCLE
  5
8DF
  8
LAYER0002
  6
CONTINUOUS
 62
     7
 10
334.2420412000000169
 20
-238.0103902699999878
 30
0.0
 40
3.0
  0
CIRCLE
  5
8E0
  8
LAYER0002
  6
CONTINUOUS
 62
     7
 10
334.2420412000000169
 20
-247.540390269999989
 30
0.0
 40
3.0
  0
CIRCLE
  5
8E1
  8
LAYER0002
  6
CONTINUOUS
 62
     7
 10
334.2420412000000169
 20
-257.0703902800000265
 30
0.0
 40
3.0
  0
CIRCLE
  5
8E2
  8
LAYER0002
  6
CONTINUOUS
 62
     7
 10
334.2420412000000169
 20
-266.6003902799999992
 30
0.0
 40
3.0
  0
CIRCLE
  5
8E3
  8
LAYER0002
  6
CONTINUOUS
 62
     7
 10
334.2420412000000169
 20
-276.1303902700000208
 30
0.0
 40
3.0
  0
CIRCLE
  5
8E4
  8
LAYER0002
  6
CONTINUOUS
 62
     7
 10
334.2420412000000169
 20
-285.6603902699999935
 30
0.0
 40
3.0
  0
CIRCLE
  5
8E5
  8
LAYER0002
  6
CONTINUOUS
 62
     7
 10
334.2420412000000169
 20
-295.1903902799999742
 30
0.0
 40
3.0
  0
CIRCLE
  5
922
  8
LAYER0002
  6
CONTINUOUS
 62
     7
 10
372.942040889999987
 20
-295.1228886999999759
 30
0.0
 40
3.0
  0
CIRCLE
  5
923
  8
LAYER0002
  6
CONTINUOUS
 62
     7
 10
372.942040889999987
 20
-276.0628887099999815
 30
0.0
 40
3.0
  0
CIRCLE
  5
924
  8
LAYER0002
  6
CONTINUOUS
 62
     7
 10
372.942040889999987
 20
-257.0028887000000282
 30
0.0
 40
3.0
  0
CIRCLE
  5
925
  8
LAYER0002
  6
CONTINUOUS
 62
     7
 10
372.942040889999987
 20
-237.9428887100000054
 30
0.0
 40
3.0
  0
CIRCLE
  5
926
  8
LAYER0002
  6
CONTINUOUS
 62
     7
 10
372.942040889999987
 20
-218.8828887100000031
 30
0.0
 40
3.0
  0
CIRCLE
  5
927
  8
LAYER0002
  6
CONTINUOUS
 62
     7
 10
372.942040889999987
 20
-199.8228886999999929
 30
0.0
 40
3.0
  0
CIRCLE
  5
928
  8
LAYER0002
  6
CONTINUOUS
 62
     7
 10
372.942040889999987
 20
-180.7628886999999906
 30
0.0
 40
3.0
  0
CIRCLE
  5
929
  8
LAYER0002
  6
CONTINUOUS
 62
     7
 10
382.4420405899999764
 20
-280.8353871400000799
 30
0.0
 40
3.0
  0
CIRCLE
  5
92A
  8
LAYER0002
  6
CONTINUOUS
 62
     7
 10
382.4420405899999764
 20
-261.7753871300000128
 30
0.0
 40
3.0
  0
CIRCLE
  5
92B
  8
LAYER0002
  6
CONTINUOUS
 62
     7
 10
382.4420405899999764
 20
-242.71538713999999
 30
0.0
 40
3.0
  0
CIRCLE
  5
92C
  8
LAYER0002
  6
CONTINUOUS
 62
     7
 10
382.4420405899999764
 20
-223.6553871300000083
 30
0.0
 40
3.0
  0
CIRCLE
  5
92D
  8
LAYER0002
  6
CONTINUOUS
 62
     7
 10
382.4420405899999764
 20
-204.5953871400000139
 30
0.0
 40
3.0
  0
CIRCLE
  5
92E
  8
LAYER0002
  6
CONTINUOUS
 62
     7
 10
382.4420405899999764
 20
-185.5353871400000116
 30
0.0
 40
3.0
  0
ARC
  5
92F
  8
LAYER0002
  6
CONTINUOUS
 62
     7
 10
368.8420000099999925
 20
-171.0478892300000098
 30
0.0
 40
1.0
 50
90.0000017200000002
 51
180.000018329999989
  0
CIRCLE
  5
930
  8
LAYER0002
  6
CONTINUOUS
 62
     7
 10
372.942040889999987
 20
-285.5928887000000032
 30
0.0
 40
3.0
  0
CIRCLE
  5
931
  8
LAYER0002
  6
CONTINUOUS
 62
     7
 10
372.942040889999987
 20
-266.5328887100000088
 30
0.0
 40
3.0
  0
CIRCLE
  5
932
  8
LAYER0002
  6
CONTINUOUS
 62
     7
 10
372.942040889999987
 20
-247.4728886999999986
 30
0.0
 40
3.0
  0
CIRCLE
  5
933
  8
LAYER0002
  6
CONTINUOUS
 62
     7
 10
372.942040889999987
 20
-228.4128887100000043
 30
0.0
 40
3.0
  0
CIRCLE
  5
934
  8
LAYER0002
  6
CONTINUOUS
 62
     7
 10
372.942040889999987
 20
-209.3528886999999941
 30
0.0
 40
3.0
  0
CIRCLE
  5
935
  8
LAYER0002
  6
CONTINUOUS
 62
     7
 10
372.942040889999987
 20
-190.2928886999999918
 30
0.0
 40
3.0
  0
CIRCLE
  5
936
  8
LAYER0002
  6
CONTINUOUS
 62
     7
 10
382.4420405899999764
 20
-290.3653871399999957
 30
0.0
 40
3.0
  0
CIRCLE
  5
937
  8
LAYER0002
  6
CONTINUOUS
 62
     7
 10
382.4420405899999764
 20
-271.3053871299999855
 30
0.0
 40
3.0
  0
CIRCLE
  5
938
  8
LAYER0002
  6
CONTINUOUS
 62
     7
 10
382.4420405899999764
 20
-252.2453871399999912
 30
0.0
 40
3.0
  0
CIRCLE
  5
939
  8
LAYER0002
  6
CONTINUOUS
 62
     7
 10
382.4420405899999764
 20
-233.1853871300000094
 30
0.0
 40
3.0
  0
CIRCLE
  5
93A
  8
LAYER0002
  6
CONTINUOUS
 62
     7
 10
382.4420405899999764
 20
-214.1253871399999866
 30
0.0
 40
3.0
  0
CIRCLE
  5
93B
  8
LAYER0002
  6
CONTINUOUS
 62
     7
 10
382.4420405899999764
 20
-195.0653871300000048
 30
0.0
 40
3.0
  0
CIRCLE
  5
93C
  8
LAYER0002
  6
CONTINUOUS
 62
     7
 10
382.4420405899999764
 20
-176.0053871400000105
 30
0.0
 40
3.0
  0
POLYLINE
  5
93D
  8
LAYER0002
  6
CONTINUOUS
 62
     7
 10
322.3420408937939783
 20
-305.5981933199988703
 30
0.0
 66
     1
 70
     8
  0
VERTEX
  8
LAYER0002
  5
D79
 10
322.342
 20
-305.598
 30
0.000000
  70
    32
  0
VERTEX
  8
LAYER0002
  5
D7A
 10
322.342
 20
-305.623
 30
0.000000
  70
    32
  0
VERTEX
  8
LAYER0002
  5
D7B
 10
322.343
 20
-305.647
 30
0.000000
  70
    32
  0
VERTEX
  8
LAYER0002
  5
D7C
 10
322.343
 20
-305.672
 30
0.000000
  70
    32
  0
VERTEX
  8
LAYER0002
  5
D7D
 10
322.344
 20
-305.696
 30
0.000000
  70
    32
  0
VERTEX
  8
LAYER0002
  5
D7E
 10
322.346
 20
-305.721
 30
0.000000
  70
    32
  0
VERTEX
  8
LAYER0002
  5
D7F
 10
322.347
 20
-305.745
 30
0.000000
  70
    32
  0
VERTEX
  8
LAYER0002
  5
D80
 10
322.349
 20
-305.770
 30
0.000000
  70
    32
  0
VERTEX
  8
LAYER0002
  5
D81
 10
322.352
 20
-305.794
 30
0.000000
  70
    32
  0
VERTEX
  8
LAYER0002
  5
D82
 10
322.354
 20
-305.819
 30
0.000000
  70
    32
  0
VERTEX
  8
LAYER0002
  5
D83
 10
322.357
 20
-305.843
 30
0.000000
  70
    32
  0
VERTEX
  8
LAYER0002
  5
D84
 10
322.360
 20
-305.867
 30
0.000000
  70
    32
  0
VERTEX
  8
LAYER0002
  5
D85
 10
322.364
 20
-305.892
 30
0.000000
  70
    32
  0
VERTEX
  8
LAYER0002
  5
D86
 10
322.367
 20
-305.916
 30
0.000000
  70
    32
  0
VERTEX
  8
LAYER0002
  5
D87
 10
322.371
 20
-305.940
 30
0.000000
  70
    32
  0
VERTEX
  8
LAYER0002
  5
D88
 10
322.376
 20
-305.964
 30
0.000000
  70
    32
  0
VERTEX
  8
LAYER0002
  5
D89
 10
322.380
 20
-305.988
 30
0.000000
  70
    32
  0
VERTEX
  8
LAYER0002
  5
D8A
 10
322.385
 20
-306.012
 30
0.000000
  70
    32
  0
VERTEX
  8
LAYER0002
  5
D8B
 10
322.391
 20
-306.036
 30
0.000000
  70
    32
  0
VERTEX
  8
LAYER0002
  5
D8C
 10
322.396
 20
-306.060
 30
0.000000
  70
    32
  0
VERTEX
  8
LAYER0002
  5
D8D
 10
322.402
 20
-306.084
 30
0.000000
  70
    32
  0
VERTEX
  8
LAYER0002
  5
D8E
 10
322.408
 20
-306.108
 30
0.000000
  70
    32
  0
VERTEX
  8
LAYER0002
  5
D8F
 10
322.414
 20
-306.132
 30
0.000000
  70
    32
  0
VERTEX
  8
LAYER0002
  5
D90
 10
322.421
 20
-306.155
 30
0.000000
  70
    32
  0
VERTEX
  8
LAYER0002
  5
D91
 10
322.428
 20
-306.179
 30
0.000000
  70
    32
  0
VERTEX
  8
LAYER0002
  5
D92
 10
322.435
 20
-306.202
 30
0.000000
  70
    32
  0
VERTEX
  8
LAYER0002
  5
D93
 10
322.443
 20
-306.226
 30
0.000000
  70
    32
  0
VERTEX
  8
LAYER0002
  5
D94
 10
322.451
 20
-306.249
 30
0.000000
  70
    32
  0
VERTEX
  8
LAYER0002
  5
D95
 10
322.459
 20
-306.272
 30
0.000000
  70
    32
  0
VERTEX
  8
LAYER0002
  5
D96
 10
322.467
 20
-306.295
 30
0.000000
  70
    32
  0
VERTEX
  8
LAYER0002
  5
D97
 10
322.476
 20
-306.318
 30
0.000000
  70
    32
  0
VERTEX
  8
LAYER0002
  5
D98
 10
322.485
 20
-306.341
 30
0.000000
  70
    32
  0
VERTEX
  8
LAYER0002
  5
D99
 10
322.494
 20
-306.363
 30
0.000000
  70
    32
  0
VERTEX
  8
LAYER0002
  5
D9A
 10
322.504
 20
-306.386
 30
0.000000
  70
    32
  0
VERTEX
  8
LAYER0002
  5
D9B
 10
322.514
 20
-306.409
 30
0.000000
  70
    32
  0
VERTEX
  8
LAYER0002
  5
D9C
 10
322.524
 20
-306.431
 30
0.000000
  70
    32
  0
VERTEX
  8
LAYER0002
  5
D9D
 10
322.534
 20
-306.453
 30
0.000000
  70
    32
  0
VERTEX
  8
LAYER0002
  5
D9E
 10
322.545
 20
-306.475
 30
0.000000
  70
    32
  0
VERTEX
  8
LAYER0002
  5
D9F
 10
322.556
 20
-306.497
 30
0.000000
  70
    32
  0
VERTEX
  8
LAYER0002
  5
DA0
 10
322.567
 20
-306.519
 30
0.000000
  70
    32
  0
VERTEX
  8
LAYER0002
  5
DA1
 10
322.578
 20
-306.541
 30
0.000000
  70
    32
  0
VERTEX
  8
LAYER0002
  5
DA2
 10
322.590
 20
-306.562
 30
0.000000
  70
    32
  0
VERTEX
  8
LAYER0002
  5
DA3
 10
322.602
 20
-306.584
 30
0.000000
  70
    32
  0
VERTEX
  8
LAYER0002
  5
DA4
 10
322.614
 20
-306.605
 30
0.000000
  70
    32
  0
VERTEX
  8
LAYER0002
  5
DA5
 10
322.627
 20
-306.626
 30
0.000000
  70
    32
  0
VERTEX
  8
LAYER0002
  5
DA6
 10
322.639
 20
-306.647
 30
0.000000
  70
    32
  0
VERTEX
  8
LAYER0002
  5
DA7
 10
322.652
 20
-306.668
 30
0.000000
  70
    32
  0
VERTEX
  8
LAYER0002
  5
DA8
 10
322.666
 20
-306.689
 30
0.000000
  70
    32
  0
VERTEX
  8
LAYER0002
  5
DA9
 10
322.679
 20
-306.709
 30
0.000000
  70
    32
  0
VERTEX
  8
LAYER0002
  5
DAA
 10
322.693
 20
-306.730
 30
0.000000
  70
    32
  0
VERTEX
  8
LAYER0002
  5
DAB
 10
322.707
 20
-306.750
 30
0.000000
  70
    32
  0
VERTEX
  8
LAYER0002
  5
DAC
 10
322.721
 20
-306.770
 30
0.000000
  70
    32
  0
VERTEX
  8
LAYER0002
  5
DAD
 10
322.736
 20
-306.789
 30
0.000000
  70
    32
  0
VERTEX
  8
LAYER0002
  5
DAE
 10
322.750
 20
-306.809
 30
0.000000
  70
    32
  0
VERTEX
  8
LAYER0002
  5
DAF
 10
322.765
 20
-306.829
 30
0.000000
  70
    32
  0
VERTEX
  8
LAYER0002
  5
DB0
 10
322.780
 20
-306.848
 30
0.000000
  70
    32
  0
VERTEX
  8
LAYER0002
  5
DB1
 10
322.796
 20
-306.867
 30
0.000000
  70
    32
  0
VERTEX
  8
LAYER0002
  5
DB2
 10
322.812
 20
-306.886
 30
0.000000
  70
    32
  0
VERTEX
  8
LAYER0002
  5
DB3
 10
322.828
 20
-306.904
 30
0.000000
  70
    32
  0
VERTEX
  8
LAYER0002
  5
DB4
 10
322.844
 20
-306.923
 30
0.000000
  70
    32
  0
VERTEX
  8
LAYER0002
  5
DB5
 10
322.860
 20
-306.941
 30
0.000000
  70
    32
  0
VERTEX
  8
LAYER0002
  5
DB6
 10
322.877
 20
-306.959
 30
0.000000
  70
    32
  0
VERTEX
  8
LAYER0002
  5
DB7
 10
322.893
 20
-306.977
 30
0.000000
  70
    32
  0
VERTEX
  8
LAYER0002
  5
DB8
 10
322.910
 20
-306.995
 30
0.000000
  70
    32
  0
VERTEX
  8
LAYER0002
  5
DB9
 10
322.928
 20
-307.012
 30
0.000000
  70
    32
  0
VERTEX
  8
LAYER0002
  5
DBA
 10
322.945
 20
-307.029
 30
0.000000
  70
    32
  0
VERTEX
  8
LAYER0002
  5
DBB
 10
322.963
 20
-307.047
 30
0.000000
  70
    32
  0
VERTEX
  8
LAYER0002
  5
DBC
 10
322.981
 20
-307.063
 30
0.000000
  70
    32
  0
VERTEX
  8
LAYER0002
  5
DBD
 10
322.999
 20
-307.080
 30
0.000000
  70
    32
  0
VERTEX
  8
LAYER0002
  5
DBE
 10
323.017
 20
-307.096
 30
0.000000
  70
    32
  0
VERTEX
  8
LAYER0002
  5
DBF
 10
323.036
 20
-307.112
 30
0.000000
  70
    32
  0
VERTEX
  8
LAYER0002
  5
DC0
 10
323.054
 20
-307.128
 30
0.000000
  70
    32
  0
VERTEX
  8
LAYER0002
  5
DC1
 10
323.073
 20
-307.144
 30
0.000000
  70
    32
  0
VERTEX
  8
LAYER0002
  5
DC2
 10
323.092
 20
-307.159
 30
0.000000
  70
    32
  0
VERTEX
  8
LAYER0002
  5
DC3
 10
323.111
 20
-307.175
 30
0.000000
  70
    32
  0
VERTEX
  8
LAYER0002
  5
DC4
 10
323.131
 20
-307.190
 30
0.000000
  70
    32
  0
VERTEX
  8
LAYER0002
  5
DC5
 10
323.150
 20
-307.204
 30
0.000000
  70
    32
  0
VERTEX
  8
LAYER0002
  5
DC6
 10
323.170
 20
-307.219
 30
0.000000
  70
    32
  0
VERTEX
  8
LAYER0002
  5
DC7
 10
323.190
 20
-307.233
 30
0.000000
  70
    32
  0
VERTEX
  8
LAYER0002
  5
DC8
 10
323.210
 20
-307.247
 30
0.000000
  70
    32
  0
VERTEX
  8
LAYER0002
  5
DC9
 10
323.231
 20
-307.261
 30
0.000000
  70
    32
  0
VERTEX
  8
LAYER0002
  5
DCA
 10
323.251
 20
-307.274
 30
0.000000
  70
    32
  0
VERTEX
  8
LAYER0002
  5
DCB
 10
323.272
 20
-307.288
 30
0.000000
  70
    32
  0
VERTEX
  8
LAYER0002
  5
DCC
 10
323.293
 20
-307.301
 30
0.000000
  70
    32
  0
VERTEX
  8
LAYER0002
  5
DCD
 10
323.314
 20
-307.313
 30
0.000000
  70
    32
  0
VERTEX
  8
LAYER0002
  5
DCE
 10
323.335
 20
-307.326
 30
0.000000
  70
    32
  0
VERTEX
  8
LAYER0002
  5
DCF
 10
323.356
 20
-307.338
 30
0.000000
  70
    32
  0
VERTEX
  8
LAYER0002
  5
DD0
 10
323.377
 20
-307.350
 30
0.000000
  70
    32
  0
VERTEX
  8
LAYER0002
  5
DD1
 10
323.399
 20
-307.362
 30
0.000000
  70
    32
  0
VERTEX
  8
LAYER0002
  5
DD2
 10
323.421
 20
-307.373
 30
0.000000
  70
    32
  0
VERTEX
  8
LAYER0002
  5
DD3
 10
323.443
 20
-307.384
 30
0.000000
  70
    32
  0
VERTEX
  8
LAYER0002
  5
DD4
 10
323.465
 20
-307.395
 30
0.000000
  70
    32
  0
VERTEX
  8
LAYER0002
  5
DD5
 10
323.487
 20
-307.406
 30
0.000000
  70
    32
  0
VERTEX
  8
LAYER0002
  5
DD6
 10
323.509
 20
-307.416
 30
0.000000
  70
    32
  0
VERTEX
  8
LAYER0002
  5
DD7
 10
323.531
 20
-307.426
 30
0.000000
  70
    32
  0
VERTEX
  8
LAYER0002
  5
DD8
 10
323.554
 20
-307.436
 30
0.000000
  70
    32
  0
VERTEX
  8
LAYER0002
  5
DD9
 10
323.576
 20
-307.446
 30
0.000000
  70
    32
  0
VERTEX
  8
LAYER0002
  5
DDA
 10
323.599
 20
-307.455
 30
0.000000
  70
    32
  0
VERTEX
  8
LAYER0002
  5
DDB
 10
323.622
 20
-307.464
 30
0.000000
  70
    32
  0
VERTEX
  8
LAYER0002
  5
DDC
 10
323.645
 20
-307.473
 30
0.000000
  70
    32
  0
VERTEX
  8
LAYER0002
  5
DDD
 10
323.668
 20
-307.481
 30
0.000000
  70
    32
  0
VERTEX
  8
LAYER0002
  5
DDE
 10
323.691
 20
-307.489
 30
0.000000
  70
    32
  0
VERTEX
  8
LAYER0002
  5
DDF
 10
323.714
 20
-307.497
 30
0.000000
  70
    32
  0
VERTEX
  8
LAYER0002
  5
DE0
 10
323.738
 20
-307.505
 30
0.000000
  70
    32
  0
VERTEX
  8
LAYER0002
  5
DE1
 10
323.761
 20
-307.512
 30
0.000000
  70
    32
  0
VERTEX
  8
LAYER0002
  5
DE2
 10
323.785
 20
-307.519
 30
0.000000
  70
    32
  0
VERTEX
  8
LAYER0002
  5
DE3
 10
323.808
 20
-307.525
 30
0.000000
  70
    32
  0
VERTEX
  8
LAYER0002
  5
DE4
 10
323.832
 20
-307.532
 30
0.000000
  70
    32
  0
VERTEX
  8
LAYER0002
  5
DE5
 10
323.856
 20
-307.538
 30
0.000000
  70
    32
  0
VERTEX
  8
LAYER0002
  5
DE6
 10
323.880
 20
-307.544
 30
0.000000
  70
    32
  0
VERTEX
  8
LAYER0002
  5
DE7
 10
323.904
 20
-307.549
 30
0.000000
  70
    32
  0
VERTEX
  8
LAYER0002
  5
DE8
 10
323.928
 20
-307.555
 30
0.000000
  70
    32
  0
VERTEX
  8
LAYER0002
  5
DE9
 10
323.952
 20
-307.559
 30
0.000000
  70
    32
  0
VERTEX
  8
LAYER0002
  5
DEA
 10
323.976
 20
-307.564
 30
0.000000
  70
    32
  0
VERTEX
  8
LAYER0002
  5
DEB
 10
324.000
 20
-307.568
 30
0.000000
  70
    32
  0
VERTEX
  8
LAYER0002
  5
DEC
 10
324.024
 20
-307.572
 30
0.000000
  70
    32
  0
VERTEX
  8
LAYER0002
  5
DED
 10
324.048
 20
-307.576
 30
0.000000
  70
    32
  0
VERTEX
  8
LAYER0002
  5
DEE
 10
324.073
 20
-307.580
 30
0.000000
  70
    32
  0
VERTEX
  8
LAYER0002
  5
DEF
 10
324.097
 20
-307.583
 30
0.000000
  70
    32
  0
VERTEX
  8
LAYER0002
  5
DF0
 10
324.121
 20
-307.586
 30
0.000000
  70
    32
  0
VERTEX
  8
LAYER0002
  5
DF1
 10
324.146
 20
-307.588
 30
0.000000
  70
    32
  0
VERTEX
  8
LAYER0002
  5
DF2
 10
324.170
 20
-307.591
 30
0.000000
  70
    32
  0
VERTEX
  8
LAYER0002
  5
DF3
 10
324.195
 20
-307.592
 30
0.000000
  70
    32
  0
VERTEX
  8
LAYER0002
  5
DF4
 10
324.219
 20
-307.594
 30
0.000000
  70
    32
  0
VERTEX
  8
LAYER0002
  5
DF5
 10
324.244
 20
-307.595
 30
0.000000
  70
    32
  0
VERTEX
  8
LAYER0002
  5
DF6
 10
324.268
 20
-307.597
 30
0.000000
  70
    32
  0
VERTEX
  8
LAYER0002
  5
DF7
 10
324.293
 20
-307.597
 30
0.000000
  70
    32
  0
VERTEX
  8
LAYER0002
  5
DF8
 10
324.317
 20
-307.598
 30
0.000000
  70
    32
  0
VERTEX
  8
LAYER0002
  5
DF9
 10
324.342
 20
-307.598
 30
0.000000
  70
    32
  0
SEQEND
  8
LAYER0002
  5
DFA
  0
POLYLINE
  5
93E
  8
LAYER0002
  6
CONTINUOUS
 62
     7
 10
394.3420408962059014
 20
-165.5975840999981301
 30
0.0
 66
     1
 70
     8
  0
VERTEX
  8
LAYER0002
  5
DFB
 10
394.342
 20
-165.598
 30
0.000000
  70
    32
  0
VERTEX
  8
LAYER0002
  5
DFC
 10
394.342
 20
-165.573
 30
0.000000
  70
    32
  0
VERTEX
  8
LAYER0002
  5
DFD
 10
394.341
 20
-165.549
 30
0.000000
  70
    32
  0
VERTEX
  8
LAYER0002
  5
DFE
 10
394.341
 20
-165.524
 30
0.000000
  70
    32
  0
VERTEX
  8
LAYER0002
  5
DFF
 10
394.340
 20
-165.499
 30
0.000000
  70
    32
  0
VERTEX
  8
LAYER0002
  5
E00
 10
394.338
 20
-165.475
 30
0.000000
  70
    32
  0
VERTEX
  8
LAYER0002
  5
E01
 10
394.337
 20
-165.450
 30
0.000000
  70
    32
  0
VERTEX
  8
LAYER0002
  5
E02
 10
394.335
 20
-165.426
 30
0.000000
  70
    32
  0
VERTEX
  8
LAYER0002
  5
E03
 10
394.332
 20
-165.402
 30
0.000000
  70
    32
  0
VERTEX
  8
LAYER0002
  5
E04
 10
394.330
 20
-165.377
 30
0.000000
  70
    32
  0
VERTEX
  8
LAYER0002
  5
E05
 10
394.327
 20
-165.353
 30
0.000000
  70
    32
  0
VERTEX
  8
LAYER0002
  5
E06
 10
394.324
 20
-165.328
 30
0.000000
  70
    32
  0
VERTEX
  8
LAYER0002
  5
E07
 10
394.320
 20
-165.304
 30
0.000000
  70
    32
  0
VERTEX
  8
LAYER0002
  5
E08
 10
394.317
 20
-165.280
 30
0.000000
  70
    32
  0
VERTEX
  8
LAYER0002
  5
E09
 10
394.313
 20
-165.256
 30
0.000000
  70
    32
  0
VERTEX
  8
LAYER0002
  5
E0A
 10
394.308
 20
-165.232
 30
0.000000
  70
    32
  0
VERTEX
  8
LAYER0002
  5
E0B
 10
394.304
 20
-165.207
 30
0.000000
  70
    32
  0
VERTEX
  8
LAYER0002
  5
E0C
 10
394.299
 20
-165.183
 30
0.000000
  70
    32
  0
VERTEX
  8
LAYER0002
  5
E0D
 10
394.293
 20
-165.159
 30
0.000000
  70
    32
  0
VERTEX
  8
LAYER0002
  5
E0E
 10
394.288
 20
-165.136
 30
0.000000
  70
    32
  0
VERTEX
  8
LAYER0002
  5
E0F
 10
394.282
 20
-165.112
 30
0.000000
  70
    32
  0
VERTEX
  8
LAYER0002
  5
E10
 10
394.276
 20
-165.088
 30
0.000000
  70
    32
  0
VERTEX
  8
LAYER0002
  5
E11
 10
394.270
 20
-165.064
 30
0.000000
  70
    32
  0
VERTEX
  8
LAYER0002
  5
E12
 10
394.263
 20
-165.041
 30
0.000000
  70
    32
  0
VERTEX
  8
LAYER0002
  5
E13
 10
394.256
 20
-165.017
 30
0.000000
  70
    32
  0
VERTEX
  8
LAYER0002
  5
E14
 10
394.249
 20
-164.994
 30
0.000000
  70
    32
  0
VERTEX
  8
LAYER0002
  5
E15
 10
394.241
 20
-164.970
 30
0.000000
  70
    32
  0
VERTEX
  8
LAYER0002
  5
E16
 10
394.233
 20
-164.947
 30
0.000000
  70
    32
  0
VERTEX
  8
LAYER0002
  5
E17
 10
394.225
 20
-164.924
 30
0.000000
  70
    32
  0
VERTEX
  8
LAYER0002
  5
E18
 10
394.217
 20
-164.901
 30
0.000000
  70
    32
  0
VERTEX
  8
LAYER0002
  5
E19
 10
394.208
 20
-164.878
 30
0.000000
  70
    32
  0
VERTEX
  8
LAYER0002
  5
E1A
 10
394.199
 20
-164.855
 30
0.000000
  70
    32
  0
VERTEX
  8
LAYER0002
  5
E1B
 10
394.190
 20
-164.832
 30
0.000000
  70
    32
  0
VERTEX
  8
LAYER0002
  5
E1C
 10
394.180
 20
-164.810
 30
0.000000
  70
    32
  0
VERTEX
  8
LAYER0002
  5
E1D
 10
394.170
 20
-164.787
 30
0.000000
  70
    32
  0
VERTEX
  8
LAYER0002
  5
E1E
 10
394.160
 20
-164.765
 30
0.000000
  70
    32
  0
VERTEX
  8
LAYER0002
  5
E1F
 10
394.150
 20
-164.743
 30
0.000000
  70
    32
  0
VERTEX
  8
LAYER0002
  5
E20
 10
394.139
 20
-164.720
 30
0.000000
  70
    32
  0
VERTEX
  8
LAYER0002
  5
E21
 10
394.129
 20
-164.698
 30
0.000000
  70
    32
  0
VERTEX
  8
LAYER0002
  5
E22
 10
394.117
 20
-164.677
 30
0.000000
  70
    32
  0
VERTEX
  8
LAYER0002
  5
E23
 10
394.106
 20
-164.655
 30
0.000000
  70
    32
  0
VERTEX
  8
LAYER0002
  5
E24
 10
394.094
 20
-164.633
 30
0.000000
  70
    32
  0
VERTEX
  8
LAYER0002
  5
E25
 10
394.082
 20
-164.612
 30
0.000000
  70
    32
  0
VERTEX
  8
LAYER0002
  5
E26
 10
394.070
 20
-164.591
 30
0.000000
  70
    32
  0
VERTEX
  8
LAYER0002
  5
E27
 10
394.058
 20
-164.569
 30
0.000000
  70
    32
  0
VERTEX
  8
LAYER0002
  5
E28
 10
394.045
 20
-164.549
 30
0.000000
  70
    32
  0
VERTEX
  8
LAYER0002
  5
E29
 10
394.032
 20
-164.528
 30
0.000000
  70
    32
  0
VERTEX
  8
LAYER0002
  5
E2A
 10
394.019
 20
-164.507
 30
0.000000
  70
    32
  0
VERTEX
  8
LAYER0002
  5
E2B
 10
394.005
 20
-164.487
 30
0.000000
  70
    32
  0
VERTEX
  8
LAYER0002
  5
E2C
 10
393.991
 20
-164.466
 30
0.000000
  70
    32
  0
VERTEX
  8
LAYER0002
  5
E2D
 10
393.977
 20
-164.446
 30
0.000000
  70
    32
  0
VERTEX
  8
LAYER0002
  5
E2E
 10
393.963
 20
-164.426
 30
0.000000
  70
    32
  0
VERTEX
  8
LAYER0002
  5
E2F
 10
393.949
 20
-164.406
 30
0.000000
  70
    32
  0
VERTEX
  8
LAYER0002
  5
E30
 10
393.934
 20
-164.387
 30
0.000000
  70
    32
  0
VERTEX
  8
LAYER0002
  5
E31
 10
393.919
 20
-164.367
 30
0.000000
  70
    32
  0
VERTEX
  8
LAYER0002
  5
E32
 10
393.904
 20
-164.348
 30
0.000000
  70
    32
  0
VERTEX
  8
LAYER0002
  5
E33
 10
393.888
 20
-164.329
 30
0.000000
  70
    32
  0
VERTEX
  8
LAYER0002
  5
E34
 10
393.872
 20
-164.310
 30
0.000000
  70
    32
  0
VERTEX
  8
LAYER0002
  5
E35
 10
393.857
 20
-164.291
 30
0.000000
  70
    32
  0
VERTEX
  8
LAYER0002
  5
E36
 10
393.840
 20
-164.273
 30
0.000000
  70
    32
  0
VERTEX
  8
LAYER0002
  5
E37
 10
393.824
 20
-164.255
 30
0.000000
  70
    32
  0
VERTEX
  8
LAYER0002
  5
E38
 10
393.807
 20
-164.237
 30
0.000000
  70
    32
  0
VERTEX
  8
LAYER0002
  5
E39
 10
393.791
 20
-164.219
 30
0.000000
  70
    32
  0
VERTEX
  8
LAYER0002
  5
E3A
 10
393.774
 20
-164.201
 30
0.000000
  70
    32
  0
VERTEX
  8
LAYER0002
  5
E3B
 10
393.756
 20
-164.184
 30
0.000000
  70
    32
  0
VERTEX
  8
LAYER0002
  5
E3C
 10
393.739
 20
-164.166
 30
0.000000
  70
    32
  0
VERTEX
  8
LAYER0002
  5
E3D
 10
393.721
 20
-164.149
 30
0.000000
  70
    32
  0
VERTEX
  8
LAYER0002
  5
E3E
 10
393.703
 20
-164.132
 30
0.000000
  70
    32
  0
VERTEX
  8
LAYER0002
  5
E3F
 10
393.685
 20
-164.116
 30
0.000000
  70
    32
  0
VERTEX
  8
LAYER0002
  5
E40
 10
393.667
 20
-164.100
 30
0.000000
  70
    32
  0
VERTEX
  8
LAYER0002
  5
E41
 10
393.649
 20
-164.083
 30
0.000000
  70
    32
  0
VERTEX
  8
LAYER0002
  5
E42
 10
393.630
 20
-164.067
 30
0.000000
  70
    32
  0
VERTEX
  8
LAYER0002
  5
E43
 10
393.611
 20
-164.052
 30
0.000000
  70
    32
  0
VERTEX
  8
LAYER0002
  5
E44
 10
393.592
 20
-164.036
 30
0.000000
  70
    32
  0
VERTEX
  8
LAYER0002
  5
E45
 10
393.573
 20
-164.021
 30
0.000000
  70
    32
  0
VERTEX
  8
LAYER0002
  5
E46
 10
393.553
 20
-164.006
 30
0.000000
  70
    32
  0
VERTEX
  8
LAYER0002
  5
E47
 10
393.534
 20
-163.991
 30
0.000000
  70
    32
  0
VERTEX
  8
LAYER0002
  5
E48
 10
393.514
 20
-163.977
 30
0.000000
  70
    32
  0
VERTEX
  8
LAYER0002
  5
E49
 10
393.494
 20
-163.963
 30
0.000000
  70
    32
  0
VERTEX
  8
LAYER0002
  5
E4A
 10
393.474
 20
-163.949
 30
0.000000
  70
    32
  0
VERTEX
  8
LAYER0002
  5
E4B
 10
393.453
 20
-163.935
 30
0.000000
  70
    32
  0
VERTEX
  8
LAYER0002
  5
E4C
 10
393.433
 20
-163.921
 30
0.000000
  70
    32
  0
VERTEX
  8
LAYER0002
  5
E4D
 10
393.412
 20
-163.908
 30
0.000000
  70
    32
  0
VERTEX
  8
LAYER0002
  5
E4E
 10
393.391
 20
-163.895
 30
0.000000
  70
    32
  0
VERTEX
  8
LAYER0002
  5
E4F
 10
393.370
 20
-163.882
 30
0.000000
  70
    32
  0
VERTEX
  8
LAYER0002
  5
E50
 10
393.349
 20
-163.870
 30
0.000000
  70
    32
  0
VERTEX
  8
LAYER0002
  5
E51
 10
393.328
 20
-163.858
 30
0.000000
  70
    32
  0
VERTEX
  8
LAYER0002
  5
E52
 10
393.307
 20
-163.846
 30
0.000000
  70
    32
  0
VERTEX
  8
LAYER0002
  5
E53
 10
393.285
 20
-163.834
 30
0.000000
  70
    32
  0
VERTEX
  8
LAYER0002
  5
E54
 10
393.263
 20
-163.823
 30
0.000000
  70
    32
  0
VERTEX
  8
LAYER0002
  5
E55
 10
393.241
 20
-163.811
 30
0.000000
  70
    32
  0
VERTEX
  8
LAYER0002
  5
E56
 10
393.219
 20
-163.800
 30
0.000000
  70
    32
  0
VERTEX
  8
LAYER0002
  5
E57
 10
393.197
 20
-163.790
 30
0.000000
  70
    32
  0
VERTEX
  8
LAYER0002
  5
E58
 10
393.175
 20
-163.780
 30
0.000000
  70
    32
  0
VERTEX
  8
LAYER0002
  5
E59
 10
393.153
 20
-163.769
 30
0.000000
  70
    32
  0
VERTEX
  8
LAYER0002
  5
E5A
 10
393.130
 20
-163.760
 30
0.000000
  70
    32
  0
VERTEX
  8
LAYER0002
  5
E5B
 10
393.108
 20
-163.750
 30
0.000000
  70
    32
  0
VERTEX
  8
LAYER0002
  5
E5C
 10
393.085
 20
-163.741
 30
0.000000
  70
    32
  0
VERTEX
  8
LAYER0002
  5
E5D
 10
393.062
 20
-163.732
 30
0.000000
  70
    32
  0
VERTEX
  8
LAYER0002
  5
E5E
 10
393.039
 20
-163.723
 30
0.000000
  70
    32
  0
VERTEX
  8
LAYER0002
  5
E5F
 10
393.016
 20
-163.715
 30
0.000000
  70
    32
  0
VERTEX
  8
LAYER0002
  5
E60
 10
392.993
 20
-163.707
 30
0.000000
  70
    32
  0
VERTEX
  8
LAYER0002
  5
E61
 10
392.970
 20
-163.699
 30
0.000000
  70
    32
  0
VERTEX
  8
LAYER0002
  5
E62
 10
392.946
 20
-163.691
 30
0.000000
  70
    32
  0
VERTEX
  8
LAYER0002
  5
E63
 10
392.923
 20
-163.684
 30
0.000000
  70
    32
  0
VERTEX
  8
LAYER0002
  5
E64
 10
392.899
 20
-163.677
 30
0.000000
  70
    32
  0
VERTEX
  8
LAYER0002
  5
E65
 10
392.876
 20
-163.670
 30
0.000000
  70
    32
  0
VERTEX
  8
LAYER0002
  5
E66
 10
392.852
 20
-163.664
 30
0.000000
  70
    32
  0
VERTEX
  8
LAYER0002
  5
E67
 10
392.828
 20
-163.658
 30
0.000000
  70
    32
  0
VERTEX
  8
LAYER0002
  5
E68
 10
392.804
 20
-163.652
 30
0.000000
  70
    32
  0
VERTEX
  8
LAYER0002
  5
E69
 10
392.781
 20
-163.646
 30
0.000000
  70
    32
  0
VERTEX
  8
LAYER0002
  5
E6A
 10
392.757
 20
-163.641
 30
0.000000
  70
    32
  0
VERTEX
  8
LAYER0002
  5
E6B
 10
392.732
 20
-163.636
 30
0.000000
  70
    32
  0
VERTEX
  8
LAYER0002
  5
E6C
 10
392.708
 20
-163.632
 30
0.000000
  70
    32
  0
VERTEX
  8
LAYER0002
  5
E6D
 10
392.684
 20
-163.627
 30
0.000000
  70
    32
  0
VERTEX
  8
LAYER0002
  5
E6E
 10
392.660
 20
-163.623
 30
0.000000
  70
    32
  0
VERTEX
  8
LAYER0002
  5
E6F
 10
392.636
 20
-163.620
 30
0.000000
  70
    32
  0
VERTEX
  8
LAYER0002
  5
E70
 10
392.611
 20
-163.616
 30
0.000000
  70
    32
  0
VERTEX
  8
LAYER0002
  5
E71
 10
392.587
 20
-163.613
 30
0.000000
  70
    32
  0
VERTEX
  8
LAYER0002
  5
E72
 10
392.563
 20
-163.610
 30
0.000000
  70
    32
  0
VERTEX
  8
LAYER0002
  5
E73
 10
392.538
 20
-163.608
 30
0.000000
  70
    32
  0
VERTEX
  8
LAYER0002
  5
E74
 10
392.514
 20
-163.605
 30
0.000000
  70
    32
  0
VERTEX
  8
LAYER0002
  5
E75
 10
392.489
 20
-163.603
 30
0.000000
  70
    32
  0
VERTEX
  8
LAYER0002
  5
E76
 10
392.465
 20
-163.602
 30
0.000000
  70
    32
  0
VERTEX
  8
LAYER0002
  5
E77
 10
392.440
 20
-163.600
 30
0.000000
  70
    32
  0
VERTEX
  8
LAYER0002
  5
E78
 10
392.416
 20
-163.599
 30
0.000000
  70
    32
  0
VERTEX
  8
LAYER0002
  5
E79
 10
392.391
 20
-163.598
 30
0.000000
  70
    32
  0
VERTEX
  8
LAYER0002
  5
E7A
 10
392.367
 20
-163.598
 30
0.000000
  70
    32
  0
VERTEX
  8
LAYER0002
  5
E7B
 10
392.342
 20
-163.598
 30
0.000000
  70
    32
  0
SEQEND
  8
LAYER0002
  5
E7C
  0
POLYLINE
  5
93F
  8
LAYER0002
  6
CONTINUOUS
 62
     7
 10
324.3417362799982584
 20
-163.5978887037940979
 30
0.0
 66
     1
 70
     8
  0
VERTEX
  8
LAYER0002
  5
E7D
 10
324.342
 20
-163.598
 30
0.000000
  70
    32
  0
VERTEX
  8
LAYER0002
  5
E7E
 10
324.317
 20
-163.598
 30
0.000000
  70
    32
  0
VERTEX
  8
LAYER0002
  5
E7F
 10
324.293
 20
-163.598
 30
0.000000
  70
    32
  0
VERTEX
  8
LAYER0002
  5
E80
 10
324.268
 20
-163.599
 30
0.000000
  70
    32
  0
VERTEX
  8
LAYER0002
  5
E81
 10
324.244
 20
-163.600
 30
0.000000
  70
    32
  0
VERTEX
  8
LAYER0002
  5
E82
 10
324.219
 20
-163.602
 30
0.000000
  70
    32
  0
VERTEX
  8
LAYER0002
  5
E83
 10
324.195
 20
-163.603
 30
0.000000
  70
    32
  0
VERTEX
  8
LAYER0002
  5
E84
 10
324.170
 20
-163.605
 30
0.000000
  70
    32
  0
VERTEX
  8
LAYER0002
  5
E85
 10
324.146
 20
-163.608
 30
0.000000
  70
    32
  0
VERTEX
  8
LAYER0002
  5
E86
 10
324.121
 20
-163.610
 30
0.000000
  70
    32
  0
VERTEX
  8
LAYER0002
  5
E87
 10
324.097
 20
-163.613
 30
0.000000
  70
    32
  0
VERTEX
  8
LAYER0002
  5
E88
 10
324.073
 20
-163.616
 30
0.000000
  70
    32
  0
VERTEX
  8
LAYER0002
  5
E89
 10
324.048
 20
-163.620
 30
0.000000
  70
    32
  0
VERTEX
  8
LAYER0002
  5
E8A
 10
324.024
 20
-163.623
 30
0.000000
  70
    32
  0
VERTEX
  8
LAYER0002
  5
E8B
 10
324.000
 20
-163.627
 30
0.000000
  70
    32
  0
VERTEX
  8
LAYER0002
  5
E8C
 10
323.976
 20
-163.632
 30
0.000000
  70
    32
  0
VERTEX
  8
LAYER0002
  5
E8D
 10
323.952
 20
-163.636
 30
0.000000
  70
    32
  0
VERTEX
  8
LAYER0002
  5
E8E
 10
323.928
 20
-163.641
 30
0.000000
  70
    32
  0
VERTEX
  8
LAYER0002
  5
E8F
 10
323.904
 20
-163.646
 30
0.000000
  70
    32
  0
VERTEX
  8
LAYER0002
  5
E90
 10
323.880
 20
-163.652
 30
0.000000
  70
    32
  0
VERTEX
  8
LAYER0002
  5
E91
 10
323.856
 20
-163.658
 30
0.000000
  70
    32
  0
VERTEX
  8
LAYER0002
  5
E92
 10
323.832
 20
-163.664
 30
0.000000
  70
    32
  0
VERTEX
  8
LAYER0002
  5
E93
 10
323.808
 20
-163.670
 30
0.000000
  70
    32
  0
VERTEX
  8
LAYER0002
  5
E94
 10
323.785
 20
-163.677
 30
0.000000
  70
    32
  0
VERTEX
  8
LAYER0002
  5
E95
 10
323.761
 20
-163.684
 30
0.000000
  70
    32
  0
VERTEX
  8
LAYER0002
  5
E96
 10
323.738
 20
-163.691
 30
0.000000
  70
    32
  0
VERTEX
  8
LAYER0002
  5
E97
 10
323.714
 20
-163.699
 30
0.000000
  70
    32
  0
VERTEX
  8
LAYER0002
  5
E98
 10
323.691
 20
-163.707
 30
0.000000
  70
    32
  0
VERTEX
  8
LAYER0002
  5
E99
 10
323.668
 20
-163.715
 30
0.000000
  70
    32
  0
VERTEX
  8
LAYER0002
  5
E9A
 10
323.645
 20
-163.723
 30
0.000000
  70
    32
  0
VERTEX
  8
LAYER0002
  5
E9B
 10
323.622
 20
-163.732
 30
0.000000
  70
    32
  0
VERTEX
  8
LAYER0002
  5
E9C
 10
323.599
 20
-163.741
 30
0.000000
  70
    32
  0
VERTEX
  8
LAYER0002
  5
E9D
 10
323.576
 20
-163.750
 30
0.000000
  70
    32
  0
VERTEX
  8
LAYER0002
  5
E9E
 10
323.554
 20
-163.760
 30
0.000000
  70
    32
  0
VERTEX
  8
LAYER0002
  5
E9F
 10
323.531
 20
-163.769
 30
0.000000
  70
    32
  0
VERTEX
  8
LAYER0002
  5
EA0
 10
323.509
 20
-163.780
 30
0.000000
  70
    32
  0
VERTEX
  8
LAYER0002
  5
EA1
 10
323.487
 20
-163.790
 30
0.000000
  70
    32
  0
VERTEX
  8
LAYER0002
  5
EA2
 10
323.465
 20
-163.800
 30
0.000000
  70
    32
  0
VERTEX
  8
LAYER0002
  5
EA3
 10
323.443
 20
-163.811
 30
0.000000
  70
    32
  0
VERTEX
  8
LAYER0002
  5
EA4
 10
323.421
 20
-163.823
 30
0.000000
  70
    32
  0
VERTEX
  8
LAYER0002
  5
EA5
 10
323.399
 20
-163.834
 30
0.000000
  70
    32
  0
VERTEX
  8
LAYER0002
  5
EA6
 10
323.377
 20
-163.846
 30
0.000000
  70
    32
  0
VERTEX
  8
LAYER0002
  5
EA7
 10
323.356
 20
-163.858
 30
0.000000
  70
    32
  0
VERTEX
  8
LAYER0002
  5
EA8
 10
323.335
 20
-163.870
 30
0.000000
  70
    32
  0
VERTEX
  8
LAYER0002
  5
EA9
 10
323.314
 20
-163.882
 30
0.000000
  70
    32
  0
VERTEX
  8
LAYER0002
  5
EAA
 10
323.293
 20
-163.895
 30
0.000000
  70
    32
  0
VERTEX
  8
LAYER0002
  5
EAB
 10
323.272
 20
-163.908
 30
0.000000
  70
    32
  0
VERTEX
  8
LAYER0002
  5
EAC
 10
323.251
 20
-163.921
 30
0.000000
  70
    32
  0
VERTEX
  8
LAYER0002
  5
EAD
 10
323.231
 20
-163.935
 30
0.000000
  70
    32
  0
VERTEX
  8
LAYER0002
  5
EAE
 10
323.210
 20
-163.949
 30
0.000000
  70
    32
  0
VERTEX
  8
LAYER0002
  5
EAF
 10
323.190
 20
-163.963
 30
0.000000
  70
    32
  0
VERTEX
  8
LAYER0002
  5
EB0
 10
323.170
 20
-163.977
 30
0.000000
  70
    32
  0
VERTEX
  8
LAYER0002
  5
EB1
 10
323.150
 20
-163.991
 30
0.000000
  70
    32
  0
VERTEX
  8
LAYER0002
  5
EB2
 10
323.131
 20
-164.006
 30
0.000000
  70
    32
  0
VERTEX
  8
LAYER0002
  5
EB3
 10
323.111
 20
-164.021
 30
0.000000
  70
    32
  0
VERTEX
  8
LAYER0002
  5
EB4
 10
323.092
 20
-164.036
 30
0.000000
  70
    32
  0
VERTEX
  8
LAYER0002
  5
EB5
 10
323.073
 20
-164.052
 30
0.000000
  70
    32
  0
VERTEX
  8
LAYER0002
  5
EB6
 10
323.054
 20
-164.067
 30
0.000000
  70
    32
  0
VERTEX
  8
LAYER0002
  5
EB7
 10
323.036
 20
-164.083
 30
0.000000
  70
    32
  0
VERTEX
  8
LAYER0002
  5
EB8
 10
323.017
 20
-164.100
 30
0.000000
  70
    32
  0
VERTEX
  8
LAYER0002
  5
EB9
 10
322.999
 20
-164.116
 30
0.000000
  70
    32
  0
VERTEX
  8
LAYER0002
  5
EBA
 10
322.981
 20
-164.132
 30
0.000000
  70
    32
  0
VERTEX
  8
LAYER0002
  5
EBB
 10
322.963
 20
-164.149
 30
0.000000
  70
    32
  0
VERTEX
  8
LAYER0002
  5
EBC
 10
322.945
 20
-164.166
 30
0.000000
  70
    32
  0
VERTEX
  8
LAYER0002
  5
EBD
 10
322.928
 20
-164.184
 30
0.000000
  70
    32
  0
VERTEX
  8
LAYER0002
  5
EBE
 10
322.910
 20
-164.201
 30
0.000000
  70
    32
  0
VERTEX
  8
LAYER0002
  5
EBF
 10
322.893
 20
-164.219
 30
0.000000
  70
    32
  0
VERTEX
  8
LAYER0002
  5
EC0
 10
322.877
 20
-164.237
 30
0.000000
  70
    32
  0
VERTEX
  8
LAYER0002
  5
EC1
 10
322.860
 20
-164.255
 30
0.000000
  70
    32
  0
VERTEX
  8
LAYER0002
  5
EC2
 10
322.844
 20
-164.273
 30
0.000000
  70
    32
  0
VERTEX
  8
LAYER0002
  5
EC3
 10
322.828
 20
-164.291
 30
0.000000
  70
    32
  0
VERTEX
  8
LAYER0002
  5
EC4
 10
322.812
 20
-164.310
 30
0.000000
  70
    32
  0
VERTEX
  8
LAYER0002
  5
EC5
 10
322.796
 20
-164.329
 30
0.000000
  70
    32
  0
VERTEX
  8
LAYER0002
  5
EC6
 10
322.780
 20
-164.348
 30
0.000000
  70
    32
  0
VERTEX
  8
LAYER0002
  5
EC7
 10
322.765
 20
-164.367
 30
0.000000
  70
    32
  0
VERTEX
  8
LAYER0002
  5
EC8
 10
322.750
 20
-164.387
 30
0.000000
  70
    32
  0
VERTEX
  8
LAYER0002
  5
EC9
 10
322.736
 20
-164.406
 30
0.000000
  70
    32
  0
VERTEX
  8
LAYER0002
  5
ECA
 10
322.721
 20
-164.426
 30
0.000000
  70
    32
  0
VERTEX
  8
LAYER0002
  5
ECB
 10
322.707
 20
-164.446
 30
0.000000
  70
    32
  0
VERTEX
  8
LAYER0002
  5
ECC
 10
322.693
 20
-164.466
 30
0.000000
  70
    32
  0
VERTEX
  8
LAYER0002
  5
ECD
 10
322.679
 20
-164.487
 30
0.000000
  70
    32
  0
VERTEX
  8
LAYER0002
  5
ECE
 10
322.666
 20
-164.507
 30
0.000000
  70
    32
  0
VERTEX
  8
LAYER0002
  5
ECF
 10
322.652
 20
-164.528
 30
0.000000
  70
    32
  0
VERTEX
  8
LAYER0002
  5
ED0
 10
322.639
 20
-164.549
 30
0.000000
  70
    32
  0
VERTEX
  8
LAYER0002
  5
ED1
 10
322.627
 20
-164.569
 30
0.000000
  70
    32
  0
VERTEX
  8
LAYER0002
  5
ED2
 10
322.614
 20
-164.591
 30
0.000000
  70
    32
  0
VERTEX
  8
LAYER0002
  5
ED3
 10
322.602
 20
-164.612
 30
0.000000
  70
    32
  0
VERTEX
  8
LAYER0002
  5
ED4
 10
322.590
 20
-164.633
 30
0.000000
  70
    32
  0
VERTEX
  8
LAYER0002
  5
ED5
 10
322.578
 20
-164.655
 30
0.000000
  70
    32
  0
VERTEX
  8
LAYER0002
  5
ED6
 10
322.567
 20
-164.677
 30
0.000000
  70
    32
  0
VERTEX
  8
LAYER0002
  5
ED7
 10
322.556
 20
-164.698
 30
0.000000
  70
    32
  0
VERTEX
  8
LAYER0002
  5
ED8
 10
322.545
 20
-164.720
 30
0.000000
  70
    32
  0
VERTEX
  8
LAYER0002
  5
ED9
 10
322.534
 20
-164.743
 30
0.000000
  70
    32
  0
VERTEX
  8
LAYER0002
  5
EDA
 10
322.524
 20
-164.765
 30
0.000000
  70
    32
  0
VERTEX
  8
LAYER0002
  5
EDB
 10
322.514
 20
-164.787
 30
0.000000
  70
    32
  0
VERTEX
  8
LAYER0002
  5
EDC
 10
322.504
 20
-164.810
 30
0.000000
  70
    32
  0
VERTEX
  8
LAYER0002
  5
EDD
 10
322.494
 20
-164.832
 30
0.000000
  70
    32
  0
VERTEX
  8
LAYER0002
  5
EDE
 10
322.485
 20
-164.855
 30
0.000000
  70
    32
  0
VERTEX
  8
LAYER0002
  5
EDF
 10
322.476
 20
-164.878
 30
0.000000
  70
    32
  0
VERTEX
  8
LAYER0002
  5
EE0
 10
322.467
 20
-164.901
 30
0.000000
  70
    32
  0
VERTEX
  8
LAYER0002
  5
EE1
 10
322.459
 20
-164.924
 30
0.000000
  70
    32
  0
VERTEX
  8
LAYER0002
  5
EE2
 10
322.451
 20
-164.947
 30
0.000000
  70
    32
  0
VERTEX
  8
LAYER0002
  5
EE3
 10
322.443
 20
-164.970
 30
0.000000
  70
    32
  0
VERTEX
  8
LAYER0002
  5
EE4
 10
322.435
 20
-164.994
 30
0.000000
  70
    32
  0
VERTEX
  8
LAYER0002
  5
EE5
 10
322.428
 20
-165.017
 30
0.000000
  70
    32
  0
VERTEX
  8
LAYER0002
  5
EE6
 10
322.421
 20
-165.041
 30
0.000000
  70
    32
  0
VERTEX
  8
LAYER0002
  5
EE7
 10
322.414
 20
-165.064
 30
0.000000
  70
    32
  0
VERTEX
  8
LAYER0002
  5
EE8
 10
322.408
 20
-165.088
 30
0.000000
  70
    32
  0
VERTEX
  8
LAYER0002
  5
EE9
 10
322.402
 20
-165.112
 30
0.000000
  70
    32
  0
VERTEX
  8
LAYER0002
  5
EEA
 10
322.396
 20
-165.136
 30
0.000000
  70
    32
  0
VERTEX
  8
LAYER0002
  5
EEB
 10
322.391
 20
-165.159
 30
0.000000
  70
    32
  0
VERTEX
  8
LAYER0002
  5
EEC
 10
322.385
 20
-165.183
 30
0.000000
  70
    32
  0
VERTEX
  8
LAYER0002
  5
EED
 10
322.380
 20
-165.207
 30
0.000000
  70
    32
  0
VERTEX
  8
LAYER0002
  5
EEE
 10
322.376
 20
-165.232
 30
0.000000
  70
    32
  0
VERTEX
  8
LAYER0002
  5
EEF
 10
322.371
 20
-165.256
 30
0.000000
  70
    32
  0
VERTEX
  8
LAYER0002
  5
EF0
 10
322.367
 20
-165.280
 30
0.000000
  70
    32
  0
VERTEX
  8
LAYER0002
  5
EF1
 10
322.364
 20
-165.304
 30
0.000000
  70
    32
  0
VERTEX
  8
LAYER0002
  5
EF2
 10
322.360
 20
-165.328
 30
0.000000
  70
    32
  0
VERTEX
  8
LAYER0002
  5
EF3
 10
322.357
 20
-165.353
 30
0.000000
  70
    32
  0
VERTEX
  8
LAYER0002
  5
EF4
 10
322.354
 20
-165.377
 30
0.000000
  70
    32
  0
VERTEX
  8
LAYER0002
  5
EF5
 10
322.352
 20
-165.402
 30
0.000000
  70
    32
  0
VERTEX
  8
LAYER0002
  5
EF6
 10
322.349
 20
-165.426
 30
0.000000
  70
    32
  0
VERTEX
  8
LAYER0002
  5
EF7
 10
322.347
 20
-165.450
 30
0.000000
  70
    32
  0
VERTEX
  8
LAYER0002
  5
EF8
 10
322.346
 20
-165.475
 30
0.000000
  70
    32
  0
VERTEX
  8
LAYER0002
  5
EF9
 10
322.344
 20
-165.499
 30
0.000000
  70
    32
  0
VERTEX
  8
LAYER0002
  5
EFA
 10
322.343
 20
-165.524
 30
0.000000
  70
    32
  0
VERTEX
  8
LAYER0002
  5
EFB
 10
322.343
 20
-165.549
 30
0.000000
  70
    32
  0
VERTEX
  8
LAYER0002
  5
EFC
 10
322.342
 20
-165.573
 30
0.000000
  70
    32
  0
VERTEX
  8
LAYER0002
  5
EFD
 10
322.342
 20
-165.598
 30
0.000000
  70
    32
  0
SEQEND
  8
LAYER0002
  5
EFE
  0
POLYLINE
  5
940
  8
LAYER0002
  6
CONTINUOUS
 62
     7
 10
392.3423455056567377
 20
-307.5978886962060415
 30
0.0
 66
     1
 70
     8
  0
VERTEX
  8
LAYER0002
  5
EFF
 10
392.342
 20
-307.598
 30
0.000000
  70
    32
  0
VERTEX
  8
LAYER0002
  5
F00
 10
392.367
 20
-307.598
 30
0.000000
  70
    32
  0
VERTEX
  8
LAYER0002
  5
F01
 10
392.391
 20
-307.597
 30
0.000000
  70
    32
  0
VERTEX
  8
LAYER0002
  5
F02
 10
392.416
 20
-307.597
 30
0.000000
  70
    32
  0
VERTEX
  8
LAYER0002
  5
F03
 10
392.440
 20
-307.595
 30
0.000000
  70
    32
  0
VERTEX
  8
LAYER0002
  5
F04
 10
392.465
 20
-307.594
 30
0.000000
  70
    32
  0
VERTEX
  8
LAYER0002
  5
F05
 10
392.489
 20
-307.592
 30
0.000000
  70
    32
  0
VERTEX
  8
LAYER0002
  5
F06
 10
392.514
 20
-307.591
 30
0.000000
  70
    32
  0
VERTEX
  8
LAYER0002
  5
F07
 10
392.538
 20
-307.588
 30
0.000000
  70
    32
  0
VERTEX
  8
LAYER0002
  5
F08
 10
392.563
 20
-307.586
 30
0.000000
  70
    32
  0
VERTEX
  8
LAYER0002
  5
F09
 10
392.587
 20
-307.583
 30
0.000000
  70
    32
  0
VERTEX
  8
LAYER0002
  5
F0A
 10
392.611
 20
-307.580
 30
0.000000
  70
    32
  0
VERTEX
  8
LAYER0002
  5
F0B
 10
392.636
 20
-307.576
 30
0.000000
  70
    32
  0
VERTEX
  8
LAYER0002
  5
F0C
 10
392.660
 20
-307.572
 30
0.000000
  70
    32
  0
VERTEX
  8
LAYER0002
  5
F0D
 10
392.684
 20
-307.568
 30
0.000000
  70
    32
  0
VERTEX
  8
LAYER0002
  5
F0E
 10
392.708
 20
-307.564
 30
0.000000
  70
    32
  0
VERTEX
  8
LAYER0002
  5
F0F
 10
392.732
 20
-307.559
 30
0.000000
  70
    32
  0
VERTEX
  8
LAYER0002
  5
F10
 10
392.757
 20
-307.555
 30
0.000000
  70
    32
  0
VERTEX
  8
LAYER0002
  5
F11
 10
392.781
 20
-307.549
 30
0.000000
  70
    32
  0
VERTEX
  8
LAYER0002
  5
F12
 10
392.804
 20
-307.544
 30
0.000000
  70
    32
  0
VERTEX
  8
LAYER0002
  5
F13
 10
392.828
 20
-307.538
 30
0.000000
  70
    32
  0
VERTEX
  8
LAYER0002
  5
F14
 10
392.852
 20
-307.532
 30
0.000000
  70
    32
  0
VERTEX
  8
LAYER0002
  5
F15
 10
392.876
 20
-307.525
 30
0.000000
  70
    32
  0
VERTEX
  8
LAYER0002
  5
F16
 10
392.899
 20
-307.519
 30
0.000000
  70
    32
  0
VERTEX
  8
LAYER0002
  5
F17
 10
392.923
 20
-307.512
 30
0.000000
  70
    32
  0
VERTEX
  8
LAYER0002
  5
F18
 10
392.946
 20
-307.505
 30
0.000000
  70
    32
  0
VERTEX
  8
LAYER0002
  5
F19
 10
392.970
 20
-307.497
 30
0.000000
  70
    32
  0
VERTEX
  8
LAYER0002
  5
F1A
 10
392.993
 20
-307.489
 30
0.000000
  70
    32
  0
VERTEX
  8
LAYER0002
  5
F1B
 10
393.016
 20
-307.481
 30
0.000000
  70
    32
  0
VERTEX
  8
LAYER0002
  5
F1C
 10
393.039
 20
-307.473
 30
0.000000
  70
    32
  0
VERTEX
  8
LAYER0002
  5
F1D
 10
393.062
 20
-307.464
 30
0.000000
  70
    32
  0
VERTEX
  8
LAYER0002
  5
F1E
 10
393.085
 20
-307.455
 30
0.000000
  70
    32
  0
VERTEX
  8
LAYER0002
  5
F1F
 10
393.108
 20
-307.446
 30
0.000000
  70
    32
  0
VERTEX
  8
LAYER0002
  5
F20
 10
393.130
 20
-307.436
 30
0.000000
  70
    32
  0
VERTEX
  8
LAYER0002
  5
F21
 10
393.153
 20
-307.426
 30
0.000000
  70
    32
  0
VERTEX
  8
LAYER0002
  5
F22
 10
393.175
 20
-307.416
 30
0.000000
  70
    32
  0
VERTEX
  8
LAYER0002
  5
F23
 10
393.197
 20
-307.406
 30
0.000000
  70
    32
  0
VERTEX
  8
LAYER0002
  5
F24
 10
393.219
 20
-307.395
 30
0.000000
  70
    32
  0
VERTEX
  8
LAYER0002
  5
F25
 10
393.241
 20
-307.384
 30
0.000000
  70
    32
  0
VERTEX
  8
LAYER0002
  5
F26
 10
393.263
 20
-307.373
 30
0.000000
  70
    32
  0
VERTEX
  8
LAYER0002
  5
F27
 10
393.285
 20
-307.362
 30
0.000000
  70
    32
  0
VERTEX
  8
LAYER0002
  5
F28
 10
393.307
 20
-307.350
 30
0.000000
  70
    32
  0
VERTEX
  8
LAYER0002
  5
F29
 10
393.328
 20
-307.338
 30
0.000000
  70
    32
  0
VERTEX
  8
LAYER0002
  5
F2A
 10
393.349
 20
-307.326
 30
0.000000
  70
    32
  0
VERTEX
  8
LAYER0002
  5
F2B
 10
393.370
 20
-307.313
 30
0.000000
  70
    32
  0
VERTEX
  8
LAYER0002
  5
F2C
 10
393.391
 20
-307.301
 30
0.000000
  70
    32
  0
VERTEX
  8
LAYER0002
  5
F2D
 10
393.412
 20
-307.288
 30
0.000000
  70
    32
  0
VERTEX
  8
LAYER0002
  5
F2E
 10
393.433
 20
-307.274
 30
0.000000
  70
    32
  0
VERTEX
  8
LAYER0002
  5
F2F
 10
393.453
 20
-307.261
 30
0.000000
  70
    32
  0
VERTEX
  8
LAYER0002
  5
F30
 10
393.474
 20
-307.247
 30
0.000000
  70
    32
  0
VERTEX
  8
LAYER0002
  5
F31
 10
393.494
 20
-307.233
 30
0.000000
  70
    32
  0
VERTEX
  8
LAYER0002
  5
F32
 10
393.514
 20
-307.219
 30
0.000000
  70
    32
  0
VERTEX
  8
LAYER0002
  5
F33
 10
393.534
 20
-307.204
 30
0.000000
  70
    32
  0
VERTEX
  8
LAYER0002
  5
F34
 10
393.553
 20
-307.190
 30
0.000000
  70
    32
  0
VERTEX
  8
LAYER0002
  5
F35
 10
393.573
 20
-307.175
 30
0.000000
  70
    32
  0
VERTEX
  8
LAYER0002
  5
F36
 10
393.592
 20
-307.159
 30
0.000000
  70
    32
  0
VERTEX
  8
LAYER0002
  5
F37
 10
393.611
 20
-307.144
 30
0.000000
  70
    32
  0
VERTEX
  8
LAYER0002
  5
F38
 10
393.630
 20
-307.128
 30
0.000000
  70
    32
  0
VERTEX
  8
LAYER0002
  5
F39
 10
393.649
 20
-307.112
 30
0.000000
  70
    32
  0
VERTEX
  8
LAYER0002
  5
F3A
 10
393.667
 20
-307.096
 30
0.000000
  70
    32
  0
VERTEX
  8
LAYER0002
  5
F3B
 10
393.685
 20
-307.080
 30
0.000000
  70
    32
  0
VERTEX
  8
LAYER0002
  5
F3C
 10
393.703
 20
-307.063
 30
0.000000
  70
    32
  0
VERTEX
  8
LAYER0002
  5
F3D
 10
393.721
 20
-307.047
 30
0.000000
  70
    32
  0
VERTEX
  8
LAYER0002
  5
F3E
 10
393.739
 20
-307.029
 30
0.000000
  70
    32
  0
VERTEX
  8
LAYER0002
  5
F3F
 10
393.756
 20
-307.012
 30
0.000000
  70
    32
  0
VERTEX
  8
LAYER0002
  5
F40
 10
393.774
 20
-306.995
 30
0.000000
  70
    32
  0
VERTEX
  8
LAYER0002
  5
F41
 10
393.791
 20
-306.977
 30
0.000000
  70
    32
  0
VERTEX
  8
LAYER0002
  5
F42
 10
393.807
 20
-306.959
 30
0.000000
  70
    32
  0
VERTEX
  8
LAYER0002
  5
F43
 10
393.824
 20
-306.941
 30
0.000000
  70
    32
  0
VERTEX
  8
LAYER0002
  5
F44
 10
393.840
 20
-306.923
 30
0.000000
  70
    32
  0
VERTEX
  8
LAYER0002
  5
F45
 10
393.857
 20
-306.904
 30
0.000000
  70
    32
  0
VERTEX
  8
LAYER0002
  5
F46
 10
393.872
 20
-306.886
 30
0.000000
  70
    32
  0
VERTEX
  8
LAYER0002
  5
F47
 10
393.888
 20
-306.867
 30
0.000000
  70
    32
  0
VERTEX
  8
LAYER0002
  5
F48
 10
393.904
 20
-306.848
 30
0.000000
  70
    32
  0
VERTEX
  8
LAYER0002
  5
F49
 10
393.919
 20
-306.829
 30
0.000000
  70
    32
  0
VERTEX
  8
LAYER0002
  5
F4A
 10
393.934
 20
-306.809
 30
0.000000
  70
    32
  0
VERTEX
  8
LAYER0002
  5
F4B
 10
393.949
 20
-306.789
 30
0.000000
  70
    32
  0
VERTEX
  8
LAYER0002
  5
F4C
 10
393.963
 20
-306.770
 30
0.000000
  70
    32
  0
VERTEX
  8
LAYER0002
  5
F4D
 10
393.977
 20
-306.750
 30
0.000000
  70
    32
  0
VERTEX
  8
LAYER0002
  5
F4E
 10
393.991
 20
-306.730
 30
0.000000
  70
    32
  0
VERTEX
  8
LAYER0002
  5
F4F
 10
394.005
 20
-306.709
 30
0.000000
  70
    32
  0
VERTEX
  8
LAYER0002
  5
F50
 10
394.019
 20
-306.689
 30
0.000000
  70
    32
  0
VERTEX
  8
LAYER0002
  5
F51
 10
394.032
 20
-306.668
 30
0.000000
  70
    32
  0
VERTEX
  8
LAYER0002
  5
F52
 10
394.045
 20
-306.647
 30
0.000000
  70
    32
  0
VERTEX
  8
LAYER0002
  5
F53
 10
394.058
 20
-306.626
 30
0.000000
  70
    32
  0
VERTEX
  8
LAYER0002
  5
F54
 10
394.070
 20
-306.605
 30
0.000000
  70
    32
  0
VERTEX
  8
LAYER0002
  5
F55
 10
394.082
 20
-306.584
 30
0.000000
  70
    32
  0
VERTEX
  8
LAYER0002
  5
F56
 10
394.094
 20
-306.562
 30
0.000000
  70
    32
  0
VERTEX
  8
LAYER0002
  5
F57
 10
394.106
 20
-306.541
 30
0.000000
  70
    32
  0
VERTEX
  8
LAYER0002
  5
F58
 10
394.117
 20
-306.519
 30
0.000000
  70
    32
  0
VERTEX
  8
LAYER0002
  5
F59
 10
394.129
 20
-306.497
 30
0.000000
  70
    32
  0
VERTEX
  8
LAYER0002
  5
F5A
 10
394.139
 20
-306.475
 30
0.000000
  70
    32
  0
VERTEX
  8
LAYER0002
  5
F5B
 10
394.150
 20
-306.453
 30
0.000000
  70
    32
  0
VERTEX
  8
LAYER0002
  5
F5C
 10
394.160
 20
-306.431
 30
0.000000
  70
    32
  0
VERTEX
  8
LAYER0002
  5
F5D
 10
394.170
 20
-306.409
 30
0.000000
  70
    32
  0
VERTEX
  8
LAYER0002
  5
F5E
 10
394.180
 20
-306.386
 30
0.000000
  70
    32
  0
VERTEX
  8
LAYER0002
  5
F5F
 10
394.190
 20
-306.363
 30
0.000000
  70
    32
  0
VERTEX
  8
LAYER0002
  5
F60
 10
394.199
 20
-306.341
 30
0.000000
  70
    32
  0
VERTEX
  8
LAYER0002
  5
F61
 10
394.208
 20
-306.318
 30
0.000000
  70
    32
  0
VERTEX
  8
LAYER0002
  5
F62
 10
394.217
 20
-306.295
 30
0.000000
  70
    32
  0
VERTEX
  8
LAYER0002
  5
F63
 10
394.225
 20
-306.272
 30
0.000000
  70
    32
  0
VERTEX
  8
LAYER0002
  5
F64
 10
394.233
 20
-306.249
 30
0.000000
  70
    32
  0
VERTEX
  8
LAYER0002
  5
F65
 10
394.241
 20
-306.226
 30
0.000000
  70
    32
  0
VERTEX
  8
LAYER0002
  5
F66
 10
394.249
 20
-306.202
 30
0.000000
  70
    32
  0
VERTEX
  8
LAYER0002
  5
F67
 10
394.256
 20
-306.179
 30
0.000000
  70
    32
  0
VERTEX
  8
LAYER0002
  5
F68
 10
394.263
 20
-306.155
 30
0.000000
  70
    32
  0
VERTEX
  8
LAYER0002
  5
F69
 10
394.270
 20
-306.132
 30
0.000000
  70
    32
  0
VERTEX
  8
LAYER0002
  5
F6A
 10
394.276
 20
-306.108
 30
0.000000
  70
    32
  0
VERTEX
  8
LAYER0002
  5
F6B
 10
394.282
 20
-306.084
 30
0.000000
  70
    32
  0
VERTEX
  8
LAYER0002
  5
F6C
 10
394.288
 20
-306.060
 30
0.000000
  70
    32
  0
VERTEX
  8
LAYER0002
  5
F6D
 10
394.293
 20
-306.036
 30
0.000000
  70
    32
  0
VERTEX
  8
LAYER0002
  5
F6E
 10
394.299
 20
-306.012
 30
0.000000
  70
    32
  0
VERTEX
  8
LAYER0002
  5
F6F
 10
394.304
 20
-305.988
 30
0.000000
  70
    32
  0
VERTEX
  8
LAYER0002
  5
F70
 10
394.308
 20
-305.964
 30
0.000000
  70
    32
  0
VERTEX
  8
LAYER0002
  5
F71
 10
394.313
 20
-305.940
 30
0.000000
  70
    32
  0
VERTEX
  8
LAYER0002
  5
F72
 10
394.317
 20
-305.916
 30
0.000000
  70
    32
  0
VERTEX
  8
LAYER0002
  5
F73
 10
394.320
 20
-305.892
 30
0.000000
  70
    32
  0
VERTEX
  8
LAYER0002
  5
F74
 10
394.324
 20
-305.867
 30
0.000000
  70
    32
  0
VERTEX
  8
LAYER0002
  5
F75
 10
394.327
 20
-305.843
 30
0.000000
  70
    32
  0
VERTEX
  8
LAYER0002
  5
F76
 10
394.330
 20
-305.819
 30
0.000000
  70
    32
  0
VERTEX
  8
LAYER0002
  5
F77
 10
394.332
 20
-305.794
 30
0.000000
  70
    32
  0
VERTEX
  8
LAYER0002
  5
F78
 10
394.335
 20
-305.770
 30
0.000000
  70
    32
  0
VERTEX
  8
LAYER0002
  5
F79
 10
394.337
 20
-305.745
 30
0.000000
  70
    32
  0
VERTEX
  8
LAYER0002
  5
F7A
 10
394.338
 20
-305.721
 30
0.000000
  70
    32
  0
VERTEX
  8
LAYER0002
  5
F7B
 10
394.340
 20
-305.696
 30
0.000000
  70
    32
  0
VERTEX
  8
LAYER0002
  5
F7C
 10
394.341
 20
-305.672
 30
0.000000
  70
    32
  0
VERTEX
  8
LAYER0002
  5
F7D
 10
394.341
 20
-305.647
 30
0.000000
  70
    32
  0
VERTEX
  8
LAYER0002
  5
F7E
 10
394.342
 20
-305.623
 30
0.000000
  70
    32
  0
VERTEX
  8
LAYER0002
  5
F7F
 10
394.342
 20
-305.598
 30
0.000000
  70
    32
  0
SEQEND
  8
LAYER0002
  5
F80
  0
TEXT
  5
951
  8
LAYER0003
 62
     7
 10
375.876436300000023
 20
-373.9077151000000185
 30
0.0
 40
7.4083333299999987
  1
０００
 41
0.9574468085106387
 72
     5
 11
398.101436289999981
 21
-373.9077151000000185
 31
0.0
  0
TEXT
  5
955
  8
LAYER0003
 62
     7
 10
65.8809302100000025
 20
-340.6261671799999817
 30
0.0
 40
7.9375
  1
Housing Depth 300mm shown
 41
1.112759643916913
 72
     5
 11
264.3184302099999741
 21
-340.6261671799999817
 31
0.0
  0
ENDSEC
  0
EOF
