  0
SECTION
  2
HEADER
  9
$ACADVER
  1
AC1014
  9
$ACADMAINTVER
 70
       0
  9
$DWGCODEPAGE
  3
ANSI_932
  9
$INSBASE
 10
0.0
 20
0.0
 30
0.0
  9
$EXTMIN
 10
-95.98855557
 20
-84.29989213
 30
0.0
  9
$EXTMAX
 10
115.81928162
 20
57.65766546
 30
0.0
  9
$LIMMIN
 10
-102.60755048
 20
-88.73606581
  9
$LIMMAX
 10
122.43827653
 20
62.09383913
  9
$ORTHOMODE
 70
       0
  9
$REGENMODE
 70
       1
  9
$FILLMODE
 70
       1
  9
$QTEXTMODE
 70
       0
  9
$MIRRTEXT
 70
       1
  9
$DRAGMODE
 70
       2
  9
$LTSCALE
 40
1.0
  9
$OSMODE
 70
       0
  9
$ATTMODE
 70
       1
  9
$TEXTSIZE
 40
0.2
  9
$TRACEWID
 40
0.05
  9
$TEXTSTYLE
  7
STANDARD
  9
$CLAYER
  8
0
  9
$CELTYPE
  6
CONTINUOUS
  9
$CECOLOR
 62
     256
  9
$CELTSCALE
 40
1.0
  9
$DELOBJ
 70
       1
  9
$DISPSILH
 70
       0
  9
$DIMSCALE
 40
1.0
  9
$DIMASZ
 40
0.18
  9
$DIMEXO
 40
0.0625
  9
$DIMDLI
 40
0.38
  9
$DIMRND
 40
0.0
  9
$DIMDLE
 40
0.0
  9
$DIMEXE
 40
0.18
  9
$DIMTP
 40
0.0
  9
$DIMTM
 40
0.0
  9
$DIMTXT
 40
0.18
  9
$DIMCEN
 40
0.09
  9
$DIMTSZ
 40
0.0
  9
$DIMTOL
 70
       0
  9
$DIMLIM
 70
       0
  9
$DIMTIH
 70
       1
  9
$DIMTOH
 70
       1
  9
$DIMSE1
 70
       0
  9
$DIMSE2
 70
       0
  9
$DIMTAD
 70
       0
  9
$DIMZIN
 70
       0
  9
$DIMBLK
  1

  9
$DIMASO
 70
       1
  9
$DIMSHO
 70
       1
  9
$DIMPOST
  1

  9
$DIMAPOST
  1

  9
$DIMALT
 70
       0
  9
$DIMALTD
 70
       2
  9
$DIMALTF
 40
25.4
  9
$DIMLFAC
 40
1.0
  9
$DIMTOFL
 70
       0
  9
$DIMTVP
 40
0.0
  9
$DIMTIX
 70
       0
  9
$DIMSOXD
 70
       0
  9
$DIMSAH
 70
       0
  9
$DIMBLK1
  1

  9
$DIMBLK2
  1

  9
$DIMSTYLE
  2
STANDARD
  9
$DIMCLRD
 70
       0
  9
$DIMCLRE
 70
       0
  9
$DIMCLRT
 70
       0
  9
$DIMTFAC
 40
1.0
  9
$DIMGAP
 40
0.09
  9
$DIMJUST
 70
       0
  9
$DIMSD1
 70
       0
  9
$DIMSD2
 70
       0
  9
$DIMTOLJ
 70
       1
  9
$DIMTZIN
 70
       0
  9
$DIMALTZ
 70
       0
  9
$DIMALTTZ
 70
       0
  9
$DIMFIT
 70
       3
  9
$DIMUPT
 70
       0
  9
$DIMUNIT
 70
       2
  9
$DIMDEC
 70
       4
  9
$DIMTDEC
 70
       4
  9
$DIMALTU
 70
       2
  9
$DIMALTTD
 70
       2
  9
$DIMTXSTY
  7
STANDARD
  9
$DIMAUNIT
 70
       0
  9
$LUNITS
 70
       2
  9
$LUPREC
 70
       4
  9
$SKETCHINC
 40
0.1
  9
$FILLETRAD
 40
0.0
  9
$AUNITS
 70
       0
  9
$AUPREC
 70
       0
  9
$MENU
  1
acad
  9
$ELEVATION
 40
0.0
  9
$PELEVATION
 40
0.0
  9
$THICKNESS
 40
0.0
  9
$LIMCHECK
 70
       0
  9
$BLIPMODE
 70
       1
  9
$CHAMFERA
 40
0.0
  9
$CHAMFERB
 40
0.0
  9
$CHAMFERC
 40
0.0
  9
$CHAMFERD
 40
0.0
  9
$SKPOLY
 70
       0
  9
$TDCREATE
 40
0.000000000
  9
$TDUPDATE
 40
0.000000000
  9
$TDINDWG
 40
0.0000000000
  9
$TDUSRTIMER
 40
0.0000000000
  9
$USRTIMER
 70
       1
  9
$ANGBASE
 50
0.0
  9
$ANGDIR
 70
       0
  9
$PDMODE
 70
       0
  9
$PDSIZE
 40
1.0
  9
$PLINEWID
 40
0.0
  9
$COORDS
 70
       1
  9
$SPLFRAME
 70
       0
  9
$SPLINETYPE
 70
       6
  9
$SPLINESEGS
 70
       8
  9
$ATTDIA
 70
       0
  9
$ATTREQ
 70
       1
  9
$HANDLING
 70
       1
  9
$HANDSEED
  5
104
  9
$SURFTAB1
 70
       6
  9
$SURFTAB2
 70
       6
  9
$SURFTYPE
 70
       6
  9
$SURFU
 70
       6
  9
$SURFV
 70
       6
  9
$UCSNAME
  2

  9
$UCSORG
 10
0.0
 20
0.0
 30
0.0
  9
$UCSXDIR
 10
1.0
 20
0.0
 30
0.0
  9
$UCSYDIR
 10
0.0
 20
1.0
 30
0.0
  9
$PUCSNAME
  2

  9
$PUCSORG
 10
0.0
 20
0.0
 30
0.0
  9
$PUCSXDIR
 10
1.0
 20
0.0
 30
0.0
  9
$PUCSYDIR
 10
0.0
 20
1.0
 30
0.0
  9
$USERI1
 70
       0
  9
$USERI2
 70
       0
  9
$USERI3
 70
       0
  9
$USERI4
 70
       0
  9
$USERI5
 70
       0
  9
$USERR1
 40
0.0
  9
$USERR2
 40
0.0
  9
$USERR3
 40
0.0
  9
$USERR4
 40
0.0
  9
$USERR5
 40
0.0
  9
$WORLDVIEW
 70
       1
  9
$SHADEDGE
 70
       3
  9
$SHADEDIF
 70
      70
  9
$TILEMODE
 70
       1
  9
$MAXACTVP
 70
      16
  9
$PINSBASE
 10
0.0
 20
0.0
 30
0.0
  9
$PLIMCHECK
 70
       0
  9
$PEXTMIN
 10
1.00000000E+20
 20
1.00000000E+20
 30
1.00000000E+20
  9
$PEXTMAX
 10
-1.00000000E+20
 20
-1.00000000E+20
 30
-1.00000000E+20
  9
$PLIMMIN
 10
0.0
 20
0.0
  9
$PLIMMAX
 10
12.0
 20
9.0
  9
$UNITMODE
 70
       0
  9
$VISRETAIN
 70
       0
  9
$PLINEGEN
 70
       1
  9
$PSLTSCALE
 70
       0
  9
$TREEDEPTH
 70
    3020
  9
$PICKSTYLE
 70
       1
  9
$CMLSTYLE
  2
STANDARD
  9
$CMLJUST
 70
       0
  9
$CMLSCALE
 40
1.0
  9
$PROXYGRAPHICS
 70
       0
  9
$MEASUREMENT
 70
       0
  0
ENDSEC
  0
SECTION
  2
CLASSES
  0
CLASS
  1
LWPOLYLINE
  2
AcDbPolyline
  3
"AutoCAD"
 90
        0
280
       0
281
       1
  0
CLASS
  1
IMAGE
  2
AcDbRasterImage
  3
ISM
 90
      127
280
       0
281
       1
  0
CLASS
  1
OLE2FRAME
  2
AcDbOle2Frame
  3
""
 90
        0
280
       0
281
       1
  0
CLASS
  1
HATCH
  2
AcDbHatch
  3
"ACAD_SEDONA"
 90
        0
280
       0
281
       1
  0
CLASS
  1
DICTIONARYVAR
  2
AcDbDictionaryVar
  3
"AutoCAD"
 90
        0
280
       0
281
       0
  0
CLASS
  1
RASTERVARIABLES
  2
AcDbRasterVariables
  3
ISM
 90
        0
280
       0
281
       0
  0
CLASS
  1
IMAGEDEF
  2
AcDbRasterImageDef
  3
ISM
 90
        0
280
       0
281
       0
  0
CLASS
  1
IMAGEDEF_REACTOR
  2
AcDbRasterImageDefReactor
  3
ISM
 90
        1
280
       0
281
       0
  0
CLASS
  1
IDBUFFER
  2
AcDbIdBuffer
  3
"Acad"
 90
        0
280
       0
281
       0
  0
CLASS
  1
SPATIAL_FILTER
  2
AcDbSpatialFilter
  3
"Acad"
 90
        0
280
       0
281
       0
  0
CLASS
  1
XRECORD
  2
AcDbXrecord
  3
"<Built In>"
 90
        0
280
       0
281
       0
  0
CLASS
  1
SORTENTSTABLE
  2
AcDbSortentsTable
  3
"AutoCAD"
 90
        0
280
       0
281
       0
  0
CLASS
  1
LAYER_INDEX
  2
AcDbLayerIndex
  3
"Acad"
 90
        0
280
       0
281
       0
  0
CLASS
  1
SPATIAL_INDEX
  2
AcDbSpatialIndex
  3
"Acad"
 90
        0
280
       0
281
       0
  0
CLASS
  1
OBJECT_PTR
  2
CAseDLPNTableRecord
  3
"ASE-LPNTableRecord"
 90
        1
280
       0
281
       0
  0
CLASS
  1
LAYOUT
  2
AcDbLayout
  3
"AutoCAD 2000"
 90
        1
280
       0
281
       0
  0
CLASS
  1
PLOTSETTINGS
  2
AcDbPlotSettings
  3
"AutoCAD 2000"
 90
        1
280
       0
281
       0
  0
CLASS
  1
ACDBDICTIONARYWDFLT
  2
AcDbDictionaryWithDefault
  3
"AutoCAD 2000"
 90
        1
280
       0
281
       0
  0
CLASS
  1
ACDBPLACEHOLDER
  2
AcDbPlaceHolder
  3
"AutoCAD 2000"
 90
        1
280
       0
281
       0
  0
CLASS
  1
VBA_PROJECT
  2
AcDbVbaProject
  3
"acadvba"
 90
        1
280
       0
281
       0
  0
CLASS
  1
WIPEOUT
  2
AcDbWipeout
  3
WipeOut|AutoCAD Express Tool|expresstools@autodesk.com
 90
      127
280
       0
281
       1
  0
CLASS
  1
WIPEOUTVARIABLES
  2
AcDbWipeoutVariables
  3
WipeOut|AutoCAD Express Tool|expresstools@autodesk.com
 90
        0
280
       0
281
       0
  0
CLASS
  1
RTEXT
  2
RText
  3
RText|AutoCAD Express Tool|expresstools@autodesk.com
 90
        0
280
       0
281
       1
  0
CLASS
  1
ARCALIGNEDTEXT
  2
AcDbArcAlignedText
  3
ATEXT|AutoCAD Express Tool|expresstools@autodesk.com
 90
        0
280
       0
281
       1
  0
ENDSEC
  0
SECTION
  2
TABLES
  0
TABLE
  2
VPORT
  5
7
100
AcDbSymbolTable
 70
       1
  0
VPORT
  5
15
100
AcDbSymbolTableRecord
100
AcDbViewportTableRecord
  2
*ACTIVE
 70
       0
 10
0.0
 20
0.0
 11
1.0
 21
1.0
 12
9.91536302
 22
-13.32111334
 13
0.0
 23
0.0
 14
1.0
 24
1.0
 15
0.0
 25
0.0
 16
0.0
 26
0.0
 36
1.0
 17
0.0
 27
0.0
 37
0.0
 40
150.82990494
 41
1.49205045
 42
50.0
 43
0.0
 44
0.0
 50
0.0
 51
0.0
 71
       0
 72
     100
 73
       1
 74
       1
 75
       0
 76
       0
 77
       0
 78
       0
  0
ENDTAB
  0
TABLE
  2
LTYPE
  5
4
100
AcDbSymbolTable
 70
      30
  0
LTYPE
  5
11
100
AcDbSymbolTableRecord
100
AcDbLinetypeTableRecord
  2
BYBLOCK
 70
      64
  3

 72
      65
 73
       0
 40
0.0
  0
LTYPE
  5
12
100
AcDbSymbolTableRecord
100
AcDbLinetypeTableRecord
  2
BYLAYER
 70
      64
  3

 72
      65
 73
       0
 40
0.0
  0
LTYPE
  5
13
100
AcDbSymbolTableRecord
100
AcDbLinetypeTableRecord
  2
CONTINUOUS
 70
      64
  3
Solid line
 72
      65
 73
       0
 40
0.0
  0
LTYPE
  5
1D
100
AcDbSymbolTableRecord
100
AcDbLinetypeTableRecord
  2
HIDDENX2
 70
      64
  3
CADPAC LINETYPE
 72
      65
 73
       2
 40
10.17862048
 49
7.63396536
 74
       0
 49
-2.54465512
 74
       0
  0
LTYPE
  5
1E
100
AcDbSymbolTableRecord
100
AcDbLinetypeTableRecord
  2
HIDDEN
 70
      64
  3
CADPAC LINETYPE
 72
      65
 73
       2
 40
7.63396536
 49
5.08931024
 74
       0
 49
-2.54465512
 74
       0
  0
LTYPE
  5
1F
100
AcDbSymbolTableRecord
100
AcDbLinetypeTableRecord
  2
HIDDEN2
 70
      64
  3
CADPAC LINETYPE
 72
      65
 73
       2
 40
6.3616378
 49
3.81698268
 74
       0
 49
-2.54465512
 74
       0
  0
LTYPE
  5
20
100
AcDbSymbolTableRecord
100
AcDbLinetypeTableRecord
  2
DASHED
 70
      64
  3
CADPAC LINETYPE
 72
      65
 73
       2
 40
7.63396536
 49
5.08931024
 74
       0
 49
-2.54465512
 74
       0
  0
LTYPE
  5
21
100
AcDbSymbolTableRecord
100
AcDbLinetypeTableRecord
  2
DASHED2
 70
      64
  3
CADPAC LINETYPE
 72
      65
 73
       2
 40
5.72547402
 49
3.81698268
 74
       0
 49
-1.90849134
 74
       0
  0
LTYPE
  5
22
100
AcDbSymbolTableRecord
100
AcDbLinetypeTableRecord
  2
DASHEDX2
 70
      64
  3
CADPAC LINETYPE
 72
      65
 73
       2
 40
11.45094804
 49
7.63396536
 74
       0
 49
-3.81698268
 74
       0
  0
LTYPE
  5
23
100
AcDbSymbolTableRecord
100
AcDbLinetypeTableRecord
  2
DOTX2
 70
      64
  3
CADPAC LINETYPE
 72
      65
 73
       2
 40
3.1808189
 49
0.0
 74
       0
 49
-3.1808189
 74
       0
  0
LTYPE
  5
24
100
AcDbSymbolTableRecord
100
AcDbLinetypeTableRecord
  2
DOT
 70
      64
  3
CADPAC LINETYPE
 72
      65
 73
       2
 40
2.54465512
 49
0.0
 74
       0
 49
-2.54465512
 74
       0
  0
LTYPE
  5
25
100
AcDbSymbolTableRecord
100
AcDbLinetypeTableRecord
  2
DOT2
 70
      64
  3
CADPAC LINETYPE
 72
      65
 73
       2
 40
1.90849134
 49
0.0
 74
       0
 49
-1.90849134
 74
       0
  0
LTYPE
  5
26
100
AcDbSymbolTableRecord
100
AcDbLinetypeTableRecord
  2
CENTERX2
 70
      64
  3
CADPAC LINETYPE
 72
      65
 73
       4
 40
15.26793071
 49
6.3616378
 74
       0
 49
-3.1808189
 74
       0
 49
2.54465512
 74
       0
 49
-3.1808189
 74
       0
  0
LTYPE
  5
27
100
AcDbSymbolTableRecord
100
AcDbLinetypeTableRecord
  2
CENTER
 70
      64
  3
CADPAC LINETYPE
 72
      65
 73
       4
 40
11.70541355
 49
5.08931024
 74
       0
 49
-2.54465512
 74
       0
 49
1.52679307
 74
       0
 49
-2.54465512
 74
       0
  0
LTYPE
  5
28
100
AcDbSymbolTableRecord
100
AcDbLinetypeTableRecord
  2
CENTER2
 70
      64
  3
CADPAC LINETYPE
 72
      65
 73
       4
 40
8.14289638
 49
3.81698268
 74
       0
 49
-1.90849134
 74
       0
 49
0.50893102
 74
       0
 49
-1.90849134
 74
       0
  0
LTYPE
  5
29
100
AcDbSymbolTableRecord
100
AcDbLinetypeTableRecord
  2
DASHDOTX2
 70
      64
  3
CADPAC LINETYPE
 72
      65
 73
       4
 40
12.72327559
 49
6.3616378
 74
       0
 49
-3.1808189
 74
       0
 49
0.0
 74
       0
 49
-3.1808189
 74
       0
  0
LTYPE
  5
2A
100
AcDbSymbolTableRecord
100
AcDbLinetypeTableRecord
  2
DASHDOT
 70
      64
  3
CADPAC LINETYPE
 72
      65
 73
       4
 40
10.17862048
 49
5.08931024
 74
       0
 49
-2.54465512
 74
       0
 49
0.0
 74
       0
 49
-2.54465512
 74
       0
  0
LTYPE
  5
2B
100
AcDbSymbolTableRecord
100
AcDbLinetypeTableRecord
  2
DASHDOT2
 70
      64
  3
CADPAC LINETYPE
 72
      65
 73
       4
 40
7.63396536
 49
3.81698268
 74
       0
 49
-1.90849134
 74
       0
 49
0.0
 74
       0
 49
-1.90849134
 74
       0
  0
LTYPE
  5
2C
100
AcDbSymbolTableRecord
100
AcDbLinetypeTableRecord
  2
DIVIDEX2
 70
      64
  3
CADPAC LINETYPE
 72
      65
 73
       6
 40
15.90409449
 49
6.3616378
 74
       0
 49
-3.1808189
 74
       0
 49
0.0
 74
       0
 49
-3.1808189
 74
       0
 49
0.0
 74
       0
 49
-3.1808189
 74
       0
  0
LTYPE
  5
2D
100
AcDbSymbolTableRecord
100
AcDbLinetypeTableRecord
  2
DIVIDE
 70
      64
  3
CADPAC LINETYPE
 72
      65
 73
       6
 40
12.72327559
 49
5.08931024
 74
       0
 49
-2.54465512
 74
       0
 49
0.0
 74
       0
 49
-2.54465512
 74
       0
 49
0.0
 74
       0
 49
-2.54465512
 74
       0
  0
LTYPE
  5
2E
100
AcDbSymbolTableRecord
100
AcDbLinetypeTableRecord
  2
DIVIDE2
 70
      64
  3
CADPAC LINETYPE
 72
      65
 73
       6
 40
9.5424567
 49
3.81698268
 74
       0
 49
-1.90849134
 74
       0
 49
0.0
 74
       0
 49
-1.90849134
 74
       0
 49
0.0
 74
       0
 49
-1.90849134
 74
       0
  0
LTYPE
  5
2F
100
AcDbSymbolTableRecord
100
AcDbLinetypeTableRecord
  2
BORDERX2
 70
      64
  3
CADPAC LINETYPE
 72
      65
 73
       6
 40
22.26573229
 49
6.3616378
 74
       0
 49
-3.1808189
 74
       0
 49
6.3616378
 74
       0
 49
-3.1808189
 74
       0
 49
0.0
 74
       0
 49
-3.1808189
 74
       0
  0
LTYPE
  5
30
100
AcDbSymbolTableRecord
100
AcDbLinetypeTableRecord
  2
BORDER
 70
      64
  3
CADPAC LINETYPE
 72
      65
 73
       6
 40
17.81258583
 49
5.08931024
 74
       0
 49
-2.54465512
 74
       0
 49
5.08931024
 74
       0
 49
-2.54465512
 74
       0
 49
0.0
 74
       0
 49
-2.54465512
 74
       0
  0
LTYPE
  5
31
100
AcDbSymbolTableRecord
100
AcDbLinetypeTableRecord
  2
BORDER2
 70
      64
  3
CADPAC LINETYPE
 72
      65
 73
       6
 40
13.35943937
 49
3.81698268
 74
       0
 49
-1.90849134
 74
       0
 49
3.81698268
 74
       0
 49
-1.90849134
 74
       0
 49
0.0
 74
       0
 49
-1.90849134
 74
       0
  0
LTYPE
  5
32
100
AcDbSymbolTableRecord
100
AcDbLinetypeTableRecord
  2
PHANTOMX2
 70
      64
  3
CADPAC LINETYPE
 72
      65
 73
       6
 40
19.08491339
 49
6.3616378
 74
       0
 49
-2.54465512
 74
       0
 49
2.54465512
 74
       0
 49
-2.54465512
 74
       0
 49
2.54465512
 74
       0
 49
-2.54465512
 74
       0
  0
LTYPE
  5
33
100
AcDbSymbolTableRecord
100
AcDbLinetypeTableRecord
  2
PHANTOM
 70
      64
  3
CADPAC LINETYPE
 72
      65
 73
       6
 40
15.77686174
 49
5.08931024
 74
       0
 49
-2.54465512
 74
       0
 49
1.52679307
 74
       0
 49
-2.54465512
 74
       0
 49
1.52679307
 74
       0
 49
-2.54465512
 74
       0
  0
LTYPE
  5
34
100
AcDbSymbolTableRecord
100
AcDbLinetypeTableRecord
  2
PHANTOM2
 70
      64
  3
CADPAC LINETYPE
 72
      65
 73
       6
 40
13.48667213
 49
3.81698268
 74
       0
 49
-2.54465512
 74
       0
 49
1.01786205
 74
       0
 49
-2.54465512
 74
       0
 49
1.01786205
 74
       0
 49
-2.54465512
 74
       0
  0
LTYPE
  5
35
100
AcDbSymbolTableRecord
100
AcDbLinetypeTableRecord
  2
ACAD_ISO06W100
 70
      64
  3
CADPAC LINETYPE
 72
      65
 73
       8
 40
17.17642205
 49
6.3616378
 74
       0
 49
-3.1808189
 74
       0
 49
0.0
 74
       0
 49
-2.54465512
 74
       0
 49
0.0
 74
       0
 49
-2.54465512
 74
       0
 49
0.0
 74
       0
 49
-2.54465512
 74
       0
  0
LTYPE
  5
36
100
AcDbSymbolTableRecord
100
AcDbLinetypeTableRecord
  2
ACAD_ISO13W100
 70
      64
  3
CADPAC LINETYPE
 72
      65
 73
       8
 40
20.35724095
 49
5.08931024
 74
       0
 49
-2.54465512
 74
       0
 49
5.08931024
 74
       0
 49
-2.54465512
 74
       0
 49
0.0
 74
       0
 49
-2.54465512
 74
       0
 49
0.0
 74
       0
 49
-2.54465512
 74
       0
  0
LTYPE
  5
37
100
AcDbSymbolTableRecord
100
AcDbLinetypeTableRecord
  2
ACAD_ISO14W100
 70
      64
  3
CADPAC LINETYPE
 72
      65
 73
       8
 40
15.26793071
 49
5.08931024
 74
       0
 49
-2.54465512
 74
       0
 49
0.0
 74
       0
 49
-2.54465512
 74
       0
 49
0.0
 74
       0
 49
-2.54465512
 74
       0
 49
0.0
 74
       0
 49
-2.54465512
 74
       0
  0
ENDTAB
  0
TABLE
  2
LAYER
  5
2
100
AcDbSymbolTable
 70
       2
  0
LAYER
  5
14
100
AcDbSymbolTableRecord
100
AcDbLayerTableRecord
  2
0
 70
       0
 62
       7
  6
CONTINUOUS
  0
LAYER
  5
38
100
AcDbSymbolTableRecord
100
AcDbLayerTableRecord
  2
SLD-0
 70
       0
 62
       7
  6
CONTINUOUS
  0
ENDTAB
  0
TABLE
  2
STYLE
  5
3
100
AcDbSymbolTable
 70
       1
  0
STYLE
  5
17
100
AcDbSymbolTableRecord
100
AcDbTextStyleTableRecord
  2
STANDARD
 70
       0
 40
0.0
 41
0.8
 50
0.0
 71
       0
 42
5.0
  3
txt.shx
  4
bigfont.shx
  0
ENDTAB
  0
TABLE
  2
VIEW
  5
5
100
AcDbSymbolTable
 70
       1
  0
VIEW
  5
39
100
AcDbSymbolTableRecord
100
AcDbViewTableRecord
  2
QQQQ
 70
       0
 40
150.82990494
 10
9.91536302
 20
-13.32111334
 41
225.04582701
 11
0.0
 21
0.0
 31
1.0
 12
100.0
 22
100.0
 32
0.0
 42
50.0
 43
0.0
 44
0.0
 50
0.0
 71
       0
  0
ENDTAB
  0
TABLE
  2
UCS
  5
6
100
AcDbSymbolTable
 70
       0
  0
ENDTAB
  0
TABLE
  2
APPID
  5
8
100
AcDbSymbolTable
 70
       1
  0
APPID
  5
16
100
AcDbSymbolTableRecord
100
AcDbRegAppTableRecord
  2
ACAD
 70
       0
  0
ENDTAB
  0
TABLE
  2
DIMSTYLE
  5
9
100
AcDbSymbolTable
 70
       1
  0
DIMSTYLE
105
18
100
AcDbSymbolTableRecord
100
AcDbDimStyleTableRecord
  2
STANDARD
 70
       0
  3

  4

  5

  6

  7

 40
1.0
 41
0.18
 42
0.0625
 43
0.38
 44
0.18
 45
0.0
 46
0.0
 47
0.0
 48
0.0
 71
       0
 72
       0
 73
       1
 74
       1
 75
       0
 76
       0
 77
       0
 78
       0
140
0.18
141
0.09
142
0.0
143
25.4
144
1.0
145
0.0
146
1.0
147
0.09
170
       0
171
       2
172
       0
173
       0
174
       0
175
       0
176
       0
177
       0
178
       0
270
       2
271
       4
272
       4
273
       2
274
       2
275
       0
280
       0
281
       0
282
       0
283
       1
284
       0
285
       0
286
       0
287
       0
288
       0
340
17
  0
ENDTAB
  0
TABLE
  2
BLOCK_RECORD
  5
1
100
AcDbSymbolTable
 70
       0
  0
BLOCK_RECORD
  5
A
100
AcDbSymbolTableRecord
100
AcDbBlockTableRecord
  2
*MODEL_SPACE
  0
BLOCK_RECORD
  5
B
100
AcDbSymbolTableRecord
100
AcDbBlockTableRecord
  2
*PAPER_SPACE
  0
ENDTAB
  0
ENDSEC
  0
SECTION
  2
BLOCKS
  0
BLOCK
  5
D
100
AcDbEntity
  8
0
100
AcDbBlockBegin
  2
*MODEL_SPACE
 70
       0
 10
0.0
 20
0.0
 30
0.0
  3
*MODEL_SPACE
  1

  0
ENDBLK
  5
E
100
AcDbEntity
  8
0
100
AcDbBlockEnd
  0
BLOCK
  5
F
100
AcDbEntity
 67
       1
  8
0
100
AcDbBlockBegin
  2
*PAPER_SPACE
 70
       0
 10
0.0
 20
0.0
 30
0.0
  3
*PAPER_SPACE
  1

  0
ENDBLK
  5
10
100
AcDbEntity
 67
       1
  8
0
100
AcDbBlockEnd
  0
ENDSEC
  0
SECTION
  2
ENTITIES
  0
LINE
  5
3A
100
AcDbEntity
  8
SLD-0
  6
CONTINUOUS
 62
       3
100
AcDbLine
 10
-80.58204154
 20
45.22808817
 30
0.0
 11
-80.58204154
 21
-44.77191183
 31
0.0
  0
LINE
  5
3B
100
AcDbEntity
  8
SLD-0
  6
CONTINUOUS
 62
       3
100
AcDbLine
 10
-35.58204154
 20
45.22808817
 30
0.0
 11
-35.58204154
 21
-44.77191183
 31
0.0
  0
LINE
  5
3C
100
AcDbEntity
  8
SLD-0
  6
CONTINUOUS
 62
       3
100
AcDbLine
 10
-35.58204154
 20
45.22808817
 30
0.0
 11
-80.58204154
 21
45.22808817
 31
0.0
  0
LINE
  5
3D
100
AcDbEntity
  8
SLD-0
  6
CONTINUOUS
 62
       3
100
AcDbLine
 10
-35.58204154
 20
-44.77191183
 30
0.0
 11
-80.58204154
 21
-44.77191183
 31
0.0
  0
LINE
  5
3E
100
AcDbEntity
  8
SLD-0
  6
CONTINUOUS
 62
       3
100
AcDbLine
 10
-41.58204159
 20
50.82808817
 30
0.0
 11
-74.58204234
 21
50.82808817
 31
0.0
  0
LINE
  5
3F
100
AcDbEntity
  8
SLD-0
  6
CONTINUOUS
 62
       3
100
AcDbLine
 10
-41.58204159
 20
50.82808817
 30
0.0
 11
-41.58204159
 21
45.22808817
 31
0.0
  0
LINE
  5
40
100
AcDbEntity
  8
SLD-0
  6
CONTINUOUS
 62
       3
100
AcDbLine
 10
-74.58204234
 20
45.22808817
 30
0.0
 11
-74.58204234
 21
50.82808817
 31
0.0
  0
LINE
  5
41
100
AcDbEntity
  8
SLD-0
  6
CONTINUOUS
 62
       3
100
AcDbLine
 10
-35.78277253
 20
-22.24577788
 30
0.0
 11
-80.31148667
 21
-22.24577788
 31
0.0
  0
LINE
  5
42
100
AcDbEntity
  8
SLD-0
  6
CONTINUOUS
 62
       3
100
AcDbLine
 10
-80.48832992
 20
-12.11447838
 30
0.0
 11
-70.4471303
 21
-12.11447838
 31
0.0
  0
LINE
  5
43
100
AcDbEntity
  8
SLD-0
  6
CONTINUOUS
 62
       3
100
AcDbLine
 10
-70.4471303
 20
-12.11447838
 30
0.0
 11
-70.44713402
 21
-12.04376492
 31
0.0
  0
LINE
  5
44
100
AcDbEntity
  8
SLD-0
  6
CONTINUOUS
 62
       3
100
AcDbLine
 10
-45.64712865
 20
-12.04376492
 30
0.0
 11
-70.44713402
 21
-12.04376492
 31
0.0
  0
LINE
  5
45
100
AcDbEntity
  8
SLD-0
  6
CONTINUOUS
 62
       3
100
AcDbLine
 10
-45.64712865
 20
-12.04376492
 30
0.0
 11
-45.64713145
 21
-12.11447838
 31
0.0
  0
LINE
  5
46
100
AcDbEntity
  8
SLD-0
  6
CONTINUOUS
 62
       3
100
AcDbLine
 10
-35.60593224
 20
-12.11447838
 30
0.0
 11
-45.64713145
 21
-12.11447838
 31
0.0
  0
LINE
  5
47
100
AcDbEntity
  8
SLD-0
  6
CONTINUOUS
 62
       3
100
AcDbLine
 10
-80.31148804
 20
-42.43894543
 30
0.0
 11
-35.7827748
 21
-42.43894543
 31
0.0
  0
LINE
  5
48
100
AcDbEntity
  8
SLD-0
  6
CONTINUOUS
 62
       3
100
AcDbLine
 10
-45.64712959
 20
-8.36553249
 30
0.0
 11
-70.44713402
 21
-8.36553249
 31
0.0
  0
LINE
  5
49
100
AcDbEntity
  8
SLD-0
  6
CONTINUOUS
 62
       3
100
AcDbLine
 10
-45.64712959
 20
-8.36553249
 30
0.0
 11
-45.64713145
 21
-8.06068826
 31
0.0
  0
LINE
  5
4A
100
AcDbEntity
  8
SLD-0
  6
CONTINUOUS
 62
       3
100
AcDbLine
 10
-70.44713402
 20
-8.36553249
 30
0.0
 11
-70.44713402
 21
-12.04376492
 31
0.0
  0
LINE
  5
4B
100
AcDbEntity
  8
SLD-0
  6
CONTINUOUS
 62
       3
100
AcDbLine
 10
-45.64712865
 20
-12.04376492
 30
0.0
 11
-45.64712959
 21
-8.36553249
 31
0.0
  0
LINE
  5
4C
100
AcDbEntity
  8
SLD-0
  6
CONTINUOUS
 62
       3
100
AcDbLine
 10
-35.58204154
 20
43.22808807
 30
0.0
 11
-80.58204333
 21
43.22808807
 31
0.0
  0
LINE
  5
4D
100
AcDbEntity
  8
SLD-0
  6
CONTINUOUS
 62
       3
100
AcDbLine
 10
-35.58204154
 20
-1.85977864
 30
0.0
 11
-80.58204333
 21
-1.85977864
 31
0.0
  0
LINE
  5
4E
100
AcDbEntity
  8
SLD-0
  6
CONTINUOUS
 62
       3
100
AcDbLine
 10
-80.58204333
 20
-1.64764944
 30
0.0
 11
-80.58204333
 21
-1.85977864
 31
0.0
  0
LINE
  5
4F
100
AcDbEntity
  8
SLD-0
  6
CONTINUOUS
 62
       3
100
AcDbLine
 10
-35.58204154
 20
-1.64764944
 30
0.0
 11
-35.58204154
 21
-1.85977864
 31
0.0
  0
LINE
  5
50
100
AcDbEntity
  8
SLD-0
  6
CONTINUOUS
 62
       3
100
AcDbLine
 10
104.42052971
 20
40.22808828
 30
0.0
 11
111.52088087
 21
40.22808828
 31
0.0
  0
LINE
  5
51
100
AcDbEntity
  8
SLD-0
  6
CONTINUOUS
 62
       3
100
AcDbLine
 10
109.3224604
 20
42.22808814
 30
0.0
 11
104.42052971
 21
42.22808814
 31
0.0
  0
LINE
  5
52
100
AcDbEntity
  8
SLD-0
  6
CONTINUOUS
 62
       3
100
AcDbLine
 10
109.3224604
 20
42.68468301
 30
0.0
 11
109.3224604
 21
42.22808814
 31
0.0
  0
LINE
  5
53
100
AcDbEntity
  8
SLD-0
  6
CONTINUOUS
 62
       3
100
AcDbLine
 10
111.74605231
 20
40.72629324
 30
0.0
 11
109.84761457
 21
42.88289988
 31
0.0
  0
LINE
  5
54
100
AcDbEntity
  8
SLD-0
  6
CONTINUOUS
 62
       3
100
AcDbLine
 10
85.07248949
 20
49.08557738
 30
0.0
 11
87.27347295
 21
45.27336004
 31
0.0
  0
LINE
  5
55
100
AcDbEntity
  8
SLD-0
  6
CONTINUOUS
 62
       3
100
AcDbLine
 10
87.27347295
 20
45.27336004
 30
0.0
 11
87.25080084
 21
45.23408914
 31
0.0
  0
LINE
  5
56
100
AcDbEntity
  8
SLD-0
  6
CONTINUOUS
 62
       3
100
AcDbLine
 10
84.79553278
 20
49.77472163
 30
0.0
 11
85.15217345
 21
49.15700423
 31
0.0
  0
LINE
  5
57
100
AcDbEntity
  8
SLD-0
  6
CONTINUOUS
 62
       3
100
AcDbLine
 10
85.07248949
 20
49.08557738
 30
0.0
 11
85.15217345
 21
49.15700423
 31
0.0
  0
LINE
  5
58
100
AcDbEntity
  8
SLD-0
  6
CONTINUOUS
 62
       3
100
AcDbLine
 10
82.1205322
 20
45.22808817
 30
0.0
 11
82.1205322
 21
45.32757575
 31
0.0
  0
LINE
  5
59
100
AcDbEntity
  8
SLD-0
  6
CONTINUOUS
 62
       3
100
AcDbLine
 10
80.89841719
 20
47.52472405
 30
0.0
 11
82.08034377
 21
45.47757005
 31
0.0
  0
LINE
  5
5A
100
AcDbEntity
  8
SLD-0
  6
CONTINUOUS
 62
       3
100
AcDbLine
 10
83.49649425
 20
49.0247229
 30
0.0
 11
85.68848114
 21
45.22808817
 31
0.0
  0
LINE
  5
5B
100
AcDbEntity
  8
SLD-0
  6
CONTINUOUS
 62
       3
100
AcDbLine
 10
83.62053152
 20
45.22808817
 30
0.0
 11
83.62053152
 21
45.72950107
 31
0.0
  0
LINE
  5
5C
100
AcDbEntity
  8
SLD-0
  6
CONTINUOUS
 62
       3
100
AcDbLine
 10
83.58034306
 20
45.87949253
 30
0.0
 11
82.19745572
 21
48.27472278
 31
0.0
  0
LINE
  5
5D
100
AcDbEntity
  8
SLD-0
  6
CONTINUOUS
 62
       3
100
AcDbLine
 10
95.02020668
 20
47.23446363
 30
0.0
 11
95.75861882
 21
47.47820821
 31
0.0
  0
LINE
  5
5E
100
AcDbEntity
  8
SLD-0
  6
CONTINUOUS
 62
       3
100
AcDbLine
 10
94.63441561
 20
47.90962174
 30
0.0
 11
95.02020668
 21
47.23446363
 31
0.0
  0
LINE
  5
5F
100
AcDbEntity
  8
SLD-0
  6
CONTINUOUS
 62
       3
100
AcDbLine
 10
97.17180769
 20
46.27676845
 30
0.0
 11
97.93166261
 21
46.44199276
 31
0.0
  0
LINE
  5
60
100
AcDbEntity
  8
SLD-0
  6
CONTINUOUS
 62
       3
100
AcDbLine
 10
96.85870449
 20
46.98855431
 30
0.0
 11
97.17180769
 21
46.27676845
 31
0.0
  0
LINE
  5
61
100
AcDbEntity
  8
SLD-0
  6
CONTINUOUS
 62
       3
100
AcDbLine
 10
96.10854279
 20
46.78378686
 30
0.0
 11
96.85870449
 21
46.98855431
 31
0.0
  0
LINE
  5
62
100
AcDbEntity
  8
SLD-0
  6
CONTINUOUS
 62
       3
100
AcDbLine
 10
95.75861882
 20
47.47820821
 30
0.0
 11
96.10854279
 21
46.78378686
 31
0.0
  0
LINE
  5
63
100
AcDbEntity
  8
SLD-0
  6
CONTINUOUS
 62
       3
100
AcDbLine
 10
92.78027903
 20
47.9620084
 30
0.0
 11
93.48917942
 21
48.28160409
 31
0.0
  0
LINE
  5
64
100
AcDbEntity
  8
SLD-0
  6
CONTINUOUS
 62
       3
100
AcDbLine
 10
92.32603203
 20
48.59314196
 30
0.0
 11
92.78027903
 21
47.9620084
 31
0.0
  0
LINE
  5
65
100
AcDbEntity
  8
SLD-0
  6
CONTINUOUS
 62
       3
100
AcDbLine
 10
93.90977214
 20
47.62756325
 30
0.0
 11
94.63441561
 21
47.90962174
 31
0.0
  0
LINE
  5
66
100
AcDbEntity
  8
SLD-0
  6
CONTINUOUS
 62
       3
100
AcDbLine
 10
93.48917942
 20
48.28160409
 30
0.0
 11
93.90977214
 21
47.62756325
 31
0.0
  0
LINE
  5
67
100
AcDbEntity
  8
SLD-0
  6
CONTINUOUS
 62
       3
100
AcDbLine
 10
88.13433539
 20
48.69737163
 30
0.0
 11
88.76129429
 21
49.15737117
 31
0.0
  0
LINE
  5
68
100
AcDbEntity
  8
SLD-0
  6
CONTINUOUS
 62
       3
100
AcDbLine
 10
87.55879666
 20
49.22026944
 30
0.0
 11
88.13433539
 21
48.69737163
 31
0.0
  0
LINE
  5
69
100
AcDbEntity
  8
SLD-0
  6
CONTINUOUS
 62
       3
100
AcDbLine
 10
91.63483422
 20
48.23688244
 30
0.0
 11
92.32603203
 21
48.59314196
 31
0.0
  0
LINE
  5
6A
100
AcDbEntity
  8
SLD-0
  6
CONTINUOUS
 62
       3
100
AcDbLine
 10
91.14818464
 20
48.84337647
 30
0.0
 11
91.63483422
 21
48.23688244
 31
0.0
  0
LINE
  5
6B
100
AcDbEntity
  8
SLD-0
  6
CONTINUOUS
 62
       3
100
AcDbLine
 10
90.47657813
 20
48.45143192
 30
0.0
 11
91.14818464
 21
48.84337647
 31
0.0
  0
LINE
  5
6C
100
AcDbEntity
  8
SLD-0
  6
CONTINUOUS
 62
       3
100
AcDbLine
 10
89.95884846
 20
49.0316254
 30
0.0
 11
90.47657813
 21
48.45143192
 31
0.0
  0
LINE
  5
6D
100
AcDbEntity
  8
SLD-0
  6
CONTINUOUS
 62
       3
100
AcDbLine
 10
86.95677485
 20
48.72808804
 30
0.0
 11
87.55879666
 21
49.22026944
 31
0.0
  0
LINE
  5
6E
100
AcDbEntity
  8
SLD-0
  6
CONTINUOUS
 62
       3
100
AcDbLine
 10
86.35465618
 20
49.22014744
 30
0.0
 11
86.95677485
 21
48.72808804
 31
0.0
  0
LINE
  5
6F
100
AcDbEntity
  8
SLD-0
  6
CONTINUOUS
 62
       3
100
AcDbLine
 10
89.30867727
 20
48.60506871
 30
0.0
 11
89.95884846
 21
49.0316254
 31
0.0
  0
LINE
  5
70
100
AcDbEntity
  8
SLD-0
  6
CONTINUOUS
 62
       3
100
AcDbLine
 10
88.76129429
 20
49.15737117
 30
0.0
 11
89.30867727
 21
48.60506871
 31
0.0
  0
LINE
  5
71
100
AcDbEntity
  8
SLD-0
  6
CONTINUOUS
 62
       3
100
AcDbLine
 10
85.77921804
 20
48.69713344
 30
0.0
 11
86.35465618
 21
49.22014744
 31
0.0
  0
LINE
  5
72
100
AcDbEntity
  8
SLD-0
  6
CONTINUOUS
 62
       3
100
AcDbLine
 10
85.15217345
 20
49.15700423
 30
0.0
 11
85.77921804
 21
48.69713344
 31
0.0
  0
LINE
  5
73
100
AcDbEntity
  8
SLD-0
  6
CONTINUOUS
 62
       3
100
AcDbLine
 10
97.93166261
 20
46.44199276
 30
0.0
 11
98.20708077
 21
45.71479802
 31
0.0
  0
LINE
  5
74
100
AcDbEntity
  8
SLD-0
  6
CONTINUOUS
 62
       3
100
AcDbLine
 10
98.97453527
 20
45.84002787
 30
0.0
 11
99.17034398
 21
45.2280882
 31
0.0
  0
LINE
  5
75
100
AcDbEntity
  8
SLD-0
  6
CONTINUOUS
 62
       3
100
AcDbLine
 10
98.20708077
 20
45.71479802
 30
0.0
 11
98.97453527
 21
45.84002787
 31
0.0
  0
LINE
  5
76
100
AcDbEntity
  8
SLD-0
  6
CONTINUOUS
 62
       3
100
AcDbLine
 10
14.42053317
 20
-42.43894543
 30
0.0
 11
14.42053333
 21
-22.24577788
 31
0.0
  0
LINE
  5
77
100
AcDbEntity
  8
SLD-0
  6
CONTINUOUS
 62
       3
100
AcDbLine
 10
14.42053333
 20
-22.24577788
 30
0.0
 11
24.55183562
 21
-12.11447838
 31
0.0
  0
LINE
  5
78
100
AcDbEntity
  8
SLD-0
  6
CONTINUOUS
 62
       3
100
AcDbLine
 10
25.92053312
 20
-44.77191541
 30
0.0
 11
25.92053312
 21
-13.48317611
 31
0.0
  0
LINE
  5
79
100
AcDbEntity
  8
SLD-0
  6
CONTINUOUS
 62
       3
100
AcDbLine
 10
25.92043662
 20
-44.77191204
 30
0.0
 11
16.35073417
 21
-44.43772709
 31
0.0
  0
LINE
  5
7A
100
AcDbEntity
  8
SLD-0
  6
CONTINUOUS
 62
       3
100
AcDbLine
 10
25.92053312
 20
-13.39617568
 30
0.0
 11
25.92053317
 21
-44.47191183
 31
0.0
  0
LINE
  5
7B
100
AcDbEntity
  8
SLD-0
  6
CONTINUOUS
 62
       3
100
AcDbLine
 10
14.50840082
 20
-1.85977864
 30
0.0
 11
25.8326652
 21
-13.18404387
 31
0.0
  0
LINE
  5
7C
100
AcDbEntity
  8
SLD-0
  6
CONTINUOUS
 62
       3
100
AcDbLine
 10
14.42053333
 20
43.22808807
 30
0.0
 11
14.42053317
 21
-1.64764776
 31
0.0
  0
LINE
  5
7D
100
AcDbEntity
  8
SLD-0
  6
CONTINUOUS
 62
       3
100
AcDbLine
 10
27.92053322
 20
-44.77191541
 30
0.0
 11
27.92053322
 21
45.22808817
 31
0.0
  0
LINE
  5
7E
100
AcDbEntity
  8
SLD-0
  6
CONTINUOUS
 62
       3
100
AcDbLine
 10
25.92043662
 20
-44.77191204
 30
0.0
 11
94.3205301
 21
-44.77205609
 31
0.0
  0
LINE
  5
7F
100
AcDbEntity
  8
SLD-0
  6
CONTINUOUS
 62
       3
100
AcDbLine
 10
94.3205301
 20
-44.77205609
 30
0.0
 11
94.32053317
 21
-38.77191183
 31
0.0
  0
LINE
  5
80
100
AcDbEntity
  8
SLD-0
  6
CONTINUOUS
 62
       3
100
AcDbLine
 10
104.42053317
 20
-26.02004922
 30
0.0
 11
104.42052971
 21
35.8280883
 31
0.0
  0
LINE
  5
81
100
AcDbEntity
  8
SLD-0
  6
CONTINUOUS
 62
       3
100
AcDbLine
 10
104.42052971
 20
-38.7719107
 30
0.0
 11
94.32053317
 21
-38.77191183
 31
0.0
  0
LINE
  5
82
100
AcDbEntity
  8
SLD-0
  6
CONTINUOUS
 62
       3
100
AcDbLine
 10
94.40669607
 20
-37.27191511
 30
0.0
 11
105.92053275
 21
-37.27191511
 31
0.0
  0
LINE
  5
83
100
AcDbEntity
  8
SLD-0
  6
CONTINUOUS
 62
       3
100
AcDbLine
 10
105.92053275
 20
-37.27191511
 30
0.0
 11
105.92053275
 21
-38.7719107
 31
0.0
  0
LINE
  5
84
100
AcDbEntity
  8
SLD-0
  6
CONTINUOUS
 62
       3
100
AcDbLine
 10
108.92053317
 20
-38.77191183
 30
0.0
 11
108.92053138
 21
-33.39323226
 31
0.0
  0
LINE
  5
85
100
AcDbEntity
  8
SLD-0
  6
CONTINUOUS
 62
       3
100
AcDbLine
 10
108.92053138
 20
-33.39323226
 30
0.0
 11
102.25894492
 21
-26.73164579
 31
0.0
  0
LINE
  5
86
100
AcDbEntity
  8
SLD-0
  6
CONTINUOUS
 62
       3
100
AcDbLine
 10
103.82393192
 20
-26.17531094
 30
0.0
 11
110.42053442
 21
-32.77191344
 31
0.0
  0
LINE
  5
87
100
AcDbEntity
  8
SLD-0
  6
CONTINUOUS
 62
       3
100
AcDbLine
 10
110.42053442
 20
-32.77191344
 30
0.0
 11
110.42053442
 21
-38.7719107
 31
0.0
  0
LINE
  5
88
100
AcDbEntity
  8
SLD-0
  6
CONTINUOUS
 62
       3
100
AcDbLine
 10
104.42052971
 20
36.42808822
 30
0.0
 11
104.42052971
 21
35.8280883
 31
0.0
  0
LINE
  5
89
100
AcDbEntity
  8
SLD-0
  6
CONTINUOUS
 62
       3
100
AcDbLine
 10
16.42053317
 20
45.22808817
 30
0.0
 11
104.42052971
 21
45.22808817
 31
0.0
  0
LINE
  5
8A
100
AcDbEntity
  8
SLD-0
  6
CONTINUOUS
 62
       3
100
AcDbLine
 10
104.42052971
 20
45.22808817
 30
0.0
 11
104.42052971
 21
36.42808822
 31
0.0
  0
LINE
  5
8B
100
AcDbEntity
  8
SLD-0
  6
CONTINUOUS
 62
       3
100
AcDbLine
 10
93.72053485
 20
-44.07191101
 30
0.0
 11
93.62053316
 21
-44.07191101
 31
0.0
  0
LINE
  5
8C
100
AcDbEntity
  8
SLD-0
  6
CONTINUOUS
 62
       3
100
AcDbLine
 10
28.92053317
 20
-44.77191541
 30
0.0
 11
28.92053317
 21
45.22808817
 31
0.0
  0
LINE
  5
8D
100
AcDbEntity
  8
SLD-0
  6
CONTINUOUS
 62
       3
100
AcDbLine
 10
109.62240587
 20
42.98469973
 30
0.0
 11
109.6119233
 21
42.98360511
 31
0.0
  0
LINE
  5
8E
100
AcDbEntity
  8
SLD-0
  6
CONTINUOUS
 62
       3
100
AcDbLine
 10
109.6119233
 20
42.98360511
 30
0.0
 11
109.60145322
 21
42.98246645
 31
0.0
  0
LINE
  5
8F
100
AcDbEntity
  8
SLD-0
  6
CONTINUOUS
 62
       3
100
AcDbLine
 10
109.60145322
 20
42.98246645
 30
0.0
 11
109.59100815
 21
42.98123971
 31
0.0
  0
LINE
  5
90
100
AcDbEntity
  8
SLD-0
  6
CONTINUOUS
 62
       3
100
AcDbLine
 10
109.59100815
 20
42.98123971
 30
0.0
 11
109.58060059
 21
42.97988084
 31
0.0
  0
LINE
  5
91
100
AcDbEntity
  8
SLD-0
  6
CONTINUOUS
 62
       3
100
AcDbLine
 10
109.58060059
 20
42.97988084
 30
0.0
 11
109.57024303
 21
42.97834582
 31
0.0
  0
LINE
  5
92
100
AcDbEntity
  8
SLD-0
  6
CONTINUOUS
 62
       3
100
AcDbLine
 10
109.57024303
 20
42.97834582
 30
0.0
 11
109.55994798
 21
42.9765906
 31
0.0
  0
LINE
  5
93
100
AcDbEntity
  8
SLD-0
  6
CONTINUOUS
 62
       3
100
AcDbLine
 10
109.55994798
 20
42.9765906
 30
0.0
 11
109.54972794
 21
42.97457113
 31
0.0
  0
LINE
  5
94
100
AcDbEntity
  8
SLD-0
  6
CONTINUOUS
 62
       3
100
AcDbLine
 10
109.54972794
 20
42.97457113
 30
0.0
 11
109.53959542
 21
42.97224338
 31
0.0
  0
LINE
  5
95
100
AcDbEntity
  8
SLD-0
  6
CONTINUOUS
 62
       3
100
AcDbLine
 10
109.53959542
 20
42.97224338
 30
0.0
 11
109.52956291
 21
42.96956331
 31
0.0
  0
LINE
  5
96
100
AcDbEntity
  8
SLD-0
  6
CONTINUOUS
 62
       3
100
AcDbLine
 10
109.52956291
 20
42.96956331
 30
0.0
 11
109.51964291
 21
42.96648688
 31
0.0
  0
LINE
  5
97
100
AcDbEntity
  8
SLD-0
  6
CONTINUOUS
 62
       3
100
AcDbLine
 10
109.51964291
 20
42.96648688
 30
0.0
 11
109.50984786
 21
42.96297569
 31
0.0
  0
LINE
  5
98
100
AcDbEntity
  8
SLD-0
  6
CONTINUOUS
 62
       3
100
AcDbLine
 10
109.50984786
 20
42.96297569
 30
0.0
 11
109.50018966
 21
42.95903182
 31
0.0
  0
LINE
  5
99
100
AcDbEntity
  8
SLD-0
  6
CONTINUOUS
 62
       3
100
AcDbLine
 10
109.50018966
 20
42.95903182
 30
0.0
 11
109.49067998
 21
42.95467498
 31
0.0
  0
LINE
  5
9A
100
AcDbEntity
  8
SLD-0
  6
CONTINUOUS
 62
       3
100
AcDbLine
 10
109.49067998
 20
42.95467498
 30
0.0
 11
109.48133048
 21
42.94992496
 31
0.0
  0
LINE
  5
9B
100
AcDbEntity
  8
SLD-0
  6
CONTINUOUS
 62
       3
100
AcDbLine
 10
109.48133048
 20
42.94992496
 30
0.0
 11
109.47215285
 21
42.94480154
 31
0.0
  0
LINE
  5
9C
100
AcDbEntity
  8
SLD-0
  6
CONTINUOUS
 62
       3
100
AcDbLine
 10
109.47215285
 20
42.94480154
 30
0.0
 11
109.46315875
 21
42.93932451
 31
0.0
  0
LINE
  5
9D
100
AcDbEntity
  8
SLD-0
  6
CONTINUOUS
 62
       3
100
AcDbLine
 10
109.46315875
 20
42.93932451
 30
0.0
 11
109.45435986
 21
42.93351366
 31
0.0
  0
LINE
  5
9E
100
AcDbEntity
  8
SLD-0
  6
CONTINUOUS
 62
       3
100
AcDbLine
 10
109.45435986
 20
42.93351366
 30
0.0
 11
109.44576784
 21
42.92738877
 31
0.0
  0
LINE
  5
9F
100
AcDbEntity
  8
SLD-0
  6
CONTINUOUS
 62
       3
100
AcDbLine
 10
109.44576784
 20
42.92738877
 30
0.0
 11
109.43739437
 21
42.92096962
 31
0.0
  0
LINE
  5
A0
100
AcDbEntity
  8
SLD-0
  6
CONTINUOUS
 62
       3
100
AcDbLine
 10
109.43739437
 20
42.92096962
 30
0.0
 11
109.42925111
 21
42.91427602
 31
0.0
  0
LINE
  5
A1
100
AcDbEntity
  8
SLD-0
  6
CONTINUOUS
 62
       3
100
AcDbLine
 10
109.42925111
 20
42.91427602
 30
0.0
 11
109.42134974
 21
42.90732773
 31
0.0
  0
LINE
  5
A2
100
AcDbEntity
  8
SLD-0
  6
CONTINUOUS
 62
       3
100
AcDbLine
 10
109.42134974
 20
42.90732773
 30
0.0
 11
109.41370141
 21
42.90014203
 31
0.0
  0
LINE
  5
A3
100
AcDbEntity
  8
SLD-0
  6
CONTINUOUS
 62
       3
100
AcDbLine
 10
109.41370141
 20
42.90014203
 30
0.0
 11
109.40631465
 21
42.89272389
 31
0.0
  0
LINE
  5
A4
100
AcDbEntity
  8
SLD-0
  6
CONTINUOUS
 62
       3
100
AcDbLine
 10
109.40631465
 20
42.89272389
 30
0.0
 11
109.39919724
 21
42.88507454
 31
0.0
  0
LINE
  5
A5
100
AcDbEntity
  8
SLD-0
  6
CONTINUOUS
 62
       3
100
AcDbLine
 10
109.39919724
 20
42.88507454
 30
0.0
 11
109.39235694
 21
42.8771952
 31
0.0
  0
LINE
  5
A6
100
AcDbEntity
  8
SLD-0
  6
CONTINUOUS
 62
       3
100
AcDbLine
 10
109.39235694
 20
42.8771952
 30
0.0
 11
109.38580152
 21
42.8690871
 31
0.0
  0
LINE
  5
A7
100
AcDbEntity
  8
SLD-0
  6
CONTINUOUS
 62
       3
100
AcDbLine
 10
109.38580152
 20
42.8690871
 30
0.0
 11
109.37953872
 21
42.86075148
 31
0.0
  0
LINE
  5
A8
100
AcDbEntity
  8
SLD-0
  6
CONTINUOUS
 62
       3
100
AcDbLine
 10
109.37953872
 20
42.86075148
 30
0.0
 11
109.3735744
 21
42.85219303
 31
0.0
  0
LINE
  5
A9
100
AcDbEntity
  8
SLD-0
  6
CONTINUOUS
 62
       3
100
AcDbLine
 10
109.3735744
 20
42.85219303
 30
0.0
 11
109.36791032
 21
42.84342384
 31
0.0
  0
LINE
  5
AA
100
AcDbEntity
  8
SLD-0
  6
CONTINUOUS
 62
       3
100
AcDbLine
 10
109.36791032
 20
42.84342384
 30
0.0
 11
109.36254768
 21
42.83445696
 31
0.0
  0
LINE
  5
AB
100
AcDbEntity
  8
SLD-0
  6
CONTINUOUS
 62
       3
100
AcDbLine
 10
109.36254768
 20
42.83445696
 30
0.0
 11
109.35748771
 21
42.82530548
 31
0.0
  0
LINE
  5
AC
100
AcDbEntity
  8
SLD-0
  6
CONTINUOUS
 62
       3
100
AcDbLine
 10
109.35748771
 20
42.82530548
 30
0.0
 11
109.35273162
 21
42.81598245
 31
0.0
  0
LINE
  5
AD
100
AcDbEntity
  8
SLD-0
  6
CONTINUOUS
 62
       3
100
AcDbLine
 10
109.35273162
 20
42.81598245
 30
0.0
 11
109.34828074
 21
42.80650094
 31
0.0
  0
LINE
  5
AE
100
AcDbEntity
  8
SLD-0
  6
CONTINUOUS
 62
       3
100
AcDbLine
 10
109.34828074
 20
42.80650094
 30
0.0
 11
109.34414483
 21
42.79687342
 31
0.0
  0
LINE
  5
AF
100
AcDbEntity
  8
SLD-0
  6
CONTINUOUS
 62
       3
100
AcDbLine
 10
109.34414483
 20
42.79687342
 30
0.0
 11
109.34034735
 21
42.7871115
 31
0.0
  0
LINE
  5
B0
100
AcDbEntity
  8
SLD-0
  6
CONTINUOUS
 62
       3
100
AcDbLine
 10
109.34034735
 20
42.7871115
 30
0.0
 11
109.33691304
 21
42.77722665
 31
0.0
  0
LINE
  5
B1
100
AcDbEntity
  8
SLD-0
  6
CONTINUOUS
 62
       3
100
AcDbLine
 10
109.33691304
 20
42.77722665
 30
0.0
 11
109.33386663
 21
42.76723038
 31
0.0
  0
LINE
  5
B2
100
AcDbEntity
  8
SLD-0
  6
CONTINUOUS
 62
       3
100
AcDbLine
 10
109.33386663
 20
42.76723038
 30
0.0
 11
109.33123285
 21
42.75713417
 31
0.0
  0
LINE
  5
B3
100
AcDbEntity
  8
SLD-0
  6
CONTINUOUS
 62
       3
100
AcDbLine
 10
109.33123285
 20
42.75713417
 30
0.0
 11
109.32903619
 21
42.74694953
 31
0.0
  0
LINE
  5
B4
100
AcDbEntity
  8
SLD-0
  6
CONTINUOUS
 62
       3
100
AcDbLine
 10
109.32903619
 20
42.74694953
 30
0.0
 11
109.32727072
 21
42.73668835
 31
0.0
  0
LINE
  5
B5
100
AcDbEntity
  8
SLD-0
  6
CONTINUOUS
 62
       3
100
AcDbLine
 10
109.32727072
 20
42.73668835
 30
0.0
 11
109.32587043
 21
42.72636331
 31
0.0
  0
LINE
  5
B6
100
AcDbEntity
  8
SLD-0
  6
CONTINUOUS
 62
       3
100
AcDbLine
 10
109.32587043
 20
42.72636331
 30
0.0
 11
109.3247623
 21
42.71598718
 31
0.0
  0
LINE
  5
B7
100
AcDbEntity
  8
SLD-0
  6
CONTINUOUS
 62
       3
100
AcDbLine
 10
109.3247623
 20
42.71598718
 30
0.0
 11
109.32387327
 21
42.70557273
 31
0.0
  0
LINE
  5
B8
100
AcDbEntity
  8
SLD-0
  6
CONTINUOUS
 62
       3
100
AcDbLine
 10
109.32387327
 20
42.70557273
 30
0.0
 11
109.32313032
 21
42.69513274
 31
0.0
  0
LINE
  5
B9
100
AcDbEntity
  8
SLD-0
  6
CONTINUOUS
 62
       3
100
AcDbLine
 10
109.32313032
 20
42.69513274
 30
0.0
 11
109.3224604
 21
42.68468301
 31
0.0
  0
LINE
  5
BA
100
AcDbEntity
  8
SLD-0
  6
CONTINUOUS
 62
       3
100
AcDbLine
 10
109.62240587
 20
42.98469973
 30
0.0
 11
109.62968637
 21
42.98424961
 31
0.0
  0
LINE
  5
BB
100
AcDbEntity
  8
SLD-0
  6
CONTINUOUS
 62
       3
100
AcDbLine
 10
109.62968637
 20
42.98424961
 30
0.0
 11
109.63696232
 21
42.98377405
 31
0.0
  0
LINE
  5
BC
100
AcDbEntity
  8
SLD-0
  6
CONTINUOUS
 62
       3
100
AcDbLine
 10
109.63696232
 20
42.98377405
 30
0.0
 11
109.64422921
 21
42.9832476
 31
0.0
  0
LINE
  5
BD
100
AcDbEntity
  8
SLD-0
  6
CONTINUOUS
 62
       3
100
AcDbLine
 10
109.64422921
 20
42.9832476
 30
0.0
 11
109.65148249
 21
42.98264481
 31
0.0
  0
LINE
  5
BE
100
AcDbEntity
  8
SLD-0
  6
CONTINUOUS
 62
       3
100
AcDbLine
 10
109.65148249
 20
42.98264481
 30
0.0
 11
109.65871763
 21
42.98194023
 31
0.0
  0
LINE
  5
BF
100
AcDbEntity
  8
SLD-0
  6
CONTINUOUS
 62
       3
100
AcDbLine
 10
109.65871763
 20
42.98194023
 30
0.0
 11
109.6659301
 21
42.98110842
 31
0.0
  0
LINE
  5
C0
100
AcDbEntity
  8
SLD-0
  6
CONTINUOUS
 62
       3
100
AcDbLine
 10
109.6659301
 20
42.98110842
 30
0.0
 11
109.67311536
 21
42.98012393
 31
0.0
  0
LINE
  5
C1
100
AcDbEntity
  8
SLD-0
  6
CONTINUOUS
 62
       3
100
AcDbLine
 10
109.67311536
 20
42.98012393
 30
0.0
 11
109.68026888
 21
42.97896132
 31
0.0
  0
LINE
  5
C2
100
AcDbEntity
  8
SLD-0
  6
CONTINUOUS
 62
       3
100
AcDbLine
 10
109.68026888
 20
42.97896132
 30
0.0
 11
109.68738612
 21
42.97759522
 31
0.0
  0
LINE
  5
C3
100
AcDbEntity
  8
SLD-0
  6
CONTINUOUS
 62
       3
100
AcDbLine
 10
109.68738612
 20
42.97759522
 30
0.0
 11
109.69446312
 21
42.97601127
 31
0.0
  0
LINE
  5
C4
100
AcDbEntity
  8
SLD-0
  6
CONTINUOUS
 62
       3
100
AcDbLine
 10
109.69446312
 20
42.97601127
 30
0.0
 11
109.70149705
 21
42.97421641
 31
0.0
  0
LINE
  5
C5
100
AcDbEntity
  8
SLD-0
  6
CONTINUOUS
 62
       3
100
AcDbLine
 10
109.70149705
 20
42.97421641
 30
0.0
 11
109.70848517
 21
42.97222003
 31
0.0
  0
LINE
  5
C6
100
AcDbEntity
  8
SLD-0
  6
CONTINUOUS
 62
       3
100
AcDbLine
 10
109.70848517
 20
42.97222003
 30
0.0
 11
109.71542476
 21
42.97003152
 31
0.0
  0
LINE
  5
C7
100
AcDbEntity
  8
SLD-0
  6
CONTINUOUS
 62
       3
100
AcDbLine
 10
109.71542476
 20
42.97003152
 30
0.0
 11
109.72231311
 21
42.96766028
 31
0.0
  0
LINE
  5
C8
100
AcDbEntity
  8
SLD-0
  6
CONTINUOUS
 62
       3
100
AcDbLine
 10
109.72231311
 20
42.96766028
 30
0.0
 11
109.72914749
 21
42.96511569
 31
0.0
  0
LINE
  5
C9
100
AcDbEntity
  8
SLD-0
  6
CONTINUOUS
 62
       3
100
AcDbLine
 10
109.72914749
 20
42.96511569
 30
0.0
 11
109.73592517
 21
42.96240715
 31
0.0
  0
LINE
  5
CA
100
AcDbEntity
  8
SLD-0
  6
CONTINUOUS
 62
       3
100
AcDbLine
 10
109.73592517
 20
42.96240715
 30
0.0
 11
109.74264345
 21
42.95954405
 31
0.0
  0
LINE
  5
CB
100
AcDbEntity
  8
SLD-0
  6
CONTINUOUS
 62
       3
100
AcDbLine
 10
109.74264345
 20
42.95954405
 30
0.0
 11
109.74929946
 21
42.9565355
 31
0.0
  0
LINE
  5
CC
100
AcDbEntity
  8
SLD-0
  6
CONTINUOUS
 62
       3
100
AcDbLine
 10
109.74929946
 20
42.9565355
 30
0.0
 11
109.75588742
 21
42.95338411
 31
0.0
  0
LINE
  5
CD
100
AcDbEntity
  8
SLD-0
  6
CONTINUOUS
 62
       3
100
AcDbLine
 10
109.75588742
 20
42.95338411
 30
0.0
 11
109.76239862
 21
42.950086
 31
0.0
  0
LINE
  5
CE
100
AcDbEntity
  8
SLD-0
  6
CONTINUOUS
 62
       3
100
AcDbLine
 10
109.76239862
 20
42.950086
 30
0.0
 11
109.76882419
 21
42.94663701
 31
0.0
  0
LINE
  5
CF
100
AcDbEntity
  8
SLD-0
  6
CONTINUOUS
 62
       3
100
AcDbLine
 10
109.76882419
 20
42.94663701
 30
0.0
 11
109.77515529
 21
42.94303297
 31
0.0
  0
LINE
  5
D0
100
AcDbEntity
  8
SLD-0
  6
CONTINUOUS
 62
       3
100
AcDbLine
 10
109.77515529
 20
42.94303297
 30
0.0
 11
109.78138306
 21
42.9392697
 31
0.0
  0
LINE
  5
D1
100
AcDbEntity
  8
SLD-0
  6
CONTINUOUS
 62
       3
100
AcDbLine
 10
109.78138306
 20
42.9392697
 30
0.0
 11
109.78749866
 21
42.93534305
 31
0.0
  0
LINE
  5
D2
100
AcDbEntity
  8
SLD-0
  6
CONTINUOUS
 62
       3
100
AcDbLine
 10
109.78749866
 20
42.93534305
 30
0.0
 11
109.79349324
 21
42.93124884
 31
0.0
  0
LINE
  5
D3
100
AcDbEntity
  8
SLD-0
  6
CONTINUOUS
 62
       3
100
AcDbLine
 10
109.79349324
 20
42.93124884
 30
0.0
 11
109.79935793
 21
42.92698291
 31
0.0
  0
LINE
  5
D4
100
AcDbEntity
  8
SLD-0
  6
CONTINUOUS
 62
       3
100
AcDbLine
 10
109.79935793
 20
42.92698291
 30
0.0
 11
109.80508566
 21
42.92254281
 31
0.0
  0
LINE
  5
D5
100
AcDbEntity
  8
SLD-0
  6
CONTINUOUS
 62
       3
100
AcDbLine
 10
109.80508566
 20
42.92254281
 30
0.0
 11
109.81068458
 21
42.91794101
 31
0.0
  0
LINE
  5
D6
100
AcDbEntity
  8
SLD-0
  6
CONTINUOUS
 62
       3
100
AcDbLine
 10
109.81068458
 20
42.91794101
 30
0.0
 11
109.81617076
 21
42.91319767
 31
0.0
  0
LINE
  5
D7
100
AcDbEntity
  8
SLD-0
  6
CONTINUOUS
 62
       3
100
AcDbLine
 10
109.81617076
 20
42.91319767
 30
0.0
 11
109.82156029
 21
42.908333
 31
0.0
  0
LINE
  5
D8
100
AcDbEntity
  8
SLD-0
  6
CONTINUOUS
 62
       3
100
AcDbLine
 10
109.82156029
 20
42.908333
 30
0.0
 11
109.82686928
 21
42.90336724
 31
0.0
  0
LINE
  5
D9
100
AcDbEntity
  8
SLD-0
  6
CONTINUOUS
 62
       3
100
AcDbLine
 10
109.82686928
 20
42.90336724
 30
0.0
 11
109.83211384
 21
42.89832059
 31
0.0
  0
LINE
  5
DA
100
AcDbEntity
  8
SLD-0
  6
CONTINUOUS
 62
       3
100
AcDbLine
 10
109.83211384
 20
42.89832059
 30
0.0
 11
109.83731008
 21
42.89321328
 31
0.0
  0
LINE
  5
DB
100
AcDbEntity
  8
SLD-0
  6
CONTINUOUS
 62
       3
100
AcDbLine
 10
109.83731008
 20
42.89321328
 30
0.0
 11
109.84247411
 21
42.88806552
 31
0.0
  0
LINE
  5
DC
100
AcDbEntity
  8
SLD-0
  6
CONTINUOUS
 62
       3
100
AcDbLine
 10
109.84247411
 20
42.88806552
 30
0.0
 11
109.84761457
 21
42.88289988
 31
0.0
  0
LINE
  5
DD
100
AcDbEntity
  8
SLD-0
  6
CONTINUOUS
 62
       3
100
AcDbLine
 10
82.1205322
 20
45.32757575
 30
0.0
 11
82.12010679
 21
45.33389225
 31
0.0
  0
LINE
  5
DE
100
AcDbEntity
  8
SLD-0
  6
CONTINUOUS
 62
       3
100
AcDbLine
 10
82.12010679
 20
45.33389225
 30
0.0
 11
82.11966621
 21
45.34020469
 31
0.0
  0
LINE
  5
DF
100
AcDbEntity
  8
SLD-0
  6
CONTINUOUS
 62
       3
100
AcDbLine
 10
82.11966621
 20
45.34020469
 30
0.0
 11
82.11919531
 21
45.34650901
 31
0.0
  0
LINE
  5
E0
100
AcDbEntity
  8
SLD-0
  6
CONTINUOUS
 62
       3
100
AcDbLine
 10
82.11919531
 20
45.34650901
 30
0.0
 11
82.11867891
 21
45.35280113
 31
0.0
  0
LINE
  5
E1
100
AcDbEntity
  8
SLD-0
  6
CONTINUOUS
 62
       3
100
AcDbLine
 10
82.11867891
 20
45.35280113
 30
0.0
 11
82.11810187
 21
45.35907701
 31
0.0
  0
LINE
  5
E2
100
AcDbEntity
  8
SLD-0
  6
CONTINUOUS
 62
       3
100
AcDbLine
 10
82.11810187
 20
45.35907701
 30
0.0
 11
82.117449
 21
45.36533257
 31
0.0
  0
LINE
  5
E3
100
AcDbEntity
  8
SLD-0
  6
CONTINUOUS
 62
       3
100
AcDbLine
 10
82.117449
 20
45.36533257
 30
0.0
 11
82.11670515
 21
45.37156375
 31
0.0
  0
LINE
  5
E4
100
AcDbEntity
  8
SLD-0
  6
CONTINUOUS
 62
       3
100
AcDbLine
 10
82.11670515
 20
45.37156375
 30
0.0
 11
82.11585516
 21
45.3777665
 31
0.0
  0
LINE
  5
E5
100
AcDbEntity
  8
SLD-0
  6
CONTINUOUS
 62
       3
100
AcDbLine
 10
82.11585516
 20
45.3777665
 30
0.0
 11
82.11488386
 21
45.38393674
 31
0.0
  0
LINE
  5
E6
100
AcDbEntity
  8
SLD-0
  6
CONTINUOUS
 62
       3
100
AcDbLine
 10
82.11488386
 20
45.38393674
 30
0.0
 11
82.11377609
 21
45.39007041
 31
0.0
  0
LINE
  5
E7
100
AcDbEntity
  8
SLD-0
  6
CONTINUOUS
 62
       3
100
AcDbLine
 10
82.11377609
 20
45.39007041
 30
0.0
 11
82.11251669
 21
45.39616346
 31
0.0
  0
LINE
  5
E8
100
AcDbEntity
  8
SLD-0
  6
CONTINUOUS
 62
       3
100
AcDbLine
 10
82.11251669
 20
45.39616346
 30
0.0
 11
82.11109048
 21
45.40221182
 31
0.0
  0
LINE
  5
E9
100
AcDbEntity
  8
SLD-0
  6
CONTINUOUS
 62
       3
100
AcDbLine
 10
82.11109048
 20
45.40221182
 30
0.0
 11
82.10948295
 21
45.40821159
 31
0.0
  0
LINE
  5
EA
100
AcDbEntity
  8
SLD-0
  6
CONTINUOUS
 62
       3
100
AcDbLine
 10
82.10948295
 20
45.40821159
 30
0.0
 11
82.10769408
 21
45.41416278
 31
0.0
  0
LINE
  5
EB
100
AcDbEntity
  8
SLD-0
  6
CONTINUOUS
 62
       3
100
AcDbLine
 10
82.10769408
 20
45.41416278
 30
0.0
 11
82.10573842
 21
45.42006928
 31
0.0
  0
LINE
  5
EC
100
AcDbEntity
  8
SLD-0
  6
CONTINUOUS
 62
       3
100
AcDbLine
 10
82.10573842
 20
45.42006928
 30
0.0
 11
82.10363112
 21
45.42593514
 31
0.0
  0
LINE
  5
ED
100
AcDbEntity
  8
SLD-0
  6
CONTINUOUS
 62
       3
100
AcDbLine
 10
82.10363112
 20
45.42593514
 30
0.0
 11
82.10138734
 21
45.43176445
 31
0.0
  0
LINE
  5
EE
100
AcDbEntity
  8
SLD-0
  6
CONTINUOUS
 62
       3
100
AcDbLine
 10
82.10138734
 20
45.43176445
 30
0.0
 11
82.09902226
 21
45.43756125
 31
0.0
  0
LINE
  5
EF
100
AcDbEntity
  8
SLD-0
  6
CONTINUOUS
 62
       3
100
AcDbLine
 10
82.09902226
 20
45.43756125
 30
0.0
 11
82.09655103
 21
45.44332961
 31
0.0
  0
LINE
  5
F0
100
AcDbEntity
  8
SLD-0
  6
CONTINUOUS
 62
       3
100
AcDbLine
 10
82.09655103
 20
45.44332961
 30
0.0
 11
82.09398882
 21
45.44907359
 31
0.0
  0
LINE
  5
F1
100
AcDbEntity
  8
SLD-0
  6
CONTINUOUS
 62
       3
100
AcDbLine
 10
82.09398882
 20
45.44907359
 30
0.0
 11
82.09135079
 21
45.45479726
 31
0.0
  0
LINE
  5
F2
100
AcDbEntity
  8
SLD-0
  6
CONTINUOUS
 62
       3
100
AcDbLine
 10
82.09135079
 20
45.45479726
 30
0.0
 11
82.08865211
 21
45.46050467
 31
0.0
  0
LINE
  5
F3
100
AcDbEntity
  8
SLD-0
  6
CONTINUOUS
 62
       3
100
AcDbLine
 10
82.08865211
 20
45.46050467
 30
0.0
 11
82.08590794
 21
45.4661999
 31
0.0
  0
LINE
  5
F4
100
AcDbEntity
  8
SLD-0
  6
CONTINUOUS
 62
       3
100
AcDbLine
 10
82.08590794
 20
45.4661999
 30
0.0
 11
82.08313343
 21
45.47188701
 31
0.0
  0
LINE
  5
F5
100
AcDbEntity
  8
SLD-0
  6
CONTINUOUS
 62
       3
100
AcDbLine
 10
82.08313343
 20
45.47188701
 30
0.0
 11
82.08034377
 21
45.47757005
 31
0.0
  0
ARC
  5
F6
100
AcDbEntity
  8
SLD-0
  6
CONTINUOUS
 62
       3
100
AcDbCircle
 10
82.84697601
 20
48.64972154
 30
0.0
 40
2.25000018
100
AcDbArc
 50
30.00000693
 51
209.99992349
  0
ARC
  5
F7
100
AcDbEntity
  8
SLD-0
  6
CONTINUOUS
 62
       3
100
AcDbCircle
 10
82.84697601
 20
48.64972154
 30
0.0
 40
0.75000045
100
AcDbArc
 50
30.00012103
 51
209.99987071
  0
ARC
  5
F8
100
AcDbEntity
  8
SLD-0
  6
CONTINUOUS
 62
       3
100
AcDbCircle
 10
16.42053317
 20
-42.43894543
 30
0.0
 40
2.0
100
AcDbArc
 50
180.0
 51
268.0
  0
ARC
  5
F9
100
AcDbEntity
  8
SLD-0
  6
CONTINUOUS
 62
       3
100
AcDbCircle
 10
14.72053317
 20
-1.64764776
 30
0.0
 40
0.3
100
AcDbArc
 50
180.0
 51
224.99980148
  0
ARC
  5
FA
100
AcDbEntity
  8
SLD-0
  6
CONTINUOUS
 62
       3
100
AcDbCircle
 10
16.42053317
 20
43.22808817
 30
0.0
 40
2.0
100
AcDbArc
 50
90.0
 51
180.00000286
  0
ARC
  5
FB
100
AcDbEntity
  8
SLD-0
  6
CONTINUOUS
 62
       3
100
AcDbCircle
 10
107.42053317
 20
-38.77191183
 30
0.0
 40
13.1
100
AcDbArc
 50
103.23865404
 51
180.0
  0
ARC
  5
FC
100
AcDbEntity
  8
SLD-0
  6
CONTINUOUS
 62
       3
100
AcDbCircle
 10
107.42053317
 20
-38.77191183
 30
0.0
 40
1.50000042
100
AcDbArc
 50
179.99995684
 51
360.0
  0
ARC
  5
FD
100
AcDbEntity
  8
SLD-0
  6
CONTINUOUS
 62
       3
100
AcDbCircle
 10
107.42053317
 20
-38.77191183
 30
0.0
 40
3.00000346
100
AcDbArc
 50
179.99997842
 51
360.00002158
  0
ELLIPSE
  5
FE
100
AcDbEntity
  8
SLD-0
  6
CONTINUOUS
 62
       3
100
AcDbEllipse
 10
111.52083065
 20
40.52809959
 30
0.0
 11
-0.2734361415896558
 21
0.123584322299962
 31
0.0
210
0.0
220
0.0
230
1.0
 40
0.99977559
 41
1.9953685878817176
 42
4.2878173409823273
  0
ELLIPSE
  5
FF
100
AcDbEntity
  8
SLD-0
  6
CONTINUOUS
 62
       3
100
AcDbEllipse
 10
83.32052174
 20
45.72949342
 30
0.0
 11
0.2897895743643062
 21
0.0776488824257342
 31
0.0
210
0.0
220
0.0
230
1.0
 40
0.99995919
 41
6.0214012165623805
 42
6.5449694923742134
  0
LINE
  5
100
100
AcDbEntity
  8
SLD-0
  6
CENTERX2
 62
       3
100
AcDbLine
 10
-24.03398229
 20
0.22808817
 30
0.0
 11
-91.91532793
 21
0.22808817
 31
0.0
  0
LINE
  5
101
100
AcDbEntity
  8
SLD-0
  6
CENTERX2
 62
       3
100
AcDbLine
 10
-58.08204154
 20
54.92771243
 30
0.0
 11
-58.08204154
 21
-46.77191183
 31
0.0
  0
LINE
  5
102
100
AcDbEntity
  8
SLD-0
  6
CENTERX2
 62
       3
100
AcDbLine
 10
10.95054581
 20
0.22808817
 30
0.0
 11
108.64699209
 21
0.22808817
 31
0.0
  0
TEXT
  5
103
100
AcDbEntity
  8
0
 62
       7
100
AcDbText
 10
84.62993269
 20
-81.5699391
 30
0.0
 40
5.0
  1
000
 41
0.8
 72
       5
 11
96.62993269
 21
-81.5699391
 31
0.0
100
AcDbText
  0
ENDSEC
  0
SECTION
  2
OBJECTS
  0
DICTIONARY
  5
19
100
AcDbDictionary
  3
ACAD_GROUP
350
1A
  3
ACAD_MLINESTYLE
350
1B
  0
DICTIONARY
  5
1A
102
{ACAD_REACTORS
330
19
102
}
100
AcDbDictionary
  0
DICTIONARY
  5
1B
102
{ACAD_REACTORS
330
19
102
}
100
AcDbDictionary
  3
STANDARD
350
1C
  0
MLINESTYLE
  5
1C
102
{ACAD_REACTORS
330
1B
102
}
100
AcDbMlineStyle
  2
STANDARD
 70
       0
  3

 62
       0
 51
90.0
 52
90.0
 71
       2
 49
0.5
 62
     256
  6
BYLAYER
 49
-0.5
 62
     256
  6
BYLAYER
  0
ENDSEC
  0
EOF
