  0
SECTION
  2
HEADER
  9
$ACADVER
  1
AC1014
  9
$ACADMAINTVER
 70
       0
  9
$DWGCODEPAGE
  3
ANSI_932
  9
$INSBASE
 10
0.0
 20
0.0
 30
0.0
  9
$EXTMIN
 10
-117.40361385
 20
-88.44318617
 30
0.0
  9
$EXTMAX
 10
114.15361388
 20
85.94318617
 30
0.0
  9
$LIMMIN
 10
-124.63977722
 20
-93.89276031
  9
$LIMMAX
 10
121.38977724
 20
91.39276031
  9
$ORTHOMODE
 70
       0
  9
$REGENMODE
 70
       1
  9
$FILLMODE
 70
       1
  9
$QTEXTMODE
 70
       0
  9
$MIRRTEXT
 70
       1
  9
$DRAGMODE
 70
       2
  9
$LTSCALE
 40
1.0
  9
$OSMODE
 70
       0
  9
$ATTMODE
 70
       1
  9
$TEXTSIZE
 40
0.2
  9
$TRACEWID
 40
0.05
  9
$TEXTSTYLE
  7
STANDARD
  9
$CLAYER
  8
0
  9
$CELTYPE
  6
CONTINUOUS
  9
$CECOLOR
 62
     256
  9
$CELTSCALE
 40
1.0
  9
$DELOBJ
 70
       1
  9
$DISPSILH
 70
       0
  9
$DIMSCALE
 40
1.0
  9
$DIMASZ
 40
0.18
  9
$DIMEXO
 40
0.0625
  9
$DIMDLI
 40
0.38
  9
$DIMRND
 40
0.0
  9
$DIMDLE
 40
0.0
  9
$DIMEXE
 40
0.18
  9
$DIMTP
 40
0.0
  9
$DIMTM
 40
0.0
  9
$DIMTXT
 40
0.18
  9
$DIMCEN
 40
0.09
  9
$DIMTSZ
 40
0.0
  9
$DIMTOL
 70
       0
  9
$DIMLIM
 70
       0
  9
$DIMTIH
 70
       1
  9
$DIMTOH
 70
       1
  9
$DIMSE1
 70
       0
  9
$DIMSE2
 70
       0
  9
$DIMTAD
 70
       0
  9
$DIMZIN
 70
       0
  9
$DIMBLK
  1

  9
$DIMASO
 70
       1
  9
$DIMSHO
 70
       1
  9
$DIMPOST
  1

  9
$DIMAPOST
  1

  9
$DIMALT
 70
       0
  9
$DIMALTD
 70
       2
  9
$DIMALTF
 40
25.4
  9
$DIMLFAC
 40
1.0
  9
$DIMTOFL
 70
       0
  9
$DIMTVP
 40
0.0
  9
$DIMTIX
 70
       0
  9
$DIMSOXD
 70
       0
  9
$DIMSAH
 70
       0
  9
$DIMBLK1
  1

  9
$DIMBLK2
  1

  9
$DIMSTYLE
  2
STANDARD
  9
$DIMCLRD
 70
       0
  9
$DIMCLRE
 70
       0
  9
$DIMCLRT
 70
       0
  9
$DIMTFAC
 40
1.0
  9
$DIMGAP
 40
0.09
  9
$DIMJUST
 70
       0
  9
$DIMSD1
 70
       0
  9
$DIMSD2
 70
       0
  9
$DIMTOLJ
 70
       1
  9
$DIMTZIN
 70
       0
  9
$DIMALTZ
 70
       0
  9
$DIMALTTZ
 70
       0
  9
$DIMFIT
 70
       3
  9
$DIMUPT
 70
       0
  9
$DIMUNIT
 70
       2
  9
$DIMDEC
 70
       4
  9
$DIMTDEC
 70
       4
  9
$DIMALTU
 70
       2
  9
$DIMALTTD
 70
       2
  9
$DIMTXSTY
  7
STANDARD
  9
$DIMAUNIT
 70
       0
  9
$LUNITS
 70
       2
  9
$LUPREC
 70
       4
  9
$SKETCHINC
 40
0.1
  9
$FILLETRAD
 40
0.0
  9
$AUNITS
 70
       0
  9
$AUPREC
 70
       0
  9
$MENU
  1
acad
  9
$ELEVATION
 40
0.0
  9
$PELEVATION
 40
0.0
  9
$THICKNESS
 40
0.0
  9
$LIMCHECK
 70
       0
  9
$BLIPMODE
 70
       1
  9
$CHAMFERA
 40
0.0
  9
$CHAMFERB
 40
0.0
  9
$CHAMFERC
 40
0.0
  9
$CHAMFERD
 40
0.0
  9
$SKPOLY
 70
       0
  9
$TDCREATE
 40
0.000000000
  9
$TDUPDATE
 40
0.000000000
  9
$TDINDWG
 40
0.0000000000
  9
$TDUSRTIMER
 40
0.0000000000
  9
$USRTIMER
 70
       1
  9
$ANGBASE
 50
0.0
  9
$ANGDIR
 70
       0
  9
$PDMODE
 70
       0
  9
$PDSIZE
 40
1.0
  9
$PLINEWID
 40
0.0
  9
$COORDS
 70
       1
  9
$SPLFRAME
 70
       0
  9
$SPLINETYPE
 70
       6
  9
$SPLINESEGS
 70
       8
  9
$ATTDIA
 70
       0
  9
$ATTREQ
 70
       1
  9
$HANDLING
 70
       1
  9
$HANDSEED
  5
1E6
  9
$SURFTAB1
 70
       6
  9
$SURFTAB2
 70
       6
  9
$SURFTYPE
 70
       6
  9
$SURFU
 70
       6
  9
$SURFV
 70
       6
  9
$UCSNAME
  2

  9
$UCSORG
 10
0.0
 20
0.0
 30
0.0
  9
$UCSXDIR
 10
1.0
 20
0.0
 30
0.0
  9
$UCSYDIR
 10
0.0
 20
1.0
 30
0.0
  9
$PUCSNAME
  2

  9
$PUCSORG
 10
0.0
 20
0.0
 30
0.0
  9
$PUCSXDIR
 10
1.0
 20
0.0
 30
0.0
  9
$PUCSYDIR
 10
0.0
 20
1.0
 30
0.0
  9
$USERI1
 70
       0
  9
$USERI2
 70
       0
  9
$USERI3
 70
       0
  9
$USERI4
 70
       0
  9
$USERI5
 70
       0
  9
$USERR1
 40
0.0
  9
$USERR2
 40
0.0
  9
$USERR3
 40
0.0
  9
$USERR4
 40
0.0
  9
$USERR5
 40
0.0
  9
$WORLDVIEW
 70
       1
  9
$SHADEDGE
 70
       3
  9
$SHADEDIF
 70
      70
  9
$TILEMODE
 70
       1
  9
$MAXACTVP
 70
      16
  9
$PINSBASE
 10
0.0
 20
0.0
 30
0.0
  9
$PLIMCHECK
 70
       0
  9
$PEXTMIN
 10
1.00000000E+20
 20
1.00000000E+20
 30
1.00000000E+20
  9
$PEXTMAX
 10
-1.00000000E+20
 20
-1.00000000E+20
 30
-1.00000000E+20
  9
$PLIMMIN
 10
0.0
 20
0.0
  9
$PLIMMAX
 10
12.0
 20
9.0
  9
$UNITMODE
 70
       0
  9
$VISRETAIN
 70
       0
  9
$PLINEGEN
 70
       1
  9
$PSLTSCALE
 70
       0
  9
$TREEDEPTH
 70
    3020
  9
$PICKSTYLE
 70
       1
  9
$CMLSTYLE
  2
STANDARD
  9
$CMLJUST
 70
       0
  9
$CMLSCALE
 40
1.0
  9
$PROXYGRAPHICS
 70
       0
  9
$MEASUREMENT
 70
       0
  0
ENDSEC
  0
SECTION
  2
CLASSES
  0
CLASS
  1
LWPOLYLINE
  2
AcDbPolyline
  3
"AutoCAD"
 90
        0
280
       0
281
       1
  0
CLASS
  1
IMAGE
  2
AcDbRasterImage
  3
ISM
 90
      127
280
       0
281
       1
  0
CLASS
  1
OLE2FRAME
  2
AcDbOle2Frame
  3
""
 90
        0
280
       0
281
       1
  0
CLASS
  1
HATCH
  2
AcDbHatch
  3
"ACAD_SEDONA"
 90
        0
280
       0
281
       1
  0
CLASS
  1
DICTIONARYVAR
  2
AcDbDictionaryVar
  3
"AutoCAD"
 90
        0
280
       0
281
       0
  0
CLASS
  1
RASTERVARIABLES
  2
AcDbRasterVariables
  3
ISM
 90
        0
280
       0
281
       0
  0
CLASS
  1
IMAGEDEF
  2
AcDbRasterImageDef
  3
ISM
 90
        0
280
       0
281
       0
  0
CLASS
  1
IMAGEDEF_REACTOR
  2
AcDbRasterImageDefReactor
  3
ISM
 90
        1
280
       0
281
       0
  0
CLASS
  1
IDBUFFER
  2
AcDbIdBuffer
  3
"Acad"
 90
        0
280
       0
281
       0
  0
CLASS
  1
SPATIAL_FILTER
  2
AcDbSpatialFilter
  3
"Acad"
 90
        0
280
       0
281
       0
  0
CLASS
  1
XRECORD
  2
AcDbXrecord
  3
"<Built In>"
 90
        0
280
       0
281
       0
  0
CLASS
  1
SORTENTSTABLE
  2
AcDbSortentsTable
  3
"AutoCAD"
 90
        0
280
       0
281
       0
  0
CLASS
  1
LAYER_INDEX
  2
AcDbLayerIndex
  3
"Acad"
 90
        0
280
       0
281
       0
  0
CLASS
  1
SPATIAL_INDEX
  2
AcDbSpatialIndex
  3
"Acad"
 90
        0
280
       0
281
       0
  0
CLASS
  1
OBJECT_PTR
  2
CAseDLPNTableRecord
  3
"ASE-LPNTableRecord"
 90
        1
280
       0
281
       0
  0
CLASS
  1
LAYOUT
  2
AcDbLayout
  3
"AutoCAD 2000"
 90
        1
280
       0
281
       0
  0
CLASS
  1
PLOTSETTINGS
  2
AcDbPlotSettings
  3
"AutoCAD 2000"
 90
        1
280
       0
281
       0
  0
CLASS
  1
ACDBDICTIONARYWDFLT
  2
AcDbDictionaryWithDefault
  3
"AutoCAD 2000"
 90
        1
280
       0
281
       0
  0
CLASS
  1
ACDBPLACEHOLDER
  2
AcDbPlaceHolder
  3
"AutoCAD 2000"
 90
        1
280
       0
281
       0
  0
CLASS
  1
VBA_PROJECT
  2
AcDbVbaProject
  3
"acadvba"
 90
        1
280
       0
281
       0
  0
CLASS
  1
WIPEOUT
  2
AcDbWipeout
  3
WipeOut|AutoCAD Express Tool|expresstools@autodesk.com
 90
      127
280
       0
281
       1
  0
CLASS
  1
WIPEOUTVARIABLES
  2
AcDbWipeoutVariables
  3
WipeOut|AutoCAD Express Tool|expresstools@autodesk.com
 90
        0
280
       0
281
       0
  0
CLASS
  1
RTEXT
  2
RText
  3
RText|AutoCAD Express Tool|expresstools@autodesk.com
 90
        0
280
       0
281
       1
  0
CLASS
  1
ARCALIGNEDTEXT
  2
AcDbArcAlignedText
  3
ATEXT|AutoCAD Express Tool|expresstools@autodesk.com
 90
        0
280
       0
281
       1
  0
ENDSEC
  0
SECTION
  2
TABLES
  0
TABLE
  2
VPORT
  5
7
100
AcDbSymbolTable
 70
       1
  0
VPORT
  5
15
100
AcDbSymbolTableRecord
100
AcDbViewportTableRecord
  2
*ACTIVE
 70
       0
 10
0.0
 20
0.0
 11
1.0
 21
1.0
 12
-1.62499999
 22
-1.25
 13
0.0
 23
0.0
 14
1.0
 24
1.0
 15
0.0
 25
0.0
 16
0.0
 26
0.0
 36
1.0
 17
0.0
 27
0.0
 37
0.0
 40
185.28552062
 41
1.32784016
 42
50.0
 43
0.0
 44
0.0
 50
0.0
 51
0.0
 71
       0
 72
     100
 73
       1
 74
       1
 75
       0
 76
       0
 77
       0
 78
       0
  0
ENDTAB
  0
TABLE
  2
LTYPE
  5
4
100
AcDbSymbolTable
 70
      30
  0
LTYPE
  5
11
100
AcDbSymbolTableRecord
100
AcDbLinetypeTableRecord
  2
BYBLOCK
 70
      64
  3

 72
      65
 73
       0
 40
0.0
  0
LTYPE
  5
12
100
AcDbSymbolTableRecord
100
AcDbLinetypeTableRecord
  2
BYLAYER
 70
      64
  3

 72
      65
 73
       0
 40
0.0
  0
LTYPE
  5
13
100
AcDbSymbolTableRecord
100
AcDbLinetypeTableRecord
  2
CONTINUOUS
 70
      64
  3
Solid line
 72
      65
 73
       0
 40
0.0
  0
LTYPE
  5
1D
100
AcDbSymbolTableRecord
100
AcDbLinetypeTableRecord
  2
HIDDENX2
 70
      64
  3
CADPAC LINETYPE
 72
      65
 73
       2
 40
9.71481554
 49
7.28611165
 74
       0
 49
-2.42870388
 74
       0
  0
LTYPE
  5
1E
100
AcDbSymbolTableRecord
100
AcDbLinetypeTableRecord
  2
HIDDEN
 70
      64
  3
CADPAC LINETYPE
 72
      65
 73
       2
 40
7.28611165
 49
4.85740777
 74
       0
 49
-2.42870388
 74
       0
  0
LTYPE
  5
1F
100
AcDbSymbolTableRecord
100
AcDbLinetypeTableRecord
  2
HIDDEN2
 70
      64
  3
CADPAC LINETYPE
 72
      65
 73
       2
 40
6.07175971
 49
3.64305583
 74
       0
 49
-2.42870388
 74
       0
  0
LTYPE
  5
20
100
AcDbSymbolTableRecord
100
AcDbLinetypeTableRecord
  2
DASHED
 70
      64
  3
CADPAC LINETYPE
 72
      65
 73
       2
 40
7.28611165
 49
4.85740777
 74
       0
 49
-2.42870388
 74
       0
  0
LTYPE
  5
21
100
AcDbSymbolTableRecord
100
AcDbLinetypeTableRecord
  2
DASHED2
 70
      64
  3
CADPAC LINETYPE
 72
      65
 73
       2
 40
5.46458374
 49
3.64305583
 74
       0
 49
-1.82152791
 74
       0
  0
LTYPE
  5
22
100
AcDbSymbolTableRecord
100
AcDbLinetypeTableRecord
  2
DASHEDX2
 70
      64
  3
CADPAC LINETYPE
 72
      65
 73
       2
 40
10.92916748
 49
7.28611165
 74
       0
 49
-3.64305583
 74
       0
  0
LTYPE
  5
23
100
AcDbSymbolTableRecord
100
AcDbLinetypeTableRecord
  2
DOTX2
 70
      64
  3
CADPAC LINETYPE
 72
      65
 73
       2
 40
3.03587986
 49
0.0
 74
       0
 49
-3.03587986
 74
       0
  0
LTYPE
  5
24
100
AcDbSymbolTableRecord
100
AcDbLinetypeTableRecord
  2
DOT
 70
      64
  3
CADPAC LINETYPE
 72
      65
 73
       2
 40
2.42870388
 49
0.0
 74
       0
 49
-2.42870388
 74
       0
  0
LTYPE
  5
25
100
AcDbSymbolTableRecord
100
AcDbLinetypeTableRecord
  2
DOT2
 70
      64
  3
CADPAC LINETYPE
 72
      65
 73
       2
 40
1.82152791
 49
0.0
 74
       0
 49
-1.82152791
 74
       0
  0
LTYPE
  5
26
100
AcDbSymbolTableRecord
100
AcDbLinetypeTableRecord
  2
CENTERX2
 70
      64
  3
CADPAC LINETYPE
 72
      65
 73
       4
 40
14.57222331
 49
6.07175971
 74
       0
 49
-3.03587986
 74
       0
 49
2.42870388
 74
       0
 49
-3.03587986
 74
       0
  0
LTYPE
  5
27
100
AcDbSymbolTableRecord
100
AcDbLinetypeTableRecord
  2
CENTER
 70
      64
  3
CADPAC LINETYPE
 72
      65
 73
       4
 40
11.17203787
 49
4.85740777
 74
       0
 49
-2.42870388
 74
       0
 49
1.45722233
 74
       0
 49
-2.42870388
 74
       0
  0
LTYPE
  5
28
100
AcDbSymbolTableRecord
100
AcDbLinetypeTableRecord
  2
CENTER2
 70
      64
  3
CADPAC LINETYPE
 72
      65
 73
       4
 40
7.77185243
 49
3.64305583
 74
       0
 49
-1.82152791
 74
       0
 49
0.48574078
 74
       0
 49
-1.82152791
 74
       0
  0
LTYPE
  5
29
100
AcDbSymbolTableRecord
100
AcDbLinetypeTableRecord
  2
DASHDOTX2
 70
      64
  3
CADPAC LINETYPE
 72
      65
 73
       4
 40
12.14351942
 49
6.07175971
 74
       0
 49
-3.03587986
 74
       0
 49
0.0
 74
       0
 49
-3.03587986
 74
       0
  0
LTYPE
  5
2A
100
AcDbSymbolTableRecord
100
AcDbLinetypeTableRecord
  2
DASHDOT
 70
      64
  3
CADPAC LINETYPE
 72
      65
 73
       4
 40
9.71481554
 49
4.85740777
 74
       0
 49
-2.42870388
 74
       0
 49
0.0
 74
       0
 49
-2.42870388
 74
       0
  0
LTYPE
  5
2B
100
AcDbSymbolTableRecord
100
AcDbLinetypeTableRecord
  2
DASHDOT2
 70
      64
  3
CADPAC LINETYPE
 72
      65
 73
       4
 40
7.28611165
 49
3.64305583
 74
       0
 49
-1.82152791
 74
       0
 49
0.0
 74
       0
 49
-1.82152791
 74
       0
  0
LTYPE
  5
2C
100
AcDbSymbolTableRecord
100
AcDbLinetypeTableRecord
  2
DIVIDEX2
 70
      64
  3
CADPAC LINETYPE
 72
      65
 73
       6
 40
15.17939928
 49
6.07175971
 74
       0
 49
-3.03587986
 74
       0
 49
0.0
 74
       0
 49
-3.03587986
 74
       0
 49
0.0
 74
       0
 49
-3.03587986
 74
       0
  0
LTYPE
  5
2D
100
AcDbSymbolTableRecord
100
AcDbLinetypeTableRecord
  2
DIVIDE
 70
      64
  3
CADPAC LINETYPE
 72
      65
 73
       6
 40
12.14351942
 49
4.85740777
 74
       0
 49
-2.42870388
 74
       0
 49
0.0
 74
       0
 49
-2.42870388
 74
       0
 49
0.0
 74
       0
 49
-2.42870388
 74
       0
  0
LTYPE
  5
2E
100
AcDbSymbolTableRecord
100
AcDbLinetypeTableRecord
  2
DIVIDE2
 70
      64
  3
CADPAC LINETYPE
 72
      65
 73
       6
 40
9.10763957
 49
3.64305583
 74
       0
 49
-1.82152791
 74
       0
 49
0.0
 74
       0
 49
-1.82152791
 74
       0
 49
0.0
 74
       0
 49
-1.82152791
 74
       0
  0
LTYPE
  5
2F
100
AcDbSymbolTableRecord
100
AcDbLinetypeTableRecord
  2
BORDERX2
 70
      64
  3
CADPAC LINETYPE
 72
      65
 73
       6
 40
21.25115899
 49
6.07175971
 74
       0
 49
-3.03587986
 74
       0
 49
6.07175971
 74
       0
 49
-3.03587986
 74
       0
 49
0.0
 74
       0
 49
-3.03587986
 74
       0
  0
LTYPE
  5
30
100
AcDbSymbolTableRecord
100
AcDbLinetypeTableRecord
  2
BORDER
 70
      64
  3
CADPAC LINETYPE
 72
      65
 73
       6
 40
17.00092719
 49
4.85740777
 74
       0
 49
-2.42870388
 74
       0
 49
4.85740777
 74
       0
 49
-2.42870388
 74
       0
 49
0.0
 74
       0
 49
-2.42870388
 74
       0
  0
LTYPE
  5
31
100
AcDbSymbolTableRecord
100
AcDbLinetypeTableRecord
  2
BORDER2
 70
      64
  3
CADPAC LINETYPE
 72
      65
 73
       6
 40
12.7506954
 49
3.64305583
 74
       0
 49
-1.82152791
 74
       0
 49
3.64305583
 74
       0
 49
-1.82152791
 74
       0
 49
0.0
 74
       0
 49
-1.82152791
 74
       0
  0
LTYPE
  5
32
100
AcDbSymbolTableRecord
100
AcDbLinetypeTableRecord
  2
PHANTOMX2
 70
      64
  3
CADPAC LINETYPE
 72
      65
 73
       6
 40
18.21527914
 49
6.07175971
 74
       0
 49
-2.42870388
 74
       0
 49
2.42870388
 74
       0
 49
-2.42870388
 74
       0
 49
2.42870388
 74
       0
 49
-2.42870388
 74
       0
  0
LTYPE
  5
33
100
AcDbSymbolTableRecord
100
AcDbLinetypeTableRecord
  2
PHANTOM
 70
      64
  3
CADPAC LINETYPE
 72
      65
 73
       6
 40
15.05796409
 49
4.85740777
 74
       0
 49
-2.42870388
 74
       0
 49
1.45722233
 74
       0
 49
-2.42870388
 74
       0
 49
1.45722233
 74
       0
 49
-2.42870388
 74
       0
  0
LTYPE
  5
34
100
AcDbSymbolTableRecord
100
AcDbLinetypeTableRecord
  2
PHANTOM2
 70
      64
  3
CADPAC LINETYPE
 72
      65
 73
       6
 40
12.87213059
 49
3.64305583
 74
       0
 49
-2.42870388
 74
       0
 49
0.97148155
 74
       0
 49
-2.42870388
 74
       0
 49
0.97148155
 74
       0
 49
-2.42870388
 74
       0
  0
LTYPE
  5
35
100
AcDbSymbolTableRecord
100
AcDbLinetypeTableRecord
  2
ACAD_ISO06W100
 70
      64
  3
CADPAC LINETYPE
 72
      65
 73
       8
 40
16.39375122
 49
6.07175971
 74
       0
 49
-3.03587986
 74
       0
 49
0.0
 74
       0
 49
-2.42870388
 74
       0
 49
0.0
 74
       0
 49
-2.42870388
 74
       0
 49
0.0
 74
       0
 49
-2.42870388
 74
       0
  0
LTYPE
  5
36
100
AcDbSymbolTableRecord
100
AcDbLinetypeTableRecord
  2
ACAD_ISO13W100
 70
      64
  3
CADPAC LINETYPE
 72
      65
 73
       8
 40
19.42963108
 49
4.85740777
 74
       0
 49
-2.42870388
 74
       0
 49
4.85740777
 74
       0
 49
-2.42870388
 74
       0
 49
0.0
 74
       0
 49
-2.42870388
 74
       0
 49
0.0
 74
       0
 49
-2.42870388
 74
       0
  0
LTYPE
  5
37
100
AcDbSymbolTableRecord
100
AcDbLinetypeTableRecord
  2
ACAD_ISO14W100
 70
      64
  3
CADPAC LINETYPE
 72
      65
 73
       8
 40
14.57222331
 49
4.85740777
 74
       0
 49
-2.42870388
 74
       0
 49
0.0
 74
       0
 49
-2.42870388
 74
       0
 49
0.0
 74
       0
 49
-2.42870388
 74
       0
 49
0.0
 74
       0
 49
-2.42870388
 74
       0
  0
ENDTAB
  0
TABLE
  2
LAYER
  5
2
100
AcDbSymbolTable
 70
       3
  0
LAYER
  5
14
100
AcDbSymbolTableRecord
100
AcDbLayerTableRecord
  2
0
 70
       0
 62
       7
  6
CONTINUOUS
  0
LAYER
  5
38
100
AcDbSymbolTableRecord
100
AcDbLayerTableRecord
  2
SLD-0
 70
       0
 62
       7
  6
CONTINUOUS
  0
LAYER
  5
39
100
AcDbSymbolTableRecord
100
AcDbLayerTableRecord
  2
レイヤー_1
 70
       0
 62
       7
  6
CONTINUOUS
  0
ENDTAB
  0
TABLE
  2
STYLE
  5
3
100
AcDbSymbolTable
 70
       1
  0
STYLE
  5
17
100
AcDbSymbolTableRecord
100
AcDbTextStyleTableRecord
  2
STANDARD
 70
       0
 40
0.0
 41
1.0
 50
0.0
 71
       0
 42
5.0
  3
txt.shx
  4
bigfont.shx
  0
ENDTAB
  0
TABLE
  2
VIEW
  5
5
100
AcDbSymbolTable
 70
       1
  0
VIEW
  5
3A
100
AcDbSymbolTableRecord
100
AcDbViewTableRecord
  2
QQQQ
 70
       0
 40
185.28552062
 10
-1.62499999
 20
-1.25
 41
246.02955446
 11
0.0
 21
0.0
 31
1.0
 12
100.0
 22
100.0
 32
0.0
 42
50.0
 43
0.0
 44
0.0
 50
0.0
 71
       0
  0
ENDTAB
  0
TABLE
  2
UCS
  5
6
100
AcDbSymbolTable
 70
       0
  0
ENDTAB
  0
TABLE
  2
APPID
  5
8
100
AcDbSymbolTable
 70
       1
  0
APPID
  5
16
100
AcDbSymbolTableRecord
100
AcDbRegAppTableRecord
  2
ACAD
 70
       0
  0
ENDTAB
  0
TABLE
  2
DIMSTYLE
  5
9
100
AcDbSymbolTable
 70
       1
  0
DIMSTYLE
105
18
100
AcDbSymbolTableRecord
100
AcDbDimStyleTableRecord
  2
STANDARD
 70
       0
  3

  4

  5

  6

  7

 40
1.0
 41
0.18
 42
0.0625
 43
0.38
 44
0.18
 45
0.0
 46
0.0
 47
0.0
 48
0.0
 71
       0
 72
       0
 73
       1
 74
       1
 75
       0
 76
       0
 77
       0
 78
       0
140
0.18
141
0.09
142
0.0
143
25.4
144
1.0
145
0.0
146
1.0
147
0.09
170
       0
171
       2
172
       0
173
       0
174
       0
175
       0
176
       0
177
       0
178
       0
270
       2
271
       4
272
       4
273
       2
274
       2
275
       0
280
       0
281
       0
282
       0
283
       1
284
       0
285
       0
286
       0
287
       0
288
       0
340
17
  0
ENDTAB
  0
TABLE
  2
BLOCK_RECORD
  5
1
100
AcDbSymbolTable
 70
       0
  0
BLOCK_RECORD
  5
A
100
AcDbSymbolTableRecord
100
AcDbBlockTableRecord
  2
*MODEL_SPACE
  0
BLOCK_RECORD
  5
B
100
AcDbSymbolTableRecord
100
AcDbBlockTableRecord
  2
*PAPER_SPACE
  0
ENDTAB
  0
ENDSEC
  0
SECTION
  2
BLOCKS
  0
BLOCK
  5
D
100
AcDbEntity
  8
0
100
AcDbBlockBegin
  2
*MODEL_SPACE
 70
       0
 10
0.0
 20
0.0
 30
0.0
  3
*MODEL_SPACE
  1

  0
ENDBLK
  5
E
100
AcDbEntity
  8
0
100
AcDbBlockEnd
  0
BLOCK
  5
F
100
AcDbEntity
 67
       1
  8
0
100
AcDbBlockBegin
  2
*PAPER_SPACE
 70
       0
 10
0.0
 20
0.0
 30
0.0
  3
*PAPER_SPACE
  1

  0
ENDBLK
  5
10
100
AcDbEntity
 67
       1
  8
0
100
AcDbBlockEnd
  0
ENDSEC
  0
SECTION
  2
ENTITIES
  0
LINE
  5
3B
100
AcDbEntity
  8
レイヤー_1
  6
CENTERX2
 62
       7
100
AcDbLine
 10
-112.95059024
 20
12.60377922
 30
0.0
 11
-77.80088754
 21
12.60377922
 31
0.0
  0
LINE
  5
3C
100
AcDbEntity
  8
レイヤー_1
  6
CENTERX2
 62
       7
100
AcDbLine
 10
-95.20099847
 20
82.58960209
 30
0.0
 11
-95.20099847
 21
-56.82830543
 31
0.0
  0
LINE
  5
3D
100
AcDbEntity
  8
レイヤー_1
  6
CENTERX2
 62
       7
100
AcDbLine
 10
-24.30409407
 20
12.60377922
 30
0.0
 11
95.92773141
 21
12.60377922
 31
0.0
  0
LINE
  5
3E
100
AcDbEntity
  8
レイヤー_1
  6
CONTINUOUS
 62
       7
100
AcDbLine
 10
83.81822078
 20
-49.83857645
 30
0.0
 11
89.95972743
 21
-49.83857645
 31
0.0
  0
LINE
  5
3F
100
AcDbEntity
  8
レイヤー_1
  6
CONTINUOUS
 62
       7
100
AcDbLine
 10
81.72015763
 20
69.05166875
 30
0.0
 11
74.99360869
 21
69.05166875
 31
0.0
  0
LINE
  5
40
100
AcDbEntity
  8
レイヤー_1
  6
CONTINUOUS
 62
       7
100
AcDbLine
 10
89.21324031
 20
71.30002419
 30
0.0
 11
89.21324031
 21
65.4554197
 31
0.0
  0
LINE
  5
41
100
AcDbEntity
  8
レイヤー_1
  6
CONTINUOUS
 62
       7
100
AcDbLine
 10
83.21877417
 20
71.30002419
 30
0.0
 11
83.21877417
 21
70.55028528
 31
0.0
  0
LINE
  5
42
100
AcDbEntity
  8
レイヤー_1
  6
CONTINUOUS
 62
       7
100
AcDbLine
 10
89.21324031
 20
65.4554197
 30
0.0
 11
85.71560712
 21
61.95821714
 31
0.0
  0
LINE
  5
43
100
AcDbEntity
  8
レイヤー_1
  6
CONTINUOUS
 62
       7
100
AcDbLine
 10
85.71560712
 20
61.46901358
 30
0.0
 11
85.71560712
 21
61.95821714
 31
0.0
  0
LINE
  5
44
100
AcDbEntity
  8
レイヤー_1
  6
CONTINUOUS
 62
       7
100
AcDbLine
 10
81.72015763
 20
67.55348285
 30
0.0
 11
75.71707875
 21
67.55348285
 31
0.0
  0
LINE
  5
45
100
AcDbEntity
  8
レイヤー_1
  6
CONTINUOUS
 62
       7
100
AcDbLine
 10
87.71462377
 20
71.30002419
 30
0.0
 11
87.71462377
 21
66.07596752
 31
0.0
  0
LINE
  5
46
100
AcDbEntity
  8
レイヤー_1
  6
CONTINUOUS
 62
       7
100
AcDbLine
 10
87.71462377
 20
66.07596752
 30
0.0
 11
84.21785185
 21
62.57919561
 31
0.0
  0
LINE
  5
47
100
AcDbEntity
  8
レイヤー_1
  6
CONTINUOUS
 62
       7
100
AcDbLine
 10
84.21785185
 20
61.62490416
 30
0.0
 11
84.21785185
 21
62.57919561
 31
0.0
  0
LINE
  5
48
100
AcDbEntity
  8
レイヤー_1
  6
CONTINUOUS
 62
       7
100
AcDbLine
 10
84.71652943
 20
71.30002419
 30
0.0
 11
84.71652943
 21
70.55028528
 31
0.0
  0
LINE
  5
49
100
AcDbEntity
  8
レイヤー_1
  6
CONTINUOUS
 62
       7
100
AcDbLine
 10
43.55280602
 20
64.44126971
 30
0.0
 11
42.40386668
 21
64.44126971
 31
0.0
  0
LINE
  5
4A
100
AcDbEntity
  8
レイヤー_1
  6
CONTINUOUS
 62
       7
100
AcDbLine
 10
45.70168433
 20
69.74585549
 30
0.0
 11
44.55188371
 21
69.74585549
 31
0.0
  0
LINE
  5
4B
100
AcDbEntity
  8
レイヤー_1
  6
CONTINUOUS
 62
       7
100
AcDbLine
 10
46.50008521
 20
63.64200756
 30
0.0
 11
44.55188371
 21
63.64200756
 31
0.0
  0
LINE
  5
4C
100
AcDbEntity
  8
レイヤー_1
  6
CONTINUOUS
 62
       7
100
AcDbLine
 10
46.50008521
 20
70.54597891
 30
0.0
 11
44.55188371
 21
70.54597891
 31
0.0
  0
LINE
  5
4D
100
AcDbEntity
  8
レイヤー_1
  6
CONTINUOUS
 62
       7
100
AcDbLine
 10
43.55280602
 20
70.54597891
 30
0.0
 11
43.55280602
 21
69.74585549
 31
0.0
  0
LINE
  5
4E
100
AcDbEntity
  8
レイヤー_1
  6
CONTINUOUS
 62
       7
100
AcDbLine
 10
44.55188371
 20
70.54597891
 30
0.0
 11
44.55188371
 21
69.74585549
 31
0.0
  0
LINE
  5
4F
100
AcDbEntity
  8
レイヤー_1
  6
CONTINUOUS
 62
       7
100
AcDbLine
 10
42.40386668
 20
69.74585549
 30
0.0
 11
42.40386668
 21
64.44126971
 31
0.0
  0
LINE
  5
50
100
AcDbEntity
  8
レイヤー_1
  6
CONTINUOUS
 62
       7
100
AcDbLine
 10
45.70168433
 20
69.74585549
 30
0.0
 11
45.70168433
 21
64.44126971
 31
0.0
  0
LINE
  5
51
100
AcDbEntity
  8
レイヤー_1
  6
CONTINUOUS
 62
       7
100
AcDbLine
 10
41.60460453
 20
70.54597891
 30
0.0
 11
41.60460453
 21
63.64200756
 31
0.0
  0
LINE
  5
52
100
AcDbEntity
  8
レイヤー_1
  6
CONTINUOUS
 62
       7
100
AcDbLine
 10
46.50008521
 20
70.54597891
 30
0.0
 11
46.50008521
 21
63.64200756
 31
0.0
  0
LINE
  5
53
100
AcDbEntity
  8
レイヤー_1
  6
CONTINUOUS
 62
       7
100
AcDbLine
 10
43.55280602
 20
70.54597891
 30
0.0
 11
41.60460453
 21
70.54597891
 31
0.0
  0
LINE
  5
54
100
AcDbEntity
  8
レイヤー_1
  6
CONTINUOUS
 62
       7
100
AcDbLine
 10
43.55280602
 20
69.74585549
 30
0.0
 11
42.40386668
 21
69.74585549
 31
0.0
  0
LINE
  5
55
100
AcDbEntity
  8
レイヤー_1
  6
CONTINUOUS
 62
       7
100
AcDbLine
 10
45.70168433
 20
64.44126971
 30
0.0
 11
44.55188371
 21
64.44126971
 31
0.0
  0
LINE
  5
56
100
AcDbEntity
  8
レイヤー_1
  6
CONTINUOUS
 62
       7
100
AcDbLine
 10
44.55188371
 20
63.64200756
 30
0.0
 11
44.55188371
 21
64.44126971
 31
0.0
  0
LINE
  5
57
100
AcDbEntity
  8
レイヤー_1
  6
CONTINUOUS
 62
       7
100
AcDbLine
 10
43.55280602
 20
63.64200756
 30
0.0
 11
43.55280602
 21
64.44126971
 31
0.0
  0
LINE
  5
58
100
AcDbEntity
  8
レイヤー_1
  6
CONTINUOUS
 62
       7
100
AcDbLine
 10
43.55280602
 20
63.64200756
 30
0.0
 11
41.60460453
 21
63.64200756
 31
0.0
  0
LINE
  5
59
100
AcDbEntity
  8
レイヤー_1
  6
CONTINUOUS
 62
       7
100
AcDbLine
 10
66.4825003
 20
69.74585549
 30
0.0
 11
65.33442223
 21
69.74585549
 31
0.0
  0
LINE
  5
5A
100
AcDbEntity
  8
レイヤー_1
  6
CONTINUOUS
 62
       7
100
AcDbLine
 10
66.4825003
 20
59.36535215
 30
0.0
 11
65.33442223
 21
59.36535215
 31
0.0
  0
LINE
  5
5B
100
AcDbEntity
  8
レイヤー_1
  6
CONTINUOUS
 62
       7
100
AcDbLine
 10
67.28262373
 20
58.56652064
 30
0.0
 11
65.33442223
 21
58.56652064
 31
0.0
  0
LINE
  5
5C
100
AcDbEntity
  8
レイヤー_1
  6
CONTINUOUS
 62
       7
100
AcDbLine
 10
67.28262373
 20
70.54597891
 30
0.0
 11
65.33442223
 21
70.54597891
 31
0.0
  0
LINE
  5
5D
100
AcDbEntity
  8
レイヤー_1
  6
CONTINUOUS
 62
       7
100
AcDbLine
 10
64.33448326
 20
70.54597891
 30
0.0
 11
64.33448326
 21
69.74585549
 31
0.0
  0
LINE
  5
5E
100
AcDbEntity
  8
レイヤー_1
  6
CONTINUOUS
 62
       7
100
AcDbLine
 10
65.33442223
 20
70.54597891
 30
0.0
 11
65.33442223
 21
69.74585549
 31
0.0
  0
LINE
  5
5F
100
AcDbEntity
  8
レイヤー_1
  6
CONTINUOUS
 62
       7
100
AcDbLine
 10
63.18554392
 20
69.74585549
 30
0.0
 11
63.18554392
 21
59.36535215
 31
0.0
  0
LINE
  5
60
100
AcDbEntity
  8
レイヤー_1
  6
CONTINUOUS
 62
       7
100
AcDbLine
 10
66.4825003
 20
69.74585549
 30
0.0
 11
66.4825003
 21
59.36535215
 31
0.0
  0
LINE
  5
61
100
AcDbEntity
  8
レイヤー_1
  6
CONTINUOUS
 62
       7
100
AcDbLine
 10
62.38714304
 20
70.54597891
 30
0.0
 11
62.38714304
 21
58.56652064
 31
0.0
  0
LINE
  5
62
100
AcDbEntity
  8
レイヤー_1
  6
CONTINUOUS
 62
       7
100
AcDbLine
 10
67.28262373
 20
70.54597891
 30
0.0
 11
67.28262373
 21
58.56652064
 31
0.0
  0
LINE
  5
63
100
AcDbEntity
  8
レイヤー_1
  6
CONTINUOUS
 62
       7
100
AcDbLine
 10
64.33448326
 20
70.54597891
 30
0.0
 11
62.38714304
 21
70.54597891
 31
0.0
  0
LINE
  5
64
100
AcDbEntity
  8
レイヤー_1
  6
CONTINUOUS
 62
       7
100
AcDbLine
 10
64.33448326
 20
69.74585549
 30
0.0
 11
63.18554392
 21
69.74585549
 31
0.0
  0
LINE
  5
65
100
AcDbEntity
  8
レイヤー_1
  6
CONTINUOUS
 62
       7
100
AcDbLine
 10
65.33442223
 20
59.36535215
 30
0.0
 11
65.33442223
 21
58.56652064
 31
0.0
  0
LINE
  5
66
100
AcDbEntity
  8
レイヤー_1
  6
CONTINUOUS
 62
       7
100
AcDbLine
 10
64.33448326
 20
59.36535215
 30
0.0
 11
64.33448326
 21
58.56652064
 31
0.0
  0
LINE
  5
67
100
AcDbEntity
  8
レイヤー_1
  6
CONTINUOUS
 62
       7
100
AcDbLine
 10
64.33448326
 20
59.36535215
 30
0.0
 11
63.18554392
 21
59.36535215
 31
0.0
  0
LINE
  5
68
100
AcDbEntity
  8
レイヤー_1
  6
CONTINUOUS
 62
       7
100
AcDbLine
 10
64.33448326
 20
58.56652064
 30
0.0
 11
62.38714304
 21
58.56652064
 31
0.0
  0
LINE
  5
69
100
AcDbEntity
  8
レイヤー_1
  6
CONTINUOUS
 62
       7
100
AcDbLine
 10
56.09123104
 20
69.74585549
 30
0.0
 11
54.94315297
 21
69.74585549
 31
0.0
  0
LINE
  5
6A
100
AcDbEntity
  8
レイヤー_1
  6
CONTINUOUS
 62
       7
100
AcDbLine
 10
56.09123104
 20
59.36535215
 30
0.0
 11
54.94315297
 21
59.36535215
 31
0.0
  0
LINE
  5
6B
100
AcDbEntity
  8
レイヤー_1
  6
CONTINUOUS
 62
       7
100
AcDbLine
 10
56.89135447
 20
58.56652064
 30
0.0
 11
54.94315297
 21
58.56652064
 31
0.0
  0
LINE
  5
6C
100
AcDbEntity
  8
レイヤー_1
  6
CONTINUOUS
 62
       7
100
AcDbLine
 10
56.89135447
 20
70.54597891
 30
0.0
 11
54.94315297
 21
70.54597891
 31
0.0
  0
LINE
  5
6D
100
AcDbEntity
  8
レイヤー_1
  6
CONTINUOUS
 62
       7
100
AcDbLine
 10
53.94407528
 20
70.54597891
 30
0.0
 11
53.94407528
 21
69.74585549
 31
0.0
  0
LINE
  5
6E
100
AcDbEntity
  8
レイヤー_1
  6
CONTINUOUS
 62
       7
100
AcDbLine
 10
54.94315297
 20
70.54597891
 30
0.0
 11
54.94315297
 21
69.74585549
 31
0.0
  0
LINE
  5
6F
100
AcDbEntity
  8
レイヤー_1
  6
CONTINUOUS
 62
       7
100
AcDbLine
 10
52.79513594
 20
69.74585549
 30
0.0
 11
52.79513594
 21
59.36535215
 31
0.0
  0
LINE
  5
70
100
AcDbEntity
  8
レイヤー_1
  6
CONTINUOUS
 62
       7
100
AcDbLine
 10
56.09123104
 20
69.74585549
 30
0.0
 11
56.09123104
 21
59.36535215
 31
0.0
  0
LINE
  5
71
100
AcDbEntity
  8
レイヤー_1
  6
CONTINUOUS
 62
       7
100
AcDbLine
 10
51.99587378
 20
70.54597891
 30
0.0
 11
51.99587378
 21
58.56652064
 31
0.0
  0
LINE
  5
72
100
AcDbEntity
  8
レイヤー_1
  6
CONTINUOUS
 62
       7
100
AcDbLine
 10
56.89135447
 20
70.54597891
 30
0.0
 11
56.89135447
 21
58.56652064
 31
0.0
  0
LINE
  5
73
100
AcDbEntity
  8
レイヤー_1
  6
CONTINUOUS
 62
       7
100
AcDbLine
 10
53.94407528
 20
70.54597891
 30
0.0
 11
51.99587378
 21
70.54597891
 31
0.0
  0
LINE
  5
74
100
AcDbEntity
  8
レイヤー_1
  6
CONTINUOUS
 62
       7
100
AcDbLine
 10
53.94407528
 20
69.74585549
 30
0.0
 11
52.79513594
 21
69.74585549
 31
0.0
  0
LINE
  5
75
100
AcDbEntity
  8
レイヤー_1
  6
CONTINUOUS
 62
       7
100
AcDbLine
 10
54.94315297
 20
59.36535215
 30
0.0
 11
54.94315297
 21
58.56652064
 31
0.0
  0
LINE
  5
76
100
AcDbEntity
  8
レイヤー_1
  6
CONTINUOUS
 62
       7
100
AcDbLine
 10
53.94407528
 20
59.36535215
 30
0.0
 11
53.94407528
 21
58.56652064
 31
0.0
  0
LINE
  5
77
100
AcDbEntity
  8
レイヤー_1
  6
CONTINUOUS
 62
       7
100
AcDbLine
 10
53.94407528
 20
59.36535215
 30
0.0
 11
52.79513594
 21
59.36535215
 31
0.0
  0
LINE
  5
78
100
AcDbEntity
  8
レイヤー_1
  6
CONTINUOUS
 62
       7
100
AcDbLine
 10
53.94407528
 20
58.56652064
 30
0.0
 11
51.99587378
 21
58.56652064
 31
0.0
  0
LINE
  5
79
100
AcDbEntity
  8
レイヤー_1
  6
CONTINUOUS
 62
       7
100
AcDbLine
 10
7.78410215
 20
-51.83630119
 30
0.0
 11
6.78502446
 21
-51.83630119
 31
0.0
  0
LINE
  5
7A
100
AcDbEntity
  8
レイヤー_1
  6
CONTINUOUS
 62
       7
100
AcDbLine
 10
89.11333254
 20
-49.83857645
 30
0.0
 11
89.11333254
 21
-50.13829976
 31
0.0
  0
LINE
  5
7B
100
AcDbEntity
  8
レイヤー_1
  6
CONTINUOUS
 62
       7
100
AcDbLine
 10
89.11333254
 20
-50.13829976
 30
0.0
 11
87.11517716
 21
-51.33719298
 31
0.0
  0
LINE
  5
7C
100
AcDbEntity
  8
レイヤー_1
  6
CONTINUOUS
 62
       7
100
AcDbLine
 10
87.11517716
 20
-51.33719298
 30
0.0
 11
86.1152382
 21
-51.33719298
 31
0.0
  0
LINE
  5
7D
100
AcDbEntity
  8
レイヤー_1
  6
CONTINUOUS
 62
       7
100
AcDbLine
 10
86.1152382
 20
-51.33719298
 30
0.0
 11
86.1152382
 21
-50.33854593
 31
0.0
  0
LINE
  5
7E
100
AcDbEntity
  8
レイヤー_1
  6
CONTINUOUS
 62
       7
100
AcDbLine
 10
86.1152382
 20
-50.33854593
 30
0.0
 11
83.81822078
 21
-50.33854593
 31
0.0
  0
LINE
  5
7F
100
AcDbEntity
  8
レイヤー_1
  6
CONTINUOUS
 62
       7
100
AcDbLine
 10
4.28991405
 20
-39.34869133
 30
0.0
 11
1.89126632
 21
-39.34869133
 31
0.0
  0
LINE
  5
80
100
AcDbEntity
  8
レイヤー_1
  6
CONTINUOUS
 62
       7
100
AcDbLine
 10
4.28991405
 20
-29.35705315
 30
0.0
 11
1.89126632
 21
-29.35705315
 31
0.0
  0
LINE
  5
81
100
AcDbEntity
  8
レイヤー_1
  6
CONTINUOUS
 62
       7
100
AcDbLine
 10
4.28991405
 20
69.55120759
 30
0.0
 11
1.89126632
 21
69.55120759
 31
0.0
  0
LINE
  5
82
100
AcDbEntity
  8
レイヤー_1
  6
CONTINUOUS
 62
       7
100
AcDbLine
 10
4.28991405
 20
59.56043069
 30
0.0
 11
1.89126632
 21
59.56043069
 31
0.0
  0
LINE
  5
83
100
AcDbEntity
  8
レイヤー_1
  6
CONTINUOUS
 62
       7
100
AcDbLine
 10
1.89126632
 20
69.55120759
 30
0.0
 11
1.89126632
 21
59.56043069
 31
0.0
  0
LINE
  5
84
100
AcDbEntity
  8
レイヤー_1
  6
CONTINUOUS
 62
       7
100
AcDbLine
 10
4.28991405
 20
69.55120759
 30
0.0
 11
4.28991405
 21
59.56043069
 31
0.0
  0
LINE
  5
85
100
AcDbEntity
  8
レイヤー_1
  6
CONTINUOUS
 62
       7
100
AcDbLine
 10
1.89126632
 20
-29.35705315
 30
0.0
 11
1.89126632
 21
-39.34869133
 31
0.0
  0
LINE
  5
86
100
AcDbEntity
  8
レイヤー_1
  6
CONTINUOUS
 62
       7
100
AcDbLine
 10
4.28991405
 20
-29.35705315
 30
0.0
 11
4.28991405
 21
-39.34869133
 31
0.0
  0
LINE
  5
87
100
AcDbEntity
  8
レイヤー_1
  6
CONTINUOUS
 62
       7
100
AcDbLine
 10
-102.0495404
 20
66.84422382
 30
0.0
 11
-108.94305372
 21
66.84422382
 31
0.0
  0
LINE
  5
88
100
AcDbEntity
  8
レイヤー_1
  6
CONTINUOUS
 62
       7
100
AcDbLine
 10
-99.65120056
 20
71.54936297
 30
0.0
 11
-97.45322964
 21
71.54936297
 31
0.0
  0
LINE
  5
89
100
AcDbEntity
  8
レイヤー_1
  6
CONTINUOUS
 62
       7
100
AcDbLine
 10
-97.45322964
 20
71.54936297
 30
0.0
 11
-97.45322964
 21
70.55028528
 31
0.0
  0
LINE
  5
8A
100
AcDbEntity
  8
レイヤー_1
  6
CONTINUOUS
 62
       7
100
AcDbLine
 10
-97.45322964
 20
70.55028528
 30
0.0
 11
-99.65120056
 21
70.55028528
 31
0.0
  0
LINE
  5
8B
100
AcDbEntity
  8
レイヤー_1
  6
CONTINUOUS
 62
       7
100
AcDbLine
 10
-99.65120056
 20
70.55028528
 30
0.0
 11
-99.65120056
 21
71.54936297
 31
0.0
  0
LINE
  5
8C
100
AcDbEntity
  8
レイヤー_1
  6
CONTINUOUS
 62
       7
100
AcDbLine
 10
-102.0495404
 20
76.54475143
 30
0.0
 11
-108.94305372
 21
76.54475143
 31
0.0
  0
LINE
  5
8D
100
AcDbEntity
  8
レイヤー_1
  6
CONTINUOUS
 62
       7
100
AcDbLine
 10
-95.65402852
 20
70.55028528
 30
0.0
 11
-93.45648824
 21
70.55028528
 31
0.0
  0
LINE
  5
8E
100
AcDbEntity
  8
レイヤー_1
  6
CONTINUOUS
 62
       7
100
AcDbLine
 10
-93.45648824
 20
70.55028528
 30
0.0
 11
-93.45648824
 21
71.54936297
 31
0.0
  0
LINE
  5
8F
100
AcDbEntity
  8
レイヤー_1
  6
CONTINUOUS
 62
       7
100
AcDbLine
 10
-93.45648824
 20
71.54936297
 30
0.0
 11
-95.65402852
 21
71.54936297
 31
0.0
  0
LINE
  5
90
100
AcDbEntity
  8
レイヤー_1
  6
CONTINUOUS
 62
       7
100
AcDbLine
 10
-95.65402852
 20
71.54936297
 30
0.0
 11
-95.65402852
 21
70.55028528
 31
0.0
  0
LINE
  5
91
100
AcDbEntity
  8
レイヤー_1
  6
CONTINUOUS
 62
       7
100
AcDbLine
 10
81.72015763
 20
69.05166875
 30
0.0
 11
81.84295375
 21
69.05663954
 31
0.0
  0
LINE
  5
92
100
AcDbEntity
  8
レイヤー_1
  6
CONTINUOUS
 62
       7
100
AcDbLine
 10
81.84295375
 20
69.05663954
 30
0.0
 11
81.96303686
 21
69.07129416
 31
0.0
  0
LINE
  5
93
100
AcDbEntity
  8
レイヤー_1
  6
CONTINUOUS
 62
       7
100
AcDbLine
 10
81.96303686
 20
69.07129416
 30
0.0
 11
82.08001939
 21
69.09524603
 31
0.0
  0
LINE
  5
94
100
AcDbEntity
  8
レイヤー_1
  6
CONTINUOUS
 62
       7
100
AcDbLine
 10
82.08001939
 20
69.09524603
 30
0.0
 11
82.19351375
 21
69.12810853
 31
0.0
  0
LINE
  5
95
100
AcDbEntity
  8
レイヤー_1
  6
CONTINUOUS
 62
       7
100
AcDbLine
 10
82.19351375
 20
69.12810853
 30
0.0
 11
82.30313238
 21
69.16949505
 31
0.0
  0
LINE
  5
96
100
AcDbEntity
  8
レイヤー_1
  6
CONTINUOUS
 62
       7
100
AcDbLine
 10
82.30313238
 20
69.16949505
 30
0.0
 11
82.40848771
 21
69.219019
 31
0.0
  0
LINE
  5
97
100
AcDbEntity
  8
レイヤー_1
  6
CONTINUOUS
 62
       7
100
AcDbLine
 10
82.40848771
 20
69.219019
 30
0.0
 11
82.50919216
 21
69.27629376
 31
0.0
  0
LINE
  5
98
100
AcDbEntity
  8
レイヤー_1
  6
CONTINUOUS
 62
       7
100
AcDbLine
 10
82.50919216
 20
69.27629376
 30
0.0
 11
82.60485815
 21
69.34093274
 31
0.0
  0
LINE
  5
99
100
AcDbEntity
  8
レイヤー_1
  6
CONTINUOUS
 62
       7
100
AcDbLine
 10
82.60485815
 20
69.34093274
 30
0.0
 11
82.69509812
 21
69.41254934
 31
0.0
  0
LINE
  5
9A
100
AcDbEntity
  8
レイヤー_1
  6
CONTINUOUS
 62
       7
100
AcDbLine
 10
82.69509812
 20
69.41254934
 30
0.0
 11
82.77952449
 21
69.49075693
 31
0.0
  0
LINE
  5
9B
100
AcDbEntity
  8
レイヤー_1
  6
CONTINUOUS
 62
       7
100
AcDbLine
 10
82.77952449
 20
69.49075693
 30
0.0
 11
82.85774969
 21
69.57516893
 31
0.0
  0
LINE
  5
9C
100
AcDbEntity
  8
レイヤー_1
  6
CONTINUOUS
 62
       7
100
AcDbLine
 10
82.85774969
 20
69.57516893
 30
0.0
 11
82.92938615
 21
69.66539873
 31
0.0
  0
LINE
  5
9D
100
AcDbEntity
  8
レイヤー_1
  6
CONTINUOUS
 62
       7
100
AcDbLine
 10
82.92938615
 20
69.66539873
 30
0.0
 11
82.99404628
 21
69.76105972
 31
0.0
  0
LINE
  5
9E
100
AcDbEntity
  8
レイヤー_1
  6
CONTINUOUS
 62
       7
100
AcDbLine
 10
82.99404628
 20
69.76105972
 30
0.0
 11
83.05134253
 21
69.86176529
 31
0.0
  0
LINE
  5
9F
100
AcDbEntity
  8
レイヤー_1
  6
CONTINUOUS
 62
       7
100
AcDbLine
 10
83.05134253
 20
69.86176529
 30
0.0
 11
83.1008873
 21
69.96712886
 31
0.0
  0
LINE
  5
A0
100
AcDbEntity
  8
レイヤー_1
  6
CONTINUOUS
 62
       7
100
AcDbLine
 10
83.1008873
 20
69.96712886
 30
0.0
 11
83.14229305
 21
70.0767638
 31
0.0
  0
LINE
  5
A1
100
AcDbEntity
  8
レイヤー_1
  6
CONTINUOUS
 62
       7
100
AcDbLine
 10
83.14229305
 20
70.0767638
 30
0.0
 11
83.17517218
 21
70.19028352
 31
0.0
  0
LINE
  5
A2
100
AcDbEntity
  8
レイヤー_1
  6
CONTINUOUS
 62
       7
100
AcDbLine
 10
83.17517218
 20
70.19028352
 30
0.0
 11
83.19913712
 21
70.30730141
 31
0.0
  0
LINE
  5
A3
100
AcDbEntity
  8
レイヤー_1
  6
CONTINUOUS
 62
       7
100
AcDbLine
 10
83.19913712
 20
70.30730141
 30
0.0
 11
83.21380031
 21
70.42743086
 31
0.0
  0
LINE
  5
A4
100
AcDbEntity
  8
レイヤー_1
  6
CONTINUOUS
 62
       7
100
AcDbLine
 10
83.21380031
 20
70.42743086
 30
0.0
 11
83.21877417
 21
70.55028528
 31
0.0
  0
LINE
  5
A5
100
AcDbEntity
  8
レイヤー_1
  6
CONTINUOUS
 62
       7
100
AcDbLine
 10
89.21324031
 20
71.30002419
 30
0.0
 11
89.20028723
 21
71.58053463
 31
0.0
  0
LINE
  5
A6
100
AcDbEntity
  8
レイヤー_1
  6
CONTINUOUS
 62
       7
100
AcDbLine
 10
89.20028723
 20
71.58053463
 30
0.0
 11
89.16219488
 21
71.8537442
 31
0.0
  0
LINE
  5
A7
100
AcDbEntity
  8
レイヤー_1
  6
CONTINUOUS
 62
       7
100
AcDbLine
 10
89.16219488
 20
71.8537442
 30
0.0
 11
89.10011358
 21
72.11850258
 31
0.0
  0
LINE
  5
A8
100
AcDbEntity
  8
レイヤー_1
  6
CONTINUOUS
 62
       7
100
AcDbLine
 10
89.10011358
 20
72.11850258
 30
0.0
 11
89.01519364
 21
72.37365945
 31
0.0
  0
LINE
  5
A9
100
AcDbEntity
  8
レイヤー_1
  6
CONTINUOUS
 62
       7
100
AcDbLine
 10
89.01519364
 20
72.37365945
 30
0.0
 11
88.90858539
 21
72.61806449
 31
0.0
  0
LINE
  5
AA
100
AcDbEntity
  8
レイヤー_1
  6
CONTINUOUS
 62
       7
100
AcDbLine
 10
88.90858539
 20
72.61806449
 30
0.0
 11
88.78143915
 21
72.85056737
 31
0.0
  0
LINE
  5
AB
100
AcDbEntity
  8
レイヤー_1
  6
CONTINUOUS
 62
       7
100
AcDbLine
 10
88.78143915
 20
72.85056737
 30
0.0
 11
88.63490524
 21
73.07001779
 31
0.0
  0
LINE
  5
AC
100
AcDbEntity
  8
レイヤー_1
  6
CONTINUOUS
 62
       7
100
AcDbLine
 10
88.63490524
 20
73.07001779
 30
0.0
 11
88.47013398
 21
73.27526541
 31
0.0
  0
LINE
  5
AD
100
AcDbEntity
  8
レイヤー_1
  6
CONTINUOUS
 62
       7
100
AcDbLine
 10
88.47013398
 20
73.27526541
 30
0.0
 11
88.28827568
 21
73.46515991
 31
0.0
  0
LINE
  5
AE
100
AcDbEntity
  8
レイヤー_1
  6
CONTINUOUS
 62
       7
100
AcDbLine
 10
88.28827568
 20
73.46515991
 30
0.0
 11
88.09048068
 21
73.63855099
 31
0.0
  0
LINE
  5
AF
100
AcDbEntity
  8
レイヤー_1
  6
CONTINUOUS
 62
       7
100
AcDbLine
 10
88.09048068
 20
73.63855099
 30
0.0
 11
87.87789928
 21
73.79428831
 31
0.0
  0
LINE
  5
B0
100
AcDbEntity
  8
レイヤー_1
  6
CONTINUOUS
 62
       7
100
AcDbLine
 10
87.87789928
 20
73.79428831
 30
0.0
 11
87.65168182
 21
73.93122155
 31
0.0
  0
LINE
  5
B1
100
AcDbEntity
  8
レイヤー_1
  6
CONTINUOUS
 62
       7
100
AcDbLine
 10
87.65168182
 20
73.93122155
 30
0.0
 11
87.41297861
 21
74.0482004
 31
0.0
  0
LINE
  5
B2
100
AcDbEntity
  8
レイヤー_1
  6
CONTINUOUS
 62
       7
100
AcDbLine
 10
87.41297861
 20
74.0482004
 30
0.0
 11
87.16293996
 21
74.14407453
 31
0.0
  0
LINE
  5
B3
100
AcDbEntity
  8
レイヤー_1
  6
CONTINUOUS
 62
       7
100
AcDbLine
 10
87.16293996
 20
74.14407453
 30
0.0
 11
86.90271621
 21
74.21769363
 31
0.0
  0
LINE
  5
B4
100
AcDbEntity
  8
レイヤー_1
  6
CONTINUOUS
 62
       7
100
AcDbLine
 10
86.90271621
 20
74.21769363
 30
0.0
 11
86.63345767
 21
74.26790738
 31
0.0
  0
LINE
  5
B5
100
AcDbEntity
  8
レイヤー_1
  6
CONTINUOUS
 62
       7
100
AcDbLine
 10
86.63345767
 20
74.26790738
 30
0.0
 11
86.35631467
 21
74.29356544
 31
0.0
  0
LINE
  5
B6
100
AcDbEntity
  8
レイヤー_1
  6
CONTINUOUS
 62
       7
100
AcDbLine
 10
86.35631467
 20
74.29356544
 30
0.0
 11
86.07405106
 21
74.29356544
 31
0.0
  0
LINE
  5
B7
100
AcDbEntity
  8
レイヤー_1
  6
CONTINUOUS
 62
       7
100
AcDbLine
 10
86.07405106
 20
74.29356544
 30
0.0
 11
85.79705518
 21
74.26790738
 31
0.0
  0
LINE
  5
B8
100
AcDbEntity
  8
レイヤー_1
  6
CONTINUOUS
 62
       7
100
AcDbLine
 10
85.79705518
 20
74.26790738
 30
0.0
 11
85.52794232
 21
74.21769363
 31
0.0
  0
LINE
  5
B9
100
AcDbEntity
  8
レイヤー_1
  6
CONTINUOUS
 62
       7
100
AcDbLine
 10
85.52794232
 20
74.21769363
 30
0.0
 11
85.26786184
 21
74.14407453
 31
0.0
  0
LINE
  5
BA
100
AcDbEntity
  8
レイヤー_1
  6
CONTINUOUS
 62
       7
100
AcDbLine
 10
85.26786184
 20
74.14407453
 30
0.0
 11
85.01796309
 21
74.0482004
 31
0.0
  0
LINE
  5
BB
100
AcDbEntity
  8
レイヤー_1
  6
CONTINUOUS
 62
       7
100
AcDbLine
 10
85.01796309
 20
74.0482004
 30
0.0
 11
84.77939543
 21
73.93122155
 31
0.0
  0
LINE
  5
BC
100
AcDbEntity
  8
レイヤー_1
  6
CONTINUOUS
 62
       7
100
AcDbLine
 10
84.77939543
 20
73.93122155
 30
0.0
 11
84.55330822
 21
73.79428831
 31
0.0
  0
LINE
  5
BD
100
AcDbEntity
  8
レイヤー_1
  6
CONTINUOUS
 62
       7
100
AcDbLine
 10
84.55330822
 20
73.79428831
 30
0.0
 11
84.34085081
 21
73.63855099
 31
0.0
  0
LINE
  5
BE
100
AcDbEntity
  8
レイヤー_1
  6
CONTINUOUS
 62
       7
100
AcDbLine
 10
84.34085081
 20
73.63855099
 30
0.0
 11
84.14317255
 21
73.46515991
 31
0.0
  0
LINE
  5
BF
100
AcDbEntity
  8
レイヤー_1
  6
CONTINUOUS
 62
       7
100
AcDbLine
 10
84.14317255
 20
73.46515991
 30
0.0
 11
83.96142281
 21
73.27526541
 31
0.0
  0
LINE
  5
C0
100
AcDbEntity
  8
レイヤー_1
  6
CONTINUOUS
 62
       7
100
AcDbLine
 10
83.96142281
 20
73.27526541
 30
0.0
 11
83.79675095
 21
73.07001779
 31
0.0
  0
LINE
  5
C1
100
AcDbEntity
  8
レイヤー_1
  6
CONTINUOUS
 62
       7
100
AcDbLine
 10
83.79675095
 20
73.07001779
 30
0.0
 11
83.6503063
 21
72.85056737
 31
0.0
  0
LINE
  5
C2
100
AcDbEntity
  8
レイヤー_1
  6
CONTINUOUS
 62
       7
100
AcDbLine
 10
83.6503063
 20
72.85056737
 30
0.0
 11
83.52323825
 21
72.61806449
 31
0.0
  0
LINE
  5
C3
100
AcDbEntity
  8
レイヤー_1
  6
CONTINUOUS
 62
       7
100
AcDbLine
 10
83.52323825
 20
72.61806449
 30
0.0
 11
83.41669613
 21
72.37365945
 31
0.0
  0
LINE
  5
C4
100
AcDbEntity
  8
レイヤー_1
  6
CONTINUOUS
 62
       7
100
AcDbLine
 10
83.41669613
 20
72.37365945
 30
0.0
 11
83.3318293
 21
72.11850258
 31
0.0
  0
LINE
  5
C5
100
AcDbEntity
  8
レイヤー_1
  6
CONTINUOUS
 62
       7
100
AcDbLine
 10
83.3318293
 20
72.11850258
 30
0.0
 11
83.26978713
 21
71.8537442
 31
0.0
  0
LINE
  5
C6
100
AcDbEntity
  8
レイヤー_1
  6
CONTINUOUS
 62
       7
100
AcDbLine
 10
83.26978713
 20
71.8537442
 30
0.0
 11
83.23171897
 21
71.58053463
 31
0.0
  0
LINE
  5
C7
100
AcDbEntity
  8
レイヤー_1
  6
CONTINUOUS
 62
       7
100
AcDbLine
 10
83.23171897
 20
71.58053463
 30
0.0
 11
83.21877417
 21
71.30002419
 31
0.0
  0
LINE
  5
C8
100
AcDbEntity
  8
レイヤー_1
  6
CONTINUOUS
 62
       7
100
AcDbLine
 10
81.72015763
 20
67.55348285
 30
0.0
 11
81.96597682
 21
67.56341517
 31
0.0
  0
LINE
  5
C9
100
AcDbEntity
  8
レイヤー_1
  6
CONTINUOUS
 62
       7
100
AcDbLine
 10
81.96597682
 20
67.56341517
 30
0.0
 11
82.20631056
 21
67.59269837
 31
0.0
  0
LINE
  5
CA
100
AcDbEntity
  8
レイヤー_1
  6
CONTINUOUS
 62
       7
100
AcDbLine
 10
82.20631056
 20
67.59269837
 30
0.0
 11
82.44038886
 21
67.64056184
 31
0.0
  0
LINE
  5
CB
100
AcDbEntity
  8
レイヤー_1
  6
CONTINUOUS
 62
       7
100
AcDbLine
 10
82.44038886
 20
67.64056184
 30
0.0
 11
82.66744176
 21
67.70623494
 31
0.0
  0
LINE
  5
CC
100
AcDbEntity
  8
レイヤー_1
  6
CONTINUOUS
 62
       7
100
AcDbLine
 10
82.66744176
 20
67.70623494
 30
0.0
 11
82.88669926
 21
67.78894705
 31
0.0
  0
LINE
  5
CD
100
AcDbEntity
  8
レイヤー_1
  6
CONTINUOUS
 62
       7
100
AcDbLine
 10
82.88669926
 20
67.78894705
 30
0.0
 11
83.09739139
 21
67.88792755
 31
0.0
  0
LINE
  5
CE
100
AcDbEntity
  8
レイヤー_1
  6
CONTINUOUS
 62
       7
100
AcDbLine
 10
83.09739139
 20
67.88792755
 30
0.0
 11
83.29874818
 21
68.00240581
 31
0.0
  0
LINE
  5
CF
100
AcDbEntity
  8
レイヤー_1
  6
CONTINUOUS
 62
       7
100
AcDbLine
 10
83.29874818
 20
68.00240581
 30
0.0
 11
83.48999964
 21
68.13161121
 31
0.0
  0
LINE
  5
D0
100
AcDbEntity
  8
レイヤー_1
  6
CONTINUOUS
 62
       7
100
AcDbLine
 10
83.48999964
 20
68.13161121
 30
0.0
 11
83.6703758
 21
68.27477312
 31
0.0
  0
LINE
  5
D1
100
AcDbEntity
  8
レイヤー_1
  6
CONTINUOUS
 62
       7
100
AcDbLine
 10
83.6703758
 20
68.27477312
 30
0.0
 11
83.83910667
 21
68.43112092
 31
0.0
  0
LINE
  5
D2
100
AcDbEntity
  8
レイヤー_1
  6
CONTINUOUS
 62
       7
100
AcDbLine
 10
83.83910667
 20
68.43112092
 30
0.0
 11
83.99542228
 21
68.59988399
 31
0.0
  0
LINE
  5
D3
100
AcDbEntity
  8
レイヤー_1
  6
CONTINUOUS
 62
       7
100
AcDbLine
 10
83.99542228
 20
68.59988399
 30
0.0
 11
84.13855265
 21
68.78029169
 31
0.0
  0
LINE
  5
D4
100
AcDbEntity
  8
レイヤー_1
  6
CONTINUOUS
 62
       7
100
AcDbLine
 10
84.13855265
 20
68.78029169
 30
0.0
 11
84.2677278
 21
68.9715734
 31
0.0
  0
LINE
  5
D5
100
AcDbEntity
  8
レイヤー_1
  6
CONTINUOUS
 62
       7
100
AcDbLine
 10
84.2677278
 20
68.9715734
 30
0.0
 11
84.38217774
 21
69.1729585
 31
0.0
  0
LINE
  5
D6
100
AcDbEntity
  8
レイヤー_1
  6
CONTINUOUS
 62
       7
100
AcDbLine
 10
84.38217774
 20
69.1729585
 30
0.0
 11
84.48113251
 21
69.38367637
 31
0.0
  0
LINE
  5
D7
100
AcDbEntity
  8
レイヤー_1
  6
CONTINUOUS
 62
       7
100
AcDbLine
 10
84.48113251
 20
69.38367637
 30
0.0
 11
84.56382213
 21
69.60295637
 31
0.0
  0
LINE
  5
D8
100
AcDbEntity
  8
レイヤー_1
  6
CONTINUOUS
 62
       7
100
AcDbLine
 10
84.56382213
 20
69.60295637
 30
0.0
 11
84.6294766
 21
69.83002789
 31
0.0
  0
LINE
  5
D9
100
AcDbEntity
  8
レイヤー_1
  6
CONTINUOUS
 62
       7
100
AcDbLine
 10
84.6294766
 20
69.83002789
 30
0.0
 11
84.67732596
 21
70.0641203
 31
0.0
  0
LINE
  5
DA
100
AcDbEntity
  8
レイヤー_1
  6
CONTINUOUS
 62
       7
100
AcDbLine
 10
84.67732596
 20
70.0641203
 30
0.0
 11
84.70660023
 21
70.30446297
 31
0.0
  0
LINE
  5
DB
100
AcDbEntity
  8
レイヤー_1
  6
CONTINUOUS
 62
       7
100
AcDbLine
 10
84.70660023
 20
70.30446297
 30
0.0
 11
84.71652943
 21
70.55028528
 31
0.0
  0
LINE
  5
DC
100
AcDbEntity
  8
レイヤー_1
  6
CONTINUOUS
 62
       7
100
AcDbLine
 10
87.71462377
 20
71.30002419
 30
0.0
 11
87.70814716
 21
71.44021175
 31
0.0
  0
LINE
  5
DD
100
AcDbEntity
  8
レイヤー_1
  6
CONTINUOUS
 62
       7
100
AcDbLine
 10
87.70814716
 20
71.44021175
 30
0.0
 11
87.68910042
 21
71.57676057
 31
0.0
  0
LINE
  5
DE
100
AcDbEntity
  8
レイヤー_1
  6
CONTINUOUS
 62
       7
100
AcDbLine
 10
87.68910042
 20
71.57676057
 30
0.0
 11
87.65805824
 21
71.70909452
 31
0.0
  0
LINE
  5
DF
100
AcDbEntity
  8
レイヤー_1
  6
CONTINUOUS
 62
       7
100
AcDbLine
 10
87.65805824
 20
71.70909452
 30
0.0
 11
87.6155953
 21
71.83663748
 31
0.0
  0
LINE
  5
E0
100
AcDbEntity
  8
レイヤー_1
  6
CONTINUOUS
 62
       7
100
AcDbLine
 10
87.6155953
 20
71.83663748
 30
0.0
 11
87.56228627
 21
71.95881333
 31
0.0
  0
LINE
  5
E1
100
AcDbEntity
  8
レイヤー_1
  6
CONTINUOUS
 62
       7
100
AcDbLine
 10
87.56228627
 20
71.95881333
 30
0.0
 11
87.49870584
 21
72.07504593
 31
0.0
  0
LINE
  5
E2
100
AcDbEntity
  8
レイヤー_1
  6
CONTINUOUS
 62
       7
100
AcDbLine
 10
87.49870584
 20
72.07504593
 30
0.0
 11
87.42542868
 21
72.18475916
 31
0.0
  0
LINE
  5
E3
100
AcDbEntity
  8
レイヤー_1
  6
CONTINUOUS
 62
       7
100
AcDbLine
 10
87.42542868
 20
72.18475916
 30
0.0
 11
87.34302947
 21
72.2873769
 31
0.0
  0
LINE
  5
E4
100
AcDbEntity
  8
レイヤー_1
  6
CONTINUOUS
 62
       7
100
AcDbLine
 10
87.34302947
 20
72.2873769
 30
0.0
 11
87.25208288
 21
72.38232303
 31
0.0
  0
LINE
  5
E5
100
AcDbEntity
  8
レイヤー_1
  6
CONTINUOUS
 62
       7
100
AcDbLine
 10
87.25208288
 20
72.38232303
 30
0.0
 11
87.15316361
 21
72.46902142
 31
0.0
  0
LINE
  5
E6
100
AcDbEntity
  8
レイヤー_1
  6
CONTINUOUS
 62
       7
100
AcDbLine
 10
87.15316361
 20
72.46902142
 30
0.0
 11
87.04684631
 21
72.54689595
 31
0.0
  0
LINE
  5
E7
100
AcDbEntity
  8
レイヤー_1
  6
CONTINUOUS
 62
       7
100
AcDbLine
 10
87.04684631
 20
72.54689595
 30
0.0
 11
86.93370568
 21
72.61537048
 31
0.0
  0
LINE
  5
E8
100
AcDbEntity
  8
レイヤー_1
  6
CONTINUOUS
 62
       7
100
AcDbLine
 10
86.93370568
 20
72.61537048
 30
0.0
 11
86.81431639
 21
72.67386891
 31
0.0
  0
LINE
  5
E9
100
AcDbEntity
  8
レイヤー_1
  6
CONTINUOUS
 62
       7
100
AcDbLine
 10
86.81431639
 20
72.67386891
 30
0.0
 11
86.68925311
 21
72.7218151
 31
0.0
  0
LINE
  5
EA
100
AcDbEntity
  8
レイヤー_1
  6
CONTINUOUS
 62
       7
100
AcDbLine
 10
86.68925311
 20
72.7218151
 30
0.0
 11
86.55909054
 21
72.75863292
 31
0.0
  0
LINE
  5
EB
100
AcDbEntity
  8
レイヤー_1
  6
CONTINUOUS
 62
       7
100
AcDbLine
 10
86.55909054
 20
72.75863292
 30
0.0
 11
86.42440333
 21
72.78374626
 31
0.0
  0
LINE
  5
EC
100
AcDbEntity
  8
レイヤー_1
  6
CONTINUOUS
 62
       7
100
AcDbLine
 10
86.42440333
 20
72.78374626
 30
0.0
 11
86.28576618
 21
72.79657899
 31
0.0
  0
LINE
  5
ED
100
AcDbEntity
  8
レイヤー_1
  6
CONTINUOUS
 62
       7
100
AcDbLine
 10
86.28576618
 20
72.79657899
 30
0.0
 11
86.14466714
 21
72.79657899
 31
0.0
  0
LINE
  5
EE
100
AcDbEntity
  8
レイヤー_1
  6
CONTINUOUS
 62
       7
100
AcDbLine
 10
86.14466714
 20
72.79657899
 30
0.0
 11
86.00627676
 21
72.78374626
 31
0.0
  0
LINE
  5
EF
100
AcDbEntity
  8
レイヤー_1
  6
CONTINUOUS
 62
       7
100
AcDbLine
 10
86.00627676
 20
72.78374626
 30
0.0
 11
85.87179148
 21
72.75863292
 31
0.0
  0
LINE
  5
F0
100
AcDbEntity
  8
レイヤー_1
  6
CONTINUOUS
 62
       7
100
AcDbLine
 10
85.87179148
 20
72.75863292
 30
0.0
 11
85.74178984
 21
72.7218151
 31
0.0
  0
LINE
  5
F1
100
AcDbEntity
  8
レイヤー_1
  6
CONTINUOUS
 62
       7
100
AcDbLine
 10
85.74178984
 20
72.7218151
 30
0.0
 11
85.61685039
 21
72.67386891
 31
0.0
  0
LINE
  5
F2
100
AcDbEntity
  8
レイヤー_1
  6
CONTINUOUS
 62
       7
100
AcDbLine
 10
85.61685039
 20
72.67386891
 30
0.0
 11
85.49755166
 21
72.61537048
 31
0.0
  0
LINE
  5
F3
100
AcDbEntity
  8
レイヤー_1
  6
CONTINUOUS
 62
       7
100
AcDbLine
 10
85.49755166
 20
72.61537048
 30
0.0
 11
85.38447217
 21
72.54689595
 31
0.0
  0
LINE
  5
F4
100
AcDbEntity
  8
レイヤー_1
  6
CONTINUOUS
 62
       7
100
AcDbLine
 10
85.38447217
 20
72.54689595
 30
0.0
 11
85.27819048
 21
72.46902142
 31
0.0
  0
LINE
  5
F5
100
AcDbEntity
  8
レイヤー_1
  6
CONTINUOUS
 62
       7
100
AcDbLine
 10
85.27819048
 20
72.46902142
 30
0.0
 11
85.1792851
 21
72.38232303
 31
0.0
  0
LINE
  5
F6
100
AcDbEntity
  8
レイヤー_1
  6
CONTINUOUS
 62
       7
100
AcDbLine
 10
85.1792851
 20
72.38232303
 30
0.0
 11
85.08833458
 21
72.2873769
 31
0.0
  0
LINE
  5
F7
100
AcDbEntity
  8
レイヤー_1
  6
CONTINUOUS
 62
       7
100
AcDbLine
 10
85.08833458
 20
72.2873769
 30
0.0
 11
85.00591745
 21
72.18475916
 31
0.0
  0
LINE
  5
F8
100
AcDbEntity
  8
レイヤー_1
  6
CONTINUOUS
 62
       7
100
AcDbLine
 10
85.00591745
 20
72.18475916
 30
0.0
 11
84.93261225
 21
72.07504593
 31
0.0
  0
LINE
  5
F9
100
AcDbEntity
  8
レイヤー_1
  6
CONTINUOUS
 62
       7
100
AcDbLine
 10
84.93261225
 20
72.07504593
 30
0.0
 11
84.8689975
 21
71.95881333
 31
0.0
  0
LINE
  5
FA
100
AcDbEntity
  8
レイヤー_1
  6
CONTINUOUS
 62
       7
100
AcDbLine
 10
84.8689975
 20
71.95881333
 30
0.0
 11
84.81565176
 21
71.83663748
 31
0.0
  0
LINE
  5
FB
100
AcDbEntity
  8
レイヤー_1
  6
CONTINUOUS
 62
       7
100
AcDbLine
 10
84.81565176
 20
71.83663748
 30
0.0
 11
84.77315354
 21
71.70909452
 31
0.0
  0
LINE
  5
FC
100
AcDbEntity
  8
レイヤー_1
  6
CONTINUOUS
 62
       7
100
AcDbLine
 10
84.77315354
 20
71.70909452
 30
0.0
 11
84.74208139
 21
71.57676057
 31
0.0
  0
LINE
  5
FD
100
AcDbEntity
  8
レイヤー_1
  6
CONTINUOUS
 62
       7
100
AcDbLine
 10
84.74208139
 20
71.57676057
 30
0.0
 11
84.72301384
 21
71.44021175
 31
0.0
  0
LINE
  5
FE
100
AcDbEntity
  8
レイヤー_1
  6
CONTINUOUS
 62
       7
100
AcDbLine
 10
84.72301384
 20
71.44021175
 30
0.0
 11
84.71652943
 21
71.30002419
 31
0.0
  0
LINE
  5
FF
100
AcDbEntity
  8
レイヤー_1
  6
CONTINUOUS
 62
       7
100
AcDbLine
 10
7.78410215
 20
-52.39622078
 30
0.0
 11
7.78410215
 21
77.60377922
 31
0.0
  0
LINE
  5
100
100
AcDbEntity
  8
レイヤー_1
  6
CONTINUOUS
 62
       7
100
AcDbLine
 10
74.12630591
 20
77.60377922
 30
0.0
 11
74.12630591
 21
75.44945297
 31
0.0
  0
LINE
  5
101
100
AcDbEntity
  8
レイヤー_1
  6
CONTINUOUS
 62
       7
100
AcDbLine
 10
74.12630591
 20
75.44945297
 30
0.0
 11
74.12630591
 21
75.06687171
 31
0.0
  0
LINE
  5
102
100
AcDbEntity
  8
レイヤー_1
  6
CONTINUOUS
 62
       7
100
AcDbLine
 10
74.12630591
 20
75.06687171
 30
0.0
 11
74.12630591
 21
74.70038784
 31
0.0
  0
LINE
  5
103
100
AcDbEntity
  8
レイヤー_1
  6
CONTINUOUS
 62
       7
100
AcDbLine
 10
74.12630591
 20
74.70038784
 30
0.0
 11
74.12630591
 21
74.36287927
 31
0.0
  0
LINE
  5
104
100
AcDbEntity
  8
レイヤー_1
  6
CONTINUOUS
 62
       7
100
AcDbLine
 10
74.12630591
 20
74.36287927
 30
0.0
 11
74.12630591
 21
74.06722391
 31
0.0
  0
LINE
  5
105
100
AcDbEntity
  8
レイヤー_1
  6
CONTINUOUS
 62
       7
100
AcDbLine
 10
74.12630591
 20
74.06722391
 30
0.0
 11
74.12630591
 21
73.82629966
 31
0.0
  0
LINE
  5
106
100
AcDbEntity
  8
レイヤー_1
  6
CONTINUOUS
 62
       7
100
AcDbLine
 10
74.12630591
 20
73.82629966
 30
0.0
 11
74.12630591
 21
73.65298445
 31
0.0
  0
LINE
  5
107
100
AcDbEntity
  8
レイヤー_1
  6
CONTINUOUS
 62
       7
100
AcDbLine
 10
74.12630591
 20
73.65298445
 30
0.0
 11
74.12630591
 21
73.56015618
 31
0.0
  0
LINE
  5
108
100
AcDbEntity
  8
レイヤー_1
  6
CONTINUOUS
 62
       7
100
AcDbLine
 10
74.12630591
 20
73.56015618
 30
0.0
 11
74.14306234
 21
72.90587408
 31
0.0
  0
LINE
  5
109
100
AcDbEntity
  8
レイヤー_1
  6
CONTINUOUS
 62
       7
100
AcDbLine
 10
74.14306234
 20
72.90587408
 30
0.0
 11
74.27460761
 21
71.64876283
 31
0.0
  0
LINE
  5
10A
100
AcDbEntity
  8
レイヤー_1
  6
CONTINUOUS
 62
       7
100
AcDbLine
 10
74.27460761
 20
71.64876283
 30
0.0
 11
74.53129341
 21
70.43327061
 31
0.0
  0
LINE
  5
10B
100
AcDbEntity
  8
レイヤー_1
  6
CONTINUOUS
 62
       7
100
AcDbLine
 10
74.53129341
 20
70.43327061
 30
0.0
 11
74.90643657
 21
69.26607854
 31
0.0
  0
LINE
  5
10C
100
AcDbEntity
  8
レイヤー_1
  6
CONTINUOUS
 62
       7
100
AcDbLine
 10
74.90643657
 20
69.26607854
 30
0.0
 11
75.39335388
 21
68.15386773
 31
0.0
  0
LINE
  5
10D
100
AcDbEntity
  8
レイヤー_1
  6
CONTINUOUS
 62
       7
100
AcDbLine
 10
75.39335388
 20
68.15386773
 30
0.0
 11
75.98536216
 21
67.10331927
 31
0.0
  0
LINE
  5
10E
100
AcDbEntity
  8
レイヤー_1
  6
CONTINUOUS
 62
       7
100
AcDbLine
 10
75.98536216
 20
67.10331927
 30
0.0
 11
76.67577822
 21
66.12111429
 31
0.0
  0
LINE
  5
10F
100
AcDbEntity
  8
レイヤー_1
  6
CONTINUOUS
 62
       7
100
AcDbLine
 10
76.67577822
 20
66.12111429
 30
0.0
 11
77.45791885
 21
65.2139339
 31
0.0
  0
LINE
  5
110
100
AcDbEntity
  8
レイヤー_1
  6
CONTINUOUS
 62
       7
100
AcDbLine
 10
77.45791885
 20
65.2139339
 30
0.0
 11
78.32510088
 21
64.38845919
 31
0.0
  0
LINE
  5
111
100
AcDbEntity
  8
レイヤー_1
  6
CONTINUOUS
 62
       7
100
AcDbLine
 10
78.32510088
 20
64.38845919
 30
0.0
 11
79.27064111
 21
63.65137129
 31
0.0
  0
LINE
  5
112
100
AcDbEntity
  8
レイヤー_1
  6
CONTINUOUS
 62
       7
100
AcDbLine
 10
79.27064111
 20
63.65137129
 30
0.0
 11
80.28785635
 21
63.00935131
 31
0.0
  0
LINE
  5
113
100
AcDbEntity
  8
レイヤー_1
  6
CONTINUOUS
 62
       7
100
AcDbLine
 10
80.28785635
 20
63.00935131
 30
0.0
 11
81.3700634
 21
62.46908035
 31
0.0
  0
LINE
  5
114
100
AcDbEntity
  8
レイヤー_1
  6
CONTINUOUS
 62
       7
100
AcDbLine
 10
81.3700634
 20
62.46908035
 30
0.0
 11
82.51057908
 21
62.03723952
 31
0.0
  0
LINE
  5
115
100
AcDbEntity
  8
レイヤー_1
  6
CONTINUOUS
 62
       7
100
AcDbLine
 10
82.51057908
 20
62.03723952
 30
0.0
 11
83.7027202
 21
61.72050993
 31
0.0
  0
LINE
  5
116
100
AcDbEntity
  8
レイヤー_1
  6
CONTINUOUS
 62
       7
100
AcDbLine
 10
83.7027202
 20
61.72050993
 30
0.0
 11
84.93980356
 21
61.5255727
 31
0.0
  0
LINE
  5
117
100
AcDbEntity
  8
レイヤー_1
  6
CONTINUOUS
 62
       7
100
AcDbLine
 10
84.93980356
 20
61.5255727
 30
0.0
 11
86.21514596
 21
61.45910893
 31
0.0
  0
LINE
  5
118
100
AcDbEntity
  8
レイヤー_1
  6
CONTINUOUS
 62
       7
100
AcDbLine
 10
86.21514596
 20
61.45910893
 30
0.0
 11
86.2557588
 21
61.45910893
 31
0.0
  0
LINE
  5
119
100
AcDbEntity
  8
レイヤー_1
  6
CONTINUOUS
 62
       7
100
AcDbLine
 10
86.2557588
 20
61.45910893
 30
0.0
 11
86.37029611
 21
61.45910893
 31
0.0
  0
LINE
  5
11A
100
AcDbEntity
  8
レイヤー_1
  6
CONTINUOUS
 62
       7
100
AcDbLine
 10
86.37029611
 20
61.45910893
 30
0.0
 11
86.54780612
 21
61.45910893
 31
0.0
  0
LINE
  5
11B
100
AcDbEntity
  8
レイヤー_1
  6
CONTINUOUS
 62
       7
100
AcDbLine
 10
86.54780612
 20
61.45910893
 30
0.0
 11
86.77733707
 21
61.45910893
 31
0.0
  0
LINE
  5
11C
100
AcDbEntity
  8
レイヤー_1
  6
CONTINUOUS
 62
       7
100
AcDbLine
 10
86.77733707
 20
61.45910893
 30
0.0
 11
87.04793717
 21
61.45910893
 31
0.0
  0
LINE
  5
11D
100
AcDbEntity
  8
レイヤー_1
  6
CONTINUOUS
 62
       7
100
AcDbLine
 10
87.04793717
 20
61.45910893
 30
0.0
 11
87.34865466
 21
61.45910893
 31
0.0
  0
LINE
  5
11E
100
AcDbEntity
  8
レイヤー_1
  6
CONTINUOUS
 62
       7
100
AcDbLine
 10
87.34865466
 20
61.45910893
 30
0.0
 11
87.66853774
 21
61.45910893
 31
0.0
  0
LINE
  5
11F
100
AcDbEntity
  8
レイヤー_1
  6
CONTINUOUS
 62
       7
100
AcDbLine
 10
87.66853774
 20
61.45910893
 30
0.0
 11
87.99663466
 21
61.45910893
 31
0.0
  0
LINE
  5
120
100
AcDbEntity
  8
レイヤー_1
  6
CONTINUOUS
 62
       7
100
AcDbLine
 10
87.99663466
 20
61.45910893
 30
0.0
 11
88.32199364
 21
61.45910893
 31
0.0
  0
LINE
  5
121
100
AcDbEntity
  8
レイヤー_1
  6
CONTINUOUS
 62
       7
100
AcDbLine
 10
88.32199364
 20
61.45910893
 30
0.0
 11
88.6336629
 21
61.45910893
 31
0.0
  0
LINE
  5
122
100
AcDbEntity
  8
レイヤー_1
  6
CONTINUOUS
 62
       7
100
AcDbLine
 10
88.6336629
 20
61.45910893
 30
0.0
 11
88.92069066
 21
61.45910893
 31
0.0
  0
LINE
  5
123
100
AcDbEntity
  8
レイヤー_1
  6
CONTINUOUS
 62
       7
100
AcDbLine
 10
88.92069066
 20
61.45910893
 30
0.0
 11
89.17212516
 21
61.45910893
 31
0.0
  0
LINE
  5
124
100
AcDbEntity
  8
レイヤー_1
  6
CONTINUOUS
 62
       7
100
AcDbLine
 10
89.17212516
 20
61.45910893
 30
0.0
 11
89.37701461
 21
61.45910893
 31
0.0
  0
LINE
  5
125
100
AcDbEntity
  8
レイヤー_1
  6
CONTINUOUS
 62
       7
100
AcDbLine
 10
89.37701461
 20
61.45910893
 30
0.0
 11
89.52440725
 21
61.45910893
 31
0.0
  0
LINE
  5
126
100
AcDbEntity
  8
レイヤー_1
  6
CONTINUOUS
 62
       7
100
AcDbLine
 10
89.52440725
 20
61.45910893
 30
0.0
 11
89.95972743
 21
61.45910893
 31
0.0
  0
LINE
  5
127
100
AcDbEntity
  8
レイヤー_1
  6
CONTINUOUS
 62
       7
100
AcDbLine
 10
89.95972743
 20
-47.13453822
 30
0.0
 11
88.84980242
 21
-47.15409957
 31
0.0
  0
LINE
  5
128
100
AcDbEntity
  8
レイヤー_1
  6
CONTINUOUS
 62
       7
100
AcDbLine
 10
88.84980242
 20
-47.15409957
 30
0.0
 11
88.48209899
 21
-47.16057998
 31
0.0
  0
LINE
  5
129
100
AcDbEntity
  8
レイヤー_1
  6
CONTINUOUS
 62
       7
100
AcDbLine
 10
88.48209899
 20
-47.16057998
 30
0.0
 11
88.07347072
 21
-47.16778166
 31
0.0
  0
LINE
  5
12A
100
AcDbEntity
  8
レイヤー_1
  6
CONTINUOUS
 62
       7
100
AcDbLine
 10
88.07347072
 20
-47.16778166
 30
0.0
 11
87.63879938
 21
-47.17544231
 31
0.0
  0
LINE
  5
12B
100
AcDbEntity
  8
レイヤー_1
  6
CONTINUOUS
 62
       7
100
AcDbLine
 10
87.63879938
 20
-47.17544231
 30
0.0
 11
87.19296672
 21
-47.18329968
 31
0.0
  0
LINE
  5
12C
100
AcDbEntity
  8
レイヤー_1
  6
CONTINUOUS
 62
       7
100
AcDbLine
 10
87.19296672
 20
-47.18329968
 30
0.0
 11
86.7508545
 21
-47.19109147
 31
0.0
  0
LINE
  5
12D
100
AcDbEntity
  8
レイヤー_1
  6
CONTINUOUS
 62
       7
100
AcDbLine
 10
86.7508545
 20
-47.19109147
 30
0.0
 11
86.32734447
 21
-47.19855542
 31
0.0
  0
LINE
  5
12E
100
AcDbEntity
  8
レイヤー_1
  6
CONTINUOUS
 62
       7
100
AcDbLine
 10
86.32734447
 20
-47.19855542
 30
0.0
 11
85.9373184
 21
-47.20542925
 31
0.0
  0
LINE
  5
12F
100
AcDbEntity
  8
レイヤー_1
  6
CONTINUOUS
 62
       7
100
AcDbLine
 10
85.9373184
 20
-47.20542925
 30
0.0
 11
85.59565804
 21
-47.21145068
 31
0.0
  0
LINE
  5
130
100
AcDbEntity
  8
レイヤー_1
  6
CONTINUOUS
 62
       7
100
AcDbLine
 10
85.59565804
 20
-47.21145068
 30
0.0
 11
85.31724516
 21
-47.21635743
 31
0.0
  0
LINE
  5
131
100
AcDbEntity
  8
レイヤー_1
  6
CONTINUOUS
 62
       7
100
AcDbLine
 10
85.31724516
 20
-47.21635743
 30
0.0
 11
85.1169615
 21
-47.21988724
 31
0.0
  0
LINE
  5
132
100
AcDbEntity
  8
レイヤー_1
  6
CONTINUOUS
 62
       7
100
AcDbLine
 10
85.1169615
 20
-47.21988724
 30
0.0
 11
85.00968883
 21
-47.22177781
 31
0.0
  0
LINE
  5
133
100
AcDbEntity
  8
レイヤー_1
  6
CONTINUOUS
 62
       7
100
AcDbLine
 10
85.00968883
 20
-47.22177781
 30
0.0
 11
84.93273941
 21
-47.22472455
 31
0.0
  0
LINE
  5
134
100
AcDbEntity
  8
レイヤー_1
  6
CONTINUOUS
 62
       7
100
AcDbLine
 10
84.93273941
 20
-47.22472455
 30
0.0
 11
84.80980694
 21
-47.23956681
 31
0.0
  0
LINE
  5
135
100
AcDbEntity
  8
レイヤー_1
  6
CONTINUOUS
 62
       7
100
AcDbLine
 10
84.80980694
 20
-47.23956681
 30
0.0
 11
84.69107367
 21
-47.2664672
 31
0.0
  0
LINE
  5
136
100
AcDbEntity
  8
レイヤー_1
  6
CONTINUOUS
 62
       7
100
AcDbLine
 10
84.69107367
 20
-47.2664672
 30
0.0
 11
84.57717378
 21
-47.30478182
 31
0.0
  0
LINE
  5
137
100
AcDbEntity
  8
レイヤー_1
  6
CONTINUOUS
 62
       7
100
AcDbLine
 10
84.57717378
 20
-47.30478182
 30
0.0
 11
84.46874145
 21
-47.35386677
 31
0.0
  0
LINE
  5
138
100
AcDbEntity
  8
レイヤー_1
  6
CONTINUOUS
 62
       7
100
AcDbLine
 10
84.46874145
 20
-47.35386677
 30
0.0
 11
84.36641086
 21
-47.41307816
 31
0.0
  0
LINE
  5
139
100
AcDbEntity
  8
レイヤー_1
  6
CONTINUOUS
 62
       7
100
AcDbLine
 10
84.36641086
 20
-47.41307816
 30
0.0
 11
84.2708162
 21
-47.48177208
 31
0.0
  0
LINE
  5
13A
100
AcDbEntity
  8
レイヤー_1
  6
CONTINUOUS
 62
       7
100
AcDbLine
 10
84.2708162
 20
-47.48177208
 30
0.0
 11
84.18259164
 21
-47.55930466
 31
0.0
  0
LINE
  5
13B
100
AcDbEntity
  8
レイヤー_1
  6
CONTINUOUS
 62
       7
100
AcDbLine
 10
84.18259164
 20
-47.55930466
 30
0.0
 11
84.10237137
 21
-47.64503198
 31
0.0
  0
LINE
  5
13C
100
AcDbEntity
  8
レイヤー_1
  6
CONTINUOUS
 62
       7
100
AcDbLine
 10
84.10237137
 20
-47.64503198
 30
0.0
 11
84.03078957
 21
-47.73831016
 31
0.0
  0
LINE
  5
13D
100
AcDbEntity
  8
レイヤー_1
  6
CONTINUOUS
 62
       7
100
AcDbLine
 10
84.03078957
 20
-47.73831016
 30
0.0
 11
83.96848042
 21
-47.83849529
 31
0.0
  0
LINE
  5
13E
100
AcDbEntity
  8
レイヤー_1
  6
CONTINUOUS
 62
       7
100
AcDbLine
 10
83.96848042
 20
-47.83849529
 30
0.0
 11
83.9160781
 21
-47.94494349
 31
0.0
  0
LINE
  5
13F
100
AcDbEntity
  8
レイヤー_1
  6
CONTINUOUS
 62
       7
100
AcDbLine
 10
83.9160781
 20
-47.94494349
 30
0.0
 11
83.87421679
 21
-48.05701086
 31
0.0
  0
LINE
  5
140
100
AcDbEntity
  8
レイヤー_1
  6
CONTINUOUS
 62
       7
100
AcDbLine
 10
83.87421679
 20
-48.05701086
 30
0.0
 11
83.84353069
 21
-48.1740535
 31
0.0
  0
LINE
  5
141
100
AcDbEntity
  8
レイヤー_1
  6
CONTINUOUS
 62
       7
100
AcDbLine
 10
83.84353069
 20
-48.1740535
 30
0.0
 11
83.82465395
 21
-48.29542752
 31
0.0
  0
LINE
  5
142
100
AcDbEntity
  8
レイヤー_1
  6
CONTINUOUS
 62
       7
100
AcDbLine
 10
83.82465395
 20
-48.29542752
 30
0.0
 11
83.81822078
 21
-48.42048902
 31
0.0
  0
LINE
  5
143
100
AcDbEntity
  8
レイヤー_1
  6
CONTINUOUS
 62
       7
100
AcDbLine
 10
83.81822078
 20
-48.42048902
 30
0.0
 11
83.81822078
 21
-48.46728229
 31
0.0
  0
LINE
  5
144
100
AcDbEntity
  8
レイヤー_1
  6
CONTINUOUS
 62
       7
100
AcDbLine
 10
83.81822078
 20
-48.46728229
 30
0.0
 11
83.81822078
 21
-48.59924982
 31
0.0
  0
LINE
  5
145
100
AcDbEntity
  8
レイヤー_1
  6
CONTINUOUS
 62
       7
100
AcDbLine
 10
83.81822078
 20
-48.59924982
 30
0.0
 11
83.81822078
 21
-48.80377321
 31
0.0
  0
LINE
  5
146
100
AcDbEntity
  8
レイヤー_1
  6
CONTINUOUS
 62
       7
100
AcDbLine
 10
83.81822078
 20
-48.80377321
 30
0.0
 11
83.81822078
 21
-49.06823404
 31
0.0
  0
LINE
  5
147
100
AcDbEntity
  8
レイヤー_1
  6
CONTINUOUS
 62
       7
100
AcDbLine
 10
83.81822078
 20
-49.06823404
 30
0.0
 11
83.81822078
 21
-49.38001391
 31
0.0
  0
LINE
  5
148
100
AcDbEntity
  8
レイヤー_1
  6
CONTINUOUS
 62
       7
100
AcDbLine
 10
83.81822078
 20
-49.38001391
 30
0.0
 11
83.81822078
 21
-49.72649441
 31
0.0
  0
LINE
  5
149
100
AcDbEntity
  8
レイヤー_1
  6
CONTINUOUS
 62
       7
100
AcDbLine
 10
83.81822078
 20
-49.72649441
 30
0.0
 11
83.81822078
 21
-50.09505712
 31
0.0
  0
LINE
  5
14A
100
AcDbEntity
  8
レイヤー_1
  6
CONTINUOUS
 62
       7
100
AcDbLine
 10
83.81822078
 20
-50.09505712
 30
0.0
 11
83.81822078
 21
-50.47308364
 31
0.0
  0
LINE
  5
14B
100
AcDbEntity
  8
レイヤー_1
  6
CONTINUOUS
 62
       7
100
AcDbLine
 10
83.81822078
 20
-50.47308364
 30
0.0
 11
83.81822078
 21
-50.84795556
 31
0.0
  0
LINE
  5
14C
100
AcDbEntity
  8
レイヤー_1
  6
CONTINUOUS
 62
       7
100
AcDbLine
 10
83.81822078
 20
-50.84795556
 30
0.0
 11
83.81822078
 21
-51.20705446
 31
0.0
  0
LINE
  5
14D
100
AcDbEntity
  8
レイヤー_1
  6
CONTINUOUS
 62
       7
100
AcDbLine
 10
83.81822078
 20
-51.20705446
 30
0.0
 11
83.81822078
 21
-51.53776195
 31
0.0
  0
LINE
  5
14E
100
AcDbEntity
  8
レイヤー_1
  6
CONTINUOUS
 62
       7
100
AcDbLine
 10
83.81822078
 20
-51.53776195
 30
0.0
 11
83.81822078
 21
-52.39622078
 31
0.0
  0
LINE
  5
14F
100
AcDbEntity
  8
レイヤー_1
  6
CONTINUOUS
 62
       7
100
AcDbLine
 10
6.73679312
 20
-52.39622078
 30
0.0
 11
6.73679312
 21
77.60377922
 31
0.0
  0
LINE
  5
150
100
AcDbEntity
  8
レイヤー_1
  6
CONTINUOUS
 62
       7
100
AcDbLine
 10
-19.04027257
 20
75.49200015
 30
0.0
 11
-19.04027257
 21
74.72423442
 31
0.0
  0
LINE
  5
151
100
AcDbEntity
  8
レイヤー_1
  6
CONTINUOUS
 62
       7
100
AcDbLine
 10
-19.04027257
 20
75.60377922
 30
0.0
 11
-19.04027257
 21
35.72081925
 31
0.0
  0
LINE
  5
152
100
AcDbEntity
  8
レイヤー_1
  6
CONTINUOUS
 62
       7
100
AcDbLine
 10
-101.4495404
 20
35.72081925
 30
0.0
 11
-101.4495404
 21
77.60377922
 31
0.0
  0
LINE
  5
153
100
AcDbEntity
  8
レイヤー_1
  6
CONTINUOUS
 62
       7
100
AcDbLine
 10
-12.04027257
 20
-52.39622078
 30
0.0
 11
83.81822078
 21
-52.39622078
 31
0.0
  0
LINE
  5
154
100
AcDbEntity
  8
レイヤー_1
  6
CONTINUOUS
 62
       7
100
AcDbLine
 10
-17.04027257
 20
77.60377922
 30
0.0
 11
74.12630591
 21
77.60377922
 31
0.0
  0
LINE
  5
155
100
AcDbEntity
  8
レイヤー_1
  6
CONTINUOUS
 62
       7
100
AcDbLine
 10
-108.95099847
 20
77.10377922
 30
0.0
 11
-108.95099847
 21
-51.89622078
 31
0.0
  0
LINE
  5
156
100
AcDbEntity
  8
レイヤー_1
  6
CONTINUOUS
 62
       7
100
AcDbLine
 10
-81.45099847
 20
77.10377922
 30
0.0
 11
-81.45099847
 21
-51.89622078
 31
0.0
  0
LINE
  5
157
100
AcDbEntity
  8
レイヤー_1
  6
CONTINUOUS
 62
       7
100
AcDbLine
 10
-108.45099847
 20
77.60377922
 30
0.0
 11
-81.95099847
 21
77.60377922
 31
0.0
  0
LINE
  5
158
100
AcDbEntity
  8
レイヤー_1
  6
CONTINUOUS
 62
       7
100
AcDbLine
 10
89.95972743
 20
61.45910893
 30
0.0
 11
89.95972743
 21
-49.83857645
 31
0.0
  0
LINE
  5
159
100
AcDbEntity
  8
レイヤー_1
  6
CONTINUOUS
 62
       7
100
AcDbLine
 10
-108.45099847
 20
-52.39622078
 30
0.0
 11
-81.95099847
 21
-52.39622078
 31
0.0
  0
LINE
  5
15A
100
AcDbEntity
  8
レイヤー_1
  6
CONTINUOUS
 62
       7
100
AcDbLine
 10
-97.75209167
 20
65.05578862
 30
0.0
 11
-95.35430521
 21
65.05578862
 31
0.0
  0
LINE
  5
15B
100
AcDbEntity
  8
レイヤー_1
  6
CONTINUOUS
 62
       7
100
AcDbLine
 10
-95.35430521
 20
65.05578862
 30
0.0
 11
-95.35430521
 21
66.05486631
 31
0.0
  0
LINE
  5
15C
100
AcDbEntity
  8
レイヤー_1
  6
CONTINUOUS
 62
       7
100
AcDbLine
 10
-95.35430521
 20
66.05486631
 30
0.0
 11
-97.75209167
 21
66.05486631
 31
0.0
  0
LINE
  5
15D
100
AcDbEntity
  8
レイヤー_1
  6
CONTINUOUS
 62
       7
100
AcDbLine
 10
-97.75209167
 20
66.05486631
 30
0.0
 11
-97.75209167
 21
65.05578862
 31
0.0
  0
LINE
  5
15E
100
AcDbEntity
  8
レイヤー_1
  6
CONTINUOUS
 62
       7
100
AcDbLine
 10
-97.75209167
 20
61.5590167
 30
0.0
 11
-95.35430521
 21
61.5590167
 31
0.0
  0
LINE
  5
15F
100
AcDbEntity
  8
レイヤー_1
  6
CONTINUOUS
 62
       7
100
AcDbLine
 10
-95.35430521
 20
61.5590167
 30
0.0
 11
-95.35430521
 21
62.55809439
 31
0.0
  0
LINE
  5
160
100
AcDbEntity
  8
レイヤー_1
  6
CONTINUOUS
 62
       7
100
AcDbLine
 10
-95.35430521
 20
62.55809439
 30
0.0
 11
-97.75209167
 21
62.55809439
 31
0.0
  0
LINE
  5
161
100
AcDbEntity
  8
レイヤー_1
  6
CONTINUOUS
 62
       7
100
AcDbLine
 10
-97.75209167
 20
62.55809439
 30
0.0
 11
-97.75209167
 21
61.5590167
 31
0.0
  0
LINE
  5
162
100
AcDbEntity
  8
レイヤー_1
  6
CONTINUOUS
 62
       7
100
AcDbLine
 10
-97.75209167
 20
58.06181415
 30
0.0
 11
-95.35430521
 21
58.06181415
 31
0.0
  0
LINE
  5
163
100
AcDbEntity
  8
レイヤー_1
  6
CONTINUOUS
 62
       7
100
AcDbLine
 10
-95.35430521
 20
58.06181415
 30
0.0
 11
-95.35430521
 21
59.06132247
 31
0.0
  0
LINE
  5
164
100
AcDbEntity
  8
レイヤー_1
  6
CONTINUOUS
 62
       7
100
AcDbLine
 10
-95.35430521
 20
59.06132247
 30
0.0
 11
-97.75209167
 21
59.06132247
 31
0.0
  0
LINE
  5
165
100
AcDbEntity
  8
レイヤー_1
  6
CONTINUOUS
 62
       7
100
AcDbLine
 10
-97.75209167
 20
59.06132247
 30
0.0
 11
-97.75209167
 21
58.06181415
 31
0.0
  0
LINE
  5
166
100
AcDbEntity
  8
レイヤー_1
  6
CONTINUOUS
 62
       7
100
AcDbLine
 10
-97.75209167
 20
54.56504223
 30
0.0
 11
-95.35430521
 21
54.56504223
 31
0.0
  0
LINE
  5
167
100
AcDbEntity
  8
レイヤー_1
  6
CONTINUOUS
 62
       7
100
AcDbLine
 10
-95.35430521
 20
54.56504223
 30
0.0
 11
-95.35430521
 21
55.56455056
 31
0.0
  0
LINE
  5
168
100
AcDbEntity
  8
レイヤー_1
  6
CONTINUOUS
 62
       7
100
AcDbLine
 10
-95.35430521
 20
55.56455056
 30
0.0
 11
-97.75209167
 21
55.56455056
 31
0.0
  0
LINE
  5
169
100
AcDbEntity
  8
レイヤー_1
  6
CONTINUOUS
 62
       7
100
AcDbLine
 10
-97.75209167
 20
55.56455056
 30
0.0
 11
-97.75209167
 21
54.56504223
 31
0.0
  0
LINE
  5
16A
100
AcDbEntity
  8
レイヤー_1
  6
CONTINUOUS
 62
       7
100
AcDbLine
 10
-97.75209167
 20
51.06827031
 30
0.0
 11
-95.35430521
 21
51.06827031
 31
0.0
  0
LINE
  5
16B
100
AcDbEntity
  8
レイヤー_1
  6
CONTINUOUS
 62
       7
100
AcDbLine
 10
-95.35430521
 20
51.06827031
 30
0.0
 11
-95.35430521
 21
52.067348
 31
0.0
  0
LINE
  5
16C
100
AcDbEntity
  8
レイヤー_1
  6
CONTINUOUS
 62
       7
100
AcDbLine
 10
-95.35430521
 20
52.067348
 30
0.0
 11
-97.75209167
 21
52.067348
 31
0.0
  0
LINE
  5
16D
100
AcDbEntity
  8
レイヤー_1
  6
CONTINUOUS
 62
       7
100
AcDbLine
 10
-97.75209167
 20
52.067348
 30
0.0
 11
-97.75209167
 21
51.06827031
 31
0.0
  0
LINE
  5
16E
100
AcDbEntity
  8
レイヤー_1
  6
CONTINUOUS
 62
       7
100
AcDbLine
 10
-97.75209167
 20
47.57106776
 30
0.0
 11
-95.35430521
 21
47.57106776
 31
0.0
  0
LINE
  5
16F
100
AcDbEntity
  8
レイヤー_1
  6
CONTINUOUS
 62
       7
100
AcDbLine
 10
-95.35430521
 20
47.57106776
 30
0.0
 11
-95.35430521
 21
48.57057608
 31
0.0
  0
LINE
  5
170
100
AcDbEntity
  8
レイヤー_1
  6
CONTINUOUS
 62
       7
100
AcDbLine
 10
-95.35430521
 20
48.57057608
 30
0.0
 11
-97.75209167
 21
48.57057608
 31
0.0
  0
LINE
  5
171
100
AcDbEntity
  8
レイヤー_1
  6
CONTINUOUS
 62
       7
100
AcDbLine
 10
-97.75209167
 20
48.57057608
 30
0.0
 11
-97.75209167
 21
47.57106776
 31
0.0
  0
LINE
  5
172
100
AcDbEntity
  8
レイヤー_1
  6
CONTINUOUS
 62
       7
100
AcDbLine
 10
-97.75209167
 20
44.07429584
 30
0.0
 11
-95.35430521
 21
44.07429584
 31
0.0
  0
LINE
  5
173
100
AcDbEntity
  8
レイヤー_1
  6
CONTINUOUS
 62
       7
100
AcDbLine
 10
-95.35430521
 20
44.07429584
 30
0.0
 11
-95.35430521
 21
45.07337353
 31
0.0
  0
LINE
  5
174
100
AcDbEntity
  8
レイヤー_1
  6
CONTINUOUS
 62
       7
100
AcDbLine
 10
-95.35430521
 20
45.07337353
 30
0.0
 11
-97.75209167
 21
45.07337353
 31
0.0
  0
LINE
  5
175
100
AcDbEntity
  8
レイヤー_1
  6
CONTINUOUS
 62
       7
100
AcDbLine
 10
-97.75209167
 20
45.07337353
 30
0.0
 11
-97.75209167
 21
44.07429584
 31
0.0
  0
LINE
  5
176
100
AcDbEntity
  8
レイヤー_1
  6
CONTINUOUS
 62
       7
100
AcDbLine
 10
-97.75209167
 20
40.57752392
 30
0.0
 11
-95.35430521
 21
40.57752392
 31
0.0
  0
LINE
  5
177
100
AcDbEntity
  8
レイヤー_1
  6
CONTINUOUS
 62
       7
100
AcDbLine
 10
-95.35430521
 20
40.57752392
 30
0.0
 11
-95.35430521
 21
41.57660161
 31
0.0
  0
LINE
  5
178
100
AcDbEntity
  8
レイヤー_1
  6
CONTINUOUS
 62
       7
100
AcDbLine
 10
-95.35430521
 20
41.57660161
 30
0.0
 11
-97.75209167
 21
41.57660161
 31
0.0
  0
LINE
  5
179
100
AcDbEntity
  8
レイヤー_1
  6
CONTINUOUS
 62
       7
100
AcDbLine
 10
-97.75209167
 20
41.57660161
 30
0.0
 11
-97.75209167
 21
40.57752392
 31
0.0
  0
LINE
  5
17A
100
AcDbEntity
  8
レイヤー_1
  6
CONTINUOUS
 62
       7
100
AcDbLine
 10
-91.75762552
 20
65.05578862
 30
0.0
 11
-89.35983907
 21
65.05578862
 31
0.0
  0
LINE
  5
17B
100
AcDbEntity
  8
レイヤー_1
  6
CONTINUOUS
 62
       7
100
AcDbLine
 10
-89.35983907
 20
65.05578862
 30
0.0
 11
-89.35983907
 21
66.05486631
 31
0.0
  0
LINE
  5
17C
100
AcDbEntity
  8
レイヤー_1
  6
CONTINUOUS
 62
       7
100
AcDbLine
 10
-89.35983907
 20
66.05486631
 30
0.0
 11
-91.75762552
 21
66.05486631
 31
0.0
  0
LINE
  5
17D
100
AcDbEntity
  8
レイヤー_1
  6
CONTINUOUS
 62
       7
100
AcDbLine
 10
-91.75762552
 20
66.05486631
 30
0.0
 11
-91.75762552
 21
65.05578862
 31
0.0
  0
LINE
  5
17E
100
AcDbEntity
  8
レイヤー_1
  6
CONTINUOUS
 62
       7
100
AcDbLine
 10
-91.75762552
 20
61.5590167
 30
0.0
 11
-89.35983907
 21
61.5590167
 31
0.0
  0
LINE
  5
17F
100
AcDbEntity
  8
レイヤー_1
  6
CONTINUOUS
 62
       7
100
AcDbLine
 10
-89.35983907
 20
61.5590167
 30
0.0
 11
-89.35983907
 21
62.55809439
 31
0.0
  0
LINE
  5
180
100
AcDbEntity
  8
レイヤー_1
  6
CONTINUOUS
 62
       7
100
AcDbLine
 10
-89.35983907
 20
62.55809439
 30
0.0
 11
-91.75762552
 21
62.55809439
 31
0.0
  0
LINE
  5
181
100
AcDbEntity
  8
レイヤー_1
  6
CONTINUOUS
 62
       7
100
AcDbLine
 10
-91.75762552
 20
62.55809439
 30
0.0
 11
-91.75762552
 21
61.5590167
 31
0.0
  0
LINE
  5
182
100
AcDbEntity
  8
レイヤー_1
  6
CONTINUOUS
 62
       7
100
AcDbLine
 10
-91.75762552
 20
58.06181415
 30
0.0
 11
-89.35983907
 21
58.06181415
 31
0.0
  0
LINE
  5
183
100
AcDbEntity
  8
レイヤー_1
  6
CONTINUOUS
 62
       7
100
AcDbLine
 10
-89.35983907
 20
58.06181415
 30
0.0
 11
-89.35983907
 21
59.06132247
 31
0.0
  0
LINE
  5
184
100
AcDbEntity
  8
レイヤー_1
  6
CONTINUOUS
 62
       7
100
AcDbLine
 10
-89.35983907
 20
59.06132247
 30
0.0
 11
-91.75762552
 21
59.06132247
 31
0.0
  0
LINE
  5
185
100
AcDbEntity
  8
レイヤー_1
  6
CONTINUOUS
 62
       7
100
AcDbLine
 10
-91.75762552
 20
59.06132247
 30
0.0
 11
-91.75762552
 21
58.06181415
 31
0.0
  0
LINE
  5
186
100
AcDbEntity
  8
レイヤー_1
  6
CONTINUOUS
 62
       7
100
AcDbLine
 10
-91.75762552
 20
54.56504223
 30
0.0
 11
-89.35983907
 21
54.56504223
 31
0.0
  0
LINE
  5
187
100
AcDbEntity
  8
レイヤー_1
  6
CONTINUOUS
 62
       7
100
AcDbLine
 10
-89.35983907
 20
54.56504223
 30
0.0
 11
-89.35983907
 21
55.56455056
 31
0.0
  0
LINE
  5
188
100
AcDbEntity
  8
レイヤー_1
  6
CONTINUOUS
 62
       7
100
AcDbLine
 10
-89.35983907
 20
55.56455056
 30
0.0
 11
-91.75762552
 21
55.56455056
 31
0.0
  0
LINE
  5
189
100
AcDbEntity
  8
レイヤー_1
  6
CONTINUOUS
 62
       7
100
AcDbLine
 10
-91.75762552
 20
55.56455056
 30
0.0
 11
-91.75762552
 21
54.56504223
 31
0.0
  0
LINE
  5
18A
100
AcDbEntity
  8
レイヤー_1
  6
CONTINUOUS
 62
       7
100
AcDbLine
 10
-91.75762552
 20
51.06827031
 30
0.0
 11
-89.35983907
 21
51.06827031
 31
0.0
  0
LINE
  5
18B
100
AcDbEntity
  8
レイヤー_1
  6
CONTINUOUS
 62
       7
100
AcDbLine
 10
-89.35983907
 20
51.06827031
 30
0.0
 11
-89.35983907
 21
52.067348
 31
0.0
  0
LINE
  5
18C
100
AcDbEntity
  8
レイヤー_1
  6
CONTINUOUS
 62
       7
100
AcDbLine
 10
-89.35983907
 20
52.067348
 30
0.0
 11
-91.75762552
 21
52.067348
 31
0.0
  0
LINE
  5
18D
100
AcDbEntity
  8
レイヤー_1
  6
CONTINUOUS
 62
       7
100
AcDbLine
 10
-91.75762552
 20
52.067348
 30
0.0
 11
-91.75762552
 21
51.06827031
 31
0.0
  0
LINE
  5
18E
100
AcDbEntity
  8
レイヤー_1
  6
CONTINUOUS
 62
       7
100
AcDbLine
 10
-91.75762552
 20
47.57106776
 30
0.0
 11
-89.35983907
 21
47.57106776
 31
0.0
  0
LINE
  5
18F
100
AcDbEntity
  8
レイヤー_1
  6
CONTINUOUS
 62
       7
100
AcDbLine
 10
-89.35983907
 20
47.57106776
 30
0.0
 11
-89.35983907
 21
48.57057608
 31
0.0
  0
LINE
  5
190
100
AcDbEntity
  8
レイヤー_1
  6
CONTINUOUS
 62
       7
100
AcDbLine
 10
-89.35983907
 20
48.57057608
 30
0.0
 11
-91.75762552
 21
48.57057608
 31
0.0
  0
LINE
  5
191
100
AcDbEntity
  8
レイヤー_1
  6
CONTINUOUS
 62
       7
100
AcDbLine
 10
-91.75762552
 20
48.57057608
 30
0.0
 11
-91.75762552
 21
47.57106776
 31
0.0
  0
LINE
  5
192
100
AcDbEntity
  8
レイヤー_1
  6
CONTINUOUS
 62
       7
100
AcDbLine
 10
-91.75762552
 20
44.07429584
 30
0.0
 11
-89.35983907
 21
44.07429584
 31
0.0
  0
LINE
  5
193
100
AcDbEntity
  8
レイヤー_1
  6
CONTINUOUS
 62
       7
100
AcDbLine
 10
-89.35983907
 20
44.07429584
 30
0.0
 11
-89.35983907
 21
45.07337353
 31
0.0
  0
LINE
  5
194
100
AcDbEntity
  8
レイヤー_1
  6
CONTINUOUS
 62
       7
100
AcDbLine
 10
-89.35983907
 20
45.07337353
 30
0.0
 11
-91.75762552
 21
45.07337353
 31
0.0
  0
LINE
  5
195
100
AcDbEntity
  8
レイヤー_1
  6
CONTINUOUS
 62
       7
100
AcDbLine
 10
-91.75762552
 20
45.07337353
 30
0.0
 11
-91.75762552
 21
44.07429584
 31
0.0
  0
LINE
  5
196
100
AcDbEntity
  8
レイヤー_1
  6
CONTINUOUS
 62
       7
100
AcDbLine
 10
-91.75762552
 20
40.57752392
 30
0.0
 11
-89.35983907
 21
40.57752392
 31
0.0
  0
LINE
  5
197
100
AcDbEntity
  8
レイヤー_1
  6
CONTINUOUS
 62
       7
100
AcDbLine
 10
-89.35983907
 20
40.57752392
 30
0.0
 11
-89.35983907
 21
41.57660161
 31
0.0
  0
LINE
  5
198
100
AcDbEntity
  8
レイヤー_1
  6
CONTINUOUS
 62
       7
100
AcDbLine
 10
-89.35983907
 20
41.57660161
 30
0.0
 11
-91.75762552
 21
41.57660161
 31
0.0
  0
LINE
  5
199
100
AcDbEntity
  8
レイヤー_1
  6
CONTINUOUS
 62
       7
100
AcDbLine
 10
-91.75762552
 20
41.57660161
 30
0.0
 11
-91.75762552
 21
40.57752392
 31
0.0
  0
LINE
  5
19A
100
AcDbEntity
  8
レイヤー_1
  6
CONTINUOUS
 62
       7
100
AcDbLine
 10
-91.55916293
 20
68.15206818
 30
0.0
 11
-95.55362908
 21
68.15206818
 31
0.0
  0
LINE
  5
19B
100
AcDbEntity
  8
レイヤー_1
  6
CONTINUOUS
 62
       7
100
AcDbLine
 10
-96.55362908
 20
67.15206818
 30
0.0
 11
-96.55362908
 21
39.48032204
 31
0.0
  0
LINE
  5
19C
100
AcDbEntity
  8
レイヤー_1
  6
CONTINUOUS
 62
       7
100
AcDbLine
 10
-95.55362908
 20
38.48032204
 30
0.0
 11
-91.55916293
 21
38.48032204
 31
0.0
  0
LINE
  5
19D
100
AcDbEntity
  8
レイヤー_1
  6
CONTINUOUS
 62
       7
100
AcDbLine
 10
-90.55916293
 20
39.48032204
 30
0.0
 11
-90.55916293
 21
67.15206818
 31
0.0
  0
ARC
  5
19E
100
AcDbEntity
  8
レイヤー_1
  6
CONTINUOUS
 62
       7
100
AcDbCircle
 10
-108.45099847
 20
77.10377922
 30
0.0
 40
0.5
100
AcDbArc
 50
90.0
 51
180.0
  0
ARC
  5
19F
100
AcDbEntity
  8
レイヤー_1
  6
CONTINUOUS
 62
       7
100
AcDbCircle
 10
-81.95099847
 20
77.10377922
 30
0.0
 40
0.5
100
AcDbArc
 50
0.0
 51
90.0
  0
ARC
  5
1A0
100
AcDbEntity
  8
レイヤー_1
  6
CONTINUOUS
 62
       7
100
AcDbCircle
 10
-81.95099847
 20
-51.89622078
 30
0.0
 40
0.5
100
AcDbArc
 50
270.0
 51
360.0
  0
ARC
  5
1A1
100
AcDbEntity
  8
レイヤー_1
  6
CONTINUOUS
 62
       7
100
AcDbCircle
 10
-108.45099847
 20
-51.89622078
 30
0.0
 40
0.5
100
AcDbArc
 50
180.0
 51
270.0
  0
LINE
  5
1A2
100
AcDbEntity
  8
SLD-0
  6
CONTINUOUS
 62
       7
100
AcDbLine
 10
-14.04027257
 20
35.11080106
 30
0.0
 11
-14.04027257
 21
-50.39622078
 31
0.0
  0
LINE
  5
1A3
100
AcDbEntity
  8
SLD-0
  6
CONTINUOUS
 62
       7
100
AcDbLine
 10
-81.45099847
 20
35.72081925
 30
0.0
 11
-101.4495404
 21
35.72081925
 31
0.0
  0
LINE
  5
1A4
100
AcDbEntity
  8
SLD-0
  6
CONTINUOUS
 62
       7
100
AcDbLine
 10
-81.45099847
 20
35.11080106
 30
0.0
 11
-102.0495404
 21
35.11080106
 31
0.0
  0
LINE
  5
1A5
100
AcDbEntity
  8
SLD-0
  6
CONTINUOUS
 62
       7
100
AcDbLine
 10
-102.0495404
 20
35.11080106
 30
0.0
 11
-102.0495404
 21
77.60377922
 31
0.0
  0
ARC
  5
1A6
100
AcDbEntity
  8
SLD-0
  6
CONTINUOUS
 62
       7
100
AcDbCircle
 10
-91.55916293
 20
39.48032204
 30
0.0
 40
1.0
100
AcDbArc
 50
270.0
 51
360.0
  0
ARC
  5
1A7
100
AcDbEntity
  8
SLD-0
  6
CONTINUOUS
 62
       7
100
AcDbCircle
 10
-17.04027257
 20
75.60377922
 30
0.0
 40
2.0
100
AcDbArc
 50
90.0
 51
180.0
  0
ARC
  5
1A8
100
AcDbEntity
  8
SLD-0
  6
CONTINUOUS
 62
       7
100
AcDbCircle
 10
-12.04027257
 20
-50.39622078
 30
0.0
 40
2.0
100
AcDbArc
 50
180.0
 51
270.0
  0
ARC
  5
1A9
100
AcDbEntity
  8
SLD-0
  6
CONTINUOUS
 62
       7
100
AcDbCircle
 10
-91.55916293
 20
67.15206818
 30
0.0
 40
1.0
100
AcDbArc
 50
0.0
 51
90.0
  0
ARC
  5
1AA
100
AcDbEntity
  8
SLD-0
  6
CONTINUOUS
 62
       7
100
AcDbCircle
 10
-95.55362908
 20
67.15206818
 30
0.0
 40
1.0
100
AcDbArc
 50
90.0
 51
180.0
  0
ARC
  5
1AB
100
AcDbEntity
  8
SLD-0
  6
CONTINUOUS
 62
       7
100
AcDbCircle
 10
-95.55362908
 20
39.48032204
 30
0.0
 40
1.0
100
AcDbArc
 50
180.0
 51
270.0
  0
LINE
  5
1AC
100
AcDbEntity
  8
SLD-0
  6
PHANTOM2
 62
       7
100
AcDbLine
 10
-100.65759818
 20
29.04961472
 30
0.0
 11
-100.78872399
 21
26.52345354
 31
0.0
  0
LINE
  5
1AD
100
AcDbEntity
  8
SLD-0
  6
PHANTOM2
 62
       7
100
AcDbLine
 10
-101.43416736
 20
29.6928811
 30
0.0
 11
-101.43416736
 21
28.6928811
 31
0.0
  0
LINE
  5
1AE
100
AcDbEntity
  8
SLD-0
  6
PHANTOM2
 62
       7
100
AcDbLine
 10
-98.43416736
 20
29.6928811
 30
0.0
 11
-98.43416736
 21
28.6928811
 31
0.0
  0
LINE
  5
1AF
100
AcDbEntity
  8
SLD-0
  6
PHANTOM2
 62
       7
100
AcDbLine
 10
-16.54027257
 20
22.20377922
 30
0.0
 11
-14.04027257
 21
22.20377922
 31
0.0
  0
LINE
  5
1B0
100
AcDbEntity
  8
SLD-0
  6
PHANTOM2
 62
       7
100
AcDbLine
 10
-16.54027257
 20
-47.07632859
 30
0.0
 11
-14.04027257
 21
-47.07632859
 31
0.0
  0
LINE
  5
1B1
100
AcDbEntity
  8
SLD-0
  6
PHANTOM2
 62
       7
100
AcDbLine
 10
-95.95099847
 20
22.20377922
 30
0.0
 11
-95.95099847
 21
-47.07632859
 31
0.0
  0
LINE
  5
1B2
100
AcDbEntity
  8
SLD-0
  6
PHANTOM2
 62
       7
100
AcDbLine
 10
-16.54027257
 20
22.20377922
 30
0.0
 11
-16.54027257
 21
-47.07632859
 31
0.0
  0
CIRCLE
  5
1B3
100
AcDbEntity
  8
SLD-0
  6
PHANTOM2
 62
       7
100
AcDbCircle
 10
-99.93416736
 20
19.45195766
 30
0.0
 40
1.50745691
  0
CIRCLE
  5
1B4
100
AcDbEntity
  8
SLD-0
  6
PHANTOM2
 62
       7
100
AcDbCircle
 10
-99.9341693
 20
-44.32368642
 30
0.0
 40
1.50697971
  0
ARC
  5
1B5
100
AcDbEntity
  8
SLD-0
  6
PHANTOM2
 62
       7
100
AcDbCircle
 10
-101.89109226
 20
12.35722376
 30
0.0
 40
1.0
100
AcDbArc
 50
102.39721179
 51
180.0
  0
ARC
  5
1B6
100
AcDbEntity
  8
SLD-0
  6
PHANTOM2
 62
       7
100
AcDbCircle
 10
-98.11139223
 20
13.18805189
 30
0.0
 40
1.0
100
AcDbArc
 50
0.0
 51
102.39721179
  0
ARC
  5
1B7
100
AcDbEntity
  8
SLD-0
  6
PHANTOM2
 62
       7
100
AcDbCircle
 10
-101.89109226
 20
-37.16821217
 30
0.0
 40
1.0
100
AcDbArc
 50
180.0
 51
256.95329386
  0
ARC
  5
1B8
100
AcDbEntity
  8
SLD-0
  6
PHANTOM2
 62
       7
100
AcDbCircle
 10
-98.11139223
 20
-38.04407064
 30
0.0
 40
1.0
100
AcDbArc
 50
256.95329386
 51
360.0
  0
ARC
  5
1B9
100
AcDbEntity
  8
SLD-0
  6
PHANTOM2
 62
       7
100
AcDbCircle
 10
-99.93416736
 20
29.6928811
 30
0.0
 40
1.5
100
AcDbArc
 50
0.0
 51
180.0
  0
ARC
  5
1BA
100
AcDbEntity
  8
SLD-0
  6
PHANTOM2
 62
       7
100
AcDbCircle
 10
-99.93416736
 20
29.01206349
 30
0.0
 40
0.72440476
100
AcDbArc
 50
2.97139359
 51
177.02860641
  0
ARC
  5
1BB
100
AcDbEntity
  8
SLD-0
  6
PHANTOM2
 62
       7
100
AcDbCircle
 10
-99.93416736
 20
26.52345354
 30
0.0
 40
0.85455664
100
AcDbArc
 50
174.05721282
 51
365.94278718
  0
ARC
  5
1BC
100
AcDbEntity
  8
SLD-0
  6
PHANTOM2
 62
       7
100
AcDbCircle
 10
-99.93416736
 20
28.6928811
 30
0.0
 40
1.5
100
AcDbArc
 50
302.57304227
 51
360.0
  0
LINE
  5
1BD
100
AcDbEntity
  8
SLD-0
  6
PHANTOM2
 62
       7
100
AcDbLine
 10
-99.21073653
 20
29.04961472
 30
0.0
 11
-99.07961072
 21
26.52345354
 31
0.0
  0
LINE
  5
1BE
100
AcDbEntity
  8
0
  6
PHANTOM2
 62
       7
100
AcDbLine
 10
-14.03319179
 20
29.39575392
 30
0.0
 11
-18.70193955
 21
27.13174323
 31
0.0
  0
LINE
  5
1BF
100
AcDbEntity
  8
0
  6
PHANTOM2
 62
       7
100
AcDbLine
 10
-14.03319179
 20
28.18886601
 30
0.0
 11
-17.97106654
 21
25.88629028
 31
0.0
  0
LINE
  5
1C0
100
AcDbEntity
  8
0
  6
PHANTOM2
 62
       7
100
AcDbLine
 10
-87.61139223
 20
-38.04407064
 30
0.0
 11
-87.61139223
 21
13.18805189
 31
0.0
  0
LINE
  5
1C1
100
AcDbEntity
  8
0
  6
PHANTOM2
 62
       7
100
AcDbLine
 10
-94.45099847
 20
-47.07632859
 30
0.0
 11
-86.45099847
 21
-47.07632859
 31
0.0
  0
LINE
  5
1C2
100
AcDbEntity
  8
0
  6
PHANTOM2
 62
       7
100
AcDbLine
 10
-88.82608003
 20
14.16473462
 30
0.0
 11
-92.60578006
 21
13.33390649
 31
0.0
  0
LINE
  5
1C3
100
AcDbEntity
  8
0
  6
PHANTOM2
 62
       7
100
AcDbLine
 10
-94.45099847
 20
-41.57162659
 30
0.0
 11
-86.45099847
 21
-41.57162659
 31
0.0
  0
LINE
  5
1C4
100
AcDbEntity
  8
0
  6
PHANTOM2
 62
       7
100
AcDbLine
 10
-86.45099847
 20
22.20377922
 30
0.0
 11
-86.45099847
 21
-47.07632859
 31
0.0
  0
LINE
  5
1C5
100
AcDbEntity
  8
0
  6
PHANTOM2
 62
       7
100
AcDbLine
 10
-92.61683752
 20
-38.14239854
 30
0.0
 11
-88.83713749
 21
-39.018257
 31
0.0
  0
LINE
  5
1C6
100
AcDbEntity
  8
0
  6
PHANTOM2
 62
       7
100
AcDbLine
 10
-86.45099847
 20
16.69907722
 30
0.0
 11
-94.45099847
 21
16.69907722
 31
0.0
  0
LINE
  5
1C7
100
AcDbEntity
  8
0
  6
PHANTOM2
 62
       7
100
AcDbLine
 10
-86.45099847
 20
22.20377922
 30
0.0
 11
-94.45099847
 21
22.20377922
 31
0.0
  0
LINE
  5
1C8
100
AcDbEntity
  8
0
  6
PHANTOM2
 62
       7
100
AcDbLine
 10
-93.39109226
 20
12.35722376
 30
0.0
 11
-93.39109226
 21
-37.16821217
 31
0.0
  0
LINE
  5
1C9
100
AcDbEntity
  8
0
  6
PHANTOM2
 62
       7
100
AcDbLine
 10
-94.45099847
 20
22.20377922
 30
0.0
 11
-94.45099847
 21
-47.07632859
 31
0.0
  0
LINE
  5
1CA
100
AcDbEntity
  8
0
  6
PHANTOM2
 62
       7
100
AcDbLine
 10
-91.93416736
 20
29.6928811
 30
0.0
 11
-91.93416736
 21
28.6928811
 31
0.0
  0
LINE
  5
1CB
100
AcDbEntity
  8
0
  6
PHANTOM2
 62
       7
100
AcDbLine
 10
-89.71073653
 20
29.04961472
 30
0.0
 11
-89.57961072
 21
26.52345354
 31
0.0
  0
LINE
  5
1CC
100
AcDbEntity
  8
0
  6
PHANTOM2
 62
       7
100
AcDbLine
 10
-91.15759818
 20
29.04961472
 30
0.0
 11
-91.28872399
 21
26.52345354
 31
0.0
  0
LINE
  5
1CD
100
AcDbEntity
  8
0
  6
PHANTOM2
 62
       7
100
AcDbLine
 10
-88.93416736
 20
29.6928811
 30
0.0
 11
-88.93416736
 21
28.6928811
 31
0.0
  0
LINE
  5
1CE
100
AcDbEntity
  8
0
  6
PHANTOM2
 62
       7
100
AcDbLine
 10
-102.11683752
 20
-38.14239854
 30
0.0
 11
-98.33713749
 21
-39.018257
 31
0.0
  0
LINE
  5
1CF
100
AcDbEntity
  8
0
  6
PHANTOM2
 62
       7
100
AcDbLine
 10
-97.11139223
 20
-38.04407064
 30
0.0
 11
-97.11139223
 21
13.18805189
 31
0.0
  0
LINE
  5
1D0
100
AcDbEntity
  8
0
  6
PHANTOM2
 62
       7
100
AcDbLine
 10
-95.95099847
 20
16.69907722
 30
0.0
 11
-103.95099847
 21
16.69907722
 31
0.0
  0
LINE
  5
1D1
100
AcDbEntity
  8
0
  6
PHANTOM2
 62
       7
100
AcDbLine
 10
-103.95099847
 20
-47.07632859
 30
0.0
 11
-95.95099847
 21
-47.07632859
 31
0.0
  0
LINE
  5
1D2
100
AcDbEntity
  8
0
  6
PHANTOM2
 62
       7
100
AcDbLine
 10
-95.95099847
 20
22.20377922
 30
0.0
 11
-103.95099847
 21
22.20377922
 31
0.0
  0
LINE
  5
1D3
100
AcDbEntity
  8
0
  6
PHANTOM2
 62
       7
100
AcDbLine
 10
-98.32608003
 20
14.16473462
 30
0.0
 11
-102.10578006
 21
13.33390649
 31
0.0
  0
LINE
  5
1D4
100
AcDbEntity
  8
0
  6
PHANTOM2
 62
       7
100
AcDbLine
 10
-102.89109226
 20
12.35722376
 30
0.0
 11
-102.89109226
 21
-37.16821217
 31
0.0
  0
LINE
  5
1D5
100
AcDbEntity
  8
0
  6
PHANTOM2
 62
       7
100
AcDbLine
 10
-103.95099847
 20
-41.57162659
 30
0.0
 11
-95.95099847
 21
-41.57162659
 31
0.0
  0
LINE
  5
1D6
100
AcDbEntity
  8
0
  6
PHANTOM2
 62
       7
100
AcDbLine
 10
-103.95099847
 20
22.20377922
 30
0.0
 11
-103.95099847
 21
-47.07632859
 31
0.0
  0
ARC
  5
1D7
100
AcDbEntity
  8
0
  6
PHANTOM2
 62
       7
100
AcDbCircle
 10
-18.38590652
 20
26.48002517
 30
0.0
 40
0.72430195
100
AcDbArc
 50
115.86980998
 51
304.94183221
  0
CIRCLE
  5
1D8
100
AcDbEntity
  8
0
  6
PHANTOM2
 62
       7
100
AcDbCircle
 10
-90.43416736
 20
19.45195766
 30
0.0
 40
1.50745691
  0
ARC
  5
1D9
100
AcDbEntity
  8
0
  6
PHANTOM2
 62
       7
100
AcDbCircle
 10
-92.39109226
 20
12.35722376
 30
0.0
 40
1.0
100
AcDbArc
 50
102.39721179
 51
180.0
  0
ARC
  5
1DA
100
AcDbEntity
  8
0
  6
PHANTOM2
 62
       7
100
AcDbCircle
 10
-92.39109226
 20
-37.16821217
 30
0.0
 40
1.0
100
AcDbArc
 50
180.0
 51
256.95329386
  0
CIRCLE
  5
1DB
100
AcDbEntity
  8
0
  6
PHANTOM2
 62
       7
100
AcDbCircle
 10
-90.4341693
 20
-44.32368642
 30
0.0
 40
1.50697971
  0
ARC
  5
1DC
100
AcDbEntity
  8
0
  6
PHANTOM2
 62
       7
100
AcDbCircle
 10
-88.61139223
 20
13.18805189
 30
0.0
 40
1.0
100
AcDbArc
 50
0.0
 51
102.39721179
  0
ARC
  5
1DD
100
AcDbEntity
  8
0
  6
PHANTOM2
 62
       7
100
AcDbCircle
 10
-88.61139223
 20
-38.04407064
 30
0.0
 40
1.0
100
AcDbArc
 50
256.95329386
 51
360.0
  0
ARC
  5
1DE
100
AcDbEntity
  8
0
  6
PHANTOM2
 62
       7
100
AcDbCircle
 10
-99.93416736
 20
28.6928811
 30
0.0
 40
1.5
100
AcDbArc
 50
180.0
 51
237.42695773
  0
ARC
  5
1DF
100
AcDbEntity
  8
0
  6
PHANTOM2
 62
       7
100
AcDbCircle
 10
-90.43416736
 20
29.01206349
 30
0.0
 40
0.72440476
100
AcDbArc
 50
2.97139359
 51
177.02860641
  0
ARC
  5
1E0
100
AcDbEntity
  8
0
  6
PHANTOM2
 62
       7
100
AcDbCircle
 10
-90.43416736
 20
28.6928811
 30
0.0
 40
1.5
100
AcDbArc
 50
302.57304227
 51
360.0
  0
ARC
  5
1E1
100
AcDbEntity
  8
0
  6
PHANTOM2
 62
       7
100
AcDbCircle
 10
-90.43416736
 20
29.6928811
 30
0.0
 40
1.5
100
AcDbArc
 50
0.0
 51
180.0
  0
ARC
  5
1E2
100
AcDbEntity
  8
0
  6
PHANTOM2
 62
       7
100
AcDbCircle
 10
-90.43416736
 20
28.6928811
 30
0.0
 40
1.5
100
AcDbArc
 50
180.0
 51
237.42695773
  0
ARC
  5
1E3
100
AcDbEntity
  8
0
  6
PHANTOM2
 62
       7
100
AcDbCircle
 10
-90.43416736
 20
26.52345354
 30
0.0
 40
0.85455664
100
AcDbArc
 50
174.05721282
 51
365.94278718
  0
LINE
  5
1E4
100
AcDbEntity
  8
0
  6
CONTINUOUS
 62
       7
100
AcDbLine
 10
-19.04027257
 20
35.72081925
 30
0.0
 11
-14.04027257
 21
35.11080106
 31
0.0
  0
TEXT
  5
1E5
100
AcDbEntity
  8
SLD-0
 62
       7
100
AcDbText
 10
106.70059027
 20
-85.08960209
 30
0.0
 40
5.0
  1
000
 72
       5
 11
121.70059027
 21
-85.08960209
 31
0.0
100
AcDbText
  0
ENDSEC
  0
SECTION
  2
OBJECTS
  0
DICTIONARY
  5
19
100
AcDbDictionary
  3
ACAD_GROUP
350
1A
  3
ACAD_MLINESTYLE
350
1B
  0
DICTIONARY
  5
1A
102
{ACAD_REACTORS
330
19
102
}
100
AcDbDictionary
  0
DICTIONARY
  5
1B
102
{ACAD_REACTORS
330
19
102
}
100
AcDbDictionary
  3
STANDARD
350
1C
  0
MLINESTYLE
  5
1C
102
{ACAD_REACTORS
330
1B
102
}
100
AcDbMlineStyle
  2
STANDARD
 70
       0
  3

 62
       0
 51
90.0
 52
90.0
 71
       2
 49
0.5
 62
     256
  6
BYLAYER
 49
-0.5
 62
     256
  6
BYLAYER
  0
ENDSEC
  0
EOF
