  0
SECTION
  2
HEADER
  9
$ACADVER
  1
AC1014
  9
$ACADMAINTVER
 70
     9
  9
$DWGCODEPAGE
  3
ANSI_932
  9
$INSBASE
 10
0.0
 20
0.0
 30
0.0
  9
$EXTMIN
 10
-773.54076917004
 20
-788.3836275306553
 30
0.0
  9
$EXTMAX
 10
772.65428301636
 20
776.7419608640553
 30
0.0
  9
$LIMMIN
 10
-594.5
 20
-420.5
  9
$LIMMAX
 10
594.5
 20
420.5
  9
$ORTHOMODE
 70
     0
  9
$REGENMODE
 70
     1
  9
$FILLMODE
 70
     1
  9
$QTEXTMODE
 70
     0
  9
$MIRRTEXT
 70
     1
  9
$DRAGMODE
 70
     2
  9
$LTSCALE
 40
0.25
  9
$OSMODE
 70
    37
  9
$ATTMODE
 70
     1
  9
$TEXTSIZE
 40
0.2
  9
$TRACEWID
 40
0.05
  9
$TEXTSTYLE
  7
STANDARD
  9
$CLAYER
  8
0
  9
$CELTYPE
  6
BYLAYER
  9
$CECOLOR
 62
   256
  9
$CELTSCALE
 40
1.0
  9
$DELOBJ
 70
     1
  9
$DISPSILH
 70
     0
  9
$DIMSCALE
 40
1.0
  9
$DIMASZ
 40
3.000001907348633
  9
$DIMEXO
 40
1.0
  9
$DIMDLI
 40
10.0
  9
$DIMRND
 40
0.0
  9
$DIMDLE
 40
0.0
  9
$DIMEXE
 40
1.0
  9
$DIMTP
 40
0.0
  9
$DIMTM
 40
0.0
  9
$DIMTXT
 40
3.5
  9
$DIMCEN
 40
0.0
  9
$DIMTSZ
 40
0.0
  9
$DIMTOL
 70
     0
  9
$DIMLIM
 70
     0
  9
$DIMTIH
 70
     0
  9
$DIMTOH
 70
     0
  9
$DIMSE1
 70
     0
  9
$DIMSE2
 70
     0
  9
$DIMTAD
 70
     1
  9
$DIMZIN
 70
     8
  9
$DIMBLK
  1

  9
$DIMASO
 70
     1
  9
$DIMSHO
 70
     1
  9
$DIMPOST
  1

  9
$DIMAPOST
  1

  9
$DIMALT
 70
     0
  9
$DIMALTD
 70
     2
  9
$DIMALTF
 40
25.4
  9
$DIMLFAC
 40
1.0
  9
$DIMTOFL
 70
     0
  9
$DIMTVP
 40
0.0
  9
$DIMTIX
 70
     0
  9
$DIMSOXD
 70
     0
  9
$DIMSAH
 70
     0
  9
$DIMBLK1
  1

  9
$DIMBLK2
  1

  9
$DIMSTYLE
  2
STANDARD
  9
$DIMCLRD
 70
     0
  9
$DIMCLRE
 70
     0
  9
$DIMCLRT
 70
     0
  9
$DIMTFAC
 40
0.65
  9
$DIMGAP
 40
0.09
  9
$DIMJUST
 70
     0
  9
$DIMSD1
 70
     0
  9
$DIMSD2
 70
     0
  9
$DIMTOLJ
 70
     0
  9
$DIMTZIN
 70
     0
  9
$DIMALTZ
 70
     0
  9
$DIMALTTZ
 70
     0
  9
$DIMFIT
 70
     3
  9
$DIMUPT
 70
     0
  9
$DIMUNIT
 70
     2
  9
$DIMDEC
 70
     2
  9
$DIMTDEC
 70
     2
  9
$DIMALTU
 70
     2
  9
$DIMALTTD
 70
     2
  9
$DIMTXSTY
  7
STANDARD
  9
$DIMAUNIT
 70
     0
  9
$LUNITS
 70
     2
  9
$LUPREC
 70
     4
  9
$SKETCHINC
 40
0.1
  9
$FILLETRAD
 40
0.5
  9
$AUNITS
 70
     0
  9
$AUPREC
 70
     0
  9
$MENU
  1
.
  9
$ELEVATION
 40
0.0
  9
$PELEVATION
 40
0.0
  9
$THICKNESS
 40
0.0
  9
$LIMCHECK
 70
     0
  9
$CHAMFERA
 40
0.0
  9
$CHAMFERB
 40
0.0
  9
$CHAMFERC
 40
0.0
  9
$CHAMFERD
 40
0.0
  9
$SKPOLY
 70
     0
  9
$TDCREATE
 40
2457242.422666296
  9
$TDUPDATE
 40
2457242.422666296
  9
$TDINDWG
 40
0.0000000116
  9
$TDUSRTIMER
 40
0.0000000116
  9
$USRTIMER
 70
     1
  9
$ANGBASE
 50
0.0
  9
$ANGDIR
 70
     0
  9
$PDMODE
 70
     0
  9
$PDSIZE
 40
1.0
  9
$PLINEWID
 40
0.0
  9
$COORDS
 70
     1
  9
$SPLFRAME
 70
     0
  9
$SPLINETYPE
 70
     6
  9
$SPLINESEGS
 70
     8
  9
$ATTDIA
 70
     0
  9
$ATTREQ
 70
     1
  9
$HANDLING
 70
     1
  9
$HANDSEED
  5
418
  9
$SURFTAB1
 70
     6
  9
$SURFTAB2
 70
     6
  9
$SURFTYPE
 70
     6
  9
$SURFU
 70
     6
  9
$SURFV
 70
     6
  9
$UCSNAME
  2

  9
$UCSORG
 10
0.0
 20
0.0
 30
0.0
  9
$UCSXDIR
 10
1.0
 20
0.0
 30
0.0
  9
$UCSYDIR
 10
0.0
 20
1.0
 30
0.0
  9
$PUCSNAME
  2

  9
$PUCSORG
 10
0.0
 20
0.0
 30
0.0
  9
$PUCSXDIR
 10
1.0
 20
0.0
 30
0.0
  9
$PUCSYDIR
 10
0.0
 20
1.0
 30
0.0
  9
$USERI1
 70
     0
  9
$USERI2
 70
     0
  9
$USERI3
 70
     0
  9
$USERI4
 70
     0
  9
$USERI5
 70
     0
  9
$USERR1
 40
0.0
  9
$USERR2
 40
0.0
  9
$USERR3
 40
0.0
  9
$USERR4
 40
0.0
  9
$USERR5
 40
0.0
  9
$WORLDVIEW
 70
     1
  9
$SHADEDGE
 70
     3
  9
$SHADEDIF
 70
    70
  9
$TILEMODE
 70
     1
  9
$MAXACTVP
 70
    64
  9
$PINSBASE
 10
0.0
 20
0.0
 30
0.0
  9
$PLIMCHECK
 70
     0
  9
$PEXTMIN
 10
1.000000000000000E+20
 20
1.000000000000000E+20
 30
1.000000000000000E+20
  9
$PEXTMAX
 10
-1.000000000000000E+20
 20
-1.000000000000000E+20
 30
-1.000000000000000E+20
  9
$PLIMMIN
 10
0.0
 20
0.0
  9
$PLIMMAX
 10
12.0
 20
9.0
  9
$UNITMODE
 70
     0
  9
$VISRETAIN
 70
     0
  9
$PLINEGEN
 70
     1
  9
$PSLTSCALE
 70
     0
  9
$TREEDEPTH
 70
  3020
  9
$PICKSTYLE
 70
     1
  9
$CMLSTYLE
  2
STANDARD
  9
$CMLJUST
 70
     0
  9
$CMLSCALE
 40
1.0
  9
$PROXYGRAPHICS
 70
     0
  9
$MEASUREMENT
 70
     1
  0
ENDSEC
  0
SECTION
  2
CLASSES
  0
CLASS
  1
ACDBDICTIONARYWDFLT
  2
AcDbDictionaryWithDefault
  3
ObjectDBX Classes
 90
        0
280
     0
281
     0
  0
CLASS
  1
VISUALSTYLE
  2
AcDbVisualStyle
  3
ObjectDBX Classes
 90
     4095
280
     0
281
     0
  0
CLASS
  1
MATERIAL
  2
AcDbMaterial
  3
ObjectDBX Classes
 90
     1153
280
     0
281
     0
  0
CLASS
  1
SCALE
  2
AcDbScale
  3
ObjectDBX Classes
 90
     1153
280
     0
281
     0
  0
CLASS
  1
SUN
  2
AcDbSun
  3
SCENEOE
 90
     1153
280
     0
281
     0
  0
CLASS
  1
DICTIONARYVAR
  2
AcDbDictionaryVar
  3
ObjectDBX Classes
 90
        0
280
     0
281
     0
  0
CLASS
  1
XRECORD
  2
AcDbXrecord
  3
ObjectDBX Classes
 90
        0
280
     0
281
     0
  0
CLASS
  1
LWPOLYLINE
  2
AcDbPolyline
  3
ObjectDBX Classes
 90
        0
280
     0
281
     1
  0
CLASS
  1
HATCH
  2
AcDbHatch
  3
ObjectDBX Classes
 90
        0
280
     0
281
     1
  0
CLASS
  1
ACDBPLACEHOLDER
  2
AcDbPlaceHolder
  3
ObjectDBX Classes
 90
        0
280
     0
281
     0
  0
CLASS
  1
LAYOUT
  2
AcDbLayout
  3
ObjectDBX Classes
 90
        0
280
     0
281
     0
  0
ENDSEC
  0
SECTION
  2
TABLES
  0
TABLE
  2
VPORT
  5
8
102
{ACAD_XDICTIONARY
360
40E
102
}
330
0
100
AcDbSymbolTable
 70
     1
  0
VPORT
  5
29
330
8
100
AcDbSymbolTableRecord
100
AcDbViewportTableRecord
  2
*ACTIVE
 70
     0
 10
0.0
 20
0.0
 11
1.0
 21
1.0
 12
4.345506923129957
 22
-5.820833333300016
 13
0.0
 23
0.0
 14
0.5
 24
0.5
 15
0.5
 25
0.5
 16
0.0
 26
0.0
 36
1.0
 17
0.0
 27
0.0
 37
0.0
 40
532.1427000542017
 41
1.006262733076623
 42
50.0
 43
0.0
 44
0.0
 50
0.0
 51
0.0
 71
     0
 72
  1000
 73
     1
 74
     1
 75
     0
 76
     0
 77
     0
 78
     0
  0
ENDTAB
  0
TABLE
  2
LTYPE
  5
5
330
0
100
AcDbSymbolTable
 70
    67
  0
LTYPE
  5
14
330
5
100
AcDbSymbolTableRecord
100
AcDbLinetypeTableRecord
  2
BYBLOCK
 70
     0
  3

 72
    65
 73
     0
 40
0.0
  0
LTYPE
  5
15
330
5
100
AcDbSymbolTableRecord
100
AcDbLinetypeTableRecord
  2
BYLAYER
 70
     0
  3

 72
    65
 73
     0
 40
0.0
  0
LTYPE
  5
16
330
5
100
AcDbSymbolTableRecord
100
AcDbLinetypeTableRecord
  2
CONTINUOUS
 70
     0
  3
Solid line
 72
    65
 73
     0
 40
0.0
  0
LTYPE
  5
6B
330
5
100
AcDbSymbolTableRecord
100
AcDbLinetypeTableRecord
  2
HIDDENX2
 70
     0
  3
Hidden (2x) ____ ____ ____ ____ ____ ____ ____ 
 72
    65
 73
     2
 40
19.05
 49
12.7
 74
     0
 49
-6.35
 74
     0
  0
LTYPE
  5
6C
330
5
100
AcDbSymbolTableRecord
100
AcDbLinetypeTableRecord
  2
HIDDEN
 70
     0
  3
Hidden __ __ __ __ __ __ __ __ __ __ __ __ __ __
 72
    65
 73
     2
 40
9.524999999999999
 49
6.35
 74
     0
 49
-3.175
 74
     0
  0
LTYPE
  5
6D
330
5
100
AcDbSymbolTableRecord
100
AcDbLinetypeTableRecord
  2
HIDDEN2
 70
     0
  3
Hidden (.5x) _ _ _ _ _ _ _ _ _ _ _ _ _ _ _ _ _ 
 72
    65
 73
     2
 40
4.762499999999999
 49
3.175
 74
     0
 49
-1.5875
 74
     0
  0
LTYPE
  5
6E
330
5
100
AcDbSymbolTableRecord
100
AcDbLinetypeTableRecord
  2
DASHED
 70
     0
  3
Dashed __ __ __ __ __ __ __ __ __ __ __ __ __ _
 72
    65
 73
     2
 40
19.05
 49
12.7
 74
     0
 49
-6.35
 74
     0
  0
LTYPE
  5
6F
330
5
100
AcDbSymbolTableRecord
100
AcDbLinetypeTableRecord
  2
DASHED2
 70
     0
  3
Dashed (.5x) _ _ _ _ _ _ _ _ _ _ _ _ _ _ _ _ _ 
 72
    65
 73
     2
 40
9.524999999999999
 49
6.35
 74
     0
 49
-3.175
 74
     0
  0
LTYPE
  5
70
330
5
100
AcDbSymbolTableRecord
100
AcDbLinetypeTableRecord
  2
DASHEDX2
 70
     0
  3
Dashed (2x) ____  ____  ____  ____  ____  ___
 72
    65
 73
     2
 40
38.09999999999999
 49
25.4
 74
     0
 49
-12.7
 74
     0
  0
LTYPE
  5
71
330
5
100
AcDbSymbolTableRecord
100
AcDbLinetypeTableRecord
  2
DOTX2
 70
     0
  3
Dot (2x) .  .  .  .  .  .  .  .  .  .  .  .  .  .
 72
    65
 73
     2
 40
12.7
 49
0.0
 74
     0
 49
-12.7
 74
     0
  0
LTYPE
  5
72
330
5
100
AcDbSymbolTableRecord
100
AcDbLinetypeTableRecord
  2
DOT
 70
     0
  3
Dot . . . . . . . . . . . . . . . . . . . . . . . .
 72
    65
 73
     2
 40
6.35
 49
0.0
 74
     0
 49
-6.35
 74
     0
  0
LTYPE
  5
73
330
5
100
AcDbSymbolTableRecord
100
AcDbLinetypeTableRecord
  2
DOT2
 70
     0
  3
Dot (.5x) ........................................
 72
    65
 73
     2
 40
3.175
 49
0.0
 74
     0
 49
-3.175
 74
     0
  0
LTYPE
  5
74
330
5
100
AcDbSymbolTableRecord
100
AcDbLinetypeTableRecord
  2
CENTERX2
 70
     0
  3
Center (2x) ________  __  ________  __  _____
 72
    65
 73
     4
 40
101.6
 49
63.5
 74
     0
 49
-12.7
 74
     0
 49
12.7
 74
     0
 49
-12.7
 74
     0
  0
LTYPE
  5
75
330
5
100
AcDbSymbolTableRecord
100
AcDbLinetypeTableRecord
  2
CENTER
 70
     0
  3
Center ____ _ ____ _ ____ _ ____ _ ____ _ ____
 72
    65
 73
     4
 40
50.8
 49
31.75
 74
     0
 49
-6.35
 74
     0
 49
6.35
 74
     0
 49
-6.35
 74
     0
  0
LTYPE
  5
76
330
5
100
AcDbSymbolTableRecord
100
AcDbLinetypeTableRecord
  2
CENTER2
 70
     0
  3
Center (.5x) ___ _ ___ _ ___ _ ___ _ ___ _ ___
 72
    65
 73
     4
 40
28.575
 49
19.05
 74
     0
 49
-3.175
 74
     0
 49
3.175
 74
     0
 49
-3.175
 74
     0
  0
LTYPE
  5
77
330
5
100
AcDbSymbolTableRecord
100
AcDbLinetypeTableRecord
  2
DASHDOTX2
 70
     0
  3
Dash dot (2x) ____  .  ____  .  ____  .  ___
 72
    65
 73
     4
 40
50.8
 49
25.4
 74
     0
 49
-12.7
 74
     0
 49
0.0
 74
     0
 49
-12.7
 74
     0
  0
LTYPE
  5
78
330
5
100
AcDbSymbolTableRecord
100
AcDbLinetypeTableRecord
  2
DASHDOT
 70
     0
  3
Dash dot __ . __ . __ . __ . __ . __ . __ . __
 72
    65
 73
     4
 40
25.4
 49
12.7
 74
     0
 49
-6.35
 74
     0
 49
0.0
 74
     0
 49
-6.35
 74
     0
  0
LTYPE
  5
79
330
5
100
AcDbSymbolTableRecord
100
AcDbLinetypeTableRecord
  2
DASHDOT2
 70
     0
  3
Dash dot (.5x) _._._._._._._._._._._._._._._.
 72
    65
 73
     4
 40
12.7
 49
6.35
 74
     0
 49
-3.175
 74
     0
 49
0.0
 74
     0
 49
-3.175
 74
     0
  0
LTYPE
  5
7A
330
5
100
AcDbSymbolTableRecord
100
AcDbLinetypeTableRecord
  2
DIVIDEX2
 70
     0
  3
Divide (2x) ________  .  .  ________  .  .  _
 72
    65
 73
     6
 40
63.5
 49
25.4
 74
     0
 49
-12.7
 74
     0
 49
0.0
 74
     0
 49
-12.7
 74
     0
 49
0.0
 74
     0
 49
-12.7
 74
     0
  0
LTYPE
  5
7B
330
5
100
AcDbSymbolTableRecord
100
AcDbLinetypeTableRecord
  2
DIVIDE
 70
     0
  3
Divide ____ . . ____ . . ____ . . ____ . . ____
 72
    65
 73
     6
 40
31.75
 49
12.7
 74
     0
 49
-6.35
 74
     0
 49
0.0
 74
     0
 49
-6.35
 74
     0
 49
0.0
 74
     0
 49
-6.35
 74
     0
  0
LTYPE
  5
7C
330
5
100
AcDbSymbolTableRecord
100
AcDbLinetypeTableRecord
  2
DIVIDE2
 70
     0
  3
Divide (.5x) __..__..__..__..__..__..__..__.._
 72
    65
 73
     6
 40
15.875
 49
6.35
 74
     0
 49
-3.175
 74
     0
 49
0.0
 74
     0
 49
-3.175
 74
     0
 49
0.0
 74
     0
 49
-3.175
 74
     0
  0
LTYPE
  5
7D
330
5
100
AcDbSymbolTableRecord
100
AcDbLinetypeTableRecord
  2
BORDERX2
 70
     0
  3
Border (2x) ____  ____  .  ____  ____  .  ___
 72
    65
 73
     6
 40
88.89999999999999
 49
25.4
 74
     0
 49
-12.7
 74
     0
 49
25.4
 74
     0
 49
-12.7
 74
     0
 49
0.0
 74
     0
 49
-12.7
 74
     0
  0
LTYPE
  5
7E
330
5
100
AcDbSymbolTableRecord
100
AcDbLinetypeTableRecord
  2
BORDER
 70
     0
  3
Border __ __ . __ __ . __ __ . __ __ . __ __ .
 72
    65
 73
     6
 40
44.45
 49
12.7
 74
     0
 49
-6.35
 74
     0
 49
12.7
 74
     0
 49
-6.35
 74
     0
 49
0.0
 74
     0
 49
-6.35
 74
     0
  0
LTYPE
  5
7F
330
5
100
AcDbSymbolTableRecord
100
AcDbLinetypeTableRecord
  2
BORDER2
 70
     0
  3
Border (.5x) __.__.__.__.__.__.__.__.__.__.__.
 72
    65
 73
     6
 40
22.225
 49
6.35
 74
     0
 49
-3.175
 74
     0
 49
6.35
 74
     0
 49
-3.175
 74
     0
 49
0.0
 74
     0
 49
-3.175
 74
     0
  0
LTYPE
  5
80
330
5
100
AcDbSymbolTableRecord
100
AcDbLinetypeTableRecord
  2
PHANTOMX2
 70
     0
  3
Phantom (2x) ____________    ____    ____   _
 72
    65
 73
     6
 40
127.0
 49
63.5
 74
     0
 49
-12.7
 74
     0
 49
12.7
 74
     0
 49
-12.7
 74
     0
 49
12.7
 74
     0
 49
-12.7
 74
     0
  0
LTYPE
  5
81
330
5
100
AcDbSymbolTableRecord
100
AcDbLinetypeTableRecord
  2
PHANTOM
 70
     0
  3
Phantom ______  __  __  ______  __  __  ______ 
 72
    65
 73
     6
 40
63.5
 49
31.75
 74
     0
 49
-6.35
 74
     0
 49
6.35
 74
     0
 49
-6.35
 74
     0
 49
6.35
 74
     0
 49
-6.35
 74
     0
  0
LTYPE
  5
82
330
5
100
AcDbSymbolTableRecord
100
AcDbLinetypeTableRecord
  2
PHANTOM2
 70
     0
  3
Phantom (.5x) ___ _ _ ___ _ _ ___ _ _ ___ _ _
 72
    65
 73
     6
 40
31.75
 49
15.875
 74
     0
 49
-3.175
 74
     0
 49
3.175
 74
     0
 49
-3.175
 74
     0
 49
3.175
 74
     0
 49
-3.175
 74
     0
  0
LTYPE
  5
83
330
5
100
AcDbSymbolTableRecord
100
AcDbLinetypeTableRecord
  2
ACAD_ISO06W100
 70
     0
  3
ISO long-dash triple-dot ____ ... ____ ... ____
 72
    65
 73
     8
 40
36.0
 49
24.0
 74
     0
 49
-3.0
 74
     0
 49
0.0
 74
     0
 49
-3.0
 74
     0
 49
0.0
 74
     0
 49
-3.0
 74
     0
 49
0.0
 74
     0
 49
-3.0
 74
     0
  0
LTYPE
  5
84
330
5
100
AcDbSymbolTableRecord
100
AcDbLinetypeTableRecord
  2
ACAD_ISO13W100
 70
     0
  3
ISO double-dash double-dot __ __ . . __ __ . . _
 72
    65
 73
     8
 40
36.0
 49
12.0
 74
     0
 49
-3.0
 74
     0
 49
12.0
 74
     0
 49
-3.0
 74
     0
 49
0.0
 74
     0
 49
-3.0
 74
     0
 49
0.0
 74
     0
 49
-3.0
 74
     0
  0
LTYPE
  5
85
330
5
100
AcDbSymbolTableRecord
100
AcDbLinetypeTableRecord
  2
ACAD_ISO14W100
 70
     0
  3
ISO dash triple-dot __ . . . __ . . . __ . . . _
 72
    65
 73
     8
 40
24.0
 49
12.0
 74
     0
 49
-3.0
 74
     0
 49
0.0
 74
     0
 49
-3.0
 74
     0
 49
0.0
 74
     0
 49
-3.0
 74
     0
 49
0.0
 74
     0
 49
-3.0
 74
     0
  0
LTYPE
  5
86
330
5
100
AcDbSymbolTableRecord
100
AcDbLinetypeTableRecord
  2
ACAD_ISO02W100
 70
     0
  3
ISO dash __ __ __ __ __ __ __ __ __ __ __ __ __
 72
    65
 73
     2
 40
15.0
 49
12.0
 74
     0
 49
-3.0
 74
     0
  0
LTYPE
  5
87
330
5
100
AcDbSymbolTableRecord
100
AcDbLinetypeTableRecord
  2
ACAD_ISO03W100
 70
     0
  3
ISO dash space __    __    __    __    __    __
 72
    65
 73
     2
 40
30.0
 49
12.0
 74
     0
 49
-18.0
 74
     0
  0
LTYPE
  5
88
330
5
100
AcDbSymbolTableRecord
100
AcDbLinetypeTableRecord
  2
ACAD_ISO04W100
 70
     0
  3
ISO long-dash dot ____ . ____ . ____ . ____ . _
 72
    65
 73
     4
 40
30.0
 49
24.0
 74
     0
 49
-3.0
 74
     0
 49
0.0
 74
     0
 49
-3.0
 74
     0
  0
LTYPE
  5
89
330
5
100
AcDbSymbolTableRecord
100
AcDbLinetypeTableRecord
  2
ACAD_ISO05W100
 70
     0
  3
ISO long-dash double-dot ____ .. ____ .. ____ . 
 72
    65
 73
     6
 40
33.0
 49
24.0
 74
     0
 49
-3.0
 74
     0
 49
0.0
 74
     0
 49
-3.0
 74
     0
 49
0.0
 74
     0
 49
-3.0
 74
     0
  0
LTYPE
  5
8A
330
5
100
AcDbSymbolTableRecord
100
AcDbLinetypeTableRecord
  2
ACAD_ISO07W100
 70
     0
  3
ISO dot . . . . . . . . . . . . . . . . . . . . 
 72
    65
 73
     2
 40
3.0
 49
0.0
 74
     0
 49
-3.0
 74
     0
  0
LTYPE
  5
8B
330
5
100
AcDbSymbolTableRecord
100
AcDbLinetypeTableRecord
  2
ACAD_ISO08W100
 70
     0
  3
ISO long-dash short-dash ____ __ ____ __ ____ _
 72
    65
 73
     4
 40
36.0
 49
24.0
 74
     0
 49
-3.0
 74
     0
 49
6.0
 74
     0
 49
-3.0
 74
     0
  0
LTYPE
  5
8C
330
5
100
AcDbSymbolTableRecord
100
AcDbLinetypeTableRecord
  2
ACAD_ISO09W100
 70
     0
  3
ISO long-dash double-short-dash ____ __ __ ____
 72
    65
 73
     6
 40
45.0
 49
24.0
 74
     0
 49
-3.0
 74
     0
 49
6.0
 74
     0
 49
-3.0
 74
     0
 49
6.0
 74
     0
 49
-3.0
 74
     0
  0
LTYPE
  5
8D
330
5
100
AcDbSymbolTableRecord
100
AcDbLinetypeTableRecord
  2
ACAD_ISO10W100
 70
     0
  3
ISO dash dot __ . __ . __ . __ . __ . __ . __ . 
 72
    65
 73
     4
 40
18.0
 49
12.0
 74
     0
 49
-3.0
 74
     0
 49
0.0
 74
     0
 49
-3.0
 74
     0
  0
LTYPE
  5
8E
330
5
100
AcDbSymbolTableRecord
100
AcDbLinetypeTableRecord
  2
ACAD_ISO11W100
 70
     0
  3
ISO double-dash dot __ __ . __ __ . __ __ . __ _
 72
    65
 73
     6
 40
33.0
 49
12.0
 74
     0
 49
-3.0
 74
     0
 49
12.0
 74
     0
 49
-3.0
 74
     0
 49
0.0
 74
     0
 49
-3.0
 74
     0
  0
LTYPE
  5
8F
330
5
100
AcDbSymbolTableRecord
100
AcDbLinetypeTableRecord
  2
ACAD_ISO12W100
 70
     0
  3
ISO dash double-dot __ . . __ . . __ . . __ . . 
 72
    65
 73
     6
 40
21.0
 49
12.0
 74
     0
 49
-3.0
 74
     0
 49
0.0
 74
     0
 49
-3.0
 74
     0
 49
0.0
 74
     0
 49
-3.0
 74
     0
  0
LTYPE
  5
90
330
5
100
AcDbSymbolTableRecord
100
AcDbLinetypeTableRecord
  2
ACAD_ISO15W100
 70
     0
  3
ISO double-dash triple-dot __ __ . . . __ __ . .
 72
    65
 73
    10
 40
39.0
 49
12.0
 74
     0
 49
-3.0
 74
     0
 49
12.0
 74
     0
 49
-3.0
 74
     0
 49
0.0
 74
     0
 49
-3.0
 74
     0
 49
0.0
 74
     0
 49
-3.0
 74
     0
 49
0.0
 74
     0
 49
-3.0
 74
     0
  0
LTYPE
  5
91
330
5
100
AcDbSymbolTableRecord
100
AcDbLinetypeTableRecord
  2
JIS_02_0_7
 70
     0
  3
HIDDEN0.75 _ _ _ _ _ _ _ _ _ _ _ _ _ _ _ _ _ 
 72
    65
 73
     2
 40
1.35
 49
0.75
 74
     0
 49
-0.6
 74
     0
  0
LTYPE
  5
92
330
5
100
AcDbSymbolTableRecord
100
AcDbLinetypeTableRecord
  2
JIS_02_1_0
 70
     0
  3
HIDDEN01 _ _ _ _ _ _ _ _ _ _ _ _ _ _ _ _ _ 
 72
    65
 73
     2
 40
2.0
 49
1.0
 74
     0
 49
-1.0
 74
     0
  0
LTYPE
  5
93
330
5
100
AcDbSymbolTableRecord
100
AcDbLinetypeTableRecord
  2
JIS_02_1_2
 70
     0
  3
HIDDEN01.25  _ _ _ _ _ _ _ _ _ _ _ _ _ _ _ _ _ 
 72
    65
 73
     2
 40
2.5
 49
1.25
 74
     0
 49
-1.25
 74
     0
  0
LTYPE
  5
94
330
5
100
AcDbSymbolTableRecord
100
AcDbLinetypeTableRecord
  2
JIS_02_2_0
 70
     0
  3
HIDDEN02 __ __ __ __ __ __ __ __ __ __ __ 
 72
    65
 73
     2
 40
3.0
 49
2.0
 74
     0
 49
-1.0
 74
     0
  0
LTYPE
  5
95
330
5
100
AcDbSymbolTableRecord
100
AcDbLinetypeTableRecord
  2
JIS_02_4_0
 70
     0
  3
HIDDEN04 ____ ____ ____ ____ ____ ____ ____ 
 72
    65
 73
     2
 40
5.5
 49
4.0
 74
     0
 49
-1.5
 74
     0
  0
LTYPE
  5
96
330
5
100
AcDbSymbolTableRecord
100
AcDbLinetypeTableRecord
  2
JIS_08_11
 70
     0
  3
1SASEN11 ___ _ ___ _ ___ _ ___ _ ___ _ ___
 72
    65
 73
     4
 40
12.8
 49
11.0
 74
     0
 49
-0.6
 74
     0
 49
0.6
 74
     0
 49
-0.6
 74
     0
  0
LTYPE
  5
97
330
5
100
AcDbSymbolTableRecord
100
AcDbLinetypeTableRecord
  2
JIS_08_15
 70
     0
  3
1SASEN15 ____ _ ____ _ ____ _ ____ _ ____ 
 72
    65
 73
     4
 40
17.25
 49
15.0
 74
     0
 49
-0.75
 74
     0
 49
0.75
 74
     0
 49
-0.75
 74
     0
  0
LTYPE
  5
98
330
5
100
AcDbSymbolTableRecord
100
AcDbLinetypeTableRecord
  2
JIS_08_25
 70
     0
  3
1SASEN25 ________  __  ________  __  _____
 72
    65
 73
     4
 40
28.0
 49
25.0
 74
     0
 49
-1.125
 74
     0
 49
0.75
 74
     0
 49
-1.125
 74
     0
  0
LTYPE
  5
99
330
5
100
AcDbSymbolTableRecord
100
AcDbLinetypeTableRecord
  2
JIS_08_37
 70
     0
  3
1SASEN37 ________  __  ________  __  _____
 72
    65
 73
     4
 40
40.5
 49
37.5
 74
     0
 49
-1.125
 74
     0
 49
0.75
 74
     0
 49
-1.125
 74
     0
  0
LTYPE
  5
9A
330
5
100
AcDbSymbolTableRecord
100
AcDbLinetypeTableRecord
  2
JIS_08_50
 70
     0
  3
1SASEN50 _______________  __  ____________
 72
    65
 73
     4
 40
53.0
 49
50.0
 74
     0
 49
-1.125
 74
     0
 49
0.75
 74
     0
 49
-1.125
 74
     0
  0
LTYPE
  5
9B
330
5
100
AcDbSymbolTableRecord
100
AcDbLinetypeTableRecord
  2
JIS_09_08
 70
     0
  3
2SASEN8 __ _ _ __ _ _ __ _ _ __ _ _ __ _ _ 
 72
    65
 73
     6
 40
10.75
 49
8.0
 74
     0
 49
-0.55
 74
     0
 49
0.55
 74
     0
 49
-0.55
 74
     0
 49
0.55
 74
     0
 49
-0.55
 74
     0
  0
LTYPE
  5
9C
330
5
100
AcDbSymbolTableRecord
100
AcDbLinetypeTableRecord
  2
JIS_09_15
 70
     0
  3
2SASEN15 ___ _ _ ___ _ _ ___ _ _ ___ _ _ ___ 
 72
    65
 73
     6
 40
18.9
 49
15.0
 74
     0
 49
-0.9
 74
     0
 49
0.6
 74
     0
 49
-0.9
 74
     0
 49
0.6
 74
     0
 49
-0.9
 74
     0
  0
LTYPE
  5
9D
330
5
100
AcDbSymbolTableRecord
100
AcDbLinetypeTableRecord
  2
JIS_09_29
 70
     0
  3
2SASEN29 ______　__  __  ______　__  __  ___
 72
    65
 73
     6
 40
34.0
 49
29.0
 74
     0
 49
-1.2
 74
     0
 49
0.7
 74
     0
 49
-1.2
 74
     0
 49
0.7
 74
     0
 49
-1.2
 74
     0
  0
LTYPE
  5
9E
330
5
100
AcDbSymbolTableRecord
100
AcDbLinetypeTableRecord
  2
JIS_09_50
 70
     0
  3
2SASEN50 ____________　__  __  _____________
 72
    65
 73
     6
 40
55.0
 49
50.0
 74
     0
 49
-1.2
 74
     0
 49
0.7
 74
     0
 49
-1.2
 74
     0
 49
0.7
 74
     0
 49
-1.2
 74
     0
  0
LTYPE
  5
9F
330
5
100
AcDbSymbolTableRecord
100
AcDbLinetypeTableRecord
  2
SXF_破線
 70
     0
  3
02 dashed -- -- -- -- -- --
 72
    65
 73
     2
 40
7.5
 49
6.0
 74
     0
 49
-1.5
 74
     0
  0
LTYPE
  5
A0
330
5
100
AcDbSymbolTableRecord
100
AcDbLinetypeTableRecord
  2
SXF_跳び破線
 70
     0
  3
03 dashed_spaced --  --  --  --
 72
    65
 73
     2
 40
12.0
 49
6.0
 74
     0
 49
-6.0
 74
     0
  0
LTYPE
  5
A1
330
5
100
AcDbSymbolTableRecord
100
AcDbLinetypeTableRecord
  2
SXF_一点長鎖線
 70
     0
  3
04 long_dashed_dotted ---- . ---- . ----
 72
    65
 73
     4
 40
15.25
 49
12.0
 74
     0
 49
-1.5
 74
     0
 49
0.25
 74
     0
 49
-1.5
 74
     0
  0
LTYPE
  5
A2
330
5
100
AcDbSymbolTableRecord
100
AcDbLinetypeTableRecord
  2
SXF_二点長鎖線
 70
     0
  3
05 long_dashed_double-dotted ---- . . ---- 
 72
    65
 73
     6
 40
17.0
 49
12.0
 74
     0
 49
-1.5
 74
     0
 49
0.25
 74
     0
 49
-1.5
 74
     0
 49
0.25
 74
     0
 49
-1.5
 74
     0
  0
LTYPE
  5
A3
330
5
100
AcDbSymbolTableRecord
100
AcDbLinetypeTableRecord
  2
SXF_三点長鎖線
 70
     0
  3
06 long_dashed_triplicate-dotted ---- ... ---- 
 72
    65
 73
     8
 40
18.75
 49
12.0
 74
     0
 49
-1.5
 74
     0
 49
0.25
 74
     0
 49
-1.5
 74
     0
 49
0.25
 74
     0
 49
-1.5
 74
     0
 49
0.25
 74
     0
 49
-1.5
 74
     0
  0
LTYPE
  5
A4
330
5
100
AcDbSymbolTableRecord
100
AcDbLinetypeTableRecord
  2
SXF_点線
 70
     0
  3
07 dotted . . . . . . . . . . . . 
 72
    65
 73
     2
 40
1.75
 49
0.25
 74
     0
 49
-1.5
 74
     0
  0
LTYPE
  5
A5
330
5
100
AcDbSymbolTableRecord
100
AcDbLinetypeTableRecord
  2
SXF_一点鎖線
 70
     0
  3
08 chain ---- - --- - --- - ---
 72
    65
 73
     4
 40
18.5
 49
12.0
 74
     0
 49
-1.5
 74
     0
 49
3.5
 74
     0
 49
-1.5
 74
     0
  0
LTYPE
  5
A6
330
5
100
AcDbSymbolTableRecord
100
AcDbLinetypeTableRecord
  2
SXF_二点鎖線
 70
     0
  3
09 chain_double_dash ---- - - ---- - - ----
 72
    65
 73
     6
 40
23.5
 49
12.0
 74
     0
 49
-1.5
 74
     0
 49
3.5
 74
     0
 49
-1.5
 74
     0
 49
3.5
 74
     0
 49
-1.5
 74
     0
  0
LTYPE
  5
A7
330
5
100
AcDbSymbolTableRecord
100
AcDbLinetypeTableRecord
  2
SXF_一点短鎖線
 70
     0
  3
10 dashed_dotted -- . -- . -- . --
 72
    65
 73
     4
 40
9.25
 49
6.0
 74
     0
 49
-1.5
 74
     0
 49
0.25
 74
     0
 49
-1.5
 74
     0
  0
LTYPE
  5
A8
330
5
100
AcDbSymbolTableRecord
100
AcDbLinetypeTableRecord
  2
SXF_一点二短鎖線
 70
     0
  3
11 double-dashed_dotted -- -- . -- --
 72
    65
 73
     6
 40
16.75
 49
6.0
 74
     0
 49
-1.5
 74
     0
 49
6.0
 74
     0
 49
-1.5
 74
     0
 49
0.25
 74
     0
 49
-1.5
 74
     0
  0
LTYPE
  5
A9
330
5
100
AcDbSymbolTableRecord
100
AcDbLinetypeTableRecord
  2
SXF_二点短鎖線
 70
     0
  3
12 dashed_double_dotted -- . . -- . . --
 72
    65
 73
     6
 40
11.0
 49
6.0
 74
     0
 49
-1.5
 74
     0
 49
0.25
 74
     0
 49
-1.5
 74
     0
 49
0.25
 74
     0
 49
-1.5
 74
     0
  0
LTYPE
  5
AA
330
5
100
AcDbSymbolTableRecord
100
AcDbLinetypeTableRecord
  2
SXF_二点二短鎖線
 70
     0
  3
13 double-dashed_double-dotted -- -- . . -- --
 72
    65
 73
     8
 40
18.5
 49
6.0
 74
     0
 49
-1.5
 74
     0
 49
6.0
 74
     0
 49
-1.5
 74
     0
 49
0.25
 74
     0
 49
-1.5
 74
     0
 49
0.25
 74
     0
 49
-1.5
 74
     0
  0
LTYPE
  5
AB
330
5
100
AcDbSymbolTableRecord
100
AcDbLinetypeTableRecord
  2
SXF_三点短鎖線
 70
     0
  3
14 dashed triplicate-dotted -- . . . -- . . . --
 72
    65
 73
     8
 40
12.75
 49
6.0
 74
     0
 49
-1.5
 74
     0
 49
0.25
 74
     0
 49
-1.5
 74
     0
 49
0.25
 74
     0
 49
-1.5
 74
     0
 49
0.25
 74
     0
 49
-1.5
 74
     0
  0
LTYPE
  5
AC
330
5
100
AcDbSymbolTableRecord
100
AcDbLinetypeTableRecord
  2
SXF_三点二短鎖線
 70
     0
  3
15 double-dashed triplicate-dotted -- -- . . . -- -- 
 72
    65
 73
    10
 40
20.25
 49
6.0
 74
     0
 49
-1.5
 74
     0
 49
6.0
 74
     0
 49
-1.5
 74
     0
 49
0.25
 74
     0
 49
-1.5
 74
     0
 49
0.25
 74
     0
 49
-1.5
 74
     0
 49
0.25
 74
     0
 49
-1.5
 74
     0
  0
ENDTAB
  0
TABLE
  2
LAYER
  5
2
330
0
100
AcDbSymbolTable
 70
     1
  0
LAYER
  5
10
330
2
100
AcDbSymbolTableRecord
100
AcDbLayerTableRecord
  2
0
 70
     0
 62
     7
  6
CONTINUOUS
  0
ENDTAB
  0
TABLE
  2
STYLE
  5
3
330
0
100
AcDbSymbolTable
 70
     2
  0
STYLE
  5
11
330
3
100
AcDbSymbolTableRecord
100
AcDbTextStyleTableRecord
  2
STANDARD
 70
     0
 40
0.0
 41
1.0
 50
0.0
 71
     0
 42
0.2
  3
txt.shx
  4
bigfont.shx
  0
STYLE
  5
3E4
330
3
100
AcDbSymbolTableRecord
100
AcDbTextStyleTableRecord
  2
DCSTYLE0
 70
     0
 40
0.0
 41
0.2999999999999998
 50
0.0
 71
     0
 42
0.2
  3
txt.shx
  4
bigfont
  0
ENDTAB
  0
TABLE
  2
VIEW
  5
6
330
0
100
AcDbSymbolTable
 70
     0
  0
ENDTAB
  0
TABLE
  2
UCS
  5
7
330
0
100
AcDbSymbolTable
 70
     0
  0
ENDTAB
  0
TABLE
  2
APPID
  5
9
330
0
100
AcDbSymbolTable
 70
     2
  0
APPID
  5
12
330
9
100
AcDbSymbolTableRecord
100
AcDbRegAppTableRecord
  2
ACAD
 70
     0
  0
APPID
  5
6A
330
9
100
AcDbSymbolTableRecord
100
AcDbRegAppTableRecord
  2
DAFUSIONOUT
 70
     0
  0
ENDTAB
  0
TABLE
  2
DIMSTYLE
  5
A
330
0
100
AcDbSymbolTable
 70
     1
  0
DIMSTYLE
105
27
330
A
100
AcDbSymbolTableRecord
100
AcDbDimStyleTableRecord
  2
STANDARD
 70
     0
  3

  4

  5

  6

  7

 40
1.0
 41
0.18
 42
0.0625
 43
0.38
 44
0.18
 45
0.0
 46
0.0
 47
0.0
 48
0.0
140
0.18
141
0.09
142
0.0
143
25.4
144
1.0
145
0.0
146
1.0
147
0.09
 71
     0
 72
     0
 73
     1
 74
     1
 75
     0
 76
     0
 77
     0
 78
     0
170
     0
171
     2
172
     0
173
     0
174
     0
175
     0
176
     0
177
     0
178
     0
270
     2
271
     4
272
     4
273
     2
274
     2
340
11
275
     0
280
     0
281
     0
282
     0
283
     1
284
     0
285
     0
286
     0
287
     3
288
     0
  0
ENDTAB
  0
TABLE
  2
BLOCK_RECORD
  5
1
330
0
100
AcDbSymbolTable
 70
     1
  0
BLOCK_RECORD
  5
1F
330
1
100
AcDbSymbolTableRecord
100
AcDbBlockTableRecord
  2
*MODEL_SPACE
  0
BLOCK_RECORD
  5
1B
330
1
100
AcDbSymbolTableRecord
100
AcDbBlockTableRecord
  2
*PAPER_SPACE
  0
ENDTAB
  0
ENDSEC
  0
SECTION
  2
BLOCKS
  0
BLOCK
  5
20
330
1F
100
AcDbEntity
  8
0
100
AcDbBlockBegin
  2
*MODEL_SPACE
 70
     0
 10
0.0
 20
0.0
 30
0.0
  3
*MODEL_SPACE
  1

  0
ENDBLK
  5
21
330
1F
100
AcDbEntity
  8
0
100
AcDbBlockEnd
  0
BLOCK
  5
1C
330
1B
100
AcDbEntity
 67
     1
  8
0
100
AcDbBlockBegin
  2
*PAPER_SPACE
 70
     0
 10
0.0
 20
0.0
 30
0.0
  3
*PAPER_SPACE
  1

  0
ENDBLK
  5
1D
330
1B
100
AcDbEntity
 67
     1
  8
0
100
AcDbBlockEnd
  0
ENDSEC
  0
SECTION
  2
ENTITIES
  0
LINE
  5
AE
330
1F
100
AcDbEntity
  8
0
  6
CENTER
 62
     7
100
AcDbLine
 10
-181.31010425624
 20
89.38342771854815
 30
0.0
 11
-174.46010425624
 21
89.38342771854815
 31
0.0
  0
LINE
  5
AF
330
1F
100
AcDbEntity
  8
0
  6
CENTER
 62
     7
100
AcDbLine
 10
-174.46010425624
 20
95.68342771854816
 30
0.0
 11
-181.31010425624
 21
95.68342771854816
 31
0.0
  0
LINE
  5
B0
330
1F
100
AcDbEntity
  8
0
  6
CENTER
 62
     7
100
AcDbLine
 10
-104.46010425624
 20
86.03342771854818
 30
0.0
 11
-28.44287273283999
 21
86.03342771854818
 31
0.0
  0
LINE
  5
B1
330
1F
100
AcDbEntity
  8
0
  6
CENTER
 62
     7
100
AcDbLine
 10
-28.44287273283999
 20
99.03342771854818
 30
0.0
 11
-104.46010425624
 21
99.03342771854818
 31
0.0
  0
LINE
  5
B2
330
1F
100
AcDbEntity
  8
0
  6
CENTER
 62
     7
100
AcDbLine
 10
-174.46010425624
 20
89.88342771854815
 30
0.0
 11
-173.46010425624
 21
89.88342771854815
 31
0.0
  0
LINE
  5
B3
330
1F
100
AcDbEntity
  8
0
  6
CENTER
 62
     7
100
AcDbLine
 10
-173.46010425624
 20
95.18342771854816
 30
0.0
 11
-174.46010425624
 21
95.18342771854816
 31
0.0
  0
LINE
  5
B4
330
1F
100
AcDbEntity
  8
0
  6
CENTER
 62
     7
100
AcDbLine
 10
-173.46010425624
 20
89.38342771854815
 30
0.0
 11
-139.46010425624
 21
89.38342771854815
 31
0.0
  0
LINE
  5
B5
330
1F
100
AcDbEntity
  8
0
  6
CENTER
 62
     7
100
AcDbLine
 10
-139.46010425624
 20
95.68342771854816
 30
0.0
 11
-173.46010425624
 21
95.68342771854816
 31
0.0
  0
LINE
  5
B6
330
1F
100
AcDbEntity
  8
0
  6
CENTER
 62
     7
100
AcDbLine
 10
-139.46010425624
 20
89.38342771854815
 30
0.0
 11
-104.46010425624
 21
86.03342771854818
 31
0.0
  0
LINE
  5
B7
330
1F
100
AcDbEntity
  8
0
  6
CENTER
 62
     7
100
AcDbLine
 10
-104.46010425624
 20
99.03342771854818
 30
0.0
 11
-139.46010425624
 21
95.68342771854816
 31
0.0
  0
LINE
  5
B8
330
1F
100
AcDbEntity
  8
0
  6
CENTER
 62
     7
100
AcDbLine
 10
-173.46010425624
 20
95.66046067194816
 30
0.0
 11
-173.46010425624
 21
89.40639476514815
 31
0.0
  0
LINE
  5
B9
330
1F
100
AcDbEntity
  8
0
  6
CENTER
 62
     7
100
AcDbLine
 10
-174.46010425624
 20
95.66046067194816
 30
0.0
 11
-174.46010425624
 21
89.40639476514815
 31
0.0
  0
ARC
  5
BA
330
1F
100
AcDbEntity
  8
0
  6
CENTER
 62
     7
100
AcDbCircle
 10
-181.31010425624
 20
92.53342771854818
 30
0.0
 40
3.150000000000091
100
AcDbArc
 50
180.0
 51
270.0
  0
ARC
  5
BB
330
1F
100
AcDbEntity
  8
0
  6
CENTER
 62
     7
100
AcDbCircle
 10
-181.31010425624
 20
92.53342771854818
 30
0.0
 40
3.150000000000091
100
AcDbArc
 50
90.0
 51
180.0
  0
LINE
  5
BC
330
1F
100
AcDbEntity
  8
0
  6
CENTER
 62
     7
100
AcDbLine
 10
133.78041600616
 20
42.53343023094817
 30
0.0
 11
8.492702086159966
 21
42.53343023094817
 31
0.0
  0
LINE
  5
BD
330
1F
100
AcDbEntity
  8
0
  6
CENTER
 62
     7
100
AcDbLine
 10
-221.45013430324
 20
42.53343023094817
 30
0.0
 11
-258.14241844124
 21
42.53343023094817
 31
0.0
  0
LINE
  5
BE
330
1F
100
AcDbEntity
  8
0
  6
CENTER
 62
     7
100
AcDbLine
 10
-240.17370649844
 20
112.4320315150482
 30
0.0
 11
-240.17370649844
 21
-30.19770030845183
 31
0.0
  0
LINE
  5
BF
330
1F
100
AcDbEntity
  8
0
  6
CENTER
 62
     7
100
AcDbLine
 10
136.91880143756
 20
-187.4665697690518
 30
0.0
 11
-9.708385462240017
 21
-187.4665697690518
 31
0.0
  0
LINE
  5
C0
330
1F
100
AcDbEntity
  8
0
  6
CONTINUOUS
 62
     7
100
AcDbLine
 10
4.007176731760012
 20
98.78343097594814
 30
0.0
 11
11.50717702975999
 21
98.78343097594814
 31
0.0
  0
LINE
  5
C1
330
1F
100
AcDbEntity
  8
0
  6
CONTINUOUS
 62
     7
100
AcDbLine
 10
-233.67370628984
 20
175.0334230783482
 30
0.0
 11
-237.02370641984
 21
210.0334344031482
 31
0.0
  0
LINE
  5
C2
330
1F
100
AcDbEntity
  8
0
  6
CONTINUOUS
 62
     7
100
AcDbLine
 10
-243.32370642804
 20
210.0334344031482
 30
0.0
 11
-246.67370655804
 21
175.0334230783482
 31
0.0
  0
LINE
  5
C3
330
1F
100
AcDbEntity
  8
0
  6
CONTINUOUS
 62
     7
100
AcDbLine
 10
-233.67370628984
 20
85.03343067794816
 30
0.0
 11
-233.67370628984
 21
175.0334230783482
 31
0.0
  0
LINE
  5
C4
330
1F
100
AcDbEntity
  8
0
  6
CONTINUOUS
 62
     7
100
AcDbLine
 10
-246.67370655804
 20
175.0334230783482
 30
0.0
 11
-246.67370655804
 21
85.03343067794816
 31
0.0
  0
LINE
  5
C5
330
1F
100
AcDbEntity
  8
0
  6
CONTINUOUS
 62
     7
100
AcDbLine
 10
-237.02370641984
 20
210.0334344031482
 30
0.0
 11
-237.02370641984
 21
244.0334288003482
 31
0.0
  0
LINE
  5
C6
330
1F
100
AcDbEntity
  8
0
  6
CONTINUOUS
 62
     7
100
AcDbLine
 10
-243.32370642804
 20
244.0334288003482
 30
0.0
 11
-243.32370642804
 21
210.0334344031482
 31
0.0
  0
LINE
  5
C7
330
1F
100
AcDbEntity
  8
0
  6
CONTINUOUS
 62
     7
100
AcDbLine
 10
-237.02370641984
 20
245.0334308269482
 30
0.0
 11
-237.02370641984
 21
251.8834350231481
 31
0.0
  0
LINE
  5
C8
330
1F
100
AcDbEntity
  8
0
  6
CONTINUOUS
 62
     7
100
AcDbLine
 10
-243.32370642804
 20
251.8834350231481
 30
0.0
 11
-243.32370642804
 21
245.0334308269482
 31
0.0
  0
LINE
  5
C9
330
1F
100
AcDbEntity
  8
0
  6
CONTINUOUS
 62
     7
100
AcDbLine
 10
-237.52370650164
 20
244.0334288003482
 30
0.0
 11
-237.52370650164
 21
245.0334308269482
 31
0.0
  0
LINE
  5
CA
330
1F
100
AcDbEntity
  8
0
  6
CONTINUOUS
 62
     7
100
AcDbLine
 10
-242.82370634604
 20
245.0334308269482
 30
0.0
 11
-242.82370634604
 21
244.0334288003482
 31
0.0
  0
LINE
  5
CB
330
1F
100
AcDbEntity
  8
0
  6
CONTINUOUS
 62
     7
100
AcDbLine
 10
-253.92370634944
 20
-20.46657078245181
 30
0.0
 11
-253.92370634944
 21
105.5334312441482
 31
0.0
  0
LINE
  5
CC
330
1F
100
AcDbEntity
  8
0
  6
CONTINUOUS
 62
     7
100
AcDbLine
 10
-253.92370634944
 20
-22.16656975725186
 30
0.0
 11
-253.92370634944
 21
-20.46657078245181
 31
0.0
  0
LINE
  5
CD
330
1F
100
AcDbEntity
  8
0
  6
CONTINUOUS
 62
     7
100
AcDbLine
 10
-226.42370642384
 20
107.2334302309482
 30
0.0
 11
-226.42370642384
 21
105.5334312441482
 31
0.0
  0
LINE
  5
CE
330
1F
100
AcDbEntity
  8
0
  6
CONTINUOUS
 62
     7
100
AcDbLine
 10
-226.42370642384
 20
-20.46657078245181
 30
0.0
 11
-226.42370642384
 21
-22.16656975725186
 31
0.0
  0
LINE
  5
CF
330
1F
100
AcDbEntity
  8
0
  6
CONTINUOUS
 62
     7
100
AcDbLine
 10
-253.92370634944
 20
105.5334312441482
 30
0.0
 11
-253.92370634944
 21
107.2334302189482
 31
0.0
  0
LINE
  5
D0
330
1F
100
AcDbEntity
  8
0
  6
CONTINUOUS
 62
     7
100
AcDbLine
 10
-226.42370642384
 20
105.5334312441482
 30
0.0
 11
-226.42370642384
 21
-20.46657078245181
 31
0.0
  0
LINE
  5
D1
330
1F
100
AcDbEntity
  8
0
  6
CONTINUOUS
 62
     7
100
AcDbLine
 10
-226.72370638664
 20
-22.46656973185185
 30
0.0
 11
-253.62370638664
 21
-22.46656973185185
 31
0.0
  0
LINE
  5
D2
330
1F
100
AcDbEntity
  8
0
  6
CONTINUOUS
 62
     7
100
AcDbLine
 10
-236.52370633784
 20
76.53343207864816
 30
0.0
 11
-235.32370628084
 21
76.53343207864816
 31
0.0
  0
LINE
  5
D3
330
1F
100
AcDbEntity
  8
0
  6
CONTINUOUS
 62
     7
100
AcDbLine
 10
-236.52370642384
 20
71.53343023104816
 30
0.0
 11
-235.32370628084
 21
71.53342939664816
 31
0.0
  0
LINE
  5
D4
330
1F
100
AcDbEntity
  8
0
  6
CONTINUOUS
 62
     7
100
AcDbLine
 10
-243.42370653934
 20
70.48343011544819
 30
0.0
 11
-243.42370653934
 21
77.58343011544815
 31
0.0
  0
LINE
  5
D5
330
1F
100
AcDbEntity
  8
0
  6
CONTINUOUS
 62
     7
100
AcDbLine
 10
-235.32370642384
 20
77.73342838344814
 30
0.0
 11
-236.52370633784
 21
77.73343004004818
 31
0.0
  0
LINE
  5
D6
330
1F
100
AcDbEntity
  8
0
  6
CONTINUOUS
 62
     7
100
AcDbLine
 10
-235.32370642384
 20
72.73343106544814
 30
0.0
 11
-236.52370642384
 21
72.73343023104815
 31
0.0
  0
LINE
  5
D7
330
1F
100
AcDbEntity
  8
0
  6
CONTINUOUS
 62
     7
100
AcDbLine
 10
-236.52370642384
 20
66.53343023104816
 30
0.0
 11
-235.32370642384
 21
66.53343023104816
 31
0.0
  0
LINE
  5
D8
330
1F
100
AcDbEntity
  8
0
  6
CONTINUOUS
 62
     7
100
AcDbLine
 10
-248.72370680084
 20
77.58343122634818
 30
0.0
 11
-248.72370680084
 21
70.48343024874816
 31
0.0
  0
LINE
  5
D9
330
1F
100
AcDbEntity
  8
0
  6
CONTINUOUS
 62
     7
100
AcDbLine
 10
-235.32370628084
 20
67.73343047224819
 30
0.0
 11
-236.52370642384
 21
67.73343023104815
 31
0.0
  0
LINE
  5
DA
330
1F
100
AcDbEntity
  8
0
  6
CONTINUOUS
 62
     7
100
AcDbLine
 10
-235.32370620934
 20
82.73342987534818
 30
0.0
 11
-236.52370642384
 21
82.73343001634817
 31
0.0
  0
LINE
  5
DB
330
1F
100
AcDbEntity
  8
0
  6
CONTINUOUS
 62
     7
100
AcDbLine
 10
-247.72370675254
 20
69.48342996944814
 30
0.0
 11
-244.42370653934
 21
69.48343011544819
 31
0.0
  0
LINE
  5
DC
330
1F
100
AcDbEntity
  8
0
  6
CONTINUOUS
 62
     7
100
AcDbLine
 10
-244.42370661224
 20
78.58343041954816
 30
0.0
 11
-247.72370661224
 21
78.58343041954816
 31
0.0
  0
LINE
  5
DD
330
1F
100
AcDbEntity
  8
0
  6
CONTINUOUS
 62
     7
100
AcDbLine
 10
-236.52370642384
 20
81.53343001634818
 30
0.0
 11
-235.32370642384
 21
81.53343001634818
 31
0.0
  0
LINE
  5
DE
330
1F
100
AcDbEntity
  8
0
  6
CONTINUOUS
 62
     7
100
AcDbLine
 10
-253.62370638664
 20
107.5334301937482
 30
0.0
 11
-246.67370652084
 21
107.5334278095482
 31
0.0
  0
LINE
  5
DF
330
1F
100
AcDbEntity
  8
0
  6
CONTINUOUS
 62
     7
100
AcDbLine
 10
-233.67370628984
 20
107.5334210253482
 30
0.0
 11
-226.72370642384
 21
107.5334302309482
 31
0.0
  0
LINE
  5
E0
330
1F
100
AcDbEntity
  8
0
  6
CONTINUOUS
 62
     7
100
AcDbLine
 10
4.997176388959986
 20
-132.6665696200518
 30
0.0
 11
5.75717693275999
 21
-132.6665682370518
 31
0.0
  0
LINE
  5
E1
330
1F
100
AcDbEntity
  8
0
  6
CONTINUOUS
 62
     7
100
AcDbLine
 10
4.757176388959977
 20
-137.4665690240518
 30
0.0
 11
4.757176388959977
 21
-142.0265696200518
 31
0.0
  0
LINE
  5
E2
330
1F
100
AcDbEntity
  8
0
  6
CONTINUOUS
 62
     7
100
AcDbLine
 10
5.75717693275999
 20
-142.2665698106518
 30
0.0
 11
4.997176388959986
 21
-142.2665696200518
 31
0.0
  0
LINE
  5
E3
330
1F
100
AcDbEntity
  8
0
  6
CONTINUOUS
 62
     7
100
AcDbLine
 10
4.757176388959977
 20
-132.9065696200518
 30
0.0
 11
4.757176388959977
 21
-137.4665690240518
 31
0.0
  0
LINE
  5
E4
330
1F
100
AcDbEntity
  8
0
  6
CONTINUOUS
 62
     7
100
AcDbLine
 10
-233.67370628984
 20
85.03343067794816
 30
0.0
 11
-246.67370655804
 21
85.03343067794816
 31
0.0
  0
LINE
  5
E5
330
1F
100
AcDbEntity
  8
0
  6
CONTINUOUS
 62
     7
100
AcDbLine
 10
-237.02370641984
 20
244.0334288003482
 30
0.0
 11
-243.32370642804
 21
244.0334288003482
 31
0.0
  0
LINE
  5
E6
330
1F
100
AcDbEntity
  8
0
  6
CONTINUOUS
 62
     7
100
AcDbLine
 10
-237.02370641984
 20
245.0334308269482
 30
0.0
 11
-243.32370642804
 21
245.0334308269482
 31
0.0
  0
LINE
  5
E7
330
1F
100
AcDbEntity
  8
0
  6
CONTINUOUS
 62
     7
100
AcDbLine
 10
-236.52370633784
 20
82.68803260954815
 30
0.0
 11
-235.32370628084
 21
82.68803260954815
 31
0.0
  0
LINE
  5
E8
330
1F
100
AcDbEntity
  8
0
  6
CONTINUOUS
 62
     7
100
AcDbLine
 10
-235.32370628084
 20
66.57882682714819
 30
0.0
 11
-236.52370642384
 21
66.57882728214815
 31
0.0
  0
LINE
  5
E9
330
1F
100
AcDbEntity
  8
0
  6
CONTINUOUS
 62
     7
100
AcDbLine
 10
-236.52370642384
 20
67.68803317994815
 30
0.0
 11
-235.32370628084
 21
67.68803387614815
 31
0.0
  0
LINE
  5
EA
330
1F
100
AcDbEntity
  8
0
  6
CONTINUOUS
 62
     7
100
AcDbLine
 10
-235.32370642384
 20
81.57882728214815
 30
0.0
 11
-236.52370633784
 21
81.57882742314814
 31
0.0
  0
LINE
  5
EB
330
1F
100
AcDbEntity
  8
0
  6
CONTINUOUS
 62
     7
100
AcDbLine
 10
-235.32370642384
 20
71.57882728214815
 30
0.0
 11
-236.52370642384
 21
71.57882728214815
 31
0.0
  0
LINE
  5
EC
330
1F
100
AcDbEntity
  8
0
  6
CONTINUOUS
 62
     7
100
AcDbLine
 10
-235.32370642384
 20
76.57882728214815
 30
0.0
 11
-236.52370633784
 21
76.57882846614814
 31
0.0
  0
LINE
  5
ED
330
1F
100
AcDbEntity
  8
0
  6
CONTINUOUS
 62
     7
100
AcDbLine
 10
-236.52370633784
 20
77.68803365254814
 30
0.0
 11
-235.32370642384
 21
77.68803317994815
 31
0.0
  0
LINE
  5
EE
330
1F
100
AcDbEntity
  8
0
  6
CONTINUOUS
 62
     7
100
AcDbLine
 10
-236.52370642384
 20
72.68803317994815
 30
0.0
 11
-235.32370642384
 21
72.68803317994815
 31
0.0
  0
LINE
  5
EF
330
1F
100
AcDbEntity
  8
0
  6
CONTINUOUS
 62
     7
100
AcDbLine
 10
-247.62370634124
 20
76.96843050154814
 30
0.0
 11
-246.26370623004
 21
76.96843050154814
 31
0.0
  0
LINE
  5
F0
330
1F
100
AcDbEntity
  8
0
  6
CONTINUOUS
 62
     7
100
AcDbLine
 10
-246.26370623004
 20
71.09843097354815
 30
0.0
 11
-247.62370634124
 21
71.09843097354815
 31
0.0
  0
LINE
  5
F1
330
1F
100
AcDbEntity
  8
0
  6
CONTINUOUS
 62
     7
100
AcDbLine
 10
-244.52370648504
 20
70.58343007894814
 30
0.0
 11
-245.74370646144
 21
70.58343007894814
 31
0.0
  0
LINE
  5
F2
330
1F
100
AcDbEntity
  8
0
  6
CONTINUOUS
 62
     7
100
AcDbLine
 10
-244.52370648504
 20
70.58343007894814
 30
0.0
 11
-244.52370648504
 21
77.48342953354819
 31
0.0
  0
LINE
  5
F3
330
1F
100
AcDbEntity
  8
0
  6
CONTINUOUS
 62
     7
100
AcDbLine
 10
-245.74370646144
 20
77.48342953354819
 30
0.0
 11
-244.52370648504
 21
77.48342953354819
 31
0.0
  0
LINE
  5
F4
330
1F
100
AcDbEntity
  8
0
  6
CONTINUOUS
 62
     7
100
AcDbLine
 10
-246.26370623004
 20
76.96843050154814
 30
0.0
 11
-245.74370646144
 21
77.48342953354819
 31
0.0
  0
LINE
  5
F5
330
1F
100
AcDbEntity
  8
0
  6
CONTINUOUS
 62
     7
100
AcDbLine
 10
-246.42826115004
 20
77.36842982194815
 30
0.0
 11
-245.90826091584
 21
77.88342885414818
 31
0.0
  0
LINE
  5
F6
330
1F
100
AcDbEntity
  8
0
  6
CONTINUOUS
 62
     7
100
AcDbLine
 10
-245.90826091584
 20
77.88342885414818
 30
0.0
 11
-244.12370623304
 21
77.88342885414818
 31
0.0
  0
LINE
  5
F7
330
1F
100
AcDbEntity
  8
0
  6
CONTINUOUS
 62
     7
100
AcDbLine
 10
-244.12370623304
 20
77.88342885414818
 30
0.0
 11
-244.12370623304
 21
70.18343075834815
 31
0.0
  0
LINE
  5
F8
330
1F
100
AcDbEntity
  8
0
  6
CONTINUOUS
 62
     7
100
AcDbLine
 10
-244.12370623304
 20
70.18343075834815
 30
0.0
 11
-245.90826091584
 21
70.18343075834815
 31
0.0
  0
LINE
  5
F9
330
1F
100
AcDbEntity
  8
0
  6
CONTINUOUS
 62
     7
100
AcDbLine
 10
-245.90826091584
 20
70.18343075834815
 30
0.0
 11
-246.42826115004
 21
70.69842979034814
 31
0.0
  0
LINE
  5
FA
330
1F
100
AcDbEntity
  8
0
  6
CONTINUOUS
 62
     7
100
AcDbLine
 10
-246.42826115004
 20
70.69842979034814
 30
0.0
 11
-248.02370612724
 21
70.69842979034814
 31
0.0
  0
LINE
  5
FB
330
1F
100
AcDbEntity
  8
0
  6
CONTINUOUS
 62
     7
100
AcDbLine
 10
-248.02370612724
 20
77.36842982194815
 30
0.0
 11
-246.42826115004
 21
77.36842982194815
 31
0.0
  0
LINE
  5
FC
330
1F
100
AcDbEntity
  8
0
  6
CONTINUOUS
 62
     7
100
AcDbLine
 10
-248.02370612724
 20
70.69842979034814
 30
0.0
 11
-248.02370612724
 21
77.36842982194815
 31
0.0
  0
LINE
  5
FD
330
1F
100
AcDbEntity
  8
0
  6
CONTINUOUS
 62
     7
100
AcDbLine
 10
-247.62370634124
 20
76.96843050154814
 30
0.0
 11
-247.62370634124
 21
71.09843097354815
 31
0.0
  0
LINE
  5
FE
330
1F
100
AcDbEntity
  8
0
  6
CONTINUOUS
 62
     7
100
AcDbLine
 10
-245.74370646144
 20
70.58343007894814
 30
0.0
 11
-246.26370623004
 21
71.09843097354815
 31
0.0
  0
LINE
  5
FF
330
1F
100
AcDbEntity
  8
0
  6
CONTINUOUS
 62
     7
100
AcDbLine
 10
-232.17641153604
 20
61.33342995974817
 30
0.0
 11
-235.87100171704
 21
61.33342995974817
 31
0.0
  0
LINE
  5
100
330
1F
100
AcDbEntity
  8
0
  6
CONTINUOUS
 62
     7
100
AcDbLine
 10
-235.58975254404
 20
56.53343066314818
 30
0.0
 11
-232.45766024324
 21
56.53343066314818
 31
0.0
  0
LINE
  5
101
330
1F
100
AcDbEntity
  8
0
  6
CONTINUOUS
 62
     7
100
AcDbLine
 10
-236.02370648864
 20
59.03343014154814
 30
0.0
 11
-236.02370648864
 21
56.86490513114819
 31
0.0
  0
LINE
  5
102
330
1F
100
AcDbEntity
  8
0
  6
CONTINUOUS
 62
     7
100
AcDbLine
 10
-232.02370629864
 20
56.86490513114819
 30
0.0
 11
-232.02370629864
 21
59.03343014154814
 31
0.0
  0
LINE
  5
103
330
1F
100
AcDbEntity
  8
0
  6
CONTINUOUS
 62
     7
100
AcDbLine
 10
-236.02370648864
 20
61.20195515194814
 30
0.0
 11
-236.02370648864
 21
59.03343014154814
 31
0.0
  0
LINE
  5
104
330
1F
100
AcDbEntity
  8
0
  6
CONTINUOUS
 62
     7
100
AcDbLine
 10
-232.02370629864
 20
59.03343014154814
 30
0.0
 11
-232.02370629864
 21
61.20195515194814
 31
0.0
  0
LINE
  5
105
330
1F
100
AcDbEntity
  8
0
  6
CONTINUOUS
 62
     7
100
AcDbLine
 10
-15.44282574784
 20
98.03343094604816
 30
0.0
 11
-15.44282574784
 21
175.0334230783482
 31
0.0
  0
LINE
  5
106
330
1F
100
AcDbEntity
  8
0
  6
CONTINUOUS
 62
     7
100
AcDbLine
 10
-28.44282229064004
 20
175.0334230783482
 30
0.0
 11
-28.44282229064004
 21
85.03343067794816
 31
0.0
  0
LINE
  5
107
330
1F
100
AcDbEntity
  8
0
  6
CONTINUOUS
 62
     7
100
AcDbLine
 10
-15.44282574784
 20
175.0334230783482
 30
0.0
 11
-18.79282285104
 21
210.0334344031482
 31
0.0
  0
LINE
  5
108
330
1F
100
AcDbEntity
  8
0
  6
CONTINUOUS
 62
     7
100
AcDbLine
 10
-25.09282518743998
 20
210.0334344031482
 30
0.0
 11
-28.44282229064004
 21
175.0334230783482
 31
0.0
  0
LINE
  5
109
330
1F
100
AcDbEntity
  8
0
  6
CONTINUOUS
 62
     7
100
AcDbLine
 10
-16.44282404903998
 20
97.03342891944817
 30
0.0
 11
-15.44282574784
 21
98.03343094604816
 31
0.0
  0
LINE
  5
10A
330
1F
100
AcDbEntity
  8
0
  6
CONTINUOUS
 62
     7
100
AcDbLine
 10
-18.79282285104
 20
210.0334344031482
 30
0.0
 11
-18.79282285104
 21
244.0334288003482
 31
0.0
  0
LINE
  5
10B
330
1F
100
AcDbEntity
  8
0
  6
CONTINUOUS
 62
     7
100
AcDbLine
 10
-25.09282518743998
 20
244.0334288003482
 30
0.0
 11
-25.09282518743998
 21
210.0334344031482
 31
0.0
  0
LINE
  5
10C
330
1F
100
AcDbEntity
  8
0
  6
CONTINUOUS
 62
     7
100
AcDbLine
 10
-18.79282285104
 20
245.0334308269482
 30
0.0
 11
-18.79282285104
 21
251.8834350231481
 31
0.0
  0
LINE
  5
10D
330
1F
100
AcDbEntity
  8
0
  6
CONTINUOUS
 62
     7
100
AcDbLine
 10
-25.09282518743998
 20
251.8834350231481
 30
0.0
 11
-25.09282518743998
 21
245.0334308269482
 31
0.0
  0
LINE
  5
10E
330
1F
100
AcDbEntity
  8
0
  6
CONTINUOUS
 62
     7
100
AcDbLine
 10
-19.29282386424001
 20
244.0334288003482
 30
0.0
 11
-19.29282386424001
 21
245.0334308269482
 31
0.0
  0
LINE
  5
10F
330
1F
100
AcDbEntity
  8
0
  6
CONTINUOUS
 62
     7
100
AcDbLine
 10
-24.59282417424004
 20
245.0334308269482
 30
0.0
 11
-24.59282417424004
 21
244.0334288003482
 31
0.0
  0
LINE
  5
110
330
1F
100
AcDbEntity
  8
0
  6
CONTINUOUS
 62
     7
100
AcDbLine
 10
2.557177709359962
 20
99.03343023094817
 30
0.0
 11
-14.24282406103998
 21
99.03342924734818
 31
0.0
  0
LINE
  5
111
330
1F
100
AcDbEntity
  8
0
  6
CONTINUOUS
 62
     7
100
AcDbLine
 10
-14.24282294334
 20
86.03342911324819
 30
0.0
 11
2.557177709259975
 21
86.03343023084818
 31
0.0
  0
LINE
  5
112
330
1F
100
AcDbEntity
  8
0
  6
CONTINUOUS
 62
     7
100
AcDbLine
 10
4.007176731760012
 20
98.53343195954818
 30
0.0
 11
3.057179276959971
 21
98.53343195954818
 31
0.0
  0
LINE
  5
113
330
1F
100
AcDbEntity
  8
0
  6
CONTINUOUS
 62
     7
100
AcDbLine
 10
12.45717770936
 20
98.53343023094817
 30
0.0
 11
11.50717702975999
 21
98.53343195954818
 31
0.0
  0
LINE
  5
114
330
1F
100
AcDbEntity
  8
0
  6
CONTINUOUS
 62
     7
100
AcDbLine
 10
11.50717702975999
 20
86.53342999254818
 30
0.0
 11
12.45717770936
 21
86.53343023094817
 31
0.0
  0
LINE
  5
115
330
1F
100
AcDbEntity
  8
0
  6
CONTINUOUS
 62
     7
100
AcDbLine
 10
3.057179276959971
 20
86.53342999254818
 30
0.0
 11
4.007176731760012
 21
86.53342999254818
 31
0.0
  0
LINE
  5
116
330
1F
100
AcDbEntity
  8
0
  6
CONTINUOUS
 62
     7
100
AcDbLine
 10
15.69991302986
 20
87.91462979954815
 30
0.0
 11
16.05717767855998
 21
88.53343032294816
 31
0.0
  0
LINE
  5
117
330
1F
100
AcDbEntity
  8
0
  6
CONTINUOUS
 62
     7
100
AcDbLine
 10
16.05717767855998
 20
96.53343162944816
 30
0.0
 11
15.69991302995999
 21
97.15223215264814
 31
0.0
  0
LINE
  5
118
330
1F
100
AcDbEntity
  8
0
  6
CONTINUOUS
 62
     7
100
AcDbLine
 10
14.25717701505999
 20
88.53343032054818
 30
0.0
 11
14.61444353045999
 21
87.91462979954815
 31
0.0
  0
LINE
  5
119
330
1F
100
AcDbEntity
  8
0
  6
CONTINUOUS
 62
     7
100
AcDbLine
 10
14.61444353055998
 20
97.15223215274818
 30
0.0
 11
14.25717701505999
 21
96.53343163174816
 31
0.0
  0
LINE
  5
11A
330
1F
100
AcDbEntity
  8
0
  6
CONTINUOUS
 62
     7
100
AcDbLine
 10
16.55717683335996
 20
97.63343162564814
 30
0.0
 11
16.05717768275997
 21
97.63343162564814
 31
0.0
  0
LINE
  5
11B
330
1F
100
AcDbEntity
  8
0
  6
CONTINUOUS
 62
     7
100
AcDbLine
 10
16.05717768275997
 20
87.43343032624819
 30
0.0
 11
16.55717683335996
 21
87.43343032624819
 31
0.0
  0
LINE
  5
11C
330
1F
100
AcDbEntity
  8
0
  6
CONTINUOUS
 62
     7
100
AcDbLine
 10
14.15717718475997
 20
89.35842938454817
 30
0.0
 11
14.25717701496001
 21
89.50128681694815
 31
0.0
  0
LINE
  5
11D
330
1F
100
AcDbEntity
  8
0
  6
CONTINUOUS
 62
     7
100
AcDbLine
 10
14.25717701496001
 20
95.56557140974815
 30
0.0
 11
14.15717718475997
 21
95.70842884214818
 31
0.0
  0
LINE
  5
11E
330
1F
100
AcDbEntity
  8
0
  6
CONTINUOUS
 62
     7
100
AcDbLine
 10
14.15717718475997
 20
95.70842884214818
 30
0.0
 11
13.80717684816
 21
95.20843155414815
 31
0.0
  0
LINE
  5
11F
330
1F
100
AcDbEntity
  8
0
  6
CONTINUOUS
 62
     7
100
AcDbLine
 10
13.80717684816
 20
89.85843039774818
 30
0.0
 11
14.15717718475997
 21
89.35842938454817
 31
0.0
  0
LINE
  5
120
330
1F
100
AcDbEntity
  8
0
  6
CONTINUOUS
 62
     7
100
AcDbLine
 10
13.45717837396001
 20
89.35842938454817
 30
0.0
 11
13.80717684816
 21
89.85843039774818
 31
0.0
  0
LINE
  5
121
330
1F
100
AcDbEntity
  8
0
  6
CONTINUOUS
 62
     7
100
AcDbLine
 10
13.80717684816
 20
95.20843155414815
 30
0.0
 11
13.45717837396001
 21
95.70842884214818
 31
0.0
  0
LINE
  5
122
330
1F
100
AcDbEntity
  8
0
  6
CONTINUOUS
 62
     7
100
AcDbLine
 10
13.45717837396001
 20
95.70842884214818
 30
0.0
 11
13.10717803716
 21
95.20843155414815
 31
0.0
  0
LINE
  5
123
330
1F
100
AcDbEntity
  8
0
  6
CONTINUOUS
 62
     7
100
AcDbLine
 10
13.10717803716
 20
89.85843039774818
 30
0.0
 11
13.45717837396001
 21
89.35842938454817
 31
0.0
  0
LINE
  5
124
330
1F
100
AcDbEntity
  8
0
  6
CONTINUOUS
 62
     7
100
AcDbLine
 10
12.75717770035999
 20
89.35842938454817
 30
0.0
 11
13.10717803716
 21
89.85843039774818
 31
0.0
  0
LINE
  5
125
330
1F
100
AcDbEntity
  8
0
  6
CONTINUOUS
 62
     7
100
AcDbLine
 10
13.10717803716
 20
95.20843155414815
 30
0.0
 11
12.75717770035999
 21
95.70842884214818
 31
0.0
  0
LINE
  5
126
330
1F
100
AcDbEntity
  8
0
  6
CONTINUOUS
 62
     7
100
AcDbLine
 10
16.55717770935996
 20
-20.46656976905183
 30
0.0
 11
16.55717770935996
 21
105.5334312441482
 31
0.0
  0
LINE
  5
127
330
1F
100
AcDbEntity
  8
0
  6
CONTINUOUS
 62
     7
100
AcDbLine
 10
-16.89901564844001
 20
98.03343094604816
 30
0.0
 11
-15.44282574784
 21
98.03343094604816
 31
0.0
  0
LINE
  5
128
330
1F
100
AcDbEntity
  8
0
  6
CONTINUOUS
 62
     7
100
AcDbLine
 10
-16.89901564844001
 20
86.98275588184816
 30
0.0
 11
-16.89901564844001
 21
98.03343094604816
 31
0.0
  0
LINE
  5
129
330
1F
100
AcDbEntity
  8
0
  6
CONTINUOUS
 62
     7
100
AcDbLine
 10
-21.94282401923999
 20
85.03343067794816
 30
0.0
 11
-28.44282229064004
 21
85.03343067794816
 31
0.0
  0
LINE
  5
12A
330
1F
100
AcDbEntity
  8
0
  6
CONTINUOUS
 62
     7
100
AcDbLine
 10
-16.44282404903998
 20
97.03342891944817
 30
0.0
 11
-16.89901564844001
 21
97.03342891944817
 31
0.0
  0
LINE
  5
12B
330
1F
100
AcDbEntity
  8
0
  6
CONTINUOUS
 62
     7
100
AcDbLine
 10
-21.94282401923999
 20
244.0334288003482
 30
0.0
 11
-25.09282518743998
 21
244.0334288003482
 31
0.0
  0
LINE
  5
12C
330
1F
100
AcDbEntity
  8
0
  6
CONTINUOUS
 62
     7
100
AcDbLine
 10
-18.79282285104
 20
244.0334288003482
 30
0.0
 11
-21.94282401923999
 21
244.0334288003482
 31
0.0
  0
LINE
  5
12D
330
1F
100
AcDbEntity
  8
0
  6
CONTINUOUS
 62
     7
100
AcDbLine
 10
-21.94282401923999
 20
245.0334308269482
 30
0.0
 11
-25.09282518743998
 21
245.0334308269482
 31
0.0
  0
LINE
  5
12E
330
1F
100
AcDbEntity
  8
0
  6
CONTINUOUS
 62
     7
100
AcDbLine
 10
-18.79282285104
 20
245.0334308269482
 30
0.0
 11
-21.94282401923999
 21
245.0334308269482
 31
0.0
  0
LINE
  5
12F
330
1F
100
AcDbEntity
  8
0
  6
CONTINUOUS
 62
     7
100
AcDbLine
 10
2.757177923860013
 20
92.53343097584815
 30
0.0
 11
2.757177709259963
 21
86.23343023084817
 31
0.0
  0
LINE
  5
130
330
1F
100
AcDbEntity
  8
0
  6
CONTINUOUS
 62
     7
100
AcDbLine
 10
2.757177709259963
 20
98.83343023084814
 30
0.0
 11
2.757177923860013
 21
92.53343097584815
 31
0.0
  0
LINE
  5
131
330
1F
100
AcDbEntity
  8
0
  6
CONTINUOUS
 62
     7
100
AcDbLine
 10
-14.44282386124002
 20
86.23342973914816
 30
0.0
 11
-14.44282386124002
 21
98.83342973914819
 31
0.0
  0
LINE
  5
132
330
1F
100
AcDbEntity
  8
0
  6
CONTINUOUS
 62
     7
100
AcDbLine
 10
12.75717770936001
 20
92.53343097594814
 30
0.0
 11
12.75717770936001
 21
86.83343023094818
 31
0.0
  0
LINE
  5
133
330
1F
100
AcDbEntity
  8
0
  6
CONTINUOUS
 62
     7
100
AcDbLine
 10
12.75717770936001
 20
98.23343023094816
 30
0.0
 11
12.75717770936001
 21
92.53343097594814
 31
0.0
  0
LINE
  5
134
330
1F
100
AcDbEntity
  8
0
  6
CONTINUOUS
 62
     7
100
AcDbLine
 10
-14.44282372124002
 20
88.53343032034815
 30
0.0
 11
-16.89901564844001
 21
88.53343032034815
 31
0.0
  0
LINE
  5
135
330
1F
100
AcDbEntity
  8
0
  6
CONTINUOUS
 62
     7
100
AcDbLine
 10
-16.89901564844001
 20
96.53343163154818
 30
0.0
 11
-14.44282372124002
 21
96.53343163154818
 31
0.0
  0
LINE
  5
136
330
1F
100
AcDbEntity
  8
0
  6
CONTINUOUS
 62
     7
100
AcDbLine
 10
4.007176731760012
 20
86.28342948594815
 30
0.0
 11
4.007176731760012
 21
98.78343097594814
 31
0.0
  0
LINE
  5
137
330
1F
100
AcDbEntity
  8
0
  6
CONTINUOUS
 62
     7
100
AcDbLine
 10
11.50717702975999
 20
86.28342948594815
 30
0.0
 11
11.50717702975999
 21
98.78343097594814
 31
0.0
  0
LINE
  5
138
330
1F
100
AcDbEntity
  8
0
  6
CONTINUOUS
 62
     7
100
AcDbLine
 10
4.007176731760012
 20
86.28342948594815
 30
0.0
 11
11.50717702975999
 21
86.28342948594815
 31
0.0
  0
LINE
  5
139
330
1F
100
AcDbEntity
  8
0
  6
CONTINUOUS
 62
     7
100
AcDbLine
 10
15.69991302986
 20
90.22403038784819
 30
0.0
 11
16.05717768265998
 21
89.06932823104819
 31
0.0
  0
LINE
  5
13A
330
1F
100
AcDbEntity
  8
0
  6
CONTINUOUS
 62
     7
100
AcDbLine
 10
14.25717701505999
 20
92.53343097614817
 30
0.0
 11
14.25717701505999
 21
95.99752999594818
 31
0.0
  0
LINE
  5
13B
330
1F
100
AcDbEntity
  8
0
  6
CONTINUOUS
 62
     7
100
AcDbLine
 10
14.61444353055998
 20
94.84283156444815
 30
0.0
 11
14.25717701505999
 21
95.99752999594818
 31
0.0
  0
LINE
  5
13C
330
1F
100
AcDbEntity
  8
0
  6
CONTINUOUS
 62
     7
100
AcDbLine
 10
14.25717701505999
 20
92.53343097614817
 30
0.0
 11
14.25717701505999
 21
89.06932823114818
 31
0.0
  0
LINE
  5
13D
330
1F
100
AcDbEntity
  8
0
  6
CONTINUOUS
 62
     7
100
AcDbLine
 10
15.69991302986
 20
90.22403038784819
 30
0.0
 11
14.61444353055998
 21
90.22403038784819
 31
0.0
  0
LINE
  5
13E
330
1F
100
AcDbEntity
  8
0
  6
CONTINUOUS
 62
     7
100
AcDbLine
 10
15.69991302986
 20
87.91462979954815
 30
0.0
 11
14.61444353045999
 21
87.91462979954815
 31
0.0
  0
LINE
  5
13F
330
1F
100
AcDbEntity
  8
0
  6
CONTINUOUS
 62
     7
100
AcDbLine
 10
14.61444353045999
 20
87.91462979954815
 30
0.0
 11
14.25717701505999
 21
89.06932823114818
 31
0.0
  0
LINE
  5
140
330
1F
100
AcDbEntity
  8
0
  6
CONTINUOUS
 62
     7
100
AcDbLine
 10
15.69991302986
 20
94.84283156434816
 30
0.0
 11
14.61444353055998
 21
94.84283156444815
 31
0.0
  0
LINE
  5
141
330
1F
100
AcDbEntity
  8
0
  6
CONTINUOUS
 62
     7
100
AcDbLine
 10
15.69991302995999
 20
97.15223215264814
 30
0.0
 11
14.61444353055998
 21
97.15223215274818
 31
0.0
  0
LINE
  5
142
330
1F
100
AcDbEntity
  8
0
  6
CONTINUOUS
 62
     7
100
AcDbLine
 10
15.69991302995999
 20
97.15223215264814
 30
0.0
 11
16.05717768275997
 21
95.99752999584814
 31
0.0
  0
LINE
  5
143
330
1F
100
AcDbEntity
  8
0
  6
CONTINUOUS
 62
     7
100
AcDbLine
 10
14.25717701505999
 20
89.06932823114818
 30
0.0
 11
14.25717701505999
 21
88.53343032054818
 31
0.0
  0
LINE
  5
144
330
1F
100
AcDbEntity
  8
0
  6
CONTINUOUS
 62
     7
100
AcDbLine
 10
14.25717701505999
 20
96.53343163174816
 30
0.0
 11
14.25717701505999
 21
95.99752999594818
 31
0.0
  0
LINE
  5
145
330
1F
100
AcDbEntity
  8
0
  6
CONTINUOUS
 62
     7
100
AcDbLine
 10
16.05717768275997
 20
92.53343097604818
 30
0.0
 11
16.05717768275997
 21
97.63343162564814
 31
0.0
  0
LINE
  5
146
330
1F
100
AcDbEntity
  8
0
  6
CONTINUOUS
 62
     7
100
AcDbLine
 10
16.05717768275997
 20
87.43343032624819
 30
0.0
 11
16.05717768275997
 21
92.53343097604818
 31
0.0
  0
LINE
  5
147
330
1F
100
AcDbEntity
  8
0
  6
CONTINUOUS
 62
     7
100
AcDbLine
 10
-114.92199129254
 20
-136.4927968939518
 30
0.0
 11
-114.92199129254
 21
-140.4241131467518
 31
0.0
  0
LINE
  5
148
330
1F
100
AcDbEntity
  8
0
  6
CONTINUOUS
 62
     7
100
AcDbLine
 10
-87.92199129314002
 20
-140.4241131467518
 30
0.0
 11
-87.92199129314002
 21
-136.4927968939518
 31
0.0
  0
LINE
  5
149
330
1F
100
AcDbEntity
  8
0
  6
CONTINUOUS
 62
     7
100
AcDbLine
 10
-104.67199129284
 20
-114.4241131468518
 30
0.0
 11
-104.67199129284
 21
-119.4241131466518
 31
0.0
  0
LINE
  5
14A
330
1F
100
AcDbEntity
  8
0
  6
CONTINUOUS
 62
     7
100
AcDbLine
 10
-98.17199129284
 20
-119.4241131466518
 30
0.0
 11
-98.17199129284
 21
-114.4241131468518
 31
0.0
  0
LINE
  5
14B
330
1F
100
AcDbEntity
  8
0
  6
CONTINUOUS
 62
     7
100
AcDbLine
 10
-98.17199129284
 20
-114.4241131468518
 30
0.0
 11
-100.42199129284
 21
-104.4241131468518
 31
0.0
  0
LINE
  5
14C
330
1F
100
AcDbEntity
  8
0
  6
CONTINUOUS
 62
     7
100
AcDbLine
 10
-102.42199129284
 20
-104.4241131468518
 30
0.0
 11
-104.67199129284
 21
-114.4241131468518
 31
0.0
  0
LINE
  5
14D
330
1F
100
AcDbEntity
  8
0
  6
CONTINUOUS
 62
     7
100
AcDbLine
 10
-102.92199129284
 20
-61.92411314685182
 30
0.0
 11
-102.92199129284
 21
-70.12411314685184
 31
0.0
  0
LINE
  5
14E
330
1F
100
AcDbEntity
  8
0
  6
CONTINUOUS
 62
     7
100
AcDbLine
 10
-99.92199129284
 20
-70.12411314685184
 30
0.0
 11
-99.92199129284
 21
-61.92411314685182
 31
0.0
  0
LINE
  5
14F
330
1F
100
AcDbEntity
  8
0
  6
CONTINUOUS
 62
     7
100
AcDbLine
 10
-102.02199129284
 20
-70.42411314685182
 30
0.0
 11
-102.02199129284
 21
-104.4241131468518
 31
0.0
  0
LINE
  5
150
330
1F
100
AcDbEntity
  8
0
  6
CONTINUOUS
 62
     7
100
AcDbLine
 10
-100.82199129284
 20
-104.4241131468518
 30
0.0
 11
-100.82199129284
 21
-70.42411314685182
 31
0.0
  0
LINE
  5
151
330
1F
100
AcDbEntity
  8
0
  6
CONTINUOUS
 62
     7
100
AcDbLine
 10
-101.42199129254
 20
-140.4241131467518
 30
0.0
 11
-87.92199129314002
 21
-140.4241131467518
 31
0.0
  0
LINE
  5
152
330
1F
100
AcDbEntity
  8
0
  6
CONTINUOUS
 62
     7
100
AcDbLine
 10
-114.92199129254
 20
-140.4241131467518
 30
0.0
 11
-101.42199129254
 21
-140.4241131467518
 31
0.0
  0
LINE
  5
153
330
1F
100
AcDbEntity
  8
0
  6
CONTINUOUS
 62
     7
100
AcDbLine
 10
-101.42199129264
 20
-119.4241131466518
 30
0.0
 11
-98.17199129284
 21
-119.4241131466518
 31
0.0
  0
LINE
  5
154
330
1F
100
AcDbEntity
  8
0
  6
CONTINUOUS
 62
     7
100
AcDbLine
 10
-104.67199129284
 20
-119.4241131466518
 30
0.0
 11
-101.42199129264
 21
-119.4241131466518
 31
0.0
  0
LINE
  5
155
330
1F
100
AcDbEntity
  8
0
  6
CONTINUOUS
 62
     7
100
AcDbLine
 10
-101.42199129284
 20
-114.4241131468518
 30
0.0
 11
-98.17199129284
 21
-114.4241131468518
 31
0.0
  0
LINE
  5
156
330
1F
100
AcDbEntity
  8
0
  6
CONTINUOUS
 62
     7
100
AcDbLine
 10
-104.67199129284
 20
-114.4241131468518
 30
0.0
 11
-101.42199129284
 21
-114.4241131468518
 31
0.0
  0
LINE
  5
157
330
1F
100
AcDbEntity
  8
0
  6
CONTINUOUS
 62
     7
100
AcDbLine
 10
-101.42199129284
 20
-104.4241131468518
 30
0.0
 11
-100.42199129284
 21
-104.4241131468518
 31
0.0
  0
LINE
  5
158
330
1F
100
AcDbEntity
  8
0
  6
CONTINUOUS
 62
     7
100
AcDbLine
 10
-102.42199129284
 20
-104.4241131468518
 30
0.0
 11
-101.42199129284
 21
-104.4241131468518
 31
0.0
  0
LINE
  5
159
330
1F
100
AcDbEntity
  8
0
  6
CONTINUOUS
 62
     7
100
AcDbLine
 10
-101.42199129284
 20
-70.42411314685182
 30
0.0
 11
-102.62199129284
 21
-70.42411314685182
 31
0.0
  0
LINE
  5
15A
330
1F
100
AcDbEntity
  8
0
  6
CONTINUOUS
 62
     7
100
AcDbLine
 10
-100.22199129284
 20
-70.42411314685182
 30
0.0
 11
-101.42199129284
 21
-70.42411314685182
 31
0.0
  0
LINE
  5
15B
330
1F
100
AcDbEntity
  8
0
  6
CONTINUOUS
 62
     7
100
AcDbLine
 10
-32.97002698784001
 20
-138.9665690240518
 30
0.0
 11
4.757176388959977
 21
-138.9665690240518
 31
0.0
  0
LINE
  5
15C
330
1F
100
AcDbEntity
  8
0
  6
CONTINUOUS
 62
     7
100
AcDbLine
 10
-87.92199129284
 20
-138.9665690240518
 30
0.0
 11
-41.21257885704
 21
-138.9665690240518
 31
0.0
  0
LINE
  5
15D
330
1F
100
AcDbEntity
  8
0
  6
CONTINUOUS
 62
     7
100
AcDbLine
 10
-88.04771291084
 20
-135.9665690240518
 30
0.0
 11
-41.21257885704
 21
-135.9665690240518
 31
0.0
  0
LINE
  5
15E
330
1F
100
AcDbEntity
  8
0
  6
CONTINUOUS
 62
     7
100
AcDbLine
 10
-32.97002698784001
 20
-135.9665690240518
 30
0.0
 11
4.757176388959977
 21
-135.9665690240518
 31
0.0
  0
LINE
  5
15F
330
1F
100
AcDbEntity
  8
0
  6
CONTINUOUS
 62
     7
100
AcDbLine
 10
121.12539216136
 20
-125.8526553590518
 30
0.0
 11
120.86531168136
 21
-125.9262744590518
 31
0.0
  0
LINE
  5
160
330
1F
100
AcDbEntity
  8
0
  6
CONTINUOUS
 62
     7
100
AcDbLine
 10
13.45717837396001
 20
-140.6415706154518
 30
0.0
 11
13.80717684816
 21
-140.1415696022518
 31
0.0
  0
LINE
  5
161
330
1F
100
AcDbEntity
  8
0
  6
CONTINUOUS
 62
     7
100
AcDbLine
 10
118.81125015136
 20
-129.6429181290518
 30
0.0
 11
118.81622401136
 21
-129.5200637090518
 31
0.0
  0
LINE
  5
162
330
1F
100
AcDbEntity
  8
0
  6
CONTINUOUS
 62
     7
100
AcDbLine
 10
102.07995014136
 20
99.67550650094819
 30
0.0
 11
100.93187207136
 21
99.67550650094819
 31
0.0
  0
LINE
  5
163
330
1F
100
AcDbEntity
  8
0
  6
CONTINUOUS
 62
     7
100
AcDbLine
 10
91.68868088136003
 20
89.29500316094817
 30
0.0
 11
90.54060281135997
 21
89.29500316094817
 31
0.0
  0
LINE
  5
164
330
1F
100
AcDbEntity
  8
0
  6
CONTINUOUS
 62
     7
100
AcDbLine
 10
121.33923968136
 20
102.6514661109481
 30
0.0
 11
121.21430023136
 21
102.6035199209481
 31
0.0
  0
LINE
  5
165
330
1F
100
AcDbEntity
  8
0
  6
CONTINUOUS
 62
     7
100
AcDbLine
 10
14.25717701505999
 20
-137.4665690238518
 30
0.0
 11
14.25717701505999
 21
-134.0024700040518
 31
0.0
  0
LINE
  5
166
330
1F
100
AcDbEntity
  8
0
  6
CONTINUOUS
 62
     7
100
AcDbLine
 10
120.71441134136
 20
-247.2902362290518
 30
0.0
 11
120.60713867136
 21
-247.2921267990518
 31
0.0
  0
LINE
  5
167
330
1F
100
AcDbEntity
  8
0
  6
CONTINUOUS
 62
     7
100
AcDbLine
 10
124.69756342136
 20
-127.9518464090518
 30
0.0
 11
124.61264348136
 21
-127.6966895390518
 31
0.0
  0
LINE
  5
168
330
1F
100
AcDbEntity
  8
0
  6
CONTINUOUS
 62
     7
100
AcDbLine
 10
124.8106901513599
 20
-128.7703247990518
 30
0.0
 11
124.79773707136
 21
-128.4898143590518
 31
0.0
  0
LINE
  5
169
330
1F
100
AcDbEntity
  8
0
  6
CONTINUOUS
 62
     7
100
AcDbLine
 10
99.93193310135996
 20
-129.5243700790518
 30
0.0
 11
99.93193310135996
 21
-130.3244934990518
 31
0.0
  0
LINE
  5
16A
330
1F
100
AcDbEntity
  8
0
  6
CONTINUOUS
 62
     7
100
AcDbLine
 10
120.87564032136
 20
-127.6013275690518
 30
0.0
 11
120.77673494136
 21
-127.6880259590518
 31
0.0
  0
LINE
  5
16B
330
1F
100
AcDbEntity
  8
0
  6
CONTINUOUS
 62
     7
100
AcDbLine
 10
123.31207361136
 20
-128.7703247990518
 30
0.0
 11
123.30559700136
 21
-128.6301372390518
 31
0.0
  0
LINE
  5
16C
330
1F
100
AcDbEntity
  8
0
  6
CONTINUOUS
 62
     7
100
AcDbLine
 10
122.34830434116
 20
-247.2614404590518
 30
0.0
 11
121.92479431136
 21
-247.2689044090518
 31
0.0
  0
LINE
  5
16D
330
1F
100
AcDbEntity
  8
0
  6
CONTINUOUS
 62
     7
100
AcDbLine
 10
124.71078238136
 20
-250.2086487490518
 30
0.0
 11
122.71262700136
 21
-251.4075419690518
 31
0.0
  0
LINE
  5
16E
330
1F
100
AcDbEntity
  8
0
  6
CONTINUOUS
 62
     7
100
AcDbLine
 10
119.8153016963599
 20
-138.4454448340518
 30
0.0
 11
119.8153016963599
 21
-137.4911533840518
 31
0.0
  0
LINE
  5
16F
330
1F
100
AcDbEntity
  8
0
  6
CONTINUOUS
 62
     7
100
AcDbLine
 10
118.69833714136
 20
-130.1032201290518
 30
0.0
 11
118.73974289136
 21
-129.9935851890518
 31
0.0
  0
LINE
  5
170
330
1F
100
AcDbEntity
  8
0
  6
CONTINUOUS
 62
     7
100
AcDbLine
 10
109.7237561895599
 20
-125.7074692808518
 30
0.0
 11
109.7237561895599
 21
-126.0031246408518
 31
0.0
  0
LINE
  5
171
330
1F
100
AcDbEntity
  8
0
  6
CONTINUOUS
 62
     7
100
AcDbLine
 10
109.7237561895599
 20
-124.6208955808519
 30
0.0
 11
109.7237561895599
 21
-125.0034768408518
 31
0.0
  0
LINE
  5
172
330
1F
100
AcDbEntity
  8
0
  6
CONTINUOUS
 62
     7
100
AcDbLine
 10
118.73974289136
 20
-129.9935851890518
 30
0.0
 11
118.77262202136
 21
-129.8800654690518
 31
0.0
  0
LINE
  5
173
330
1F
100
AcDbEntity
  8
0
  6
CONTINUOUS
 62
     7
100
AcDbLine
 10
92.48880431136001
 20
-141.5038283490518
 30
0.0
 11
90.54060281135997
 21
-141.5038283490518
 31
0.0
  0
LINE
  5
174
330
1F
100
AcDbEntity
  8
0
  6
CONTINUOUS
 62
     7
100
AcDbLine
 10
16.55717683335996
 20
-132.3665683743518
 30
0.0
 11
16.05717768275997
 21
-132.3665683743518
 31
0.0
  0
LINE
  5
175
330
1F
100
AcDbEntity
  8
0
  6
CONTINUOUS
 62
     7
100
AcDbLine
 10
82.09753505136001
 20
-129.5243700790518
 30
0.0
 11
80.14933355135997
 21
-129.5243700790518
 31
0.0
  0
LINE
  5
176
330
1F
100
AcDbEntity
  8
0
  6
CONTINUOUS
 62
     7
100
AcDbLine
 10
12.75717770756
 20
-132.9065696200518
 30
0.0
 11
12.75717770756
 21
-137.4665690240518
 31
0.0
  0
LINE
  5
177
330
1F
100
AcDbEntity
  8
0
  6
CONTINUOUS
 62
     7
100
AcDbLine
 10
15.69991302995999
 20
-132.8477678473518
 30
0.0
 11
14.61444353055998
 21
-132.8477678472518
 31
0.0
  0
LINE
  5
178
330
1F
100
AcDbEntity
  8
0
  6
CONTINUOUS
 62
     7
100
AcDbLine
 10
119.08744948136
 20
-131.9387377790518
 30
0.0
 11
119.26782564136
 21
-131.7955758690518
 31
0.0
  0
LINE
  5
179
330
1F
100
AcDbEntity
  8
0
  6
CONTINUOUS
 62
     7
100
AcDbLine
 10
119.4156706213599
 20
-248.6695988090518
 30
0.0
 11
119.4156706213599
 21
-248.8741221990518
 31
0.0
  0
LINE
  5
17A
330
1F
100
AcDbEntity
  8
0
  6
CONTINUOUS
 62
     7
100
AcDbLine
 10
122.50016605136
 20
-125.8526553590518
 30
0.0
 11
122.23090751136
 21
-125.8024416090518
 31
0.0
  0
LINE
  5
17B
330
1F
100
AcDbEntity
  8
0
  6
CONTINUOUS
 62
     7
100
AcDbLine
 10
125.12185752956
 20
-138.6112396208518
 30
0.0
 11
125.5571777095599
 21
-138.6112396208518
 31
0.0
  0
LINE
  5
17C
330
1F
100
AcDbEntity
  8
0
  6
CONTINUOUS
 62
     7
100
AcDbLine
 10
117.90058222136
 20
-130.9008539390518
 30
0.0
 11
118.00593755136
 21
-130.8513299890518
 31
0.0
  0
LINE
  5
17D
330
1F
100
AcDbEntity
  8
0
  6
CONTINUOUS
 62
     7
100
AcDbLine
 10
39.88736389136
 20
-140.5099182990518
 30
0.0
 11
37.48871616136
 21
-140.5099182990518
 31
0.0
  0
LINE
  5
17E
330
1F
100
AcDbEntity
  8
0
  6
CONTINUOUS
 62
     7
100
AcDbLine
 10
109.7237561895599
 20
-126.5101923708518
 30
0.0
 11
109.74051261956
 21
-127.1644744708518
 31
0.0
  0
LINE
  5
17F
330
1F
100
AcDbEntity
  8
0
  6
CONTINUOUS
 62
     7
100
AcDbLine
 10
39.88736389136
 20
-229.4274021390518
 30
0.0
 11
39.88736389136
 21
-239.4190403190518
 31
0.0
  0
LINE
  5
180
330
1F
100
AcDbEntity
  8
0
  6
CONTINUOUS
 62
     7
100
AcDbLine
 10
82.09753505136001
 20
-136.4283414290518
 30
0.0
 11
80.14933355135997
 21
-136.4283414290518
 31
0.0
  0
LINE
  5
181
330
1F
100
AcDbEntity
  8
0
  6
CONTINUOUS
 62
     7
100
AcDbLine
 10
119.4156706213599
 20
-249.1385830290518
 30
0.0
 11
119.4156706213599
 21
-249.4503628990518
 31
0.0
  0
LINE
  5
182
330
1F
100
AcDbEntity
  8
0
  6
CONTINUOUS
 62
     7
100
AcDbLine
 10
119.4156706213599
 20
-251.6081109390518
 30
0.0
 11
119.4156706213599
 21
-252.4665697690518
 31
0.0
  0
LINE
  5
183
330
1F
100
AcDbEntity
  8
0
  6
CONTINUOUS
 62
     7
100
AcDbLine
 10
123.91944391956
 20
-138.6112396208518
 30
0.0
 11
124.23111317956
 21
-138.6112396208518
 31
0.0
  0
LINE
  5
184
330
1F
100
AcDbEntity
  8
0
  6
CONTINUOUS
 62
     7
100
AcDbLine
 10
110.99080415956
 20
-131.9164808208518
 30
0.0
 11
111.58281243956
 21
-132.9670292808518
 31
0.0
  0
LINE
  5
185
330
1F
100
AcDbEntity
  8
0
  6
CONTINUOUS
 62
     7
100
AcDbLine
 10
121.39450502136
 20
-125.8024416090518
 30
0.0
 11
121.12539216136
 21
-125.8526553590518
 31
0.0
  0
LINE
  5
186
330
1F
100
AcDbEntity
  8
0
  6
CONTINUOUS
 62
     7
100
AcDbLine
 10
119.69982121136
 20
-247.7153809690518
 30
0.0
 11
119.62823941136
 21
-247.8086591490518
 31
0.0
  0
LINE
  5
187
330
1F
100
AcDbEntity
  8
0
  6
CONTINUOUS
 62
     7
100
AcDbLine
 10
109.74051261956
 20
-127.1644744708518
 30
0.0
 11
109.87205788956
 21
-128.4215857208518
 31
0.0
  0
LINE
  5
188
330
1F
100
AcDbEntity
  8
0
  6
CONTINUOUS
 62
     7
100
AcDbLine
 10
12.75717770035999
 20
-140.6415706154518
 30
0.0
 11
13.10717803716
 21
-140.1415696022518
 31
0.0
  0
LINE
  5
189
330
1F
100
AcDbEntity
  8
0
  6
CONTINUOUS
 62
     7
100
AcDbLine
 10
13.10717803716
 20
-134.7915684458519
 30
0.0
 11
12.75717770035999
 21
-134.2915711578518
 31
0.0
  0
LINE
  5
18A
330
1F
100
AcDbEntity
  8
0
  6
CONTINUOUS
 62
     7
100
AcDbLine
 10
124.71078238136
 20
-249.9089254390518
 30
0.0
 11
124.71078238136
 21
-250.2086487490518
 31
0.0
  0
LINE
  5
18B
330
1F
100
AcDbEntity
  8
0
  6
CONTINUOUS
 62
     7
100
AcDbLine
 10
91.68868088136003
 20
-130.3244934990518
 30
0.0
 11
90.54060281135997
 21
-130.3244934990518
 31
0.0
  0
LINE
  5
18C
330
1F
100
AcDbEntity
  8
0
  6
CONTINUOUS
 62
     7
100
AcDbLine
 10
120.68578442136
 20
-127.7829720890518
 30
0.0
 11
120.60336729136
 21
-127.8855898290518
 31
0.0
  0
LINE
  5
18D
330
1F
100
AcDbEntity
  8
0
  6
CONTINUOUS
 62
     7
100
AcDbLine
 10
89.54152512136
 20
-130.3244934990518
 30
0.0
 11
88.39258578135997
 21
-130.3244934990518
 31
0.0
  0
LINE
  5
18E
330
1F
100
AcDbEntity
  8
0
  6
CONTINUOUS
 62
     7
100
AcDbLine
 10
123.02287852136
 20
-127.8855898290518
 30
0.0
 11
122.94047931136
 21
-127.7829720890518
 31
0.0
  0
LINE
  5
18F
330
1F
100
AcDbEntity
  8
0
  6
CONTINUOUS
 62
     7
100
AcDbLine
 10
120.27477580136
 20
-130.0062286890518
 30
0.0
 11
120.3040500713599
 21
-129.7658860190518
 31
0.0
  0
LINE
  5
190
330
1F
100
AcDbEntity
  8
0
  6
CONTINUOUS
 62
     7
100
AcDbLine
 10
80.14933355135997
 20
-136.4283414290518
 30
0.0
 11
80.14933355135997
 21
-135.6290792790518
 31
0.0
  0
LINE
  5
191
330
1F
100
AcDbEntity
  8
0
  6
CONTINUOUS
 62
     7
100
AcDbLine
 10
113.0553691295599
 20
-134.8564146508518
 30
0.0
 11
113.92255115956
 21
-135.6818893608518
 31
0.0
  0
LINE
  5
192
330
1F
100
AcDbEntity
  8
0
  6
CONTINUOUS
 62
     7
100
AcDbLine
 10
122.14525639956
 20
-138.6112396208518
 30
0.0
 11
122.3747873495599
 21
-138.6112396208518
 31
0.0
  0
LINE
  5
193
330
1F
100
AcDbEntity
  8
0
  6
CONTINUOUS
 62
     7
100
AcDbLine
 10
92.48880431136001
 20
-129.5243700790518
 30
0.0
 11
92.48880431136001
 21
-141.5038283490518
 31
0.0
  0
LINE
  5
194
330
1F
100
AcDbEntity
  8
0
  6
CONTINUOUS
 62
     7
100
AcDbLine
 10
122.1565403813599
 20
-127.3117160690518
 30
0.0
 11
122.02185317136
 21
-127.2866027290519
 31
0.0
  0
LINE
  5
195
330
1F
100
AcDbEntity
  8
0
  6
CONTINUOUS
 62
     7
100
AcDbLine
 10
82.09753505136001
 20
-129.5243700790518
 30
0.0
 11
82.09753505136001
 21
-136.4283414290518
 31
0.0
  0
LINE
  5
196
330
1F
100
AcDbEntity
  8
0
  6
CONTINUOUS
 62
     7
100
AcDbLine
 10
123.2555080813599
 20
-128.3612544690518
 30
0.0
 11
123.21304514136
 21
-128.2337115090518
 31
0.0
  0
LINE
  5
197
330
1F
100
AcDbEntity
  8
0
  6
CONTINUOUS
 62
     7
100
AcDbLine
 10
123.09615568136
 20
-127.9953030590518
 30
0.0
 11
123.02287852136
 21
-127.8855898290518
 31
0.0
  0
LINE
  5
198
330
1F
100
AcDbEntity
  8
0
  6
CONTINUOUS
 62
     7
100
AcDbLine
 10
120.86531168136
 20
-125.9262744590518
 30
0.0
 11
120.61541293136
 21
-126.0221485890518
 31
0.0
  0
LINE
  5
199
330
1F
100
AcDbEntity
  8
0
  6
CONTINUOUS
 62
     7
100
AcDbLine
 10
122.28670295136
 20
-127.3485338890519
 30
0.0
 11
122.1565403813599
 21
-127.3117160690518
 31
0.0
  0
LINE
  5
19A
330
1F
100
AcDbEntity
  8
0
  6
CONTINUOUS
 62
     7
100
AcDbLine
 10
16.05717767855998
 20
-133.4665683705518
 30
0.0
 11
15.69991302995999
 21
-132.8477678473518
 31
0.0
  0
LINE
  5
19B
330
1F
100
AcDbEntity
  8
0
  6
CONTINUOUS
 62
     7
100
AcDbLine
 10
102.07995014136
 20
-130.3244934990518
 30
0.0
 11
102.07995014136
 21
-140.7049968390518
 31
0.0
  0
LINE
  5
19C
330
1F
100
AcDbEntity
  8
0
  6
CONTINUOUS
 62
     7
100
AcDbLine
 10
5.757176925559975
 20
-132.4665690240518
 30
0.0
 11
11.75717716395997
 21
-132.4665690240518
 31
0.0
  0
LINE
  5
19D
330
1F
100
AcDbEntity
  8
0
  6
CONTINUOUS
 62
     7
100
AcDbLine
 10
15.69991302986
 20
-142.0853702004518
 30
0.0
 11
14.61444353045999
 21
-142.0853702004518
 31
0.0
  0
LINE
  5
19E
330
1F
100
AcDbEntity
  8
0
  6
CONTINUOUS
 62
     7
100
AcDbLine
 10
118.03783870136
 20
-132.4297871490518
 30
0.0
 11
118.26489160136
 21
-132.3641140490518
 31
0.0
  0
LINE
  5
19F
330
1F
100
AcDbEntity
  8
0
  6
CONTINUOUS
 62
     7
100
AcDbLine
 10
118.10664200136
 20
-130.7940552290518
 30
0.0
 11
118.20230799136
 21
-130.7294162490518
 31
0.0
  0
LINE
  5
1A0
330
1F
100
AcDbEntity
  8
0
  6
CONTINUOUS
 62
     7
100
AcDbLine
 10
118.6487923713599
 20
-130.2085836990518
 30
0.0
 11
118.69833714136
 21
-130.1032201290518
 31
0.0
  0
LINE
  5
1A1
330
1F
100
AcDbEntity
  8
0
  6
CONTINUOUS
 62
     7
100
AcDbLine
 10
117.80376040136
 20
-132.4776506190518
 30
0.0
 11
118.03783870136
 21
-132.4297871490518
 31
0.0
  0
LINE
  5
1A2
330
1F
100
AcDbEntity
  8
0
  6
CONTINUOUS
 62
     7
100
AcDbLine
 10
43.38155199135997
 20
-251.9066501790518
 30
0.0
 11
42.38247430135999
 21
-251.9066501790518
 31
0.0
  0
LINE
  5
1A3
330
1F
100
AcDbEntity
  8
0
  6
CONTINUOUS
 62
     7
100
AcDbLine
 10
119.12068809136
 20
-127.4522844990518
 30
0.0
 11
119.01414597136
 21
-127.6966895390518
 31
0.0
  0
LINE
  5
1A4
330
1F
100
AcDbEntity
  8
0
  6
CONTINUOUS
 62
     7
100
AcDbLine
 10
92.48880431136001
 20
-129.5243700790518
 30
0.0
 11
90.54060281135997
 21
-129.5243700790518
 31
0.0
  0
LINE
  5
1A5
330
1F
100
AcDbEntity
  8
0
  6
CONTINUOUS
 62
     7
100
AcDbLine
 10
119.59287212136
 20
-131.4704649990518
 30
0.0
 11
119.73600249136
 21
-131.2900572990518
 31
0.0
  0
LINE
  5
1A6
330
1F
100
AcDbEntity
  8
0
  6
CONTINUOUS
 62
     7
100
AcDbLine
 10
119.86517764136
 20
-131.0987755890518
 30
0.0
 11
119.97962758136
 21
-130.8973904890518
 31
0.0
  0
LINE
  5
1A7
330
1F
100
AcDbEntity
  8
0
  6
CONTINUOUS
 62
     7
100
AcDbLine
 10
118.81622401136
 20
-128.7703247990518
 30
0.0
 11
118.81622401136
 21
-129.5200637090518
 31
0.0
  0
LINE
  5
1A8
330
1F
100
AcDbEntity
  8
0
  6
CONTINUOUS
 62
     7
100
AcDbLine
 10
119.43655651136
 20
-131.6392280690518
 30
0.0
 11
119.59287212136
 21
-131.4704649990518
 31
0.0
  0
LINE
  5
1A9
330
1F
100
AcDbEntity
  8
0
  6
CONTINUOUS
 62
     7
100
AcDbLine
 10
120.3040500713599
 20
-129.7658860190518
 30
0.0
 11
120.31397927136
 21
-129.5200637090518
 31
0.0
  0
LINE
  5
1AA
330
1F
100
AcDbEntity
  8
0
  6
CONTINUOUS
 62
     7
100
AcDbLine
 10
124.76957543956
 20
-138.6112396208518
 30
0.0
 11
124.97446488956
 21
-138.6112396208518
 31
0.0
  0
LINE
  5
1AB
330
1F
100
AcDbEntity
  8
0
  6
CONTINUOUS
 62
     7
100
AcDbLine
 10
120.37684527136
 20
-126.1391274390518
 30
0.0
 11
120.15075806136
 21
-126.2760606790518
 31
0.0
  0
LINE
  5
1AC
330
1F
100
AcDbEntity
  8
0
  6
CONTINUOUS
 62
     7
100
AcDbLine
 10
11.75717716395997
 20
-142.2665698106518
 30
0.0
 11
12.51717770755999
 21
-142.2665696200518
 31
0.0
  0
LINE
  5
1AD
330
1F
100
AcDbEntity
  8
0
  6
CONTINUOUS
 62
     7
100
AcDbLine
 10
14.15717718475997
 20
-140.6415706154518
 30
0.0
 11
14.25717701496001
 21
-140.4987131830518
 31
0.0
  0
LINE
  5
1AE
330
1F
100
AcDbEntity
  8
0
  6
CONTINUOUS
 62
     7
100
AcDbLine
 10
13.45717837396001
 20
-134.2915711578518
 30
0.0
 11
13.10717803716
 21
-134.7915684458519
 31
0.0
  0
LINE
  5
1AF
330
1F
100
AcDbEntity
  8
0
  6
CONTINUOUS
 62
     7
100
AcDbLine
 10
16.55717770935996
 20
-250.4665697690518
 30
0.0
 11
16.55717770935996
 21
-124.4665687558518
 31
0.0
  0
LINE
  5
1B0
330
1F
100
AcDbEntity
  8
0
  6
CONTINUOUS
 62
     7
100
AcDbLine
 10
16.05717768275997
 20
-137.4665690239518
 30
0.0
 11
16.05717768275997
 21
-132.3665683743518
 31
0.0
  0
LINE
  5
1B1
330
1F
100
AcDbEntity
  8
0
  6
CONTINUOUS
 62
     7
100
AcDbLine
 10
120.33953123136
 20
-128.4935884190518
 30
0.0
 11
120.32046368136
 21
-128.6301372390518
 31
0.0
  0
LINE
  5
1B2
330
1F
100
AcDbEntity
  8
0
  6
CONTINUOUS
 62
     7
100
AcDbLine
 10
81.29913417135998
 20
-135.6290792790518
 30
0.0
 11
80.14933355135997
 21
-135.6290792790518
 31
0.0
  0
LINE
  5
1B3
330
1F
100
AcDbEntity
  8
0
  6
CONTINUOUS
 62
     7
100
AcDbLine
 10
125.5571777095599
 20
-138.6112396208518
 30
0.0
 11
125.5571777095599
 21
-249.9089250008518
 31
0.0
  0
LINE
  5
1B4
330
1F
100
AcDbEntity
  8
0
  6
CONTINUOUS
 62
     7
100
AcDbLine
 10
120.32046368136
 20
-128.6301372390518
 30
0.0
 11
120.31397927136
 21
-128.7703247990518
 31
0.0
  0
LINE
  5
1B5
330
1F
100
AcDbEntity
  8
0
  6
CONTINUOUS
 62
     7
100
AcDbLine
 10
81.29913417135998
 20
-130.3244934990518
 30
0.0
 11
80.14933355135997
 21
-130.3244934990518
 31
0.0
  0
LINE
  5
1B6
330
1F
100
AcDbEntity
  8
0
  6
CONTINUOUS
 62
     7
100
AcDbLine
 10
119.3942007913599
 20
-127.0003311990518
 30
0.0
 11
119.24775614136
 21
-127.2197816190518
 31
0.0
  0
LINE
  5
1B7
330
1F
100
AcDbEntity
  8
0
  6
CONTINUOUS
 62
     7
100
AcDbLine
 10
118.89619802136
 20
-132.0679431790518
 30
0.0
 11
119.08744948136
 21
-131.9387377790518
 31
0.0
  0
LINE
  5
1B8
330
1F
100
AcDbEntity
  8
0
  6
CONTINUOUS
 62
     7
100
AcDbLine
 10
90.54060281135997
 20
-129.5243700790518
 30
0.0
 11
90.54060281135997
 21
-130.3244934990518
 31
0.0
  0
LINE
  5
1B9
330
1F
100
AcDbEntity
  8
0
  6
CONTINUOUS
 62
     7
100
AcDbLine
 10
109.7237561895599
 20
-126.2440488908518
 30
0.0
 11
109.7237561895599
 21
-126.4173641008518
 31
0.0
  0
LINE
  5
1BA
330
1F
100
AcDbEntity
  8
0
  6
CONTINUOUS
 62
     7
100
AcDbLine
 10
119.4156706213599
 20
-250.5434326290518
 30
0.0
 11
119.4156706213599
 21
-250.9183045490518
 31
0.0
  0
LINE
  5
1BB
330
1F
100
AcDbEntity
  8
0
  6
CONTINUOUS
 62
     7
100
AcDbLine
 10
119.56593026136
 20
-247.9088442790518
 30
0.0
 11
119.5135279413599
 21
-248.0152924790518
 31
0.0
  0
LINE
  5
1BC
330
1F
100
AcDbEntity
  8
0
  6
CONTINUOUS
 62
     7
100
AcDbLine
 10
117.31760747136
 20
-132.5168661390518
 30
0.0
 11
117.56342666136
 21
-132.5069338190518
 31
0.0
  0
LINE
  5
1BD
330
1F
100
AcDbEntity
  8
0
  6
CONTINUOUS
 62
     7
100
AcDbLine
 10
120.91469500136
 20
-247.2867064190518
 30
0.0
 11
120.71441134136
 21
-247.2902362290518
 31
0.0
  0
LINE
  5
1BE
330
1F
100
AcDbEntity
  8
0
  6
CONTINUOUS
 62
     7
100
AcDbLine
 10
118.8672369713599
 20
-128.2166047890518
 30
0.0
 11
118.82916881136
 21
-128.4898143590518
 31
0.0
  0
LINE
  5
1BF
330
1F
100
AcDbEntity
  8
0
  6
CONTINUOUS
 62
     7
100
AcDbLine
 10
124.06758382136
 20
-126.7950835790518
 30
0.0
 11
123.88572552136
 21
-126.6051890790518
 31
0.0
  0
LINE
  5
1C0
330
1F
100
AcDbEntity
  8
0
  6
CONTINUOUS
 62
     7
100
AcDbLine
 10
14.61444353055998
 20
-135.1571684355518
 30
0.0
 11
14.25717701505999
 21
-134.0024700040518
 31
0.0
  0
LINE
  5
1C1
330
1F
100
AcDbEntity
  8
0
  6
CONTINUOUS
 62
     7
100
AcDbLine
 10
120.31397927136
 20
-128.7703247990518
 30
0.0
 11
120.31397927136
 21
-129.5200637090518
 31
0.0
  0
LINE
  5
1C2
330
1F
100
AcDbEntity
  8
0
  6
CONTINUOUS
 62
     7
100
AcDbLine
 10
37.48871616136
 20
-130.5191413990518
 30
0.0
 11
37.48871616136
 21
-140.5099182990518
 31
0.0
  0
LINE
  5
1C3
330
1F
100
AcDbEntity
  8
0
  6
CONTINUOUS
 62
     7
100
AcDbLine
 10
124.23235508136
 20
-127.0003311990518
 30
0.0
 11
124.06758382136
 21
-126.7950835790518
 31
0.0
  0
LINE
  5
1C4
330
1F
100
AcDbEntity
  8
0
  6
CONTINUOUS
 62
     7
100
AcDbLine
 10
121.74211698136
 20
-127.2737699990518
 30
0.0
 11
121.60372660136
 21
-127.2866027290519
 31
0.0
  0
LINE
  5
1C5
330
1F
100
AcDbEntity
  8
0
  6
CONTINUOUS
 62
     7
100
AcDbLine
 10
79.15025586136
 20
-129.5243700790518
 30
0.0
 11
77.20205437135996
 21
-129.5243700790518
 31
0.0
  0
LINE
  5
1C6
330
1F
100
AcDbEntity
  8
0
  6
CONTINUOUS
 62
     7
100
AcDbLine
 10
123.24913166136
 20
-126.1391274390518
 30
0.0
 11
123.01042845136
 21
-126.0221485890518
 31
0.0
  0
LINE
  5
1C7
330
1F
100
AcDbEntity
  8
0
  6
CONTINUOUS
 62
     7
100
AcDbLine
 10
121.31305696136
 20
-138.6013354090518
 30
0.0
 11
121.31305696136
 21
-138.1121318490518
 31
0.0
  0
LINE
  5
1C8
330
1F
100
AcDbEntity
  8
0
  6
CONTINUOUS
 62
     7
100
AcDbLine
 10
124.37888899136
 20
-127.2197816190518
 30
0.0
 11
124.23235508136
 21
-127.0003311990518
 31
0.0
  0
LINE
  5
1C9
330
1F
100
AcDbEntity
  8
0
  6
CONTINUOUS
 62
     7
100
AcDbLine
 10
121.92479431136
 20
-247.2689044090518
 30
0.0
 11
121.53476824116
 21
-247.2757782390518
 31
0.0
  0
LINE
  5
1CA
330
1F
100
AcDbEntity
  8
0
  6
CONTINUOUS
 62
     7
100
AcDbLine
 10
124.75964472136
 20
-128.2166047890518
 30
0.0
 11
124.69756342136
 21
-127.9518464090518
 31
0.0
  0
LINE
  5
1CB
330
1F
100
AcDbEntity
  8
0
  6
CONTINUOUS
 62
     7
100
AcDbLine
 10
118.52683599136
 20
-130.4049502590518
 30
0.0
 11
118.59149612136
 21
-130.3092892690518
 31
0.0
  0
LINE
  5
1CC
330
1F
100
AcDbEntity
  8
0
  6
CONTINUOUS
 62
     7
100
AcDbLine
 10
121.85320907956
 20
-138.6112396208518
 30
0.0
 11
121.96774638956
 21
-138.6112396208518
 31
0.0
  0
LINE
  5
1CD
330
1F
100
AcDbEntity
  8
0
  6
CONTINUOUS
 62
     7
100
AcDbLine
 10
118.00593755136
 20
-130.8513299890518
 30
0.0
 11
118.10664200136
 21
-130.7940552290518
 31
0.0
  0
LINE
  5
1CE
330
1F
100
AcDbEntity
  8
0
  6
CONTINUOUS
 62
     7
100
AcDbLine
 10
39.88736389136
 20
-130.5191413990518
 30
0.0
 11
37.48871616136
 21
-130.5191413990518
 31
0.0
  0
LINE
  5
1CF
330
1F
100
AcDbEntity
  8
0
  6
CONTINUOUS
 62
     7
100
AcDbLine
 10
123.2865502613599
 20
-128.4935884190518
 30
0.0
 11
123.2555080813599
 21
-128.3612544690518
 31
0.0
  0
LINE
  5
1D0
330
1F
100
AcDbEntity
  8
0
  6
CONTINUOUS
 62
     7
100
AcDbLine
 10
14.15717718475997
 20
-134.2915711578518
 30
0.0
 11
13.80717684816
 21
-134.7915684458519
 31
0.0
  0
LINE
  5
1D1
330
1F
100
AcDbEntity
  8
0
  6
CONTINUOUS
 62
     7
100
AcDbLine
 10
123.31207361136
 20
-133.9943814690518
 30
0.0
 11
119.8153016963599
 21
-137.4911533840518
 31
0.0
  0
LINE
  5
1D2
330
1F
100
AcDbEntity
  8
0
  6
CONTINUOUS
 62
     7
100
AcDbLine
 10
5.757176925559975
 20
-142.4665702160518
 30
0.0
 11
11.75717716395997
 21
-142.4665702160518
 31
0.0
  0
LINE
  5
1D3
330
1F
100
AcDbEntity
  8
0
  6
CONTINUOUS
 62
     7
100
AcDbLine
 10
15.69991302995999
 20
-132.8477678473518
 30
0.0
 11
16.05717768275997
 21
-134.0024700041518
 31
0.0
  0
LINE
  5
1D4
330
1F
100
AcDbEntity
  8
0
  6
CONTINUOUS
 62
     7
100
AcDbLine
 10
124.79773707136
 20
-128.4898143590518
 30
0.0
 11
124.75964472136
 21
-128.2166047890518
 31
0.0
  0
LINE
  5
1D5
330
1F
100
AcDbEntity
  8
0
  6
CONTINUOUS
 62
     7
100
AcDbLine
 10
113.92255115956
 20
-135.6818893608518
 30
0.0
 11
114.8680913895599
 21
-136.4189772608518
 31
0.0
  0
LINE
  5
1D6
330
1F
100
AcDbEntity
  8
0
  6
CONTINUOUS
 62
     7
100
AcDbLine
 10
88.39258578135997
 20
-130.3244934990518
 30
0.0
 11
88.39258578135997
 21
-140.7049968390518
 31
0.0
  0
LINE
  5
1D7
330
1F
100
AcDbEntity
  8
0
  6
CONTINUOUS
 62
     7
100
AcDbLine
 10
118.82916881136
 20
-128.4898143590518
 30
0.0
 11
118.81622401136
 21
-128.7703247990518
 31
0.0
  0
LINE
  5
1D8
330
1F
100
AcDbEntity
  8
0
  6
CONTINUOUS
 62
     7
100
AcDbLine
 10
122.3747873495599
 20
-138.6112396208518
 30
0.0
 11
122.64538744956
 21
-138.6112396208518
 31
0.0
  0
LINE
  5
1D9
330
1F
100
AcDbEntity
  8
0
  6
CONTINUOUS
 62
     7
100
AcDbLine
 10
89.54152512136
 20
-141.5038283490518
 30
0.0
 11
87.59332362136001
 21
-141.5038283490518
 31
0.0
  0
LINE
  5
1DA
330
1F
100
AcDbEntity
  8
0
  6
CONTINUOUS
 62
     7
100
AcDbLine
 10
119.96386070136
 20
-247.4834271490518
 30
0.0
 11
119.86826604136
 21
-247.5521210690519
 31
0.0
  0
LINE
  5
1DB
330
1F
100
AcDbEntity
  8
0
  6
CONTINUOUS
 62
     7
100
AcDbLine
 10
122.71262700136
 20
-251.4075419690518
 30
0.0
 11
121.71268804136
 21
-251.4075419690518
 31
0.0
  0
LINE
  5
1DC
330
1F
100
AcDbEntity
  8
0
  6
CONTINUOUS
 62
     7
100
AcDbLine
 10
89.54152512136
 20
-140.7049968390518
 30
0.0
 11
88.39258578135997
 21
-140.7049968390518
 31
0.0
  0
LINE
  5
1DD
330
1F
100
AcDbEntity
  8
0
  6
CONTINUOUS
 62
     7
100
AcDbLine
 10
123.31207361136
 20
-128.7703247990518
 30
0.0
 11
123.31207361136
 21
-133.9943814690518
 31
0.0
  0
LINE
  5
1DE
330
1F
100
AcDbEntity
  8
0
  6
CONTINUOUS
 62
     7
100
AcDbLine
 10
99.93193310135996
 20
-140.7049968390518
 30
0.0
 11
98.78299376135999
 21
-140.7049968390518
 31
0.0
  0
LINE
  5
1DF
330
1F
100
AcDbEntity
  8
0
  6
CONTINUOUS
 62
     7
100
AcDbLine
 10
117.31760747136
 20
-131.0186802390518
 30
0.0
 11
110.59105853136
 21
-131.0186802390518
 31
0.0
  0
LINE
  5
1E0
330
1F
100
AcDbEntity
  8
0
  6
CONTINUOUS
 62
     7
100
AcDbLine
 10
116.9675136795599
 20
-137.6012682008518
 30
0.0
 11
118.10802935956
 21
-138.0331090308518
 31
0.0
  0
LINE
  5
1E1
330
1F
100
AcDbEntity
  8
0
  6
CONTINUOUS
 62
     7
100
AcDbLine
 10
120.22692644136
 20
-130.2403210990518
 30
0.0
 11
120.27477580136
 21
-130.0062286890518
 31
0.0
  0
LINE
  5
1E2
330
1F
100
AcDbEntity
  8
0
  6
CONTINUOUS
 62
     7
100
AcDbLine
 10
77.20205437135996
 20
-129.5243700790518
 30
0.0
 11
77.20205437135996
 21
-136.4283414290518
 31
0.0
  0
LINE
  5
1E3
330
1F
100
AcDbEntity
  8
0
  6
CONTINUOUS
 62
     7
100
AcDbLine
 10
121.33923968136
 20
-127.3485338890519
 30
0.0
 11
121.21430023136
 21
-127.3964800790518
 31
0.0
  0
LINE
  5
1E4
330
1F
100
AcDbEntity
  8
0
  6
CONTINUOUS
 62
     7
100
AcDbLine
 10
120.06619129136
 20
-247.4242157590518
 30
0.0
 11
119.96386070136
 21
-247.4834271490518
 31
0.0
  0
LINE
  5
1E5
330
1F
100
AcDbEntity
  8
0
  6
CONTINUOUS
 62
     7
100
AcDbLine
 10
14.25717701496001
 20
-134.4344285902518
 30
0.0
 11
14.15717718475997
 21
-134.2915711578518
 31
0.0
  0
LINE
  5
1E6
330
1F
100
AcDbEntity
  8
0
  6
CONTINUOUS
 62
     7
100
AcDbLine
 10
118.10802935956
 20
-138.0331090308518
 30
0.0
 11
119.3001704795599
 21
-138.3498386208518
 31
0.0
  0
LINE
  5
1E7
330
1F
100
AcDbEntity
  8
0
  6
CONTINUOUS
 62
     7
100
AcDbLine
 10
5.757176925559975
 20
-142.4665702160518
 30
0.0
 11
5.757176925559975
 21
-132.4665690240518
 31
0.0
  0
LINE
  5
1E8
330
1F
100
AcDbEntity
  8
0
  6
CONTINUOUS
 62
     7
100
AcDbLine
 10
110.12874368956
 20
-129.6370779408518
 30
0.0
 11
110.50388684956
 21
-130.8042700108518
 31
0.0
  0
LINE
  5
1E9
330
1F
100
AcDbEntity
  8
0
  6
CONTINUOUS
 62
     7
100
AcDbLine
 10
91.68868088136003
 20
-130.3244934990518
 30
0.0
 11
91.68868088136003
 21
-140.7049968390518
 31
0.0
  0
LINE
  5
1EA
330
1F
100
AcDbEntity
  8
0
  6
CONTINUOUS
 62
     7
100
AcDbLine
 10
124.4472522613599
 20
-247.2244485590518
 30
0.0
 11
124.0795488313599
 21
-247.2309289690518
 31
0.0
  0
LINE
  5
1EB
330
1F
100
AcDbEntity
  8
0
  6
CONTINUOUS
 62
     7
100
AcDbLine
 10
109.7237561895599
 20
-125.0034768408518
 30
0.0
 11
109.7237561895599
 21
-125.3699607108518
 31
0.0
  0
LINE
  5
1EC
330
1F
100
AcDbEntity
  8
0
  6
CONTINUOUS
 62
     7
100
AcDbLine
 10
87.59332362136001
 20
-129.5243700790518
 30
0.0
 11
87.59332362136001
 21
-141.5038283490518
 31
0.0
  0
LINE
  5
1ED
330
1F
100
AcDbEntity
  8
0
  6
CONTINUOUS
 62
     7
100
AcDbLine
 10
122.02185317136
 20
-127.2866027290519
 30
0.0
 11
121.88321602136
 21
-127.2737699990518
 31
0.0
  0
LINE
  5
1EE
330
1F
100
AcDbEntity
  8
0
  6
CONTINUOUS
 62
     7
100
AcDbLine
 10
123.68793052136
 20
-126.4317979990518
 30
0.0
 11
123.47534912136
 21
-126.2760606790518
 31
0.0
  0
LINE
  5
1EF
330
1F
100
AcDbEntity
  8
0
  6
CONTINUOUS
 62
     7
100
AcDbLine
 10
119.44098053136
 20
-248.2444024890518
 30
0.0
 11
119.42210379136
 21
-248.3657765090518
 31
0.0
  0
LINE
  5
1F0
330
1F
100
AcDbEntity
  8
0
  6
CONTINUOUS
 62
     7
100
AcDbLine
 10
120.07858235136
 20
-130.6866726190518
 30
0.0
 11
120.16127197136
 21
-130.4673926190519
 31
0.0
  0
LINE
  5
1F1
330
1F
100
AcDbEntity
  8
0
  6
CONTINUOUS
 62
     7
100
AcDbLine
 10
117.44040359136
 20
-131.0137094490518
 30
0.0
 11
117.56048670136
 21
-130.9990548290518
 31
0.0
  0
LINE
  5
1F2
330
1F
100
AcDbEntity
  8
0
  6
CONTINUOUS
 62
     7
100
AcDbLine
 10
119.97962758136
 20
-130.8973904890518
 30
0.0
 11
120.07858235136
 21
-130.6866726190518
 31
0.0
  0
LINE
  5
1F3
330
1F
100
AcDbEntity
  8
0
  6
CONTINUOUS
 62
     7
100
AcDbLine
 10
90.54060281135997
 20
-140.7049968390518
 30
0.0
 11
90.54060281135997
 21
-141.5038283490518
 31
0.0
  0
LINE
  5
1F4
330
1F
100
AcDbEntity
  8
0
  6
CONTINUOUS
 62
     7
100
AcDbLine
 10
79.15025586136
 20
-136.4283414290518
 30
0.0
 11
77.20205437135996
 21
-136.4283414290518
 31
0.0
  0
LINE
  5
1F5
330
1F
100
AcDbEntity
  8
0
  6
CONTINUOUS
 62
     7
100
AcDbLine
 10
120.53725383956
 20
-138.5447758508518
 30
0.0
 11
121.81259623956
 21
-138.6112396208518
 31
0.0
  0
LINE
  5
1F6
330
1F
100
AcDbEntity
  8
0
  6
CONTINUOUS
 62
     7
100
AcDbLine
 10
14.25717701505999
 20
-141.4665696794519
 30
0.0
 11
14.61444353045999
 21
-142.0853702004518
 31
0.0
  0
LINE
  5
1F7
330
1F
100
AcDbEntity
  8
0
  6
CONTINUOUS
 62
     7
100
AcDbLine
 10
117.31760747136
 20
-131.0186802390518
 30
0.0
 11
117.44040359136
 21
-131.0137094490518
 31
0.0
  0
LINE
  5
1F8
330
1F
100
AcDbEntity
  8
0
  6
CONTINUOUS
 62
     7
100
AcDbLine
 10
12.75717770756
 20
-137.4665690240518
 30
0.0
 11
12.75717770756
 21
-142.0265696200518
 31
0.0
  0
LINE
  5
1F9
330
1F
100
AcDbEntity
  8
0
  6
CONTINUOUS
 62
     7
100
AcDbLine
 10
14.61444353045999
 20
-142.0853702004518
 30
0.0
 11
14.25717701505999
 21
-140.9306717688518
 31
0.0
  0
LINE
  5
1FA
330
1F
100
AcDbEntity
  8
0
  6
CONTINUOUS
 62
     7
100
AcDbLine
 10
119.73600249136
 20
-131.2900572990518
 30
0.0
 11
119.86517764136
 21
-131.0987755890518
 31
0.0
  0
LINE
  5
1FB
330
1F
100
AcDbEntity
  8
0
  6
CONTINUOUS
 62
     7
100
AcDbLine
 10
122.94610493956
 20
-138.6112396208518
 30
0.0
 11
123.26598801956
 21
-138.6112396208518
 31
0.0
  0
LINE
  5
1FC
330
1F
100
AcDbEntity
  8
0
  6
CONTINUOUS
 62
     7
100
AcDbLine
 10
89.54152512136
 20
-140.7049968390518
 30
0.0
 11
89.54152512136
 21
-141.5038283490518
 31
0.0
  0
LINE
  5
1FD
330
1F
100
AcDbEntity
  8
0
  6
CONTINUOUS
 62
     7
100
AcDbLine
 10
109.7237561895599
 20
-126.4173641008518
 30
0.0
 11
109.7237561895599
 21
-126.5101923708518
 31
0.0
  0
LINE
  5
1FE
330
1F
100
AcDbEntity
  8
0
  6
CONTINUOUS
 62
     7
100
AcDbLine
 10
119.4156706213599
 20
-250.9183045490518
 30
0.0
 11
119.4156706213599
 21
-251.2774034490518
 31
0.0
  0
LINE
  5
1FF
330
1F
100
AcDbEntity
  8
0
  6
CONTINUOUS
 62
     7
100
AcDbLine
 10
111.58281243956
 20
-132.9670292808518
 30
0.0
 11
112.27322849956
 21
-133.9492342608518
 31
0.0
  0
LINE
  5
200
330
1F
100
AcDbEntity
  8
0
  6
CONTINUOUS
 62
     7
100
AcDbLine
 10
121.88321602136
 20
-127.2737699990518
 30
0.0
 11
121.74211698136
 21
-127.2737699990518
 31
0.0
  0
LINE
  5
201
330
1F
100
AcDbEntity
  8
0
  6
CONTINUOUS
 62
     7
100
AcDbLine
 10
117.31760747136
 20
-132.5168661390518
 30
0.0
 11
111.31452859136
 21
-132.5168661390518
 31
0.0
  0
LINE
  5
202
330
1F
100
AcDbEntity
  8
0
  6
CONTINUOUS
 62
     7
100
AcDbLine
 10
112.27322849956
 20
-133.9492342608518
 30
0.0
 11
113.0553691295599
 21
-134.8564146508518
 31
0.0
  0
LINE
  5
203
330
1F
100
AcDbEntity
  8
0
  6
CONTINUOUS
 62
     7
100
AcDbLine
 10
102.88007357136
 20
-129.5243700790518
 30
0.0
 11
100.93187207136
 21
-129.5243700790518
 31
0.0
  0
LINE
  5
204
330
1F
100
AcDbEntity
  8
0
  6
CONTINUOUS
 62
     7
100
AcDbLine
 10
123.21304514136
 20
-128.2337115090518
 30
0.0
 11
123.15973611136
 21
-128.1115356590518
 31
0.0
  0
LINE
  5
205
330
1F
100
AcDbEntity
  8
0
  6
CONTINUOUS
 62
     7
100
AcDbLine
 10
119.93830065136
 20
-126.4317979990518
 30
0.0
 11
119.74062239136
 21
-126.6051890790518
 31
0.0
  0
LINE
  5
206
330
1F
100
AcDbEntity
  8
0
  6
CONTINUOUS
 62
     7
100
AcDbLine
 10
119.4156706213599
 20
-248.5376312790518
 30
0.0
 11
119.4156706213599
 21
-248.6695988090518
 31
0.0
  0
LINE
  5
207
330
1F
100
AcDbEntity
  8
0
  6
CONTINUOUS
 62
     7
100
AcDbLine
 10
123.47534912136
 20
-126.2760606790518
 30
0.0
 11
123.24913166136
 21
-126.1391274390518
 31
0.0
  0
LINE
  5
208
330
1F
100
AcDbEntity
  8
0
  6
CONTINUOUS
 62
     7
100
AcDbLine
 10
13.10717803716
 20
-140.1415696022518
 30
0.0
 11
13.45717837396001
 21
-140.6415706154518
 31
0.0
  0
LINE
  5
209
330
1F
100
AcDbEntity
  8
0
  6
CONTINUOUS
 62
     7
100
AcDbLine
 10
16.05717768275997
 20
-142.5665696737518
 30
0.0
 11
16.05717768275997
 21
-137.4665690239518
 31
0.0
  0
LINE
  5
20A
330
1F
100
AcDbEntity
  8
0
  6
CONTINUOUS
 62
     7
100
AcDbLine
 10
119.7800414813599
 20
-247.6296536490518
 30
0.0
 11
119.69982121136
 21
-247.7153809690518
 31
0.0
  0
LINE
  5
20B
330
1F
100
AcDbEntity
  8
0
  6
CONTINUOUS
 62
     7
100
AcDbLine
 10
122.53115552136
 20
-127.4549785090518
 30
0.0
 11
122.4117662313599
 21
-127.3964800790518
 31
0.0
  0
LINE
  5
20C
330
1F
100
AcDbEntity
  8
0
  6
CONTINUOUS
 62
     7
100
AcDbLine
 10
122.4117662313599
 20
-127.3964800790518
 30
0.0
 11
122.28670295136
 21
-127.3485338890519
 31
0.0
  0
LINE
  5
20D
330
1F
100
AcDbEntity
  8
0
  6
CONTINUOUS
 62
     7
100
AcDbLine
 10
119.4156706213599
 20
-251.2774034490518
 30
0.0
 11
119.4156706213599
 21
-251.6081109390518
 31
0.0
  0
LINE
  5
20E
330
1F
100
AcDbEntity
  8
0
  6
CONTINUOUS
 62
     7
100
AcDbLine
 10
109.7237561895599
 20
-126.0031246408518
 30
0.0
 11
109.7237561895599
 21
-126.2440488908518
 31
0.0
  0
LINE
  5
20F
330
1F
100
AcDbEntity
  8
0
  6
CONTINUOUS
 62
     7
100
AcDbLine
 10
18.55717770955999
 20
-122.4665693308518
 30
0.0
 11
109.7237561895599
 21
-122.4665693308518
 31
0.0
  0
LINE
  5
210
330
1F
100
AcDbEntity
  8
0
  6
CONTINUOUS
 62
     7
100
AcDbLine
 10
110.50388684956
 20
-130.8042700108518
 30
0.0
 11
110.99080415956
 21
-131.9164808208518
 31
0.0
  0
LINE
  5
211
330
1F
100
AcDbEntity
  8
0
  6
CONTINUOUS
 62
     7
100
AcDbLine
 10
123.01042845136
 20
-126.0221485890518
 30
0.0
 11
122.76038980136
 21
-125.9262744590518
 31
0.0
  0
LINE
  5
212
330
1F
100
AcDbEntity
  8
0
  6
CONTINUOUS
 62
     7
100
AcDbLine
 10
120.37060338136
 20
-128.3612544690518
 30
0.0
 11
120.33953123136
 21
-128.4935884190518
 31
0.0
  0
LINE
  5
213
330
1F
100
AcDbEntity
  8
0
  6
CONTINUOUS
 62
     7
100
AcDbLine
 10
99.93193310135996
 20
-130.3244934990518
 30
0.0
 11
98.78299376135999
 21
-130.3244934990518
 31
0.0
  0
LINE
  5
214
330
1F
100
AcDbEntity
  8
0
  6
CONTINUOUS
 62
     7
100
AcDbLine
 10
122.94047931136
 20
-127.7829720890518
 30
0.0
 11
122.84953272136
 21
-127.6880259590518
 31
0.0
  0
LINE
  5
215
330
1F
100
AcDbEntity
  8
0
  6
CONTINUOUS
 62
     7
100
AcDbLine
 10
79.15025586136
 20
-136.4283414290518
 30
0.0
 11
79.15025586136
 21
-135.6290792790518
 31
0.0
  0
LINE
  5
216
330
1F
100
AcDbEntity
  8
0
  6
CONTINUOUS
 62
     7
100
AcDbLine
 10
118.20230799136
 20
-130.7294162490518
 30
0.0
 11
118.29254796136
 21
-130.6577996490518
 31
0.0
  0
LINE
  5
217
330
1F
100
AcDbEntity
  8
0
  6
CONTINUOUS
 62
     7
100
AcDbLine
 10
79.15025586136
 20
-135.6290792790518
 30
0.0
 11
78.00131652135997
 21
-135.6290792790518
 31
0.0
  0
LINE
  5
218
330
1F
100
AcDbEntity
  8
0
  6
CONTINUOUS
 62
     7
100
AcDbLine
 10
117.67746923136
 20
-130.9751029590518
 30
0.0
 11
117.79096359136
 21
-130.9422404590518
 31
0.0
  0
LINE
  5
219
330
1F
100
AcDbEntity
  8
0
  6
CONTINUOUS
 62
     7
100
AcDbLine
 10
15.69991302986
 20
-142.0853702004518
 30
0.0
 11
16.05717767855998
 21
-141.4665696770518
 31
0.0
  0
LINE
  5
21A
330
1F
100
AcDbEntity
  8
0
  6
CONTINUOUS
 62
     7
100
AcDbLine
 10
121.60372660136
 20
-127.2866027290519
 30
0.0
 11
121.46924132136
 21
-127.3117160690518
 31
0.0
  0
LINE
  5
21B
330
1F
100
AcDbEntity
  8
0
  6
CONTINUOUS
 62
     7
100
AcDbLine
 10
11.75717716395997
 20
-142.4665702160518
 30
0.0
 11
11.75717716395997
 21
-132.4665690240518
 31
0.0
  0
LINE
  5
21C
330
1F
100
AcDbEntity
  8
0
  6
CONTINUOUS
 62
     7
100
AcDbLine
 10
14.25717701505999
 20
-137.4665690238518
 30
0.0
 11
14.25717701505999
 21
-140.9306717688518
 31
0.0
  0
LINE
  5
21D
330
1F
100
AcDbEntity
  8
0
  6
CONTINUOUS
 62
     7
100
AcDbLine
 10
89.54152512136
 20
-129.5243700790518
 30
0.0
 11
87.59332362136001
 21
-129.5243700790518
 31
0.0
  0
LINE
  5
21E
330
1F
100
AcDbEntity
  8
0
  6
CONTINUOUS
 62
     7
100
AcDbLine
 10
122.79041656116
 20
-247.2536486690518
 30
0.0
 11
122.34830434116
 21
-247.2614404590518
 31
0.0
  0
LINE
  5
21F
330
1F
100
AcDbEntity
  8
0
  6
CONTINUOUS
 62
     7
100
AcDbLine
 10
43.38155199135997
 20
-252.4665697690518
 30
0.0
 11
43.38155199135997
 21
-122.4665697690518
 31
0.0
  0
LINE
  5
220
330
1F
100
AcDbEntity
  8
0
  6
CONTINUOUS
 62
     7
100
AcDbLine
 10
121.21430023136
 20
-127.3964800790518
 30
0.0
 11
121.09500150136
 21
-127.4549785090518
 31
0.0
  0
LINE
  5
221
330
1F
100
AcDbEntity
  8
0
  6
CONTINUOUS
 62
     7
100
AcDbLine
 10
79.15025586136
 20
-129.5243700790518
 30
0.0
 11
79.15025586136
 21
-130.3244934990518
 31
0.0
  0
LINE
  5
222
330
1F
100
AcDbEntity
  8
0
  6
CONTINUOUS
 62
     7
100
AcDbLine
 10
123.15973611136
 20
-128.1115356590518
 30
0.0
 11
123.09615568136
 21
-127.9953030590518
 31
0.0
  0
LINE
  5
223
330
1F
100
AcDbEntity
  8
0
  6
CONTINUOUS
 62
     7
100
AcDbLine
 10
124.23111317956
 20
-138.6112396208518
 30
0.0
 11
124.51814093956
 21
-138.6112396208518
 31
0.0
  0
LINE
  5
224
330
1F
100
AcDbEntity
  8
0
  6
CONTINUOUS
 62
     7
100
AcDbLine
 10
121.71268804136
 20
-250.4088949190518
 30
0.0
 11
119.4156706213599
 21
-250.4088949190518
 31
0.0
  0
LINE
  5
225
330
1F
100
AcDbEntity
  8
0
  6
CONTINUOUS
 62
     7
100
AcDbLine
 10
118.69484123136
 20
-132.1824214390518
 30
0.0
 11
118.89619802136
 21
-132.0679431790518
 31
0.0
  0
LINE
  5
226
330
1F
100
AcDbEntity
  8
0
  6
CONTINUOUS
 62
     7
100
AcDbLine
 10
120.4072567813599
 20
-247.3099157990519
 30
0.0
 11
120.28852351136
 21
-247.3368161890518
 31
0.0
  0
LINE
  5
227
330
1F
100
AcDbEntity
  8
0
  6
CONTINUOUS
 62
     7
100
AcDbLine
 10
117.56048670136
 20
-130.9990548290518
 30
0.0
 11
117.67746923136
 21
-130.9751029590518
 31
0.0
  0
LINE
  5
228
330
1F
100
AcDbEntity
  8
0
  6
CONTINUOUS
 62
     7
100
AcDbLine
 10
119.4156706213599
 20
-250.1654061090518
 30
0.0
 11
119.4156706213599
 21
-250.5434326290518
 31
0.0
  0
LINE
  5
229
330
1F
100
AcDbEntity
  8
0
  6
CONTINUOUS
 62
     7
100
AcDbLine
 10
99.93193310135996
 20
-129.5243700790518
 30
0.0
 11
97.98459288135996
 21
-129.5243700790518
 31
0.0
  0
LINE
  5
22A
330
1F
100
AcDbEntity
  8
0
  6
CONTINUOUS
 62
     7
100
AcDbLine
 10
118.7965869613599
 20
-129.7630475790518
 30
0.0
 11
118.81125015136
 21
-129.6429181290518
 31
0.0
  0
LINE
  5
22B
330
1F
100
AcDbEntity
  8
0
  6
CONTINUOUS
 62
     7
100
AcDbLine
 10
91.68868088136003
 20
-140.7049968390518
 30
0.0
 11
90.54060281135997
 21
-140.7049968390518
 31
0.0
  0
LINE
  5
22C
330
1F
100
AcDbEntity
  8
0
  6
CONTINUOUS
 62
     7
100
AcDbLine
 10
120.53006209136
 20
-127.9953030590518
 30
0.0
 11
120.46644734136
 21
-128.1115356590518
 31
0.0
  0
LINE
  5
22D
330
1F
100
AcDbEntity
  8
0
  6
CONTINUOUS
 62
     7
100
AcDbLine
 10
42.33424296135996
 20
-252.4665697690518
 30
0.0
 11
42.33424296135996
 21
-122.4665697690518
 31
0.0
  0
LINE
  5
22E
330
1F
100
AcDbEntity
  8
0
  6
CONTINUOUS
 62
     7
100
AcDbLine
 10
12.51717770755999
 20
-132.6665696200518
 30
0.0
 11
11.75717716395997
 21
-132.6665682370518
 31
0.0
  0
LINE
  5
22F
330
1F
100
AcDbEntity
  8
0
  6
CONTINUOUS
 62
     7
100
AcDbLine
 10
14.25717701505999
 20
-140.9306717688518
 30
0.0
 11
14.25717701505999
 21
-141.4665696794519
 31
0.0
  0
LINE
  5
230
330
1F
100
AcDbEntity
  8
0
  6
CONTINUOUS
 62
     7
100
AcDbLine
 10
118.48414910136
 20
-132.2814019390518
 30
0.0
 11
118.69484123136
 21
-132.1824214390518
 31
0.0
  0
LINE
  5
231
330
1F
100
AcDbEntity
  8
0
  6
CONTINUOUS
 62
     7
100
AcDbLine
 10
119.42210379136
 20
-248.3657765090518
 30
0.0
 11
119.4156706213599
 21
-248.4908380090518
 31
0.0
  0
LINE
  5
232
330
1F
100
AcDbEntity
  8
0
  6
CONTINUOUS
 62
     7
100
AcDbLine
 10
119.26782564136
 20
-131.7955758690518
 30
0.0
 11
119.43655651136
 21
-131.6392280690518
 31
0.0
  0
LINE
  5
233
330
1F
100
AcDbEntity
  8
0
  6
CONTINUOUS
 62
     7
100
AcDbLine
 10
122.76038980136
 20
-125.9262744590518
 30
0.0
 11
122.50016605136
 21
-125.8526553590518
 31
0.0
  0
LINE
  5
234
330
1F
100
AcDbEntity
  8
0
  6
CONTINUOUS
 62
     7
100
AcDbLine
 10
124.51814093956
 20
-138.6112396208518
 30
0.0
 11
124.76957543956
 21
-138.6112396208518
 31
0.0
  0
LINE
  5
235
330
1F
100
AcDbEntity
  8
0
  6
CONTINUOUS
 62
     7
100
AcDbLine
 10
39.88736389136
 20
-239.4190403190518
 30
0.0
 11
37.48871616136
 21
-239.4190403190518
 31
0.0
  0
LINE
  5
236
330
1F
100
AcDbEntity
  8
0
  6
CONTINUOUS
 62
     7
100
AcDbLine
 10
119.47166663136
 20
-248.1273598490518
 30
0.0
 11
119.44098053136
 21
-248.2444024890518
 31
0.0
  0
LINE
  5
237
330
1F
100
AcDbEntity
  8
0
  6
CONTINUOUS
 62
     7
100
AcDbLine
 10
115.88530662956
 20
-137.0609972408518
 30
0.0
 11
116.9675136795599
 21
-137.6012682008518
 31
0.0
  0
LINE
  5
238
330
1F
100
AcDbEntity
  8
0
  6
CONTINUOUS
 62
     7
100
AcDbLine
 10
39.88736389136
 20
-229.4274021390518
 30
0.0
 11
37.48871616136
 21
-229.4274021390518
 31
0.0
  0
LINE
  5
239
330
1F
100
AcDbEntity
  8
0
  6
CONTINUOUS
 62
     7
100
AcDbLine
 10
122.75061345136
 20
-127.6013275690518
 30
0.0
 11
122.64429615136
 21
-127.5234530390518
 31
0.0
  0
LINE
  5
23A
330
1F
100
AcDbEntity
  8
0
  6
CONTINUOUS
 62
     7
100
AcDbLine
 10
119.24775614136
 20
-127.2197816190518
 30
0.0
 11
119.12068809136
 21
-127.4522844990518
 31
0.0
  0
LINE
  5
23B
330
1F
100
AcDbEntity
  8
0
  6
CONTINUOUS
 62
     7
100
AcDbLine
 10
118.92927914136
 20
-127.9518464090518
 30
0.0
 11
118.8672369713599
 21
-128.2166047890518
 31
0.0
  0
LINE
  5
23C
330
1F
100
AcDbEntity
  8
0
  6
CONTINUOUS
 62
     7
100
AcDbLine
 10
120.53018925136
 20
-247.2950735390518
 30
0.0
 11
120.4072567813599
 21
-247.3099157990519
 31
0.0
  0
LINE
  5
23D
330
1F
100
AcDbEntity
  8
0
  6
CONTINUOUS
 62
     7
100
AcDbLine
 10
123.5940849395599
 20
-138.6112396208518
 30
0.0
 11
123.91944391956
 21
-138.6112396208518
 31
0.0
  0
LINE
  5
23E
330
1F
100
AcDbEntity
  8
0
  6
CONTINUOUS
 62
     7
100
AcDbLine
 10
89.54152512136
 20
-129.5243700790518
 30
0.0
 11
89.54152512136
 21
-130.3244934990518
 31
0.0
  0
LINE
  5
23F
330
1F
100
AcDbEntity
  8
0
  6
CONTINUOUS
 62
     7
100
AcDbLine
 10
120.77673494136
 20
-127.6880259590518
 30
0.0
 11
120.68578442136
 21
-127.7829720890518
 31
0.0
  0
LINE
  5
240
330
1F
100
AcDbEntity
  8
0
  6
CONTINUOUS
 62
     7
100
AcDbLine
 10
13.80717684816
 20
-140.1415696022518
 30
0.0
 11
14.15717718475997
 21
-140.6415706154518
 31
0.0
  0
LINE
  5
241
330
1F
100
AcDbEntity
  8
0
  6
CONTINUOUS
 62
     7
100
AcDbLine
 10
124.50603523136
 20
-127.4522844990518
 30
0.0
 11
124.37888899136
 21
-127.2197816190518
 31
0.0
  0
LINE
  5
242
330
1F
100
AcDbEntity
  8
0
  6
CONTINUOUS
 62
     7
100
AcDbLine
 10
15.69991302986
 20
-139.7759696121518
 30
0.0
 11
16.05717768265998
 21
-140.9306717689518
 31
0.0
  0
LINE
  5
243
330
1F
100
AcDbEntity
  8
0
  6
CONTINUOUS
 62
     7
100
AcDbLine
 10
114.8680913895599
 20
-136.4189772608518
 30
0.0
 11
115.88530662956
 21
-137.0609972408518
 31
0.0
  0
LINE
  5
244
330
1F
100
AcDbEntity
  8
0
  6
CONTINUOUS
 62
     7
100
AcDbLine
 10
124.61264348136
 20
-127.6966895390518
 30
0.0
 11
124.50603523136
 21
-127.4522844990518
 31
0.0
  0
LINE
  5
245
330
1F
100
AcDbEntity
  8
0
  6
CONTINUOUS
 62
     7
100
AcDbLine
 10
121.53476824116
 20
-247.2757782390518
 30
0.0
 11
121.19310788136
 21
-247.2817996690518
 31
0.0
  0
LINE
  5
246
330
1F
100
AcDbEntity
  8
0
  6
CONTINUOUS
 62
     7
100
AcDbLine
 10
121.96774638956
 20
-138.6112396208518
 30
0.0
 11
122.14525639956
 21
-138.6112396208518
 31
0.0
  0
LINE
  5
247
330
1F
100
AcDbEntity
  8
0
  6
CONTINUOUS
 62
     7
100
AcDbLine
 10
118.77262202136
 20
-129.8800654690518
 30
0.0
 11
118.7965869613599
 21
-129.7630475790518
 31
0.0
  0
LINE
  5
248
330
1F
100
AcDbEntity
  8
0
  6
CONTINUOUS
 62
     7
100
AcDbLine
 10
119.86826604136
 20
-247.5521210690519
 30
0.0
 11
119.7800414813599
 21
-247.6296536490518
 31
0.0
  0
LINE
  5
249
330
1F
100
AcDbEntity
  8
0
  6
CONTINUOUS
 62
     7
100
AcDbLine
 10
120.17462362136
 20
-247.3751308090518
 30
0.0
 11
120.06619129136
 21
-247.4242157590518
 31
0.0
  0
LINE
  5
24A
330
1F
100
AcDbEntity
  8
0
  6
CONTINUOUS
 62
     7
100
AcDbLine
 10
120.15075806136
 20
-126.2760606790518
 30
0.0
 11
119.93830065136
 21
-126.4317979990518
 31
0.0
  0
LINE
  5
24B
330
1F
100
AcDbEntity
  8
0
  6
CONTINUOUS
 62
     7
100
AcDbLine
 10
121.81259623956
 20
-138.6112396208518
 30
0.0
 11
121.85320907956
 21
-138.6112396208518
 31
0.0
  0
LINE
  5
24C
330
1F
100
AcDbEntity
  8
0
  6
CONTINUOUS
 62
     7
100
AcDbLine
 10
78.00131652135997
 20
-130.3244934990518
 30
0.0
 11
78.00131652135997
 21
-135.6290792790518
 31
0.0
  0
LINE
  5
24D
330
1F
100
AcDbEntity
  8
0
  6
CONTINUOUS
 62
     7
100
AcDbLine
 10
123.26598801956
 20
-138.6112396208518
 30
0.0
 11
123.5940849395599
 21
-138.6112396208518
 31
0.0
  0
LINE
  5
24E
330
1F
100
AcDbEntity
  8
0
  6
CONTINUOUS
 62
     7
100
AcDbLine
 10
120.46644734136
 20
-128.1115356590518
 30
0.0
 11
120.41310160136
 21
-128.2337115090518
 31
0.0
  0
LINE
  5
24F
330
1F
100
AcDbEntity
  8
0
  6
CONTINUOUS
 62
     7
100
AcDbLine
 10
98.78299376135999
 20
-130.3244934990518
 30
0.0
 11
98.78299376135999
 21
-140.7049968390518
 31
0.0
  0
LINE
  5
250
330
1F
100
AcDbEntity
  8
0
  6
CONTINUOUS
 62
     7
100
AcDbLine
 10
39.88736389136
 20
-130.5191413990518
 30
0.0
 11
39.88736389136
 21
-140.5099182990518
 31
0.0
  0
LINE
  5
251
330
1F
100
AcDbEntity
  8
0
  6
CONTINUOUS
 62
     7
100
AcDbLine
 10
14.61444353055998
 20
-132.8477678472518
 30
0.0
 11
14.25717701505999
 21
-133.4665683682518
 31
0.0
  0
LINE
  5
252
330
1F
100
AcDbEntity
  8
0
  6
CONTINUOUS
 62
     7
100
AcDbLine
 10
120.16127197136
 20
-130.4673926190519
 30
0.0
 11
120.22692644136
 21
-130.2403210990518
 31
0.0
  0
LINE
  5
253
330
1F
100
AcDbEntity
  8
0
  6
CONTINUOUS
 62
     7
100
AcDbLine
 10
15.69991302986
 20
-135.1571684356518
 30
0.0
 11
14.61444353055998
 21
-135.1571684355518
 31
0.0
  0
LINE
  5
254
330
1F
100
AcDbEntity
  8
0
  6
CONTINUOUS
 62
     7
100
AcDbLine
 10
124.0795488313599
 20
-247.2309289690518
 30
0.0
 11
123.6709205613599
 21
-247.2381306490518
 31
0.0
  0
LINE
  5
255
330
1F
100
AcDbEntity
  8
0
  6
CONTINUOUS
 62
     7
100
AcDbLine
 10
124.97446488956
 20
-138.6112396208518
 30
0.0
 11
125.12185752956
 21
-138.6112396208518
 31
0.0
  0
LINE
  5
256
330
1F
100
AcDbEntity
  8
0
  6
CONTINUOUS
 62
     7
100
AcDbLine
 10
118.45519953136
 20
-130.4951800590518
 30
0.0
 11
118.52683599136
 21
-130.4049502590518
 31
0.0
  0
LINE
  5
257
330
1F
100
AcDbEntity
  8
0
  6
CONTINUOUS
 62
     7
100
AcDbLine
 10
119.4156706213599
 20
-249.7968433990519
 30
0.0
 11
119.4156706213599
 21
-250.1654061090518
 31
0.0
  0
LINE
  5
258
330
1F
100
AcDbEntity
  8
0
  6
CONTINUOUS
 62
     7
100
AcDbLine
 10
37.48871616136
 20
-229.4274021390518
 30
0.0
 11
37.48871616136
 21
-239.4190403190518
 31
0.0
  0
LINE
  5
259
330
1F
100
AcDbEntity
  8
0
  6
CONTINUOUS
 62
     7
100
AcDbLine
 10
121.09500150136
 20
-127.4549785090518
 30
0.0
 11
120.98192201136
 21
-127.5234530390518
 31
0.0
  0
LINE
  5
25A
330
1F
100
AcDbEntity
  8
0
  6
CONTINUOUS
 62
     7
100
AcDbLine
 10
121.46924132136
 20
-127.3117160690518
 30
0.0
 11
121.33923968136
 21
-127.3485338890519
 31
0.0
  0
LINE
  5
25B
330
1F
100
AcDbEntity
  8
0
  6
CONTINUOUS
 62
     7
100
AcDbLine
 10
81.29913417135998
 20
-130.3244934990518
 30
0.0
 11
81.29913417135998
 21
-135.6290792790518
 31
0.0
  0
LINE
  5
25C
330
1F
100
AcDbEntity
  8
0
  6
CONTINUOUS
 62
     7
100
AcDbLine
 10
119.3001704795599
 20
-138.3498386208518
 30
0.0
 11
120.53725383956
 21
-138.5447758508518
 31
0.0
  0
LINE
  5
25D
330
1F
100
AcDbEntity
  8
0
  6
CONTINUOUS
 62
     7
100
AcDbLine
 10
118.59149612136
 20
-130.3092892690518
 30
0.0
 11
118.6487923713599
 21
-130.2085836990518
 31
0.0
  0
LINE
  5
25E
330
1F
100
AcDbEntity
  8
0
  6
CONTINUOUS
 62
     7
100
AcDbLine
 10
120.41310160136
 20
-128.2337115090518
 30
0.0
 11
120.37060338136
 21
-128.3612544690518
 31
0.0
  0
LINE
  5
25F
330
1F
100
AcDbEntity
  8
0
  6
CONTINUOUS
 62
     7
100
AcDbLine
 10
118.26489160136
 20
-132.3641140490518
 30
0.0
 11
118.48414910136
 21
-132.2814019390518
 31
0.0
  0
LINE
  5
260
330
1F
100
AcDbEntity
  8
0
  6
CONTINUOUS
 62
     7
100
AcDbLine
 10
121.71268804136
 20
-251.4075419690518
 30
0.0
 11
121.71268804136
 21
-250.4088949190518
 31
0.0
  0
LINE
  5
261
330
1F
100
AcDbEntity
  8
0
  6
CONTINUOUS
 62
     7
100
AcDbLine
 10
119.4156706213599
 20
-248.8741221990518
 30
0.0
 11
119.4156706213599
 21
-249.1385830290518
 31
0.0
  0
LINE
  5
262
330
1F
100
AcDbEntity
  8
0
  6
CONTINUOUS
 62
     7
100
AcDbLine
 10
80.14933355135997
 20
-129.5243700790518
 30
0.0
 11
80.14933355135997
 21
-130.3244934990518
 31
0.0
  0
LINE
  5
263
330
1F
100
AcDbEntity
  8
0
  6
CONTINUOUS
 62
     7
100
AcDbLine
 10
16.05717768275997
 20
-142.5665696737518
 30
0.0
 11
16.55717683335996
 21
-142.5665696737518
 31
0.0
  0
LINE
  5
264
330
1F
100
AcDbEntity
  8
0
  6
CONTINUOUS
 62
     7
100
AcDbLine
 10
100.93187207136
 20
-140.7049968390518
 30
0.0
 11
100.93187207136
 21
-141.5038283490518
 31
0.0
  0
LINE
  5
265
330
1F
100
AcDbEntity
  8
0
  6
CONTINUOUS
 62
     7
100
AcDbLine
 10
102.88007357136
 20
-129.5243700790518
 30
0.0
 11
102.88007357136
 21
-141.5038283490518
 31
0.0
  0
LINE
  5
266
330
1F
100
AcDbEntity
  8
0
  6
CONTINUOUS
 62
     7
100
AcDbLine
 10
122.64429615136
 20
-127.5234530390518
 30
0.0
 11
122.53115552136
 21
-127.4549785090518
 31
0.0
  0
LINE
  5
267
330
1F
100
AcDbEntity
  8
0
  6
CONTINUOUS
 62
     7
100
AcDbLine
 10
99.93193310135996
 20
-140.7049968390518
 30
0.0
 11
99.93193310135996
 21
-141.5038283490518
 31
0.0
  0
LINE
  5
268
330
1F
100
AcDbEntity
  8
0
  6
CONTINUOUS
 62
     7
100
AcDbLine
 10
79.15025586136
 20
-130.3244934990518
 30
0.0
 11
78.00131652135997
 21
-130.3244934990518
 31
0.0
  0
LINE
  5
269
330
1F
100
AcDbEntity
  8
0
  6
CONTINUOUS
 62
     7
100
AcDbLine
 10
121.95376451136
 20
-125.7767835490518
 30
0.0
 11
121.67150090136
 21
-125.7767835490518
 31
0.0
  0
LINE
  5
26A
330
1F
100
AcDbEntity
  8
0
  6
CONTINUOUS
 62
     7
100
AcDbLine
 10
119.62823941136
 20
-247.8086591490518
 30
0.0
 11
119.56593026136
 21
-247.9088442790518
 31
0.0
  0
LINE
  5
26B
330
1F
100
AcDbEntity
  8
0
  6
CONTINUOUS
 62
     7
100
AcDbLine
 10
119.01414597136
 20
-127.6966895390518
 30
0.0
 11
118.92927914136
 21
-127.9518464090518
 31
0.0
  0
LINE
  5
26C
330
1F
100
AcDbEntity
  8
0
  6
CONTINUOUS
 62
     7
100
AcDbLine
 10
109.7237561895599
 20
-125.3699607108518
 30
0.0
 11
109.7237561895599
 21
-125.7074692808518
 31
0.0
  0
LINE
  5
26D
330
1F
100
AcDbEntity
  8
0
  6
CONTINUOUS
 62
     7
100
AcDbLine
 10
102.07995014136
 20
-140.7049968390518
 30
0.0
 11
100.93187207136
 21
-140.7049968390518
 31
0.0
  0
LINE
  5
26E
330
1F
100
AcDbEntity
  8
0
  6
CONTINUOUS
 62
     7
100
AcDbLine
 10
119.74062239136
 20
-126.6051890790518
 30
0.0
 11
119.5588726513599
 21
-126.7950835790518
 31
0.0
  0
LINE
  5
26F
330
1F
100
AcDbEntity
  8
0
  6
CONTINUOUS
 62
     7
100
AcDbLine
 10
123.6709205613599
 20
-247.2381306490518
 30
0.0
 11
123.23624922136
 21
-247.2457912990518
 31
0.0
  0
LINE
  5
270
330
1F
100
AcDbEntity
  8
0
  6
CONTINUOUS
 62
     7
100
AcDbLine
 10
122.84953272136
 20
-127.6880259590518
 30
0.0
 11
122.75061345136
 21
-127.6013275690518
 31
0.0
  0
LINE
  5
271
330
1F
100
AcDbEntity
  8
0
  6
CONTINUOUS
 62
     7
100
AcDbLine
 10
119.5135279413599
 20
-248.0152924790518
 30
0.0
 11
119.47166663136
 21
-248.1273598490518
 31
0.0
  0
LINE
  5
272
330
1F
100
AcDbEntity
  8
0
  6
CONTINUOUS
 62
     7
100
AcDbLine
 10
118.37697433136
 20
-130.5795920590518
 30
0.0
 11
118.45519953136
 21
-130.4951800590518
 31
0.0
  0
LINE
  5
273
330
1F
100
AcDbEntity
  8
0
  6
CONTINUOUS
 62
     7
100
AcDbLine
 10
120.98192201136
 20
-127.5234530390518
 30
0.0
 11
120.87564032136
 21
-127.6013275690518
 31
0.0
  0
LINE
  5
274
330
1F
100
AcDbEntity
  8
0
  6
CONTINUOUS
 62
     7
100
AcDbLine
 10
15.69991302986
 20
-139.7759696121518
 30
0.0
 11
14.61444353055998
 21
-139.7759696121518
 31
0.0
  0
LINE
  5
275
330
1F
100
AcDbEntity
  8
0
  6
CONTINUOUS
 62
     7
100
AcDbLine
 10
122.64538744956
 20
-138.6112396208518
 30
0.0
 11
122.94610493956
 21
-138.6112396208518
 31
0.0
  0
LINE
  5
276
330
1F
100
AcDbEntity
  8
0
  6
CONTINUOUS
 62
     7
100
AcDbLine
 10
124.8106901513599
 20
-134.6149292890518
 30
0.0
 11
121.31305696136
 21
-138.1121318490518
 31
0.0
  0
LINE
  5
277
330
1F
100
AcDbEntity
  8
0
  6
CONTINUOUS
 62
     7
100
AcDbLine
 10
121.19310788136
 20
-247.2817996690518
 30
0.0
 11
120.91469500136
 21
-247.2867064190518
 31
0.0
  0
LINE
  5
278
330
1F
100
AcDbEntity
  8
0
  6
CONTINUOUS
 62
     7
100
AcDbLine
 10
109.87205788956
 20
-128.4215857208518
 30
0.0
 11
110.12874368956
 21
-129.6370779408518
 31
0.0
  0
LINE
  5
279
330
1F
100
AcDbEntity
  8
0
  6
CONTINUOUS
 62
     7
100
AcDbLine
 10
97.98459288135996
 20
-129.5243700790518
 30
0.0
 11
97.98459288135996
 21
-141.5038283490518
 31
0.0
  0
LINE
  5
27A
330
1F
100
AcDbEntity
  8
0
  6
CONTINUOUS
 62
     7
100
AcDbLine
 10
124.8106901513599
 20
-128.7703247990518
 30
0.0
 11
124.8106901513599
 21
-134.6149292890518
 31
0.0
  0
LINE
  5
27B
330
1F
100
AcDbEntity
  8
0
  6
CONTINUOUS
 62
     7
100
AcDbLine
 10
123.30559700136
 20
-128.6301372390518
 30
0.0
 11
123.2865502613599
 21
-128.4935884190518
 31
0.0
  0
LINE
  5
27C
330
1F
100
AcDbEntity
  8
0
  6
CONTINUOUS
 62
     7
100
AcDbLine
 10
121.67150090136
 20
-125.7767835490518
 30
0.0
 11
121.39450502136
 21
-125.8024416090518
 31
0.0
  0
LINE
  5
27D
330
1F
100
AcDbEntity
  8
0
  6
CONTINUOUS
 62
     7
100
AcDbLine
 10
123.23624922136
 20
-247.2457912990518
 30
0.0
 11
122.79041656116
 21
-247.2536486690518
 31
0.0
  0
LINE
  5
27E
330
1F
100
AcDbEntity
  8
0
  6
CONTINUOUS
 62
     7
100
AcDbLine
 10
118.29254796136
 20
-130.6577996490518
 30
0.0
 11
118.37697433136
 21
-130.5795920590518
 31
0.0
  0
LINE
  5
27F
330
1F
100
AcDbEntity
  8
0
  6
CONTINUOUS
 62
     7
100
AcDbLine
 10
18.55717727135999
 20
-252.4665697690518
 30
0.0
 11
119.4156706213599
 21
-252.4665697690518
 31
0.0
  0
LINE
  5
280
330
1F
100
AcDbEntity
  8
0
  6
CONTINUOUS
 62
     7
100
AcDbLine
 10
120.28852351136
 20
-247.3368161890518
 30
0.0
 11
120.17462362136
 21
-247.3751308090518
 31
0.0
  0
LINE
  5
281
330
1F
100
AcDbEntity
  8
0
  6
CONTINUOUS
 62
     7
100
AcDbLine
 10
100.93187207136
 20
-129.5243700790518
 30
0.0
 11
100.93187207136
 21
-130.3244934990518
 31
0.0
  0
LINE
  5
282
330
1F
100
AcDbEntity
  8
0
  6
CONTINUOUS
 62
     7
100
AcDbLine
 10
102.07995014136
 20
-130.3244934990518
 30
0.0
 11
100.93187207136
 21
-130.3244934990518
 31
0.0
  0
LINE
  5
283
330
1F
100
AcDbEntity
  8
0
  6
CONTINUOUS
 62
     7
100
AcDbLine
 10
13.80717684816
 20
-134.7915684458519
 30
0.0
 11
13.45717837396001
 21
-134.2915711578518
 31
0.0
  0
LINE
  5
284
330
1F
100
AcDbEntity
  8
0
  6
CONTINUOUS
 62
     7
100
AcDbLine
 10
99.93193310135996
 20
-141.5038283490518
 30
0.0
 11
97.98459288135996
 21
-141.5038283490518
 31
0.0
  0
LINE
  5
285
330
1F
100
AcDbEntity
  8
0
  6
CONTINUOUS
 62
     7
100
AcDbLine
 10
14.25717701505999
 20
-133.4665683682518
 30
0.0
 11
14.25717701505999
 21
-134.0024700040518
 31
0.0
  0
LINE
  5
286
330
1F
100
AcDbEntity
  8
0
  6
CONTINUOUS
 62
     7
100
AcDbLine
 10
123.88572552136
 20
-126.6051890790518
 30
0.0
 11
123.68793052136
 21
-126.4317979990518
 31
0.0
  0
LINE
  5
287
330
1F
100
AcDbEntity
  8
0
  6
CONTINUOUS
 62
     7
100
AcDbLine
 10
102.88007357136
 20
-141.5038283490518
 30
0.0
 11
100.93187207136
 21
-141.5038283490518
 31
0.0
  0
LINE
  5
288
330
1F
100
AcDbEntity
  8
0
  6
CONTINUOUS
 62
     7
100
AcDbLine
 10
119.5588726513599
 20
-126.7950835790518
 30
0.0
 11
119.3942007913599
 21
-127.0003311990518
 31
0.0
  0
LINE
  5
289
330
1F
100
AcDbEntity
  8
0
  6
CONTINUOUS
 62
     7
100
AcDbLine
 10
117.56342666136
 20
-132.5069338190518
 30
0.0
 11
117.80376040136
 21
-132.4776506190518
 31
0.0
  0
LINE
  5
28A
330
1F
100
AcDbEntity
  8
0
  6
CONTINUOUS
 62
     7
100
AcDbLine
 10
119.4156706213599
 20
-248.4908380090518
 30
0.0
 11
119.4156706213599
 21
-248.5376312790518
 31
0.0
  0
LINE
  5
28B
330
1F
100
AcDbEntity
  8
0
  6
CONTINUOUS
 62
     7
100
AcDbLine
 10
120.61541293136
 20
-126.0221485890518
 30
0.0
 11
120.37684527136
 21
-126.1391274390518
 31
0.0
  0
LINE
  5
28C
330
1F
100
AcDbEntity
  8
0
  6
CONTINUOUS
 62
     7
100
AcDbLine
 10
119.4156710595599
 20
-249.9089250008518
 30
0.0
 11
125.5571777095599
 21
-249.9089250008518
 31
0.0
  0
LINE
  5
28D
330
1F
100
AcDbEntity
  8
0
  6
CONTINUOUS
 62
     7
100
AcDbLine
 10
120.60713867136
 20
-247.2921267990518
 30
0.0
 11
120.53018925136
 21
-247.2950735390518
 31
0.0
  0
LINE
  5
28E
330
1F
100
AcDbEntity
  8
0
  6
CONTINUOUS
 62
     7
100
AcDbLine
 10
122.23090751136
 20
-125.8024416090518
 30
0.0
 11
121.95376451136
 21
-125.7767835490518
 31
0.0
  0
LINE
  5
28F
330
1F
100
AcDbEntity
  8
0
  6
CONTINUOUS
 62
     7
100
AcDbLine
 10
120.60336729136
 20
-127.8855898290518
 30
0.0
 11
120.53006209136
 21
-127.9953030590518
 31
0.0
  0
LINE
  5
290
330
1F
100
AcDbEntity
  8
0
  6
CONTINUOUS
 62
     7
100
AcDbLine
 10
119.4156706213599
 20
-249.4503628990518
 30
0.0
 11
119.4156706213599
 21
-249.7968433990519
 31
0.0
  0
LINE
  5
291
330
1F
100
AcDbEntity
  8
0
  6
CONTINUOUS
 62
     7
100
AcDbLine
 10
117.79096359136
 20
-130.9422404590518
 30
0.0
 11
117.90058222136
 21
-130.9008539390518
 31
0.0
  0
LINE
  5
292
330
1F
100
AcDbEntity
  8
0
  6
CONTINUOUS
 62
     7
100
AcDbLine
 10
109.7237561895599
 20
-122.4665693308518
 30
0.0
 11
109.7237561895599
 21
-124.6208955808519
 31
0.0
  0
LINE
  5
293
330
1F
100
AcDbEntity
  8
0
  6
CONTINUOUS
 62
     7
100
AcDbLine
 10
125.5571772713599
 20
-247.2048872090518
 30
0.0
 11
124.4472522613599
 21
-247.2244485590518
 31
0.0
  0
LINE
  5
294
330
1F
100
AcDbEntity
  8
0
  6
CONTINUOUS
 62
     7
100
AcDbLine
 10
109.74051305756
 20
102.8355259671482
 30
0.0
 11
109.87205832756
 21
101.5784147171482
 31
0.0
  0
LINE
  5
295
330
1F
100
AcDbEntity
  8
0
  6
CONTINUOUS
 62
     7
100
AcDbLine
 10
80.14933355135997
 20
100.4756299209482
 30
0.0
 11
80.14933355135997
 21
99.67550650094819
 31
0.0
  0
LINE
  5
296
330
1F
100
AcDbEntity
  8
0
  6
CONTINUOUS
 62
     7
100
AcDbLine
 10
122.28670295136
 20
102.6514661109481
 30
0.0
 11
122.1565403813599
 21
102.6882839309482
 31
0.0
  0
LINE
  5
297
330
1F
100
AcDbEntity
  8
0
  6
CONTINUOUS
 62
     7
100
AcDbLine
 10
123.2865502613599
 20
101.5064115809482
 30
0.0
 11
123.2555080813599
 21
101.6387455309481
 31
0.0
  0
LINE
  5
298
330
1F
100
AcDbEntity
  8
0
  6
CONTINUOUS
 62
     7
100
AcDbLine
 10
120.53006209136
 20
102.0046969409482
 30
0.0
 11
120.46644734136
 21
101.8884643409482
 31
0.0
  0
LINE
  5
299
330
1F
100
AcDbEntity
  8
0
  6
CONTINUOUS
 62
     7
100
AcDbLine
 10
121.12539216136
 20
104.1473446409482
 30
0.0
 11
120.86531168136
 21
104.0737255409481
 31
0.0
  0
LINE
  5
29A
330
1F
100
AcDbEntity
  8
0
  6
CONTINUOUS
 62
     7
100
AcDbLine
 10
120.77673494136
 20
102.3119740409481
 30
0.0
 11
120.68578442136
 21
102.2170279109482
 31
0.0
  0
LINE
  5
29B
330
1F
100
AcDbEntity
  8
0
  6
CONTINUOUS
 62
     7
100
AcDbLine
 10
120.06619129136
 20
-17.42421575905183
 30
0.0
 11
119.96386070136
 21
-17.48342714905186
 31
0.0
  0
LINE
  5
29C
330
1F
100
AcDbEntity
  8
0
  6
CONTINUOUS
 62
     7
100
AcDbLine
 10
118.10802979756
 20
91.96689140714818
 30
0.0
 11
119.30017091756
 21
91.65016181714816
 31
0.0
  0
LINE
  5
29D
330
1F
100
AcDbEntity
  8
0
  6
CONTINUOUS
 62
     7
100
AcDbLine
 10
124.50603523136
 20
102.5477155009482
 30
0.0
 11
124.37888899136
 21
102.7802183809482
 31
0.0
  0
LINE
  5
29E
330
1F
100
AcDbEntity
  8
0
  6
CONTINUOUS
 62
     7
100
AcDbLine
 10
118.81125015136
 20
100.3570818709482
 30
0.0
 11
118.81622401136
 21
100.4799362909482
 31
0.0
  0
LINE
  5
29F
330
1F
100
AcDbEntity
  8
0
  6
CONTINUOUS
 62
     7
100
AcDbLine
 10
124.06758382136
 20
103.2049164209482
 30
0.0
 11
123.88572552136
 21
103.3948109209481
 31
0.0
  0
LINE
  5
2A0
330
1F
100
AcDbEntity
  8
0
  6
CONTINUOUS
 62
     7
100
AcDbLine
 10
121.60372660136
 20
102.7133972709482
 30
0.0
 11
121.46924132136
 21
102.6882839309482
 31
0.0
  0
LINE
  5
2A1
330
1F
100
AcDbEntity
  8
0
  6
CONTINUOUS
 62
     7
100
AcDbLine
 10
120.98192201136
 20
102.4765469609482
 30
0.0
 11
120.87564032136
 21
102.3986724309482
 31
0.0
  0
LINE
  5
2A2
330
1F
100
AcDbEntity
  8
0
  6
CONTINUOUS
 62
     7
100
AcDbLine
 10
102.07995014136
 20
99.67550650094819
 30
0.0
 11
102.07995014136
 21
89.29500316094817
 31
0.0
  0
LINE
  5
2A3
330
1F
100
AcDbEntity
  8
0
  6
CONTINUOUS
 62
     7
100
AcDbLine
 10
117.31760747136
 20
98.98131976094817
 30
0.0
 11
117.44040359136
 21
98.98629055094818
 31
0.0
  0
LINE
  5
2A4
330
1F
100
AcDbEntity
  8
0
  6
CONTINUOUS
 62
     7
100
AcDbLine
 10
120.16127197136
 20
99.53260738094815
 30
0.0
 11
120.22692644136
 21
99.75967890094819
 31
0.0
  0
LINE
  5
2A5
330
1F
100
AcDbEntity
  8
0
  6
CONTINUOUS
 62
     7
100
AcDbLine
 10
82.09753505136001
 20
100.4756299209482
 30
0.0
 11
80.14933355135997
 21
100.4756299209482
 31
0.0
  0
LINE
  5
2A6
330
1F
100
AcDbEntity
  8
0
  6
CONTINUOUS
 62
     7
100
AcDbLine
 10
123.31207361136
 20
96.00561853094814
 30
0.0
 11
119.8153016963599
 21
92.50884661594819
 31
0.0
  0
LINE
  5
2A7
330
1F
100
AcDbEntity
  8
0
  6
CONTINUOUS
 62
     7
100
AcDbLine
 10
42.33424296135996
 20
-22.46656976905183
 30
0.0
 11
42.33424296135996
 21
107.5334302309482
 31
0.0
  0
LINE
  5
2A8
330
1F
100
AcDbEntity
  8
0
  6
CONTINUOUS
 62
     7
100
AcDbLine
 10
99.93193310135996
 20
88.49617165094816
 30
0.0
 11
97.98459288135996
 21
88.49617165094816
 31
0.0
  0
LINE
  5
2A9
330
1F
100
AcDbEntity
  8
0
  6
CONTINUOUS
 62
     7
100
AcDbLine
 10
119.7800414813599
 20
-17.62965364905182
 30
0.0
 11
119.69982121136
 21
-17.71538096905186
 31
0.0
  0
LINE
  5
2AA
330
1F
100
AcDbEntity
  8
0
  6
CONTINUOUS
 62
     7
100
AcDbLine
 10
100.93187207136
 20
89.29500316094817
 30
0.0
 11
100.93187207136
 21
88.49617165094816
 31
0.0
  0
LINE
  5
2AB
330
1F
100
AcDbEntity
  8
0
  6
CONTINUOUS
 62
     7
100
AcDbLine
 10
124.71078238136
 20
-19.90892543905181
 30
0.0
 11
124.71078238136
 21
-20.20864874905186
 31
0.0
  0
LINE
  5
2AC
330
1F
100
AcDbEntity
  8
0
  6
CONTINUOUS
 62
     7
100
AcDbLine
 10
110.12874412756
 20
100.3629224971482
 30
0.0
 11
110.50388728756
 21
99.19573042714813
 31
0.0
  0
LINE
  5
2AD
330
1F
100
AcDbEntity
  8
0
  6
CONTINUOUS
 62
     7
100
AcDbLine
 10
114.86809182756
 20
93.58102317714815
 30
0.0
 11
115.88530706756
 21
92.93900319714817
 31
0.0
  0
LINE
  5
2AE
330
1F
100
AcDbEntity
  8
0
  6
CONTINUOUS
 62
     7
100
AcDbLine
 10
120.71441134136
 20
-17.29023622905186
 30
0.0
 11
120.60713867136
 21
-17.29212679905186
 31
0.0
  0
LINE
  5
2AF
330
1F
100
AcDbEntity
  8
0
  6
CONTINUOUS
 62
     7
100
AcDbLine
 10
120.31397927136
 20
101.2296752009482
 30
0.0
 11
120.31397927136
 21
100.4799362909482
 31
0.0
  0
LINE
  5
2B0
330
1F
100
AcDbEntity
  8
0
  6
CONTINUOUS
 62
     7
100
AcDbLine
 10
89.54152512136
 20
100.4756299209482
 30
0.0
 11
87.59332362136001
 21
100.4756299209482
 31
0.0
  0
LINE
  5
2B1
330
1F
100
AcDbEntity
  8
0
  6
CONTINUOUS
 62
     7
100
AcDbLine
 10
122.64538788756
 20
91.38876081714818
 30
0.0
 11
122.94610537756
 21
91.38876081714818
 31
0.0
  0
LINE
  5
2B2
330
1F
100
AcDbEntity
  8
0
  6
CONTINUOUS
 62
     7
100
AcDbLine
 10
118.03783870136
 20
97.57021285094817
 30
0.0
 11
118.26489160136
 21
97.63588595094814
 31
0.0
  0
LINE
  5
2B3
330
1F
100
AcDbEntity
  8
0
  6
CONTINUOUS
 62
     7
100
AcDbLine
 10
119.73600249136
 20
98.70994270094815
 30
0.0
 11
119.86517764136
 21
98.90122441094815
 31
0.0
  0
LINE
  5
2B4
330
1F
100
AcDbEntity
  8
0
  6
CONTINUOUS
 62
     7
100
AcDbLine
 10
124.0795488313599
 20
-17.23092896905183
 30
0.0
 11
123.6709205613599
 21
-17.23813064905181
 31
0.0
  0
LINE
  5
2B5
330
1F
100
AcDbEntity
  8
0
  6
CONTINUOUS
 62
     7
100
AcDbLine
 10
119.08744948136
 20
98.06126222094815
 30
0.0
 11
119.26782564136
 21
98.20442413094815
 31
0.0
  0
LINE
  5
2B6
330
1F
100
AcDbEntity
  8
0
  6
CONTINUOUS
 62
     7
100
AcDbLine
 10
124.79773707136
 20
101.5101856409482
 30
0.0
 11
124.75964472136
 21
101.7833952109482
 31
0.0
  0
LINE
  5
2B7
330
1F
100
AcDbEntity
  8
0
  6
CONTINUOUS
 62
     7
100
AcDbLine
 10
118.48414910136
 20
97.71859806094818
 30
0.0
 11
118.69484123136
 21
97.81757856094816
 31
0.0
  0
LINE
  5
2B8
330
1F
100
AcDbEntity
  8
0
  6
CONTINUOUS
 62
     7
100
AcDbLine
 10
123.88572552136
 20
103.3948109209481
 30
0.0
 11
123.68793052136
 21
103.5682020009482
 31
0.0
  0
LINE
  5
2B9
330
1F
100
AcDbEntity
  8
0
  6
CONTINUOUS
 62
     7
100
AcDbLine
 10
120.33953123136
 20
101.5064115809482
 30
0.0
 11
120.32046368136
 21
101.3698627609481
 31
0.0
  0
LINE
  5
2BA
330
1F
100
AcDbEntity
  8
0
  6
CONTINUOUS
 62
     7
100
AcDbLine
 10
122.53115552136
 20
102.5450214909482
 30
0.0
 11
122.4117662313599
 21
102.6035199209481
 31
0.0
  0
LINE
  5
2BB
330
1F
100
AcDbEntity
  8
0
  6
CONTINUOUS
 62
     7
100
AcDbLine
 10
102.88007357136
 20
100.4756299209482
 30
0.0
 11
102.88007357136
 21
88.49617165094816
 31
0.0
  0
LINE
  5
2BC
330
1F
100
AcDbEntity
  8
0
  6
CONTINUOUS
 62
     7
100
AcDbLine
 10
91.68868088136003
 20
99.67550650094819
 30
0.0
 11
90.54060281135997
 21
99.67550650094819
 31
0.0
  0
LINE
  5
2BD
330
1F
100
AcDbEntity
  8
0
  6
CONTINUOUS
 62
     7
100
AcDbLine
 10
91.68868088136003
 20
99.67550650094819
 30
0.0
 11
91.68868088136003
 21
89.29500316094817
 31
0.0
  0
LINE
  5
2BE
330
1F
100
AcDbEntity
  8
0
  6
CONTINUOUS
 62
     7
100
AcDbLine
 10
124.61264348136
 20
102.3033104609482
 30
0.0
 11
124.50603523136
 21
102.5477155009482
 31
0.0
  0
LINE
  5
2BF
330
1F
100
AcDbEntity
  8
0
  6
CONTINUOUS
 62
     7
100
AcDbLine
 10
124.69756342136
 20
102.0481535909482
 30
0.0
 11
124.61264348136
 21
102.3033104609482
 31
0.0
  0
LINE
  5
2C0
330
1F
100
AcDbEntity
  8
0
  6
CONTINUOUS
 62
     7
100
AcDbLine
 10
37.48871616136
 20
99.48085860094818
 30
0.0
 11
37.48871616136
 21
89.49008170094817
 31
0.0
  0
LINE
  5
2C1
330
1F
100
AcDbEntity
  8
0
  6
CONTINUOUS
 62
     7
100
AcDbLine
 10
122.79041656116
 20
-17.25364866905181
 30
0.0
 11
122.34830434116
 21
-17.26144045905181
 31
0.0
  0
LINE
  5
2C2
330
1F
100
AcDbEntity
  8
0
  6
CONTINUOUS
 62
     7
100
AcDbLine
 10
124.8106901513599
 20
95.38507071094818
 30
0.0
 11
121.31305696136
 21
91.88786815094818
 31
0.0
  0
LINE
  5
2C3
330
1F
100
AcDbEntity
  8
0
  6
CONTINUOUS
 62
     7
100
AcDbLine
 10
118.10664200136
 20
99.20594477094818
 30
0.0
 11
118.20230799136
 21
99.27058375094816
 31
0.0
  0
LINE
  5
2C4
330
1F
100
AcDbEntity
  8
0
  6
CONTINUOUS
 62
     7
100
AcDbLine
 10
122.94610537756
 20
91.38876081714818
 30
0.0
 11
123.26598845756
 21
91.38876081714818
 31
0.0
  0
LINE
  5
2C5
330
1F
100
AcDbEntity
  8
0
  6
CONTINUOUS
 62
     7
100
AcDbLine
 10
124.97446532756
 20
91.38876081714818
 30
0.0
 11
125.12185796756
 21
91.38876081714818
 31
0.0
  0
LINE
  5
2C6
330
1F
100
AcDbEntity
  8
0
  6
CONTINUOUS
 62
     7
100
AcDbLine
 10
119.4156706213599
 20
-18.66959880905182
 30
0.0
 11
119.4156706213599
 21
-18.87412219905184
 31
0.0
  0
LINE
  5
2C7
330
1F
100
AcDbEntity
  8
0
  6
CONTINUOUS
 62
     7
100
AcDbLine
 10
113.92255159756
 20
94.31811107714816
 30
0.0
 11
114.86809182756
 21
93.58102317714815
 31
0.0
  0
LINE
  5
2C8
330
1F
100
AcDbEntity
  8
0
  6
CONTINUOUS
 62
     7
100
AcDbLine
 10
119.42210379136
 20
-18.36577650905184
 30
0.0
 11
119.4156706213599
 21
-18.49083800905186
 31
0.0
  0
LINE
  5
2C9
330
1F
100
AcDbEntity
  8
0
  6
CONTINUOUS
 62
     7
100
AcDbLine
 10
102.88007357136
 20
88.49617165094816
 30
0.0
 11
100.93187207136
 21
88.49617165094816
 31
0.0
  0
LINE
  5
2CA
330
1F
100
AcDbEntity
  8
0
  6
CONTINUOUS
 62
     7
100
AcDbLine
 10
81.29913417135998
 20
94.37092072094816
 30
0.0
 11
80.14933355135997
 21
94.37092072094816
 31
0.0
  0
LINE
  5
2CB
330
1F
100
AcDbEntity
  8
0
  6
CONTINUOUS
 62
     7
100
AcDbLine
 10
122.4117662313599
 20
102.6035199209481
 30
0.0
 11
122.28670295136
 21
102.6514661109481
 31
0.0
  0
LINE
  5
2CC
330
1F
100
AcDbEntity
  8
0
  6
CONTINUOUS
 62
     7
100
AcDbLine
 10
122.64429615136
 20
102.4765469609482
 30
0.0
 11
122.53115552136
 21
102.5450214909482
 31
0.0
  0
LINE
  5
2CD
330
1F
100
AcDbEntity
  8
0
  6
CONTINUOUS
 62
     7
100
AcDbLine
 10
120.68578442136
 20
102.2170279109482
 30
0.0
 11
120.60336729136
 21
102.1144101709482
 31
0.0
  0
LINE
  5
2CE
330
1F
100
AcDbEntity
  8
0
  6
CONTINUOUS
 62
     7
100
AcDbLine
 10
124.4472522613599
 20
-17.22444855905184
 30
0.0
 11
124.0795488313599
 21
-17.23092896905183
 31
0.0
  0
LINE
  5
2CF
330
1F
100
AcDbEntity
  8
0
  6
CONTINUOUS
 62
     7
100
AcDbLine
 10
121.53476824116
 20
-17.27577823905182
 30
0.0
 11
121.19310788136
 21
-17.28179966905185
 31
0.0
  0
LINE
  5
2D0
330
1F
100
AcDbEntity
  8
0
  6
CONTINUOUS
 62
     7
100
AcDbLine
 10
124.8106901513599
 20
101.2296752009482
 30
0.0
 11
124.79773707136
 21
101.5101856409482
 31
0.0
  0
LINE
  5
2D1
330
1F
100
AcDbEntity
  8
0
  6
CONTINUOUS
 62
     7
100
AcDbLine
 10
124.23235508136
 20
102.9996688009481
 30
0.0
 11
124.06758382136
 21
103.2049164209482
 31
0.0
  0
LINE
  5
2D2
330
1F
100
AcDbEntity
  8
0
  6
CONTINUOUS
 62
     7
100
AcDbLine
 10
43.38155199135997
 20
-22.46656976905183
 30
0.0
 11
43.38155199135997
 21
107.5334302309482
 31
0.0
  0
LINE
  5
2D3
330
1F
100
AcDbEntity
  8
0
  6
CONTINUOUS
 62
     7
100
AcDbLine
 10
121.19310788136
 20
-17.28179966905185
 30
0.0
 11
120.91469500136
 21
-17.28670641905182
 31
0.0
  0
LINE
  5
2D4
330
1F
100
AcDbEntity
  8
0
  6
CONTINUOUS
 62
     7
100
AcDbLine
 10
118.6487923713599
 20
99.79141630094819
 30
0.0
 11
118.69833714136
 21
99.89677987094814
 31
0.0
  0
LINE
  5
2D5
330
1F
100
AcDbEntity
  8
0
  6
CONTINUOUS
 62
     7
100
AcDbLine
 10
89.54152512136
 20
89.29500316094817
 30
0.0
 11
89.54152512136
 21
88.49617165094816
 31
0.0
  0
LINE
  5
2D6
330
1F
100
AcDbEntity
  8
0
  6
CONTINUOUS
 62
     7
100
AcDbLine
 10
118.45519953136
 20
99.50481994094815
 30
0.0
 11
118.52683599136
 21
99.59504974094818
 31
0.0
  0
LINE
  5
2D7
330
1F
100
AcDbEntity
  8
0
  6
CONTINUOUS
 62
     7
100
AcDbLine
 10
122.50016605136
 20
104.1473446409482
 30
0.0
 11
122.23090751136
 21
104.1975583909482
 31
0.0
  0
LINE
  5
2D8
330
1F
100
AcDbEntity
  8
0
  6
CONTINUOUS
 62
     7
100
AcDbLine
 10
88.39258578135997
 20
99.67550650094819
 30
0.0
 11
88.39258578135997
 21
89.29500316094817
 31
0.0
  0
LINE
  5
2D9
330
1F
100
AcDbEntity
  8
0
  6
CONTINUOUS
 62
     7
100
AcDbLine
 10
119.26782564136
 20
98.20442413094815
 30
0.0
 11
119.43655651136
 21
98.36077193094815
 31
0.0
  0
LINE
  5
2DA
330
1F
100
AcDbEntity
  8
0
  6
CONTINUOUS
 62
     7
100
AcDbLine
 10
119.5588726513599
 20
103.2049164209482
 30
0.0
 11
119.3942007913599
 21
102.9996688009481
 31
0.0
  0
LINE
  5
2DB
330
1F
100
AcDbEntity
  8
0
  6
CONTINUOUS
 62
     7
100
AcDbLine
 10
125.55717814756
 20
91.38876081714818
 30
0.0
 11
125.55717814756
 21
-19.90892456285184
 31
0.0
  0
LINE
  5
2DC
330
1F
100
AcDbEntity
  8
0
  6
CONTINUOUS
 62
     7
100
AcDbLine
 10
119.4156706213599
 20
-21.27740344905186
 30
0.0
 11
119.4156706213599
 21
-21.60811093905181
 31
0.0
  0
LINE
  5
2DD
330
1F
100
AcDbEntity
  8
0
  6
CONTINUOUS
 62
     7
100
AcDbLine
 10
99.93193310135996
 20
89.29500316094817
 30
0.0
 11
99.93193310135996
 21
88.49617165094816
 31
0.0
  0
LINE
  5
2DE
330
1F
100
AcDbEntity
  8
0
  6
CONTINUOUS
 62
     7
100
AcDbLine
 10
89.54152512136
 20
99.67550650094819
 30
0.0
 11
88.39258578135997
 21
99.67550650094819
 31
0.0
  0
LINE
  5
2DF
330
1F
100
AcDbEntity
  8
0
  6
CONTINUOUS
 62
     7
100
AcDbLine
 10
109.72375662756
 20
104.9965235971482
 30
0.0
 11
109.72375662756
 21
104.6300397271482
 31
0.0
  0
LINE
  5
2E0
330
1F
100
AcDbEntity
  8
0
  6
CONTINUOUS
 62
     7
100
AcDbLine
 10
121.9677468275599
 20
91.38876081714818
 30
0.0
 11
122.1452568375599
 21
91.38876081714818
 31
0.0
  0
LINE
  5
2E1
330
1F
100
AcDbEntity
  8
0
  6
CONTINUOUS
 62
     7
100
AcDbLine
 10
99.93193310135996
 20
100.4756299209482
 30
0.0
 11
99.93193310135996
 21
99.67550650094819
 31
0.0
  0
LINE
  5
2E2
330
1F
100
AcDbEntity
  8
0
  6
CONTINUOUS
 62
     7
100
AcDbLine
 10
121.74211698136
 20
102.7262300009481
 30
0.0
 11
121.60372660136
 21
102.7133972709482
 31
0.0
  0
LINE
  5
2E3
330
1F
100
AcDbEntity
  8
0
  6
CONTINUOUS
 62
     7
100
AcDbLine
 10
121.21430023136
 20
102.6035199209481
 30
0.0
 11
121.09500150136
 21
102.5450214909482
 31
0.0
  0
LINE
  5
2E4
330
1F
100
AcDbEntity
  8
0
  6
CONTINUOUS
 62
     7
100
AcDbLine
 10
109.87205832756
 20
101.5784147171482
 30
0.0
 11
110.12874412756
 21
100.3629224971482
 31
0.0
  0
LINE
  5
2E5
330
1F
100
AcDbEntity
  8
0
  6
CONTINUOUS
 62
     7
100
AcDbLine
 10
117.80376040136
 20
97.52234938094819
 30
0.0
 11
118.03783870136
 21
97.57021285094817
 31
0.0
  0
LINE
  5
2E6
330
1F
100
AcDbEntity
  8
0
  6
CONTINUOUS
 62
     7
100
AcDbLine
 10
109.72375662756
 20
103.5826363371482
 30
0.0
 11
109.72375662756
 21
103.4898080671481
 31
0.0
  0
LINE
  5
2E7
330
1F
100
AcDbEntity
  8
0
  6
CONTINUOUS
 62
     7
100
AcDbLine
 10
119.4156706213599
 20
-19.79684339905185
 30
0.0
 11
119.4156706213599
 21
-20.16540610905184
 31
0.0
  0
LINE
  5
2E8
330
1F
100
AcDbEntity
  8
0
  6
CONTINUOUS
 62
     7
100
AcDbLine
 10
125.12185796756
 20
91.38876081714818
 30
0.0
 11
125.55717814756
 21
91.38876081714818
 31
0.0
  0
LINE
  5
2E9
330
1F
100
AcDbEntity
  8
0
  6
CONTINUOUS
 62
     7
100
AcDbLine
 10
118.82916881136
 20
101.5101856409482
 30
0.0
 11
118.81622401136
 21
101.2296752009482
 31
0.0
  0
LINE
  5
2EA
330
1F
100
AcDbEntity
  8
0
  6
CONTINUOUS
 62
     7
100
AcDbLine
 10
122.76038980136
 20
104.0737255409481
 30
0.0
 11
122.50016605136
 21
104.1473446409482
 31
0.0
  0
LINE
  5
2EB
330
1F
100
AcDbEntity
  8
0
  6
CONTINUOUS
 62
     7
100
AcDbLine
 10
117.56342666136
 20
97.49306618094818
 30
0.0
 11
117.80376040136
 21
97.52234938094819
 31
0.0
  0
LINE
  5
2EC
330
1F
100
AcDbEntity
  8
0
  6
CONTINUOUS
 62
     7
100
AcDbLine
 10
120.32046368136
 20
101.3698627609481
 30
0.0
 11
120.31397927136
 21
101.2296752009482
 31
0.0
  0
LINE
  5
2ED
330
1F
100
AcDbEntity
  8
0
  6
CONTINUOUS
 62
     7
100
AcDbLine
 10
109.72375662756
 20
103.9968757971482
 30
0.0
 11
109.72375662756
 21
103.7559515471482
 31
0.0
  0
LINE
  5
2EE
330
1F
100
AcDbEntity
  8
0
  6
CONTINUOUS
 62
     7
100
AcDbLine
 10
79.15025586136
 20
99.67550650094819
 30
0.0
 11
78.00131652135997
 21
99.67550650094819
 31
0.0
  0
LINE
  5
2EF
330
1F
100
AcDbEntity
  8
0
  6
CONTINUOUS
 62
     7
100
AcDbLine
 10
123.02287852136
 20
102.1144101709482
 30
0.0
 11
122.94047931136
 21
102.2170279109482
 31
0.0
  0
LINE
  5
2F0
330
1F
100
AcDbEntity
  8
0
  6
CONTINUOUS
 62
     7
100
AcDbLine
 10
87.59332362136001
 20
100.4756299209482
 30
0.0
 11
87.59332362136001
 21
88.49617165094816
 31
0.0
  0
LINE
  5
2F1
330
1F
100
AcDbEntity
  8
0
  6
CONTINUOUS
 62
     7
100
AcDbLine
 10
118.77262202136
 20
100.1199345309482
 30
0.0
 11
118.7965869613599
 21
100.2369524209482
 31
0.0
  0
LINE
  5
2F2
330
1F
100
AcDbEntity
  8
0
  6
CONTINUOUS
 62
     7
100
AcDbLine
 10
120.87564032136
 20
102.3986724309482
 30
0.0
 11
120.77673494136
 21
102.3119740409481
 31
0.0
  0
LINE
  5
2F3
330
1F
100
AcDbEntity
  8
0
  6
CONTINUOUS
 62
     7
100
AcDbLine
 10
79.15025586136
 20
100.4756299209482
 30
0.0
 11
77.20205437135996
 21
100.4756299209482
 31
0.0
  0
LINE
  5
2F4
330
1F
100
AcDbEntity
  8
0
  6
CONTINUOUS
 62
     7
100
AcDbLine
 10
79.15025586136
 20
100.4756299209482
 30
0.0
 11
79.15025586136
 21
99.67550650094819
 31
0.0
  0
LINE
  5
2F5
330
1F
100
AcDbEntity
  8
0
  6
CONTINUOUS
 62
     7
100
AcDbLine
 10
97.98459288135996
 20
100.4756299209482
 30
0.0
 11
97.98459288135996
 21
88.49617165094816
 31
0.0
  0
LINE
  5
2F6
330
1F
100
AcDbEntity
  8
0
  6
CONTINUOUS
 62
     7
100
AcDbLine
 10
43.38155199135997
 20
-21.90665017905184
 30
0.0
 11
42.38247430135999
 21
-21.90665017905184
 31
0.0
  0
LINE
  5
2F7
330
1F
100
AcDbEntity
  8
0
  6
CONTINUOUS
 62
     7
100
AcDbLine
 10
119.4156706213599
 20
-20.91830454905181
 30
0.0
 11
119.4156706213599
 21
-21.27740344905186
 31
0.0
  0
LINE
  5
2F8
330
1F
100
AcDbEntity
  8
0
  6
CONTINUOUS
 62
     7
100
AcDbLine
 10
37.48871616136
 20
0.5725978609481785
 30
0.0
 11
37.48871616136
 21
-9.419040319051817
 31
0.0
  0
LINE
  5
2F9
330
1F
100
AcDbEntity
  8
0
  6
CONTINUOUS
 62
     7
100
AcDbLine
 10
117.90058222136
 20
99.09914606094816
 30
0.0
 11
118.00593755136
 21
99.14867001094814
 31
0.0
  0
LINE
  5
2FA
330
1F
100
AcDbEntity
  8
0
  6
CONTINUOUS
 62
     7
100
AcDbLine
 10
122.37478778756
 20
91.38876081714818
 30
0.0
 11
122.64538788756
 21
91.38876081714818
 31
0.0
  0
LINE
  5
2FB
330
1F
100
AcDbEntity
  8
0
  6
CONTINUOUS
 62
     7
100
AcDbLine
 10
124.51814137756
 20
91.38876081714818
 30
0.0
 11
124.76957587756
 21
91.38876081714818
 31
0.0
  0
LINE
  5
2FC
330
1F
100
AcDbEntity
  8
0
  6
CONTINUOUS
 62
     7
100
AcDbLine
 10
119.4156706213599
 20
-18.49083800905186
 30
0.0
 11
119.4156706213599
 21
-18.53763127905182
 31
0.0
  0
LINE
  5
2FD
330
1F
100
AcDbEntity
  8
0
  6
CONTINUOUS
 62
     7
100
AcDbLine
 10
81.29913417135998
 20
99.67550650094819
 30
0.0
 11
80.14933355135997
 21
99.67550650094819
 31
0.0
  0
LINE
  5
2FE
330
1F
100
AcDbEntity
  8
0
  6
CONTINUOUS
 62
     7
100
AcDbLine
 10
18.55717803715999
 20
107.5334311071481
 30
0.0
 11
109.72375662756
 21
107.5334311071481
 31
0.0
  0
LINE
  5
2FF
330
1F
100
AcDbEntity
  8
0
  6
CONTINUOUS
 62
     7
100
AcDbLine
 10
121.95376451136
 20
104.2232164509481
 30
0.0
 11
121.67150090136
 21
104.2232164509481
 31
0.0
  0
LINE
  5
300
330
1F
100
AcDbEntity
  8
0
  6
CONTINUOUS
 62
     7
100
AcDbLine
 10
120.27477580136
 20
99.99377131094815
 30
0.0
 11
120.3040500713599
 21
100.2341139809482
 31
0.0
  0
LINE
  5
301
330
1F
100
AcDbEntity
  8
0
  6
CONTINUOUS
 62
     7
100
AcDbLine
 10
122.02185317136
 20
102.7133972709482
 30
0.0
 11
121.88321602136
 21
102.7262300009481
 31
0.0
  0
LINE
  5
302
330
1F
100
AcDbEntity
  8
0
  6
CONTINUOUS
 62
     7
100
AcDbLine
 10
119.86826604136
 20
-17.55212106905185
 30
0.0
 11
119.7800414813599
 21
-17.62965364905182
 31
0.0
  0
LINE
  5
303
330
1F
100
AcDbEntity
  8
0
  6
CONTINUOUS
 62
     7
100
AcDbLine
 10
123.31207361136
 20
101.2296752009482
 30
0.0
 11
123.30559700136
 21
101.3698627609481
 31
0.0
  0
LINE
  5
304
330
1F
100
AcDbEntity
  8
0
  6
CONTINUOUS
 62
     7
100
AcDbLine
 10
123.24913166136
 20
103.8608725609482
 30
0.0
 11
123.01042845136
 21
103.9778514109482
 31
0.0
  0
LINE
  5
305
330
1F
100
AcDbEntity
  8
0
  6
CONTINUOUS
 62
     7
100
AcDbLine
 10
123.15973611136
 20
101.8884643409482
 30
0.0
 11
123.09615568136
 21
102.0046969409482
 31
0.0
  0
LINE
  5
306
330
1F
100
AcDbEntity
  8
0
  6
CONTINUOUS
 62
     7
100
AcDbLine
 10
119.12068809136
 20
102.5477155009482
 30
0.0
 11
119.01414597136
 21
102.3033104609482
 31
0.0
  0
LINE
  5
307
330
1F
100
AcDbEntity
  8
0
  6
CONTINUOUS
 62
     7
100
AcDbLine
 10
111.5828128775599
 20
97.03297115714815
 30
0.0
 11
112.27322893756
 21
96.05076617714815
 31
0.0
  0
LINE
  5
308
330
1F
100
AcDbEntity
  8
0
  6
CONTINUOUS
 62
     7
100
AcDbLine
 10
121.09500150136
 20
102.5450214909482
 30
0.0
 11
120.98192201136
 21
102.4765469609482
 31
0.0
  0
LINE
  5
309
330
1F
100
AcDbEntity
  8
0
  6
CONTINUOUS
 62
     7
100
AcDbLine
 10
39.88736389136
 20
89.49008170094817
 30
0.0
 11
37.48871616136
 21
89.49008170094817
 31
0.0
  0
LINE
  5
30A
330
1F
100
AcDbEntity
  8
0
  6
CONTINUOUS
 62
     7
100
AcDbLine
 10
89.54152512136
 20
88.49617165094816
 30
0.0
 11
87.59332362136001
 21
88.49617165094816
 31
0.0
  0
LINE
  5
30B
330
1F
100
AcDbEntity
  8
0
  6
CONTINUOUS
 62
     7
100
AcDbLine
 10
39.88736389136
 20
-9.419040319051817
 30
0.0
 11
37.48871616136
 21
-9.419040319051817
 31
0.0
  0
LINE
  5
30C
330
1F
100
AcDbEntity
  8
0
  6
CONTINUOUS
 62
     7
100
AcDbLine
 10
120.61541293136
 20
103.9778514109482
 30
0.0
 11
120.37684527136
 21
103.8608725609482
 31
0.0
  0
LINE
  5
30D
330
1F
100
AcDbEntity
  8
0
  6
CONTINUOUS
 62
     7
100
AcDbLine
 10
119.3942007913599
 20
102.9996688009481
 30
0.0
 11
119.24775614136
 21
102.7802183809482
 31
0.0
  0
LINE
  5
30E
330
1F
100
AcDbEntity
  8
0
  6
CONTINUOUS
 62
     7
100
AcDbLine
 10
110.50388728756
 20
99.19573042714813
 30
0.0
 11
110.99080459756
 21
98.08351961714817
 31
0.0
  0
LINE
  5
30F
330
1F
100
AcDbEntity
  8
0
  6
CONTINUOUS
 62
     7
100
AcDbLine
 10
119.62823941136
 20
-17.80865914905183
 30
0.0
 11
119.56593026136
 21
-17.90884427905183
 31
0.0
  0
LINE
  5
310
330
1F
100
AcDbEntity
  8
0
  6
CONTINUOUS
 62
     7
100
AcDbLine
 10
80.14933355135997
 20
93.57165857094816
 30
0.0
 11
80.14933355135997
 21
94.37092072094816
 31
0.0
  0
LINE
  5
311
330
1F
100
AcDbEntity
  8
0
  6
CONTINUOUS
 62
     7
100
AcDbLine
 10
123.68793052136
 20
103.5682020009482
 30
0.0
 11
123.47534912136
 21
103.7239393209481
 31
0.0
  0
LINE
  5
312
330
1F
100
AcDbEntity
  8
0
  6
CONTINUOUS
 62
     7
100
AcDbLine
 10
120.17462362136
 20
-17.37513080905183
 30
0.0
 11
120.06619129136
 21
-17.42421575905183
 31
0.0
  0
LINE
  5
313
330
1F
100
AcDbEntity
  8
0
  6
CONTINUOUS
 62
     7
100
AcDbLine
 10
122.34830434116
 20
-17.26144045905181
 30
0.0
 11
121.92479431136
 21
-17.26890440905186
 31
0.0
  0
LINE
  5
314
330
1F
100
AcDbEntity
  8
0
  6
CONTINUOUS
 62
     7
100
AcDbLine
 10
121.31305696136
 20
91.39866459094816
 30
0.0
 11
121.31305696136
 21
91.88786815094818
 31
0.0
  0
LINE
  5
315
330
1F
100
AcDbEntity
  8
0
  6
CONTINUOUS
 62
     7
100
AcDbLine
 10
124.23111361756
 20
91.38876081714818
 30
0.0
 11
124.51814137756
 21
91.38876081714818
 31
0.0
  0
LINE
  5
316
330
1F
100
AcDbEntity
  8
0
  6
CONTINUOUS
 62
     7
100
AcDbLine
 10
124.8106901513599
 20
101.2296752009482
 30
0.0
 11
124.8106901513599
 21
95.38507071094818
 31
0.0
  0
LINE
  5
317
330
1F
100
AcDbEntity
  8
0
  6
CONTINUOUS
 62
     7
100
AcDbLine
 10
92.48880431136001
 20
100.4756299209482
 30
0.0
 11
90.54060281135997
 21
100.4756299209482
 31
0.0
  0
LINE
  5
318
330
1F
100
AcDbEntity
  8
0
  6
CONTINUOUS
 62
     7
100
AcDbLine
 10
121.88321602136
 20
102.7262300009481
 30
0.0
 11
121.74211698136
 21
102.7262300009481
 31
0.0
  0
LINE
  5
319
330
1F
100
AcDbEntity
  8
0
  6
CONTINUOUS
 62
     7
100
AcDbLine
 10
121.46924132136
 20
102.6882839309482
 30
0.0
 11
121.33923968136
 21
102.6514661109481
 31
0.0
  0
LINE
  5
31A
330
1F
100
AcDbEntity
  8
0
  6
CONTINUOUS
 62
     7
100
AcDbLine
 10
109.72375662756
 20
103.4898080671481
 30
0.0
 11
109.74051305756
 21
102.8355259671482
 31
0.0
  0
LINE
  5
31B
330
1F
100
AcDbEntity
  8
0
  6
CONTINUOUS
 62
     7
100
AcDbLine
 10
119.96386070136
 20
-17.48342714905186
 30
0.0
 11
119.86826604136
 21
-17.55212106905185
 31
0.0
  0
LINE
  5
31C
330
1F
100
AcDbEntity
  8
0
  6
CONTINUOUS
 62
     7
100
AcDbLine
 10
119.47166663136
 20
-18.12735984905186
 30
0.0
 11
119.44098053136
 21
-18.24440248905182
 31
0.0
  0
LINE
  5
31D
330
1F
100
AcDbEntity
  8
0
  6
CONTINUOUS
 62
     7
100
AcDbLine
 10
119.41567149756
 20
-19.90892456285184
 30
0.0
 11
125.55717814756
 21
-19.90892456285184
 31
0.0
  0
LINE
  5
31E
330
1F
100
AcDbEntity
  8
0
  6
CONTINUOUS
 62
     7
100
AcDbLine
 10
118.89619802136
 20
97.93205682094816
 30
0.0
 11
119.08744948136
 21
98.06126222094815
 31
0.0
  0
LINE
  5
31F
330
1F
100
AcDbEntity
  8
0
  6
CONTINUOUS
 62
     7
100
AcDbLine
 10
123.01042845136
 20
103.9778514109482
 30
0.0
 11
122.76038980136
 21
104.0737255409481
 31
0.0
  0
LINE
  5
320
330
1F
100
AcDbEntity
  8
0
  6
CONTINUOUS
 62
     7
100
AcDbLine
 10
119.01414597136
 20
102.3033104609482
 30
0.0
 11
118.92927914136
 21
102.0481535909482
 31
0.0
  0
LINE
  5
321
330
1F
100
AcDbEntity
  8
0
  6
CONTINUOUS
 62
     7
100
AcDbLine
 10
113.05536956756
 20
95.14358578714814
 30
0.0
 11
113.92255159756
 21
94.31811107714816
 31
0.0
  0
LINE
  5
322
330
1F
100
AcDbEntity
  8
0
  6
CONTINUOUS
 62
     7
100
AcDbLine
 10
119.44098053136
 20
-18.24440248905182
 30
0.0
 11
119.42210379136
 21
-18.36577650905184
 31
0.0
  0
LINE
  5
323
330
1F
100
AcDbEntity
  8
0
  6
CONTINUOUS
 62
     7
100
AcDbLine
 10
120.15075806136
 20
103.7239393209481
 30
0.0
 11
119.93830065136
 21
103.5682020009482
 31
0.0
  0
LINE
  5
324
330
1F
100
AcDbEntity
  8
0
  6
CONTINUOUS
 62
     7
100
AcDbLine
 10
124.71078238136
 20
-20.20864874905186
 30
0.0
 11
122.71262700136
 21
-21.40754196905186
 31
0.0
  0
LINE
  5
325
330
1F
100
AcDbEntity
  8
0
  6
CONTINUOUS
 62
     7
100
AcDbLine
 10
124.37888899136
 20
102.7802183809482
 30
0.0
 11
124.23235508136
 21
102.9996688009481
 31
0.0
  0
LINE
  5
326
330
1F
100
AcDbEntity
  8
0
  6
CONTINUOUS
 62
     7
100
AcDbLine
 10
121.71268804136
 20
-20.40889491905182
 30
0.0
 11
119.4156706213599
 21
-20.40889491905182
 31
0.0
  0
LINE
  5
327
330
1F
100
AcDbEntity
  8
0
  6
CONTINUOUS
 62
     7
100
AcDbLine
 10
123.30559700136
 20
101.3698627609481
 30
0.0
 11
123.2865502613599
 21
101.5064115809482
 31
0.0
  0
LINE
  5
328
330
1F
100
AcDbEntity
  8
0
  6
CONTINUOUS
 62
     7
100
AcDbLine
 10
119.59287212136
 20
98.52953500094816
 30
0.0
 11
119.73600249136
 21
98.70994270094815
 31
0.0
  0
LINE
  5
329
330
1F
100
AcDbEntity
  8
0
  6
CONTINUOUS
 62
     7
100
AcDbLine
 10
117.31760747136
 20
97.48313386094816
 30
0.0
 11
111.31452859136
 21
97.48313386094816
 31
0.0
  0
LINE
  5
32A
330
1F
100
AcDbEntity
  8
0
  6
CONTINUOUS
 62
     7
100
AcDbLine
 10
81.29913417135998
 20
99.67550650094819
 30
0.0
 11
81.29913417135998
 21
94.37092072094816
 31
0.0
  0
LINE
  5
32B
330
1F
100
AcDbEntity
  8
0
  6
CONTINUOUS
 62
     7
100
AcDbLine
 10
39.88736389136
 20
0.5725978609481785
 30
0.0
 11
39.88736389136
 21
-9.419040319051817
 31
0.0
  0
LINE
  5
32C
330
1F
100
AcDbEntity
  8
0
  6
CONTINUOUS
 62
     7
100
AcDbLine
 10
122.71262700136
 20
-21.40754196905186
 30
0.0
 11
121.71268804136
 21
-21.40754196905186
 31
0.0
  0
LINE
  5
32D
330
1F
100
AcDbEntity
  8
0
  6
CONTINUOUS
 62
     7
100
AcDbLine
 10
115.88530706756
 20
92.93900319714817
 30
0.0
 11
116.96751411756
 21
92.39873223714818
 31
0.0
  0
LINE
  5
32E
330
1F
100
AcDbEntity
  8
0
  6
CONTINUOUS
 62
     7
100
AcDbLine
 10
120.60713867136
 20
-17.29212679905186
 30
0.0
 11
120.53018925136
 21
-17.29507353905183
 31
0.0
  0
LINE
  5
32F
330
1F
100
AcDbEntity
  8
0
  6
CONTINUOUS
 62
     7
100
AcDbLine
 10
90.54060281135997
 20
100.4756299209482
 30
0.0
 11
90.54060281135997
 21
99.67550650094819
 31
0.0
  0
LINE
  5
330
330
1F
100
AcDbEntity
  8
0
  6
CONTINUOUS
 62
     7
100
AcDbLine
 10
120.37060338136
 20
101.6387455309481
 30
0.0
 11
120.33953123136
 21
101.5064115809482
 31
0.0
  0
LINE
  5
331
330
1F
100
AcDbEntity
  8
0
  6
CONTINUOUS
 62
     7
100
AcDbLine
 10
109.72375662756
 20
104.6300397271482
 30
0.0
 11
109.72375662756
 21
104.2925311571482
 31
0.0
  0
LINE
  5
332
330
1F
100
AcDbEntity
  8
0
  6
CONTINUOUS
 62
     7
100
AcDbLine
 10
122.1452568375599
 20
91.38876081714818
 30
0.0
 11
122.37478778756
 21
91.38876081714818
 31
0.0
  0
LINE
  5
333
330
1F
100
AcDbEntity
  8
0
  6
CONTINUOUS
 62
     7
100
AcDbLine
 10
120.07858235136
 20
99.31332738094818
 30
0.0
 11
120.16127197136
 21
99.53260738094815
 31
0.0
  0
LINE
  5
334
330
1F
100
AcDbEntity
  8
0
  6
CONTINUOUS
 62
     7
100
AcDbLine
 10
121.81259667756
 20
91.38876081714818
 30
0.0
 11
121.85320951756
 21
91.38876081714818
 31
0.0
  0
LINE
  5
335
330
1F
100
AcDbEntity
  8
0
  6
CONTINUOUS
 62
     7
100
AcDbLine
 10
119.8153016963599
 20
91.55455516594816
 30
0.0
 11
119.8153016963599
 21
92.50884661594819
 31
0.0
  0
LINE
  5
336
330
1F
100
AcDbEntity
  8
0
  6
CONTINUOUS
 62
     7
100
AcDbLine
 10
121.92479431136
 20
-17.26890440905186
 30
0.0
 11
121.53476824116
 21
-17.27577823905182
 31
0.0
  0
LINE
  5
337
330
1F
100
AcDbEntity
  8
0
  6
CONTINUOUS
 62
     7
100
AcDbLine
 10
118.69484123136
 20
97.81757856094816
 30
0.0
 11
118.89619802136
 21
97.93205682094816
 31
0.0
  0
LINE
  5
338
330
1F
100
AcDbEntity
  8
0
  6
CONTINUOUS
 62
     7
100
AcDbLine
 10
121.67150090136
 20
104.2232164509481
 30
0.0
 11
121.39450502136
 21
104.1975583909482
 31
0.0
  0
LINE
  5
339
330
1F
100
AcDbEntity
  8
0
  6
CONTINUOUS
 62
     7
100
AcDbLine
 10
119.86517764136
 20
98.90122441094815
 30
0.0
 11
119.97962758136
 21
99.10260951094818
 31
0.0
  0
LINE
  5
33A
330
1F
100
AcDbEntity
  8
0
  6
CONTINUOUS
 62
     7
100
AcDbLine
 10
112.27322893756
 20
96.05076617714815
 30
0.0
 11
113.05536956756
 21
95.14358578714814
 31
0.0
  0
LINE
  5
33B
330
1F
100
AcDbEntity
  8
0
  6
CONTINUOUS
 62
     7
100
AcDbLine
 10
119.30017091756
 20
91.65016181714816
 30
0.0
 11
120.53725427756
 21
91.45522458714817
 31
0.0
  0
LINE
  5
33C
330
1F
100
AcDbEntity
  8
0
  6
CONTINUOUS
 62
     7
100
AcDbLine
 10
82.09753505136001
 20
93.57165857094816
 30
0.0
 11
80.14933355135997
 21
93.57165857094816
 31
0.0
  0
LINE
  5
33D
330
1F
100
AcDbEntity
  8
0
  6
CONTINUOUS
 62
     7
100
AcDbLine
 10
89.54152512136
 20
89.29500316094817
 30
0.0
 11
88.39258578135997
 21
89.29500316094817
 31
0.0
  0
LINE
  5
33E
330
1F
100
AcDbEntity
  8
0
  6
CONTINUOUS
 62
     7
100
AcDbLine
 10
39.88736389136
 20
0.5725978609481785
 30
0.0
 11
37.48871616136
 21
0.5725978609481785
 31
0.0
  0
LINE
  5
33F
330
1F
100
AcDbEntity
  8
0
  6
CONTINUOUS
 62
     7
100
AcDbLine
 10
122.23090751136
 20
104.1975583909482
 30
0.0
 11
121.95376451136
 21
104.2232164509481
 31
0.0
  0
LINE
  5
340
330
1F
100
AcDbEntity
  8
0
  6
CONTINUOUS
 62
     7
100
AcDbLine
 10
109.72375662756
 20
103.7559515471482
 30
0.0
 11
109.72375662756
 21
103.5826363371482
 31
0.0
  0
LINE
  5
341
330
1F
100
AcDbEntity
  8
0
  6
CONTINUOUS
 62
     7
100
AcDbLine
 10
99.93193310135996
 20
99.67550650094819
 30
0.0
 11
98.78299376135999
 21
99.67550650094819
 31
0.0
  0
LINE
  5
342
330
1F
100
AcDbEntity
  8
0
  6
CONTINUOUS
 62
     7
100
AcDbLine
 10
102.07995014136
 20
89.29500316094817
 30
0.0
 11
100.93187207136
 21
89.29500316094817
 31
0.0
  0
LINE
  5
343
330
1F
100
AcDbEntity
  8
0
  6
CONTINUOUS
 62
     7
100
AcDbLine
 10
92.48880431136001
 20
100.4756299209482
 30
0.0
 11
92.48880431136001
 21
88.49617165094816
 31
0.0
  0
LINE
  5
344
330
1F
100
AcDbEntity
  8
0
  6
CONTINUOUS
 62
     7
100
AcDbLine
 10
117.44040359136
 20
98.98629055094818
 30
0.0
 11
117.56048670136
 21
99.00094517094817
 31
0.0
  0
LINE
  5
345
330
1F
100
AcDbEntity
  8
0
  6
CONTINUOUS
 62
     7
100
AcDbLine
 10
78.00131652135997
 20
99.67550650094819
 30
0.0
 11
78.00131652135997
 21
94.37092072094816
 31
0.0
  0
LINE
  5
346
330
1F
100
AcDbEntity
  8
0
  6
CONTINUOUS
 62
     7
100
AcDbLine
 10
118.69833714136
 20
99.89677987094814
 30
0.0
 11
118.73974289136
 21
100.0064148109482
 31
0.0
  0
LINE
  5
347
330
1F
100
AcDbEntity
  8
0
  6
CONTINUOUS
 62
     7
100
AcDbLine
 10
124.75964472136
 20
101.7833952109482
 30
0.0
 11
124.69756342136
 21
102.0481535909482
 31
0.0
  0
LINE
  5
348
330
1F
100
AcDbEntity
  8
0
  6
CONTINUOUS
 62
     7
100
AcDbLine
 10
120.4072567813599
 20
-17.30991579905185
 30
0.0
 11
120.28852351136
 21
-17.33681618905183
 31
0.0
  0
LINE
  5
349
330
1F
100
AcDbEntity
  8
0
  6
CONTINUOUS
 62
     7
100
AcDbLine
 10
123.23624922136
 20
-17.24579129905186
 30
0.0
 11
122.79041656116
 21
-17.25364866905181
 31
0.0
  0
LINE
  5
34A
330
1F
100
AcDbEntity
  8
0
  6
CONTINUOUS
 62
     7
100
AcDbLine
 10
118.81622401136
 20
101.2296752009482
 30
0.0
 11
118.81622401136
 21
100.4799362909482
 31
0.0
  0
LINE
  5
34B
330
1F
100
AcDbEntity
  8
0
  6
CONTINUOUS
 62
     7
100
AcDbLine
 10
102.88007357136
 20
100.4756299209482
 30
0.0
 11
100.93187207136
 21
100.4756299209482
 31
0.0
  0
LINE
  5
34C
330
1F
100
AcDbEntity
  8
0
  6
CONTINUOUS
 62
     7
100
AcDbLine
 10
118.59149612136
 20
99.69071073094818
 30
0.0
 11
118.6487923713599
 21
99.79141630094819
 31
0.0
  0
LINE
  5
34D
330
1F
100
AcDbEntity
  8
0
  6
CONTINUOUS
 62
     7
100
AcDbLine
 10
119.4156706213599
 20
-19.13858302905186
 30
0.0
 11
119.4156706213599
 21
-19.45036289905181
 31
0.0
  0
LINE
  5
34E
330
1F
100
AcDbEntity
  8
0
  6
CONTINUOUS
 62
     7
100
AcDbLine
 10
123.31207361136
 20
101.2296752009482
 30
0.0
 11
123.31207361136
 21
96.00561853094814
 31
0.0
  0
LINE
  5
34F
330
1F
100
AcDbEntity
  8
0
  6
CONTINUOUS
 62
     7
100
AcDbLine
 10
122.75061345136
 20
102.3986724309482
 30
0.0
 11
122.64429615136
 21
102.4765469609482
 31
0.0
  0
LINE
  5
350
330
1F
100
AcDbEntity
  8
0
  6
CONTINUOUS
 62
     7
100
AcDbLine
 10
120.60336729136
 20
102.1144101709482
 30
0.0
 11
120.53006209136
 21
102.0046969409482
 31
0.0
  0
LINE
  5
351
330
1F
100
AcDbEntity
  8
0
  6
CONTINUOUS
 62
     7
100
AcDbLine
 10
119.4156706213599
 20
-20.54343262905184
 30
0.0
 11
119.4156706213599
 21
-20.91830454905181
 31
0.0
  0
LINE
  5
352
330
1F
100
AcDbEntity
  8
0
  6
CONTINUOUS
 62
     7
100
AcDbLine
 10
122.94047931136
 20
102.2170279109482
 30
0.0
 11
122.84953272136
 21
102.3119740409481
 31
0.0
  0
LINE
  5
353
330
1F
100
AcDbEntity
  8
0
  6
CONTINUOUS
 62
     7
100
AcDbLine
 10
119.74062239136
 20
103.3948109209481
 30
0.0
 11
119.5588726513599
 21
103.2049164209482
 31
0.0
  0
LINE
  5
354
330
1F
100
AcDbEntity
  8
0
  6
CONTINUOUS
 62
     7
100
AcDbLine
 10
122.1565403813599
 20
102.6882839309482
 30
0.0
 11
122.02185317136
 21
102.7133972709482
 31
0.0
  0
LINE
  5
355
330
1F
100
AcDbEntity
  8
0
  6
CONTINUOUS
 62
     7
100
AcDbLine
 10
119.97962758136
 20
99.10260951094818
 30
0.0
 11
120.07858235136
 21
99.31332738094818
 31
0.0
  0
LINE
  5
356
330
1F
100
AcDbEntity
  8
0
  6
CONTINUOUS
 62
     7
100
AcDbLine
 10
123.26598845756
 20
91.38876081714818
 30
0.0
 11
123.59408537756
 21
91.38876081714818
 31
0.0
  0
LINE
  5
357
330
1F
100
AcDbEntity
  8
0
  6
CONTINUOUS
 62
     7
100
AcDbLine
 10
109.72375662756
 20
104.2925311571482
 30
0.0
 11
109.72375662756
 21
103.9968757971482
 31
0.0
  0
LINE
  5
358
330
1F
100
AcDbEntity
  8
0
  6
CONTINUOUS
 62
     7
100
AcDbLine
 10
118.52683599136
 20
99.59504974094818
 30
0.0
 11
118.59149612136
 21
99.69071073094818
 31
0.0
  0
LINE
  5
359
330
1F
100
AcDbEntity
  8
0
  6
CONTINUOUS
 62
     7
100
AcDbLine
 10
117.56048670136
 20
99.00094517094817
 30
0.0
 11
117.67746923136
 21
99.02489704094819
 31
0.0
  0
LINE
  5
35A
330
1F
100
AcDbEntity
  8
0
  6
CONTINUOUS
 62
     7
100
AcDbLine
 10
118.29254796136
 20
99.34220035094819
 30
0.0
 11
118.37697433136
 21
99.42040794094817
 31
0.0
  0
LINE
  5
35B
330
1F
100
AcDbEntity
  8
0
  6
CONTINUOUS
 62
     7
100
AcDbLine
 10
119.43655651136
 20
98.36077193094815
 30
0.0
 11
119.59287212136
 21
98.52953500094816
 31
0.0
  0
LINE
  5
35C
330
1F
100
AcDbEntity
  8
0
  6
CONTINUOUS
 62
     7
100
AcDbLine
 10
123.21304514136
 20
101.7662884909482
 30
0.0
 11
123.15973611136
 21
101.8884643409482
 31
0.0
  0
LINE
  5
35D
330
1F
100
AcDbEntity
  8
0
  6
CONTINUOUS
 62
     7
100
AcDbLine
 10
120.41310160136
 20
101.7662884909482
 30
0.0
 11
120.37060338136
 21
101.6387455309481
 31
0.0
  0
LINE
  5
35E
330
1F
100
AcDbEntity
  8
0
  6
CONTINUOUS
 62
     7
100
AcDbLine
 10
119.4156706213599
 20
-21.60811093905181
 30
0.0
 11
119.4156706213599
 21
-22.46656976905183
 31
0.0
  0
LINE
  5
35F
330
1F
100
AcDbEntity
  8
0
  6
CONTINUOUS
 62
     7
100
AcDbLine
 10
99.93193310135996
 20
89.29500316094817
 30
0.0
 11
98.78299376135999
 21
89.29500316094817
 31
0.0
  0
LINE
  5
360
330
1F
100
AcDbEntity
  8
0
  6
CONTINUOUS
 62
     7
100
AcDbLine
 10
119.24775614136
 20
102.7802183809482
 30
0.0
 11
119.12068809136
 21
102.5477155009482
 31
0.0
  0
LINE
  5
361
330
1F
100
AcDbEntity
  8
0
  6
CONTINUOUS
 62
     7
100
AcDbLine
 10
119.4156706213599
 20
-19.45036289905181
 30
0.0
 11
119.4156706213599
 21
-19.79684339905185
 31
0.0
  0
LINE
  5
362
330
1F
100
AcDbEntity
  8
0
  6
CONTINUOUS
 62
     7
100
AcDbLine
 10
119.56593026136
 20
-17.90884427905183
 30
0.0
 11
119.5135279413599
 21
-18.01529247905182
 31
0.0
  0
LINE
  5
363
330
1F
100
AcDbEntity
  8
0
  6
CONTINUOUS
 62
     7
100
AcDbLine
 10
79.15025586136
 20
93.57165857094816
 30
0.0
 11
79.15025586136
 21
94.37092072094816
 31
0.0
  0
LINE
  5
364
330
1F
100
AcDbEntity
  8
0
  6
CONTINUOUS
 62
     7
100
AcDbLine
 10
123.6709205613599
 20
-17.23813064905181
 30
0.0
 11
123.23624922136
 21
-17.24579129905186
 31
0.0
  0
LINE
  5
365
330
1F
100
AcDbEntity
  8
0
  6
CONTINUOUS
 62
     7
100
AcDbLine
 10
82.09753505136001
 20
100.4756299209482
 30
0.0
 11
82.09753505136001
 21
93.57165857094816
 31
0.0
  0
LINE
  5
366
330
1F
100
AcDbEntity
  8
0
  6
CONTINUOUS
 62
     7
100
AcDbLine
 10
90.54060281135997
 20
89.29500316094817
 30
0.0
 11
90.54060281135997
 21
88.49617165094816
 31
0.0
  0
LINE
  5
367
330
1F
100
AcDbEntity
  8
0
  6
CONTINUOUS
 62
     7
100
AcDbLine
 10
120.46644734136
 20
101.8884643409482
 30
0.0
 11
120.41310160136
 21
101.7662884909482
 31
0.0
  0
LINE
  5
368
330
1F
100
AcDbEntity
  8
0
  6
CONTINUOUS
 62
     7
100
AcDbLine
 10
109.72375662756
 20
105.3791048571481
 30
0.0
 11
109.72375662756
 21
104.9965235971482
 31
0.0
  0
LINE
  5
369
330
1F
100
AcDbEntity
  8
0
  6
CONTINUOUS
 62
     7
100
AcDbLine
 10
121.85320951756
 20
91.38876081714818
 30
0.0
 11
121.9677468275599
 21
91.38876081714818
 31
0.0
  0
LINE
  5
36A
330
1F
100
AcDbEntity
  8
0
  6
CONTINUOUS
 62
     7
100
AcDbLine
 10
119.4156706213599
 20
-20.16540610905184
 30
0.0
 11
119.4156706213599
 21
-20.54343262905184
 31
0.0
  0
LINE
  5
36B
330
1F
100
AcDbEntity
  8
0
  6
CONTINUOUS
 62
     7
100
AcDbLine
 10
18.55717716096001
 20
-22.46656976905183
 30
0.0
 11
119.4156706213599
 21
-22.46656976905183
 31
0.0
  0
LINE
  5
36C
330
1F
100
AcDbEntity
  8
0
  6
CONTINUOUS
 62
     7
100
AcDbLine
 10
120.3040500713599
 20
100.2341139809482
 30
0.0
 11
120.31397927136
 21
100.4799362909482
 31
0.0
  0
LINE
  5
36D
330
1F
100
AcDbEntity
  8
0
  6
CONTINUOUS
 62
     7
100
AcDbLine
 10
119.93830065136
 20
103.5682020009482
 30
0.0
 11
119.74062239136
 21
103.3948109209481
 31
0.0
  0
LINE
  5
36E
330
1F
100
AcDbEntity
  8
0
  6
CONTINUOUS
 62
     7
100
AcDbLine
 10
118.26489160136
 20
97.63588595094814
 30
0.0
 11
118.48414910136
 21
97.71859806094818
 31
0.0
  0
LINE
  5
36F
330
1F
100
AcDbEntity
  8
0
  6
CONTINUOUS
 62
     7
100
AcDbLine
 10
123.91944435756
 20
91.38876081714818
 30
0.0
 11
124.23111361756
 21
91.38876081714818
 31
0.0
  0
LINE
  5
370
330
1F
100
AcDbEntity
  8
0
  6
CONTINUOUS
 62
     7
100
AcDbLine
 10
117.31760747136
 20
98.98131976094817
 30
0.0
 11
110.59105853136
 21
98.98131976094817
 31
0.0
  0
LINE
  5
371
330
1F
100
AcDbEntity
  8
0
  6
CONTINUOUS
 62
     7
100
AcDbLine
 10
118.92927914136
 20
102.0481535909482
 30
0.0
 11
118.8672369713599
 21
101.7833952109482
 31
0.0
  0
LINE
  5
372
330
1F
100
AcDbEntity
  8
0
  6
CONTINUOUS
 62
     7
100
AcDbLine
 10
117.79096359136
 20
99.05775954094815
 30
0.0
 11
117.90058222136
 21
99.09914606094816
 31
0.0
  0
LINE
  5
373
330
1F
100
AcDbEntity
  8
0
  6
CONTINUOUS
 62
     7
100
AcDbLine
 10
117.31760747136
 20
97.48313386094816
 30
0.0
 11
117.56342666136
 21
97.49306618094818
 31
0.0
  0
LINE
  5
374
330
1F
100
AcDbEntity
  8
0
  6
CONTINUOUS
 62
     7
100
AcDbLine
 10
118.20230799136
 20
99.27058375094816
 30
0.0
 11
118.29254796136
 21
99.34220035094819
 31
0.0
  0
LINE
  5
375
330
1F
100
AcDbEntity
  8
0
  6
CONTINUOUS
 62
     7
100
AcDbLine
 10
122.84953272136
 20
102.3119740409481
 30
0.0
 11
122.75061345136
 21
102.3986724309482
 31
0.0
  0
LINE
  5
376
330
1F
100
AcDbEntity
  8
0
  6
CONTINUOUS
 62
     7
100
AcDbLine
 10
123.2555080813599
 20
101.6387455309481
 30
0.0
 11
123.21304514136
 21
101.7662884909482
 31
0.0
  0
LINE
  5
377
330
1F
100
AcDbEntity
  8
0
  6
CONTINUOUS
 62
     7
100
AcDbLine
 10
79.15025586136
 20
93.57165857094816
 30
0.0
 11
77.20205437135996
 21
93.57165857094816
 31
0.0
  0
LINE
  5
378
330
1F
100
AcDbEntity
  8
0
  6
CONTINUOUS
 62
     7
100
AcDbLine
 10
98.78299376135999
 20
99.67550650094819
 30
0.0
 11
98.78299376135999
 21
89.29500316094817
 31
0.0
  0
LINE
  5
379
330
1F
100
AcDbEntity
  8
0
  6
CONTINUOUS
 62
     7
100
AcDbLine
 10
118.73974289136
 20
100.0064148109482
 30
0.0
 11
118.77262202136
 21
100.1199345309482
 31
0.0
  0
LINE
  5
37A
330
1F
100
AcDbEntity
  8
0
  6
CONTINUOUS
 62
     7
100
AcDbLine
 10
118.00593755136
 20
99.14867001094814
 30
0.0
 11
118.10664200136
 21
99.20594477094818
 31
0.0
  0
LINE
  5
37B
330
1F
100
AcDbEntity
  8
0
  6
CONTINUOUS
 62
     7
100
AcDbLine
 10
99.93193310135996
 20
100.4756299209482
 30
0.0
 11
97.98459288135996
 21
100.4756299209482
 31
0.0
  0
LINE
  5
37C
330
1F
100
AcDbEntity
  8
0
  6
CONTINUOUS
 62
     7
100
AcDbLine
 10
120.28852351136
 20
-17.33681618905183
 30
0.0
 11
120.17462362136
 21
-17.37513080905183
 31
0.0
  0
LINE
  5
37D
330
1F
100
AcDbEntity
  8
0
  6
CONTINUOUS
 62
     7
100
AcDbLine
 10
124.76957587756
 20
91.38876081714818
 30
0.0
 11
124.97446532756
 21
91.38876081714818
 31
0.0
  0
LINE
  5
37E
330
1F
100
AcDbEntity
  8
0
  6
CONTINUOUS
 62
     7
100
AcDbLine
 10
119.4156706213599
 20
-18.53763127905182
 30
0.0
 11
119.4156706213599
 21
-18.66959880905182
 31
0.0
  0
LINE
  5
37F
330
1F
100
AcDbEntity
  8
0
  6
CONTINUOUS
 62
     7
100
AcDbLine
 10
121.71268804136
 20
-21.40754196905186
 30
0.0
 11
121.71268804136
 21
-20.40889491905182
 31
0.0
  0
LINE
  5
380
330
1F
100
AcDbEntity
  8
0
  6
CONTINUOUS
 62
     7
100
AcDbLine
 10
110.99080459756
 20
98.08351961714817
 30
0.0
 11
111.5828128775599
 21
97.03297115714815
 31
0.0
  0
LINE
  5
381
330
1F
100
AcDbEntity
  8
0
  6
CONTINUOUS
 62
     7
100
AcDbLine
 10
116.96751411756
 20
92.39873223714818
 30
0.0
 11
118.10802979756
 21
91.96689140714818
 31
0.0
  0
LINE
  5
382
330
1F
100
AcDbEntity
  8
0
  6
CONTINUOUS
 62
     7
100
AcDbLine
 10
120.53018925136
 20
-17.29507353905183
 30
0.0
 11
120.4072567813599
 21
-17.30991579905185
 31
0.0
  0
LINE
  5
383
330
1F
100
AcDbEntity
  8
0
  6
CONTINUOUS
 62
     7
100
AcDbLine
 10
109.72375662756
 20
107.5334311071481
 30
0.0
 11
109.72375662756
 21
105.3791048571481
 31
0.0
  0
LINE
  5
384
330
1F
100
AcDbEntity
  8
0
  6
CONTINUOUS
 62
     7
100
AcDbLine
 10
120.91469500136
 20
-17.28670641905182
 30
0.0
 11
120.71441134136
 21
-17.29023622905186
 31
0.0
  0
LINE
  5
385
330
1F
100
AcDbEntity
  8
0
  6
CONTINUOUS
 62
     7
100
AcDbLine
 10
79.15025586136
 20
94.37092072094816
 30
0.0
 11
78.00131652135997
 21
94.37092072094816
 31
0.0
  0
LINE
  5
386
330
1F
100
AcDbEntity
  8
0
  6
CONTINUOUS
 62
     7
100
AcDbLine
 10
119.5135279413599
 20
-18.01529247905182
 30
0.0
 11
119.47166663136
 21
-18.12735984905186
 31
0.0
  0
LINE
  5
387
330
1F
100
AcDbEntity
  8
0
  6
CONTINUOUS
 62
     7
100
AcDbLine
 10
123.09615568136
 20
102.0046969409482
 30
0.0
 11
123.02287852136
 21
102.1144101709482
 31
0.0
  0
LINE
  5
388
330
1F
100
AcDbEntity
  8
0
  6
CONTINUOUS
 62
     7
100
AcDbLine
 10
121.39450502136
 20
104.1975583909482
 30
0.0
 11
121.12539216136
 21
104.1473446409482
 31
0.0
  0
LINE
  5
389
330
1F
100
AcDbEntity
  8
0
  6
CONTINUOUS
 62
     7
100
AcDbLine
 10
120.22692644136
 20
99.75967890094819
 30
0.0
 11
120.27477580136
 21
99.99377131094815
 31
0.0
  0
LINE
  5
38A
330
1F
100
AcDbEntity
  8
0
  6
CONTINUOUS
 62
     7
100
AcDbLine
 10
123.59408537756
 20
91.38876081714818
 30
0.0
 11
123.91944435756
 21
91.38876081714818
 31
0.0
  0
LINE
  5
38B
330
1F
100
AcDbEntity
  8
0
  6
CONTINUOUS
 62
     7
100
AcDbLine
 10
125.5571772713599
 20
-17.20488720905183
 30
0.0
 11
124.4472522613599
 21
-17.22444855905184
 31
0.0
  0
LINE
  5
38C
330
1F
100
AcDbEntity
  8
0
  6
CONTINUOUS
 62
     7
100
AcDbLine
 10
118.8672369713599
 20
101.7833952109482
 30
0.0
 11
118.82916881136
 21
101.5101856409482
 31
0.0
  0
LINE
  5
38D
330
1F
100
AcDbEntity
  8
0
  6
CONTINUOUS
 62
     7
100
AcDbLine
 10
117.67746923136
 20
99.02489704094819
 30
0.0
 11
117.79096359136
 21
99.05775954094815
 31
0.0
  0
LINE
  5
38E
330
1F
100
AcDbEntity
  8
0
  6
CONTINUOUS
 62
     7
100
AcDbLine
 10
118.37697433136
 20
99.42040794094817
 30
0.0
 11
118.45519953136
 21
99.50481994094815
 31
0.0
  0
LINE
  5
38F
330
1F
100
AcDbEntity
  8
0
  6
CONTINUOUS
 62
     7
100
AcDbLine
 10
120.86531168136
 20
104.0737255409481
 30
0.0
 11
120.61541293136
 21
103.9778514109482
 31
0.0
  0
LINE
  5
390
330
1F
100
AcDbEntity
  8
0
  6
CONTINUOUS
 62
     7
100
AcDbLine
 10
120.53725427756
 20
91.45522458714817
 30
0.0
 11
121.81259667756
 21
91.38876081714818
 31
0.0
  0
LINE
  5
391
330
1F
100
AcDbEntity
  8
0
  6
CONTINUOUS
 62
     7
100
AcDbLine
 10
39.88736389136
 20
99.48085860094818
 30
0.0
 11
39.88736389136
 21
89.49008170094817
 31
0.0
  0
LINE
  5
392
330
1F
100
AcDbEntity
  8
0
  6
CONTINUOUS
 62
     7
100
AcDbLine
 10
92.48880431136001
 20
88.49617165094816
 30
0.0
 11
90.54060281135997
 21
88.49617165094816
 31
0.0
  0
LINE
  5
393
330
1F
100
AcDbEntity
  8
0
  6
CONTINUOUS
 62
     7
100
AcDbLine
 10
39.88736389136
 20
99.48085860094818
 30
0.0
 11
37.48871616136
 21
99.48085860094818
 31
0.0
  0
LINE
  5
394
330
1F
100
AcDbEntity
  8
0
  6
CONTINUOUS
 62
     7
100
AcDbLine
 10
118.7965869613599
 20
100.2369524209482
 30
0.0
 11
118.81125015136
 21
100.3570818709482
 31
0.0
  0
LINE
  5
395
330
1F
100
AcDbEntity
  8
0
  6
CONTINUOUS
 62
     7
100
AcDbLine
 10
100.93187207136
 20
100.4756299209482
 30
0.0
 11
100.93187207136
 21
99.67550650094819
 31
0.0
  0
LINE
  5
396
330
1F
100
AcDbEntity
  8
0
  6
CONTINUOUS
 62
     7
100
AcDbLine
 10
120.37684527136
 20
103.8608725609482
 30
0.0
 11
120.15075806136
 21
103.7239393209481
 31
0.0
  0
LINE
  5
397
330
1F
100
AcDbEntity
  8
0
  6
CONTINUOUS
 62
     7
100
AcDbLine
 10
123.47534912136
 20
103.7239393209481
 30
0.0
 11
123.24913166136
 21
103.8608725609482
 31
0.0
  0
LINE
  5
398
330
1F
100
AcDbEntity
  8
0
  6
CONTINUOUS
 62
     7
100
AcDbLine
 10
119.4156706213599
 20
-18.87412219905184
 30
0.0
 11
119.4156706213599
 21
-19.13858302905186
 31
0.0
  0
LINE
  5
399
330
1F
100
AcDbEntity
  8
0
  6
CONTINUOUS
 62
     7
100
AcDbLine
 10
119.69982121136
 20
-17.71538096905186
 30
0.0
 11
119.62823941136
 21
-17.80865914905183
 31
0.0
  0
LINE
  5
39A
330
1F
100
AcDbEntity
  8
0
  6
CONTINUOUS
 62
     7
100
AcDbLine
 10
77.20205437135996
 20
100.4756299209482
 30
0.0
 11
77.20205437135996
 21
93.57165857094816
 31
0.0
  0
LINE
  5
39B
330
1F
100
AcDbEntity
  8
0
  6
CONTINUOUS
 62
     7
100
AcDbLine
 10
89.54152512136
 20
100.4756299209482
 30
0.0
 11
89.54152512136
 21
99.67550650094819
 31
0.0
  0
ARC
  5
39C
330
1F
100
AcDbEntity
  8
0
  6
CONTINUOUS
 62
     7
100
AcDbCircle
 10
4.997176388959986
 20
-142.0265696200518
 30
0.0
 40
0.2399999999999807
100
AcDbArc
 50
180.0
 51
270.0
  0
ARC
  5
39D
330
1F
100
AcDbEntity
  8
0
  6
CONTINUOUS
 62
     7
100
AcDbCircle
 10
-240.17370642394
 20
251.8834302309481
 30
0.0
 40
3.150000004103653
100
AcDbArc
 50
0.0000871659998369
 51
179.9999128340002
  0
ARC
  5
39E
330
1F
100
AcDbEntity
  8
0
  6
CONTINUOUS
 62
     7
100
AcDbCircle
 10
-253.62370638664
 20
-22.16656976905182
 30
0.0
 40
0.2999999628000296
100
AcDbArc
 50
179.9999977463961
 51
270.0
  0
ARC
  5
39F
330
1F
100
AcDbEntity
  8
0
  6
CONTINUOUS
 62
     7
100
AcDbCircle
 10
-226.72370642384
 20
107.2334302309482
 30
0.0
 40
0.3000000000000114
100
AcDbArc
 50
0.0
 51
90.0
  0
ARC
  5
3A0
330
1F
100
AcDbEntity
  8
0
  6
CONTINUOUS
 62
     7
100
AcDbCircle
 10
-226.72370638664
 20
-22.16656976905182
 30
0.0
 40
0.2999999628000296
100
AcDbArc
 50
270.0
 51
0.0000022536039018
  0
ARC
  5
3A1
330
1F
100
AcDbEntity
  8
0
  6
CONTINUOUS
 62
     7
100
AcDbCircle
 10
-253.62370638664
 20
107.2334302309482
 30
0.0
 40
0.2999999628000014
100
AcDbArc
 50
90.0
 51
180.0000022917964
  0
ARC
  5
3A2
330
1F
100
AcDbEntity
  8
0
  6
CONTINUOUS
 62
     7
100
AcDbCircle
 10
-236.52370642384
 20
82.13343001634814
 30
0.0
 40
0.6000000000000227
100
AcDbArc
 50
90.0
 51
270.0
  0
ARC
  5
3A3
330
1F
100
AcDbEntity
  8
0
  6
CONTINUOUS
 62
     7
100
AcDbCircle
 10
-235.32370642384
 20
77.13343023104818
 30
0.0
 40
0.5999981524000759
100
AcDbArc
 50
270.0000136555003
 51
90.0
  0
ARC
  5
3A4
330
1F
100
AcDbEntity
  8
0
  6
CONTINUOUS
 62
     7
100
AcDbCircle
 10
-236.52370642384
 20
72.13343023104818
 30
0.0
 40
0.6000000000000796
100
AcDbArc
 50
90.0
 51
270.0
  0
ARC
  5
3A5
330
1F
100
AcDbEntity
  8
0
  6
CONTINUOUS
 62
     7
100
AcDbCircle
 10
-235.32370642384
 20
72.13343023104818
 30
0.0
 40
0.6000008344000776
100
AcDbArc
 50
270.000013655499
 51
90.0
  0
ARC
  5
3A6
330
1F
100
AcDbEntity
  8
0
  6
CONTINUOUS
 62
     7
100
AcDbCircle
 10
-235.32370628084
 20
67.13343035164814
 30
0.0
 40
0.6000001206001002
100
AcDbArc
 50
269.9999863445011
 51
90.0
  0
CIRCLE
  5
3A7
330
1F
100
AcDbEntity
  8
0
  6
CONTINUOUS
 62
     7
100
AcDbCircle
 10
-234.02370642384
 20
59.03343023094817
 30
0.0
 40
2.950000000000017
  0
ARC
  5
3A8
330
1F
100
AcDbEntity
  8
0
  6
CONTINUOUS
 62
     7
100
AcDbCircle
 10
-244.42370653934
 20
70.48343011544819
 30
0.0
 40
1.0
100
AcDbArc
 50
270.0
 51
0.0
  0
ARC
  5
3A9
330
1F
100
AcDbEntity
  8
0
  6
CONTINUOUS
 62
     7
100
AcDbCircle
 10
-244.42370653934
 20
77.58343041954816
 30
0.0
 40
1.000000000000018
100
AcDbArc
 50
359.9999825763006
 51
90.00000417690022
  0
ARC
  5
3AA
330
1F
100
AcDbEntity
  8
0
  6
CONTINUOUS
 62
     7
100
AcDbCircle
 10
-236.52370642384
 20
67.13343023104818
 30
0.0
 40
0.6000000000000796
100
AcDbArc
 50
90.0
 51
270.0
  0
ARC
  5
3AB
330
1F
100
AcDbEntity
  8
0
  6
CONTINUOUS
 62
     7
100
AcDbCircle
 10
-247.72370661224
 20
77.58343023094818
 30
0.0
 40
1.000000188600479
100
AcDbArc
 50
90.0
 51
179.9999429678016
  0
ARC
  5
3AC
330
1F
100
AcDbEntity
  8
0
  6
CONTINUOUS
 62
     7
100
AcDbCircle
 10
-236.52370642384
 20
77.13343105934814
 30
0.0
 40
0.5999989807000422
100
AcDbArc
 50
89.99999178759913
 51
270.0000082124009
  0
ARC
  5
3AD
330
1F
100
AcDbEntity
  8
0
  6
CONTINUOUS
 62
     7
100
AcDbCircle
 10
-247.72370653934
 20
70.48343023094816
 30
0.0
 40
1.00000026150002
100
AcDbArc
 50
179.9999989800993
 51
269.9999877844993
  0
ARC
  5
3AE
330
1F
100
AcDbEntity
  8
0
  6
CONTINUOUS
 62
     7
100
AcDbCircle
 10
-235.32370635234
 20
82.13342994584815
 30
0.0
 40
0.5999999295000336
100
AcDbArc
 50
269.9999931722999
 51
89.9999863444994
  0
ARC
  5
3AF
330
1F
100
AcDbEntity
  8
0
  6
CONTINUOUS
 62
     7
100
AcDbCircle
 10
4.997176388959986
 20
-132.9065696200518
 30
0.0
 40
0.2399999999999807
100
AcDbArc
 50
90.0
 51
180.0
  0
ARC
  5
3B0
330
1F
100
AcDbEntity
  8
0
  6
CONTINUOUS
 62
     7
100
AcDbCircle
 10
-236.52370642384
 20
67.13343023104818
 30
0.0
 40
0.5546029489000261
100
AcDbArc
 50
90.0
 51
270.0
  0
ARC
  5
3B1
330
1F
100
AcDbEntity
  8
0
  6
CONTINUOUS
 62
     7
100
AcDbCircle
 10
-235.32370635234
 20
82.13342994584815
 30
0.0
 40
0.5546026637000568
100
AcDbArc
 50
269.9999926134006
 51
89.99999261340058
  0
ARC
  5
3B2
330
1F
100
AcDbEntity
  8
0
  6
CONTINUOUS
 62
     7
100
AcDbCircle
 10
-236.52370642384
 20
72.13343023104818
 30
0.0
 40
0.5546029489000261
100
AcDbArc
 50
90.0
 51
270.0
  0
ARC
  5
3B3
330
1F
100
AcDbEntity
  8
0
  6
CONTINUOUS
 62
     7
100
AcDbCircle
 10
-235.32370628084
 20
67.13343035164814
 30
0.0
 40
0.5546035245000098
100
AcDbArc
 50
270.0
 51
90.0
  0
ARC
  5
3B4
330
1F
100
AcDbEntity
  8
0
  6
CONTINUOUS
 62
     7
100
AcDbCircle
 10
-236.52370642384
 20
82.13343001634814
 30
0.0
 40
0.5546025932000087
100
AcDbArc
 50
89.99999111539968
 51
270.0000088846003
  0
ARC
  5
3B5
330
1F
100
AcDbEntity
  8
0
  6
CONTINUOUS
 62
     7
100
AcDbCircle
 10
-235.32370642384
 20
72.13343023104818
 30
0.0
 40
0.5546029489000261
100
AcDbArc
 50
270.0
 51
90.0
  0
ARC
  5
3B6
330
1F
100
AcDbEntity
  8
0
  6
CONTINUOUS
 62
     7
100
AcDbCircle
 10
-235.32370642384
 20
77.13343023104818
 30
0.0
 40
0.554602948900083
100
AcDbArc
 50
270.0
 51
90.0
  0
ARC
  5
3B7
330
1F
100
AcDbEntity
  8
0
  6
CONTINUOUS
 62
     7
100
AcDbCircle
 10
-236.52370642384
 20
77.13343105934814
 30
0.0
 40
0.5546025932000087
100
AcDbArc
 50
89.99999111539968
 51
270.0000088846003
  0
CIRCLE
  5
3B8
330
1F
100
AcDbEntity
  8
0
  6
CONTINUOUS
 62
     7
100
AcDbCircle
 10
-234.02370642384
 20
59.03343023094817
 30
0.0
 40
2.0
  0
CIRCLE
  5
3B9
330
1F
100
AcDbEntity
  8
0
  6
CONTINUOUS
 62
     7
100
AcDbCircle
 10
-234.02370642384
 20
59.03343023094817
 30
0.0
 40
1.30000000000004
  0
ARC
  5
3BA
330
1F
100
AcDbEntity
  8
0
  6
CONTINUOUS
 62
     7
100
AcDbCircle
 10
-21.94282401923999
 20
251.8834302309481
 30
0.0
 40
3.150001168203637
100
AcDbArc
 50
0.0000871658993847
 51
179.9999128341006
  0
ARC
  5
3BB
330
1F
100
AcDbEntity
  8
0
  6
CONTINUOUS
 62
     7
100
AcDbCircle
 10
2.557177709259975
 20
86.23343023084817
 30
0.0
 40
0.1999999999999886
100
AcDbArc
 50
270.0
 51
0.0
  0
ARC
  5
3BC
330
1F
100
AcDbEntity
  8
0
  6
CONTINUOUS
 62
     7
100
AcDbCircle
 10
2.557177709259975
 20
98.83343023094818
 30
0.0
 40
0.2000000000001592
100
AcDbArc
 50
359.9999999714045
 51
89.99999997140452
  0
ARC
  5
3BD
330
1F
100
AcDbEntity
  8
0
  6
CONTINUOUS
 62
     7
100
AcDbCircle
 10
-14.24282323533998
 20
86.23342973914816
 30
0.0
 40
0.200000625900131
100
AcDbArc
 50
180.0
 51
270.0000836516036
  0
ARC
  5
3BE
330
1F
100
AcDbEntity
  8
0
  6
CONTINUOUS
 62
     7
100
AcDbCircle
 10
-14.24282435304002
 20
98.83342973914819
 30
0.0
 40
0.1999995082002073
100
AcDbArc
 50
89.99991634789637
 51
180.0
  0
ARC
  5
3BF
330
1F
100
AcDbEntity
  8
0
  6
CONTINUOUS
 62
     7
100
AcDbCircle
 10
12.45717770936
 20
86.83343023094818
 30
0.0
 40
0.3000000000000682
100
AcDbArc
 50
270.0
 51
0.0
  0
ARC
  5
3C0
330
1F
100
AcDbEntity
  8
0
  6
CONTINUOUS
 62
     7
100
AcDbCircle
 10
12.45717770936
 20
98.23343023094816
 30
0.0
 40
0.3000000000000682
100
AcDbArc
 50
0.0
 51
90.0
  0
ARC
  5
3C1
330
1F
100
AcDbEntity
  8
0
  6
CONTINUOUS
 62
     7
100
AcDbCircle
 10
3.057177709359962
 20
86.83343023094818
 30
0.0
 40
0.3000002384041551
100
AcDbArc
 50
180.0
 51
270.0002993892995
  0
ARC
  5
3C2
330
1F
100
AcDbEntity
  8
0
  6
CONTINUOUS
 62
     7
100
AcDbCircle
 10
3.057177709359962
 20
98.23343023094816
 30
0.0
 40
0.3000017286041186
100
AcDbArc
 50
89.99970061219854
 51
180.0
  0
ARC
  5
3C3
330
1F
100
AcDbEntity
  8
0
  6
CONTINUOUS
 62
     7
100
AcDbCircle
 10
18.55717770935996
 20
-20.46656976905183
 30
0.0
 40
2.000000000000075
100
AcDbArc
 50
180.0
 51
269.9999842895002
  0
ARC
  5
3C4
330
1F
100
AcDbEntity
  8
0
  6
CONTINUOUS
 62
     7
100
AcDbCircle
 10
18.55717858556
 20
105.5334302309482
 30
0.0
 40
2.000000876200233
100
AcDbArc
 50
90.0000157104994
 51
179.999970974
  0
ARC
  5
3C5
330
1F
100
AcDbEntity
  8
0
  6
CONTINUOUS
 62
     7
100
AcDbCircle
 10
-88.92199129314002
 20
-136.4927968939518
 30
0.0
 40
1.000000000000015
100
AcDbArc
 50
0.0
 51
58.46709497400093
  0
ARC
  5
3C6
330
1F
100
AcDbEntity
  8
0
  6
CONTINUOUS
 62
     7
100
AcDbCircle
 10
-113.92199129254
 20
-136.4927968939518
 30
0.0
 40
1.000000000000015
100
AcDbArc
 50
121.5329050259991
 51
180.0
  0
ARC
  5
3C7
330
1F
100
AcDbEntity
  8
0
  6
CONTINUOUS
 62
     7
100
AcDbCircle
 10
-124.90474245634
 20
-118.5936578958518
 30
0.0
 40
19.99999999992276
100
AcDbArc
 50
301.532905026
 51
356.8137758565
  0
ARC
  5
3C8
330
1F
100
AcDbEntity
  8
0
  6
CONTINUOUS
 62
     7
100
AcDbCircle
 10
-77.93924012934002
 20
-118.5936578958518
 30
0.0
 40
19.99999999992276
100
AcDbArc
 50
183.1862241435
 51
238.467094974
  0
ARC
  5
3C9
330
1F
100
AcDbEntity
  8
0
  6
CONTINUOUS
 62
     7
100
AcDbCircle
 10
-104.63612307524
 20
-119.7219612134518
 30
0.0
 40
0.299999999924126
100
AcDbArc
 50
96.86675148000029
 51
176.8137758767018
  0
ARC
  5
3CA
330
1F
100
AcDbEntity
  8
0
  6
CONTINUOUS
 62
     7
100
AcDbCircle
 10
-98.20785951044002
 20
-119.7219612134518
 30
0.0
 40
0.2999999999241275
100
AcDbArc
 50
3.186224123401197
 51
83.13324851999971
  0
ARC
  5
3CB
330
1F
100
AcDbEntity
  8
0
  6
CONTINUOUS
 62
     7
100
AcDbCircle
 10
-102.62199129284
 20
-70.12411314685184
 30
0.0
 40
0.3000000000000114
100
AcDbArc
 50
180.0
 51
270.0
  0
ARC
  5
3CC
330
1F
100
AcDbEntity
  8
0
  6
CONTINUOUS
 62
     7
100
AcDbCircle
 10
-100.22199129284
 20
-70.12411314685184
 30
0.0
 40
0.2999999999999829
100
AcDbArc
 50
270.0
 51
0.0
  0
ARC
  5
3CD
330
1F
100
AcDbEntity
  8
0
  6
CONTINUOUS
 62
     7
100
AcDbCircle
 10
-101.42199129284
 20
-61.92411314685182
 30
0.0
 40
1.5
100
AcDbArc
 50
0.0
 51
180.0
  0
ARC
  5
3CE
330
1F
100
AcDbEntity
  8
0
  6
CONTINUOUS
 62
     7
100
AcDbCircle
 10
12.51717770755999
 20
-132.9065696200518
 30
0.0
 40
0.2400000000000091
100
AcDbArc
 50
0.0
 51
90.0
  0
ARC
  5
3CF
330
1F
100
AcDbEntity
  8
0
  6
CONTINUOUS
 62
     7
100
AcDbCircle
 10
12.51717770755999
 20
-142.0265696200518
 30
0.0
 40
0.2400000000000091
100
AcDbArc
 50
270.0
 51
0.0
  0
ARC
  5
3D0
330
1F
100
AcDbEntity
  8
0
  6
CONTINUOUS
 62
     7
100
AcDbCircle
 10
18.55717770935996
 20
-250.4665697690518
 30
0.0
 40
2.000000000000048
100
AcDbArc
 50
180.0
 51
269.9999874522006
  0
ARC
  5
3D1
330
1F
100
AcDbEntity
  8
0
  6
CONTINUOUS
 62
     7
100
AcDbCircle
 10
18.55717814755997
 20
-124.4665697690518
 30
0.0
 40
2.000000438200204
100
AcDbArc
 50
90.00001254779986
 51
179.9999709740001
  0
SPLINE
  5
3D2
330
1F
100
AcDbEntity
  8
0
  6
CONTINUOUS
 62
     7
100
AcDbSpline
210
0.0
220
0.0
230
1.0
 70
     8
 71
     3
 72
    11
 73
     7
 74
     0
 42
0.000000001
 43
0.0000000001
 40
0.0
 40
0.0
 40
0.0
 40
0.0
 40
0.2067684670704239
 40
0.5608936350676353
 40
0.8516550673331417
 40
1.0
 40
1.0
 40
1.0
 40
1.0
 10
-16.89901564841114
 20
86.98275588184356
 30
0.0
 10
-17.14613267531689
 20
86.77390522458995
 30
0.0
 10
-17.81647844646824
 20
86.20736330457197
 30
0.0
 10
-19.19087258700944
 20
85.47902613497479
 30
0.0
 10
-20.73719068501089
 20
85.07782183740898
 30
0.0
 10
-21.63837393713459
 20
85.04464046433895
 30
0.0
 10
-21.94282401923999
 20
85.03343067794816
 30
0.0
  0
SPLINE
  5
3D3
330
1F
100
AcDbEntity
  8
0
  6
CONTINUOUS
 62
     7
100
AcDbSpline
210
0.0
220
0.0
230
1.0
 70
     8
 71
     3
 72
     9
 73
     5
 74
     0
 42
0.000000001
 43
0.0000000001
 40
0.0
 40
0.0
 40
0.0
 40
0.0
 40
0.7505903995493385
 40
1.0
 40
1.0
 40
1.0
 40
1.0
 10
15.6999130298662
 20
94.84283156435458
 30
0.0
 10
15.84328477694498
 20
94.27132760332029
 30
0.0
 10
16.0342967418797
 20
93.50992170021004
 30
0.0
 10
16.05261014432699
 20
92.72835997395379
 30
0.0
 10
16.05717768271438
 20
92.53343097608058
 30
0.0
  0
SPLINE
  5
3D4
330
1F
100
AcDbEntity
  8
0
  6
CONTINUOUS
 62
     7
100
AcDbSpline
210
0.0
220
0.0
230
1.0
 70
     8
 71
     3
 72
     9
 73
     5
 74
     0
 42
0.000000001
 43
0.0000000001
 40
0.0
 40
0.0
 40
0.0
 40
0.0
 40
0.0701846601748355
 40
1.0
 40
1.0
 40
1.0
 40
1.0
 10
16.05717768271438
 20
95.99752999584638
 30
0.0
 10
16.05682110973191
 20
95.97016361684018
 30
0.0
 10
16.05174061234618
 20
95.58024395435916
 30
0.0
 10
15.86942908480307
 20
95.19812843543536
 30
0.0
 10
15.6999130298662
 20
94.84283156435458
 30
0.0
  0
SPLINE
  5
3D5
330
1F
100
AcDbEntity
  8
0
  6
CONTINUOUS
 62
     7
100
AcDbSpline
210
0.0
220
0.0
230
1.0
 70
     8
 71
     3
 72
     9
 73
     5
 74
     0
 42
0.000000001
 43
0.0000000001
 40
0.0
 40
0.0
 40
0.0
 40
0.0
 40
0.7667083506233909
 40
0.9999999999999999
 40
0.9999999999999999
 40
0.9999999999999999
 40
0.9999999999999999
 10
16.05717768271438
 20
92.53343097608058
 30
0.0
 10
16.01458650536767
 20
91.93387958505718
 30
0.0
 10
15.9590358160969
 20
91.15189854815338
 30
0.0
 10
15.74892915855031
 20
90.39954758492757
 30
0.0
 10
15.69991302986631
 20
90.22403038780658
 30
0.0
  0
SPLINE
  5
3D6
330
1F
100
AcDbEntity
  8
0
  6
CONTINUOUS
 62
     7
100
AcDbSpline
210
0.0
220
0.0
230
1.0
 70
     8
 71
     3
 72
     9
 73
     5
 74
     0
 42
0.000000001
 43
0.0000000001
 40
0.0
 40
0.0
 40
0.0
 40
0.0
 40
0.2494095628856438
 40
1.0
 40
1.0
 40
1.0
 40
1.0
 10
14.25717701501799
 20
92.53343097617056
 30
0.0
 10
14.26174452913938
 20
92.72835997876416
 30
0.0
 10
14.2800578370514
 20
93.50992184166296
 30
0.0
 10
14.4710709297604
 20
94.27132764768277
 30
0.0
 10
14.61444353051138
 20
94.84283156444457
 30
0.0
  0
SPLINE
  5
3D7
330
1F
100
AcDbEntity
  8
0
  6
CONTINUOUS
 62
     7
100
AcDbSpline
210
0.0
220
0.0
230
1.0
 70
     8
 71
     3
 72
     9
 73
     5
 74
     0
 42
0.000000001
 43
0.0000000001
 40
0.0
 40
0.0
 40
0.0
 40
0.0
 40
0.2332916267598656
 40
1.0
 40
1.0
 40
1.0
 40
1.0
 10
14.61444353051138
 20
90.22403038789656
 30
0.0
 10
14.56542742380879
 20
90.39954758773456
 30
0.0
 10
14.35532084011641
 20
91.15189863554315
 30
0.0
 10
14.29976904300878
 20
91.93387961302284
 30
0.0
 10
14.25717701501799
 20
92.53343097617056
 30
0.0
  0
SPLINE
  5
3D8
330
1F
100
AcDbEntity
  8
0
  6
CONTINUOUS
 62
     7
100
AcDbSpline
210
0.0
220
0.0
230
1.0
 70
     8
 71
     3
 72
     9
 73
     5
 74
     0
 42
0.000000001
 43
0.0000000001
 40
0.0
 40
0.0
 40
0.0
 40
0.0
 40
0.0701854094539153
 40
1.0
 40
1.0
 40
1.0
 40
1.0
 10
14.25717701501799
 20
89.06932823111458
 30
0.0
 10
14.25753422396178
 20
89.09669588472417
 30
0.0
 10
14.26262372826898
 20
89.48662954504556
 30
0.0
 10
14.44493129499881
 20
89.86873922877555
 30
0.0
 10
14.61444353051138
 20
90.22403038789656
 30
0.0
  0
SPLINE
  5
3D9
330
1F
100
AcDbEntity
  8
0
  6
CONTINUOUS
 62
     7
100
AcDbSpline
210
0.0
220
0.0
230
1.0
 70
     8
 71
     3
 72
     9
 73
     5
 74
     0
 42
0.000000001
 43
0.0000000001
 40
0.0
 40
0.0
 40
0.0
 40
0.0
 40
0.0701855419659479
 40
1.0
 40
1.0
 40
1.0
 40
1.0
 10
16.05717768266618
 20
89.06932823100658
 30
0.0
 10
16.05682111757898
 20
89.04196057600677
 30
0.0
 10
16.05174079651727
 20
88.65202763207856
 30
0.0
 10
15.8694290902107
 20
88.26991948199498
 30
0.0
 10
15.69991302981811
 20
87.91462979951456
 30
0.0
  0
SPLINE
  5
3DA
330
1F
100
AcDbEntity
  8
0
  6
CONTINUOUS
 62
     7
100
AcDbSpline
210
0.0
220
0.0
230
1.0
 70
     8
 71
     3
 72
     9
 73
     5
 74
     0
 42
0.000000001
 43
0.0000000001
 40
0.0
 40
0.0
 40
0.0
 40
0.0
 40
0.0701854955865187
 40
1.0
 40
1.0
 40
1.0
 40
1.0
 10
14.25717701501799
 20
95.99752999597058
 30
0.0
 10
14.25753422319036
 20
96.02489764834638
 30
0.0
 10
14.2626237102636
 20
96.41483081254938
 30
0.0
 10
14.44493129446062
 20
96.79694077105438
 30
0.0
 10
14.61444353051138
 20
97.15223215275279
 30
0.0
  0
SPLINE
  5
3DB
330
1F
100
AcDbEntity
  8
0
  6
CONTINUOUS
 62
     7
100
AcDbSpline
210
0.0
220
0.0
230
1.0
 70
     8
 71
     3
 72
     9
 73
     5
 74
     0
 42
0.000000001
 43
0.0000000001
 40
0.0
 40
0.0
 40
0.0
 40
0.0
 40
0.0701854955865187
 40
1.0
 40
1.0
 40
1.0
 40
1.0
 10
14.25717701501799
 20
-134.0024700040293
 30
0.0
 10
14.25753422319036
 20
-133.975102351654
 30
0.0
 10
14.2626237102636
 20
-133.5851691874505
 30
0.0
 10
14.44493129446062
 20
-133.2030592289457
 30
0.0
 10
14.61444353051138
 20
-132.8477678472471
 30
0.0
  0
SPLINE
  5
3DC
330
1F
100
AcDbEntity
  8
0
  6
CONTINUOUS
 62
     7
100
AcDbSpline
210
0.0
220
0.0
230
1.0
 70
     8
 71
     3
 72
     9
 73
     5
 74
     0
 42
0.000000001
 43
0.0000000001
 40
0.0
 40
0.0
 40
0.0
 40
0.0
 40
0.2332916267598656
 40
1.0
 40
1.0
 40
1.0
 40
1.0
 10
14.61444353051138
 20
-139.7759696121033
 30
0.0
 10
14.56542742380879
 20
-139.6004524122655
 30
0.0
 10
14.35532084011641
 20
-138.8481013644569
 30
0.0
 10
14.29976904300878
 20
-138.0661203869773
 30
0.0
 10
14.25717701501799
 20
-137.4665690238294
 30
0.0
  0
SPLINE
  5
3DD
330
1F
100
AcDbEntity
  8
0
  6
CONTINUOUS
 62
     7
100
AcDbSpline
210
0.0
220
0.0
230
1.0
 70
     8
 71
     3
 72
     9
 73
     5
 74
     0
 42
0.000000001
 43
0.0000000001
 40
0.0
 40
0.0
 40
0.0
 40
0.0
 40
0.0701846601748355
 40
1.0
 40
1.0
 40
1.0
 40
1.0
 10
16.05717768271438
 20
-134.0024700041538
 30
0.0
 10
16.05682110973191
 20
-134.0298363831605
 30
0.0
 10
16.05174061234618
 20
-134.4197560456412
 30
0.0
 10
15.86942908480307
 20
-134.8018715645651
 30
0.0
 10
15.6999130298662
 20
-135.1571684356457
 30
0.0
  0
SPLINE
  5
3DE
330
1F
100
AcDbEntity
  8
0
  6
CONTINUOUS
 62
     7
100
AcDbSpline
210
0.0
220
0.0
230
1.0
 70
     8
 71
     3
 72
     9
 73
     5
 74
     0
 42
0.000000001
 43
0.0000000001
 40
0.0
 40
0.0
 40
0.0
 40
0.0
 40
0.0701854094539153
 40
1.0
 40
1.0
 40
1.0
 40
1.0
 10
14.25717701501799
 20
-140.9306717688855
 30
0.0
 10
14.25753422396178
 20
-140.9033041152759
 30
0.0
 10
14.26262372826898
 20
-140.5133704549545
 30
0.0
 10
14.44493129499881
 20
-140.1312607712244
 30
0.0
 10
14.61444353051138
 20
-139.7759696121033
 30
0.0
  0
SPLINE
  5
3DF
330
1F
100
AcDbEntity
  8
0
  6
CONTINUOUS
 62
     7
100
AcDbSpline
210
0.0
220
0.0
230
1.0
 70
     8
 71
     3
 72
     9
 73
     5
 74
     0
 42
0.000000001
 43
0.0000000001
 40
0.0
 40
0.0
 40
0.0
 40
0.0
 40
0.7667083506233909
 40
0.9999999999999999
 40
0.9999999999999999
 40
0.9999999999999999
 40
0.9999999999999999
 10
16.05717768271438
 20
-137.4665690239197
 30
0.0
 10
16.01458650536762
 20
-138.0661204149431
 30
0.0
 10
15.95903581609679
 20
-138.8481014518471
 30
0.0
 10
15.7489291585502
 20
-139.6004524150726
 30
0.0
 10
15.6999130298662
 20
-139.7759696121936
 30
0.0
  0
SPLINE
  5
3E0
330
1F
100
AcDbEntity
  8
0
  6
CONTINUOUS
 62
     7
100
AcDbSpline
210
0.0
220
0.0
230
1.0
 70
     8
 71
     3
 72
     9
 73
     5
 74
     0
 42
0.000000001
 43
0.0000000001
 40
0.0
 40
0.0
 40
0.0
 40
0.0
 40
0.0701855419659479
 40
1.0
 40
1.0
 40
1.0
 40
1.0
 10
16.05717768266618
 20
-140.9306717689936
 30
0.0
 10
16.05682111757898
 20
-140.9580394239935
 30
0.0
 10
16.05174079651727
 20
-141.3479723679217
 30
0.0
 10
15.8694290902107
 20
-141.7300805180053
 30
0.0
 10
15.69991302981811
 20
-142.0853702004855
 30
0.0
  0
SPLINE
  5
3E1
330
1F
100
AcDbEntity
  8
0
  6
CONTINUOUS
 62
     7
100
AcDbSpline
210
0.0
220
0.0
230
1.0
 70
     8
 71
     3
 72
     9
 73
     5
 74
     0
 42
0.000000001
 43
0.0000000001
 40
0.0
 40
0.0
 40
0.0
 40
0.0
 40
0.2494095628856438
 40
1.0
 40
1.0
 40
1.0
 40
1.0
 10
14.25717701501799
 20
-137.4665690238294
 30
0.0
 10
14.26174452913938
 20
-137.2716400212357
 30
0.0
 10
14.2800578370514
 20
-136.4900781583369
 30
0.0
 10
14.4710709297604
 20
-135.7286723523171
 30
0.0
 10
14.61444353051138
 20
-135.1571684355553
 30
0.0
  0
SPLINE
  5
3E2
330
1F
100
AcDbEntity
  8
0
  6
CONTINUOUS
 62
     7
100
AcDbSpline
210
0.0
220
0.0
230
1.0
 70
     8
 71
     3
 72
     9
 73
     5
 74
     0
 42
0.000000001
 43
0.0000000001
 40
0.0
 40
0.0
 40
0.0
 40
0.0
 40
0.7505903995493385
 40
1.0
 40
1.0
 40
1.0
 40
1.0
 10
15.6999130298662
 20
-135.1571684356457
 30
0.0
 10
15.84328477694498
 20
-135.7286723966803
 30
0.0
 10
16.0342967418797
 20
-136.4900782997903
 30
0.0
 10
16.05261014432699
 20
-137.2716400260465
 30
0.0
 10
16.05717768271438
 20
-137.4665690239197
 30
0.0
  0
ARC
  5
3E3
330
1F
100
AcDbEntity
  8
0
  6
DASHED
 62
     7
100
AcDbCircle
 10
-21.94282435304001
 20
92.53343023094817
 30
0.0
 40
162.5000000000002
100
AcDbArc
 50
90.0
 51
180.0
  0
TEXT
  5
3E5
330
1F
100
AcDbEntity
  8
0
 62
     7
100
AcDbText
 10
256.35593228756
 20
-266.6750980657518
 30
0.0
 40
11.6416666666
  1
000
 41
0.3315789473684208
  7
DCSTYLE0
 72
     5
 11
266.8334322875
 21
-266.6750980657518
 31
0.0
100
AcDbText
  0
VIEWPORT
  5
AD
330
1B
100
AcDbEntity
 67
     1
  8
0
100
AcDbViewport
 10
-0.4432430768400195
 20
-5.820833333300016
 30
0.0
 40
1546.1950521864
 41
1565.125588394711
 68
     1
 69
     1
1001
ACAD
1000
MVIEW
1002
{
1070
    16
1010
0.0
1020
0.0
1030
0.0
1010
0.0
1020
0.0
1030
1.0
1040
0.0
1040
1565.125588394711
1040
-0.4432430768400195
1040
-5.820833333300016
1040
50.0
1040
0.0
1040
0.0
1070
     0
1070
   100
1070
     0
1070
     3
1070
     0
1070
     0
1070
     0
1070
     0
1040
0.0
1040
0.0
1040
0.0
1040
0.5
1040
0.5
1040
0.0
1040
0.0
1070
     0
1002
{
1002
}
1002
}
  0
ENDSEC
  0
SECTION
  2
OBJECTS
  0
DICTIONARY
  5
C
330
0
100
AcDbDictionary
  3
ACAD_GROUP
350
D
  3
ACAD_LAYOUT
350
1A
  3
ACAD_MATERIAL
350
43
  3
ACAD_MLEADERSTYLE
350
409
  3
ACAD_MLINESTYLE
350
17
  3
ACAD_PLOTSETTINGS
350
19
  3
ACAD_SCALELIST
350
47
  3
ACAD_VISUALSTYLE
350
2A
  3
ACDBHEADERROUNDTRIPXREC
350
3E6
  3
ACDBVARIABLEDICTIONARY
350
407
  0
DICTIONARY
  5
40E
330
8
100
AcDbDictionary
280
     1
  3
ACAD_XREC_ROUNDTRIP
360
40F
  0
DICTIONARY
  5
D
102
{ACAD_REACTORS
330
C
102
}
330
C
100
AcDbDictionary
  0
DICTIONARY
  5
1A
102
{ACAD_REACTORS
330
C
102
}
330
C
100
AcDbDictionary
  0
DICTIONARY
  5
43
102
{ACAD_REACTORS
330
C
102
}
330
C
100
AcDbDictionary
  3
BYBLOCK
350
45
  3
BYLAYER
350
44
  3
GLOBAL
350
46
  0
DICTIONARY
  5
409
102
{ACAD_REACTORS
330
C
102
}
330
C
100
AcDbDictionary
  0
DICTIONARY
  5
17
102
{ACAD_REACTORS
330
C
102
}
330
C
100
AcDbDictionary
  3
STANDARD
350
18
  0
DICTIONARY
  5
19
102
{ACAD_REACTORS
330
C
102
}
330
C
100
AcDbDictionary
  0
DICTIONARY
  5
47
102
{ACAD_REACTORS
330
C
102
}
330
C
100
AcDbDictionary
  3
A0
350
48
  3
A1
350
49
  3
A2
350
4A
  3
A3
350
4B
  3
A4
350
4C
  3
A5
350
4D
  3
A6
350
4E
  3
A7
350
4F
  3
A8
350
50
  3
A9
350
51
  3
B0
350
52
  3
B1
350
53
  3
B2
350
54
  3
B3
350
55
  3
B4
350
56
  3
B5
350
57
  3
B6
350
58
  3
B7
350
59
  3
B8
350
5A
  3
B9
350
5B
  3
C0
350
5C
  3
C1
350
5D
  3
C2
350
5E
  3
C3
350
5F
  3
C4
350
60
  3
C5
350
61
  3
C6
350
62
  3
C7
350
63
  3
C8
350
64
  3
C9
350
65
  3
D0
350
66
  3
D1
350
67
  3
D2
350
68
  0
DICTIONARY
  5
2A
102
{ACAD_REACTORS
330
C
102
}
330
C
100
AcDbDictionary
  3
2DWIREFRAME
350
2F
  3
BASIC
350
32
  3
BRIGHTEN
350
36
  3
COLORCHANGE
350
3A
  3
CONCEPTUAL
350
34
  3
DIM
350
35
  3
EDGECOLOROFF
350
3D
  3
FACEPATTERN
350
39
  3
FLAT
350
2B
  3
FLATWITHEDGES
350
2C
  3
GOURAUD
350
2D
  3
GOURAUDWITHEDGES
350
2E
  3
HIDDEN
350
31
  3
JITTEROFF
350
3B
  3
LINEPATTERN
350
38
  3
OVERHANGOFF
350
3C
  3
REALISTIC
350
33
  3
SHADED
350
42
  3
SHADED_WITH_EDGES
350
41
  3
SHADES_OF_GRAY
350
3E
  3
SKETCHY
350
3F
  3
THICKEN
350
37
  3
WIREFRAME
350
30
  3
X-RAY
350
40
  0
DICTIONARY
  5
3E6
102
{ACAD_REACTORS
330
C
102
}
330
C
100
AcDbDictionary
  3
CEPSNID
350
3F0
  3
CEPSNTYPE
350
3EF
  3
DIMSTYLEDATA
350
406
  3
FINGERPRINTGUID
350
3F1
  3
HYPERLINKBASE
350
3E9
  3
INSUNITS
350
3EE
  3
LAYOUTDICT
350
3EB
  3
LWETCUNION
350
3ED
  3
PLOTSETDICT
350
3EC
  3
PSVPSCALE
350
3F3
  3
PUCSBASE
350
3F6
  3
PUCSORGBACK
350
3FC
  3
PUCSORGBOTTOM
350
3F8
  3
PUCSORGFRONT
350
3FB
  3
PUCSORGLEFT
350
3F9
  3
PUCSORGRIGHT
350
3FA
  3
PUCSORGTOP
350
3F7
  3
PUCSORTHOREF
350
3F4
  3
PUCSORTHOVIEW
350
3F5
  3
STYLESHEET
350
3EA
  3
TSTACKALIGN
350
3E7
  3
TSTACKSIZE
350
3E8
  3
UCSBASE
350
3FF
  3
UCSORGBACK
350
405
  3
UCSORGBOTTOM
350
401
  3
UCSORGFRONT
350
404
  3
UCSORGLEFT
350
402
  3
UCSORGRIGHT
350
403
  3
UCSORGTOP
350
400
  3
UCSORTHOREF
350
3FD
  3
UCSORTHOVIEW
350
3FE
  3
VERSIONGUID
350
3F2
  0
DICTIONARY
  5
407
102
{ACAD_REACTORS
330
C
102
}
330
C
100
AcDbDictionary
  3
CANNOSCALE
350
410
  3
DIMASSOC
350
40C
  3
HIDETEXT
350
40D
  3
MSLTSCALE
350
411
  0
XRECORD
  5
40F
102
{ACAD_REACTORS
330
40E
102
}
330
40E
100
AcDbXrecord
102
VTR_0.000_0.000_1.000_1.000_GRIDDISPLAY
 70
     3
102
VTR_0.000_0.000_1.000_1.000_GRIDMAJOR
 70
     5
102
VTR_0.000_0.000_1.000_1.000_DEFAULTLIGHTING
280
     1
102
VTR_0.000_0.000_1.000_1.000_DEFAULTLIGHTINGTYPE
 70
     1
102
VTR_0.000_0.000_1.000_1.000_BRIGHTNESS
141
0.0
102
VTR_0.000_0.000_1.000_1.000_CONTRAST
142
0.0
  0
MATERIAL
  5
45
102
{ACAD_REACTORS
330
43
102
}
102
{ACAD_XDICTIONARY
360
414
102
}
330
43
100
AcDbMaterial
  1
BYBLOCK
  0
MATERIAL
  5
44
102
{ACAD_REACTORS
330
43
102
}
102
{ACAD_XDICTIONARY
360
412
102
}
330
43
100
AcDbMaterial
  1
BYLAYER
  0
MATERIAL
  5
46
102
{ACAD_REACTORS
330
43
102
}
102
{ACAD_XDICTIONARY
360
416
102
}
330
43
100
AcDbMaterial
  1
GLOBAL
  0
MLINESTYLE
  5
18
102
{ACAD_REACTORS
330
17
102
}
330
17
100
AcDbMlineStyle
  2
Standard
 70
     0
  3

 62
   256
 51
90.0
 52
90.0
 71
     2
 49
0.5
 62
   256
  6
BYLAYER
 49
-0.5
 62
   256
  6
BYLAYER
  0
ACAD_PROXY_OBJECT
  5
48
102
{ACAD_REACTORS
330
47
102
}
330
47
100
AcDbProxyObject
 90
      499
 91
      503
 93
       41
310
903313A31580
  0
ACAD_PROXY_OBJECT
  5
49
102
{ACAD_REACTORS
330
47
102
}
330
47
100
AcDbProxyObject
 90
      499
 91
      503
 93
      105
310
903313A324000000000000004000
  0
ACAD_PROXY_OBJECT
  5
4A
102
{ACAD_REACTORS
330
47
102
}
330
47
100
AcDbProxyObject
 90
      499
 91
      503
 93
      105
310
903313A344000000000000104000
  0
ACAD_PROXY_OBJECT
  5
4B
102
{ACAD_REACTORS
330
47
102
}
330
47
100
AcDbProxyObject
 90
      499
 91
      503
 93
      105
310
903313A354000000000000144000
  0
ACAD_PROXY_OBJECT
  5
4C
102
{ACAD_REACTORS
330
47
102
}
330
47
100
AcDbProxyObject
 90
      499
 91
      503
 93
      105
310
903313A384000000000000204000
  0
ACAD_PROXY_OBJECT
  5
4D
102
{ACAD_REACTORS
330
47
102
}
330
47
100
AcDbProxyObject
 90
      499
 91
      503
 93
      113
310
904313A31304000000000000244000
  0
ACAD_PROXY_OBJECT
  5
4E
102
{ACAD_REACTORS
330
47
102
}
330
47
100
AcDbProxyObject
 90
      499
 91
      503
 93
      113
310
904313A31364000000000000304000
  0
ACAD_PROXY_OBJECT
  5
4F
102
{ACAD_REACTORS
330
47
102
}
330
47
100
AcDbProxyObject
 90
      499
 91
      503
 93
      113
310
904313A32304000000000000344000
  0
ACAD_PROXY_OBJECT
  5
50
102
{ACAD_REACTORS
330
47
102
}
330
47
100
AcDbProxyObject
 90
      499
 91
      503
 93
      113
310
904313A333040000000000003E4000
  0
ACAD_PROXY_OBJECT
  5
51
102
{ACAD_REACTORS
330
47
102
}
330
47
100
AcDbProxyObject
 90
      499
 91
      503
 93
      113
310
904313A34304000000000000444000
  0
ACAD_PROXY_OBJECT
  5
52
102
{ACAD_REACTORS
330
47
102
}
330
47
100
AcDbProxyObject
 90
      499
 91
      503
 93
      113
310
904313A35304000000000000494000
  0
ACAD_PROXY_OBJECT
  5
53
102
{ACAD_REACTORS
330
47
102
}
330
47
100
AcDbProxyObject
 90
      499
 91
      503
 93
      121
310
905313A3130304000000000000594000
  0
ACAD_PROXY_OBJECT
  5
54
102
{ACAD_REACTORS
330
47
102
}
330
47
100
AcDbProxyObject
 90
      499
 91
      503
 93
      105
310
903323A310000000000000010100
  0
ACAD_PROXY_OBJECT
  5
55
102
{ACAD_REACTORS
330
47
102
}
330
47
100
AcDbProxyObject
 90
      499
 91
      503
 93
      105
310
903343A310000000000000410100
  0
ACAD_PROXY_OBJECT
  5
56
102
{ACAD_REACTORS
330
47
102
}
330
47
100
AcDbProxyObject
 90
      499
 91
      503
 93
      105
310
903383A310000000000000810100
  0
ACAD_PROXY_OBJECT
  5
57
102
{ACAD_REACTORS
330
47
102
}
330
47
100
AcDbProxyObject
 90
      499
 91
      503
 93
      113
310
90431303A310000000000000910100
  0
ACAD_PROXY_OBJECT
  5
58
102
{ACAD_REACTORS
330
47
102
}
330
47
100
AcDbProxyObject
 90
      499
 91
      503
 93
      121
310
9053130303A310000000000001650100
  0
ACAD_PROXY_OBJECT
  5
59
102
{ACAD_REACTORS
330
47
102
}
330
47
100
AcDbProxyObject
 90
      499
 91
      503
 93
      257
310
90E312F31323822203D2031272D3022000000000000200FC000000000000284000
  0
ACAD_PROXY_OBJECT
  5
5A
102
{ACAD_REACTORS
330
47
102
}
330
47
100
AcDbProxyObject
 90
      499
 91
      503
 93
      249
310
90D312F363422203D2031272D3022000000000000240FC000000000000284000
  0
ACAD_PROXY_OBJECT
  5
5B
102
{ACAD_REACTORS
330
47
102
}
330
47
100
AcDbProxyObject
 90
      499
 91
      503
 93
      249
310
90D312F333222203D2031272D3022000000000000280FC000000000000284000
  0
ACAD_PROXY_OBJECT
  5
5C
102
{ACAD_REACTORS
330
47
102
}
330
47
100
AcDbProxyObject
 90
      499
 91
      503
 93
      249
310
90D312F313622203D2031272D30220000000000002C0FC000000000000284000
  0
ACAD_PROXY_OBJECT
  5
5D
102
{ACAD_REACTORS
330
47
102
}
330
47
100
AcDbProxyObject
 90
      499
 91
      503
 93
      249
310
90D332F333222203D2031272D30220000000000002E0FC000000000000284000
  0
ACAD_PROXY_OBJECT
  5
5E
102
{ACAD_REACTORS
330
47
102
}
330
47
100
AcDbProxyObject
 90
      499
 91
      503
 93
      241
310
90C312F3822203D2031272D3022000000000000300FC000000000000284000
  0
ACAD_PROXY_OBJECT
  5
5F
102
{ACAD_REACTORS
330
47
102
}
330
47
100
AcDbProxyObject
 90
      499
 91
      503
 93
      249
310
90D332F313622203D2031272D3022000000000000320FC000000000000284000
  0
ACAD_PROXY_OBJECT
  5
60
102
{ACAD_REACTORS
330
47
102
}
330
47
100
AcDbProxyObject
 90
      499
 91
      503
 93
      241
310
90C312F3422203D2031272D3022000000000000340FC000000000000284000
  0
ACAD_PROXY_OBJECT
  5
61
102
{ACAD_REACTORS
330
47
102
}
330
47
100
AcDbProxyObject
 90
      499
 91
      503
 93
      241
310
90C332F3822203D2031272D3022000000000000360FC000000000000284000
  0
ACAD_PROXY_OBJECT
  5
62
102
{ACAD_REACTORS
330
47
102
}
330
47
100
AcDbProxyObject
 90
      499
 91
      503
 93
      241
310
90C312F3222203D2031272D3022000000000000380FC000000000000284000
  0
ACAD_PROXY_OBJECT
  5
63
102
{ACAD_REACTORS
330
47
102
}
330
47
100
AcDbProxyObject
 90
      499
 91
      503
 93
      241
310
90C332F3422203D2031272D30220000000000003A0FC000000000000284000
  0
ACAD_PROXY_OBJECT
  5
64
102
{ACAD_REACTORS
330
47
102
}
330
47
100
AcDbProxyObject
 90
      499
 91
      503
 93
      161
310
90A3122203D2031272D30224000000000000284000
  0
ACAD_PROXY_OBJECT
  5
65
102
{ACAD_REACTORS
330
47
102
}
330
47
100
AcDbProxyObject
 90
      499
 91
      503
 93
      257
310
90E312D312F3222203D2031272D30220000000000003E0FC000000000000284000
  0
ACAD_PROXY_OBJECT
  5
66
102
{ACAD_REACTORS
330
47
102
}
330
47
100
AcDbProxyObject
 90
      499
 91
      503
 93
      225
310
90A3322203D2031272D302200000000000002100000000000000284000
  0
ACAD_PROXY_OBJECT
  5
67
102
{ACAD_REACTORS
330
47
102
}
330
47
100
AcDbProxyObject
 90
      499
 91
      503
 93
      225
310
90A3622203D2031272D302200000000000006100000000000000284000
  0
ACAD_PROXY_OBJECT
  5
68
102
{ACAD_REACTORS
330
47
102
}
330
47
100
AcDbProxyObject
 90
      499
 91
      503
 93
      249
310
90D31272D3022203D2031272D30220000000000000A100000000000000284000
  0
ACAD_PROXY_OBJECT
  5
2F
102
{ACAD_REACTORS
330
2A
102
}
330
2A
100
AcDbProxyObject
 90
      499
 91
      501
 93
      436
310
42CC9915DA5C99599C985B595049028333333333333E33F0000000000000F90107901411070040501600405405064090741402480A0340
1001
ACAD
1000
AcDbSavedByObjectVersion
1070
     0
  0
ACAD_PROXY_OBJECT
  5
32
102
{ACAD_REACTORS
330
2A
102
}
330
2A
100
AcDbProxyObject
 90
      499
 91
      501
 93
      388
310
4150985CDA58D07406404333333333333E33F0000000000000F90107A41107004050150841D405064090741402480A0350
1001
ACAD
1000
AcDbSavedByObjectVersion
1070
     0
  0
ACAD_PROXY_OBJECT
  5
36
102
{ACAD_REACTORS
330
2A
102
}
330
2A
100
AcDbProxyObject
 90
      499
 91
      501
 93
      428
310
42109C9A59DA1D195B90C409028333333333333E33F0000000000000F9010790141107004050150841D405064090741402480A029950
1001
ACAD
1000
AcDbSavedByObjectVersion
1070
     0
  0
ACAD_PROXY_OBJECT
  5
3A
102
{ACAD_REACTORS
330
2A
102
}
330
2A
100
AcDbProxyObject
 90
      499
 91
      501
 93
      452
310
42D0DBDB1BDC90DA185B99D95104090240C333333333333E33F0000000000000F90108901411070040501508421405064090741402480A0350
1001
ACAD
1000
AcDbSavedByObjectVersion
1070
     0
  0
ACAD_PROXY_OBJECT
  5
34
102
{ACAD_REACTORS
330
2A
102
}
330
2A
100
AcDbProxyObject
 90
      499
 91
      501
 93
      500
310
4290DBDB98D95C1D1D585B10940D028333333333333E33F0000000000000F90107902409070040501000000000018199010841D405064090740C02480A0340
1001
ACAD
1000
AcDbSavedByObjectVersion
1070
     0
  0
ACAD_PROXY_OBJECT
  5
35
102
{ACAD_REACTORS
330
2A
102
}
330
2A
100
AcDbProxyObject
 90
      499
 91
      501
 93
      412
310
40D11A5B50B409028333333333333E33F0000000000000F9010790141107004050150841D405064090741402480A02677FFFFFD0
1001
ACAD
1000
AcDbSavedByObjectVersion
1070
     0
  0
ACAD_PROXY_OBJECT
  5
3D
102
{ACAD_REACTORS
330
2A
102
}
330
2A
100
AcDbProxyObject
 90
      499
 91
      501
 93
      452
310
43115919D950DBDB1BDC93D999916409028333333333333E33F0000000000000F9010790141107004050150841D405064090741402480A0350
1001
ACAD
1000
AcDbSavedByObjectVersion
1070
     0
  0
ACAD_PROXY_OBJECT
  5
39
102
{ACAD_REACTORS
330
2A
102
}
330
2A
100
AcDbProxyObject
 90
      499
 91
      501
 93
      444
310
42D19858D95C185D1D195C9B90F409028333333333333E33F0000000000000F9010790141107004050150841D405064090741402480A0350
1001
ACAD
1000
AcDbSavedByObjectVersion
1070
     0
  0
ACAD_PROXY_OBJECT
  5
2B
102
{ACAD_REACTORS
330
2A
102
}
330
2A
100
AcDbProxyObject
 90
      499
 91
      501
 93
      380
310
41119B185D240901404333333333333E33F0000000000000F9010740A907004050150841D405064090741402480A1B50
1001
ACAD
1000
AcDbSavedByObjectVersion
1070
     0
  0
ACAD_PROXY_OBJECT
  5
2C
102
{ACAD_REACTORS
330
2A
102
}
330
2A
100
AcDbProxyObject
 90
      499
 91
      501
 93
      468
310
43519B185D15DA5D1A115919D95CD0140901404333333333333E33F0000000000000F90107409019070040501600405405064090741402480A1B50
1001
ACAD
1000
AcDbSavedByObjectVersion
1070
     0
  0
ACAD_PROXY_OBJECT
  5
2D
102
{ACAD_REACTORS
330
2A
102
}
330
2A
100
AcDbProxyObject
 90
      499
 91
      501
 93
      404
310
41D1DBDD5C985D5910240902404333333333333E33F0000000000000F9010740A9070040501641D405064090741402480A1B50
1001
ACAD
1000
AcDbSavedByObjectVersion
1070
     0
  0
ACAD_PROXY_OBJECT
  5
2E
102
{ACAD_REACTORS
330
2A
102
}
330
2A
100
AcDbProxyObject
 90
      499
 91
      501
 93
      492
310
4411DBDD5C985D5915DA5D1A115919D95CD0340902404333333333333E33F0000000000000F90107409019070040501600405405064090741402480A1B50
1001
ACAD
1000
AcDbSavedByObjectVersion
1070
     0
  0
ACAD_PROXY_OBJECT
  5
31
102
{ACAD_REACTORS
330
2A
102
}
330
2A
100
AcDbProxyObject
 90
      499
 91
      501
 93
      476
310
41921A5919195B90640502408333333333333E33F0000000000000F901079024090700405020000000000001110200405405064090740C02480A0340
1001
ACAD
1000
AcDbSavedByObjectVersion
1070
     0
  0
ACAD_PROXY_OBJECT
  5
3B
102
{ACAD_REACTORS
330
2A
102
}
330
2A
100
AcDbProxyObject
 90
      499
 91
      501
 93
      428
310
42529A5D1D195C93D999914409028333333333333E33F0000000000000F9010790141107004050150A41D405064090741402480A0350
1001
ACAD
1000
AcDbSavedByObjectVersion
1070
     0
  0
ACAD_PROXY_OBJECT
  5
38
102
{ACAD_REACTORS
330
2A
102
}
330
2A
100
AcDbProxyObject
 90
      499
 91
      501
 93
      444
310
42D31A5B995C185D1D195C9B90E409028333333333333E33F0000000000000F9010790141107004050750841D405064090741402483A0350
1001
ACAD
1000
AcDbSavedByObjectVersion
1070
     0
  0
ACAD_PROXY_OBJECT
  5
3C
102
{ACAD_REACTORS
330
2A
102
}
330
2A
100
AcDbProxyObject
 90
      499
 91
      501
 93
      444
310
42D3DD995C9A185B99D3D999915409028333333333333E33F0000000000000F9010790141107004050150941D405064090741402480A0350
1001
ACAD
1000
AcDbSavedByObjectVersion
1070
     0
  0
ACAD_PROXY_OBJECT
  5
33
102
{ACAD_REACTORS
330
2A
102
}
330
2A
100
AcDbProxyObject
 90
      499
 91
      501
 93
      428
310
425499585B1A5CDD1A58D08409038333333333333E33F0000000000000F9010740A907004050150800405405064090740C02480A1B40
1001
ACAD
1000
AcDbSavedByObjectVersion
1070
     0
  0
ACAD_PROXY_OBJECT
  5
42
102
{ACAD_REACTORS
330
2A
102
}
330
2A
100
AcDbProxyObject
 90
      499
 91
      501
 93
      420
310
4194DA1859195911B40902404333333333333E33F0000000000000F9010740A41107004050150800405405064090840C02480A0B40
1001
ACAD
1000
AcDbSavedByObjectVersion
1070
     0
  0
ACAD_PROXY_OBJECT
  5
41
102
{ACAD_REACTORS
330
2A
102
}
330
2A
100
AcDbProxyObject
 90
      499
 91
      501
 93
      516
310
4454DA18591959081DDA5D1A08195919D95CD1A40902404333333333333E33F0000000000000F901074090142907004050250800405405064090740C02480A0B40
1001
ACAD
1000
AcDbSavedByObjectVersion
1070
     0
  0
ACAD_PROXY_OBJECT
  5
3E
102
{ACAD_REACTORS
330
2A
102
}
330
2A
100
AcDbProxyObject
 90
      499
 91
      501
 93
      532
310
4394DA1859195CC81BD98811DC985E5174090240C333333333333E33F0000000000000F901079024090741D01000000000000111010841D405064090740C02480A0340
1001
ACAD
1000
AcDbSavedByObjectVersion
1070
     0
  0
ACAD_PROXY_OBJECT
  5
3F
102
{ACAD_REACTORS
330
2A
102
}
330
2A
100
AcDbProxyObject
 90
      499
 91
      501
 93
      476
310
41D4DAD95D18DA1E51840502408333333333333E33F0000000000000F901079024090741D01000000000000111010B41D405064090741802480A0340
1001
ACAD
1000
AcDbSavedByObjectVersion
1070
     0
  0
ACAD_PROXY_OBJECT
  5
37
102
{ACAD_REACTORS
330
2A
102
}
330
2A
100
AcDbProxyObject
 90
      499
 91
      501
 93
      412
310
41D51A1A58DAD95B90D409028333333333333E33F0000000000000F9010790141107004050150C41D405064090741402480A0350
1001
ACAD
1000
AcDbSavedByObjectVersion
1070
     0
  0
ACAD_PROXY_OBJECT
  5
30
102
{ACAD_REACTORS
330
2A
102
}
330
2A
100
AcDbProxyObject
 90
      499
 91
      501
 93
      420
310
4255DA5C99599C985B595059028333333333333E33F0000000000000F90107901411070040501600405405064090740C02480A0340
1001
ACAD
1000
AcDbSavedByObjectVersion
1070
     0
  0
ACAD_PROXY_OBJECT
  5
40
102
{ACAD_REACTORS
330
2A
102
}
330
2A
100
AcDbProxyObject
 90
      499
 91
      501
 93
      404
310
41560B54985E51940902404000000000000E03F0000000000000F9010740501907004050150841D405064090740C02480A1B40
1001
ACAD
1000
AcDbSavedByObjectVersion
1070
     0
  0
XRECORD
  5
3F0
102
{ACAD_REACTORS
330
3E6
102
}
330
3E6
100
AcDbXrecord
340
0
  0
XRECORD
  5
3EF
102
{ACAD_REACTORS
330
3E6
102
}
330
3E6
100
AcDbXrecord
 90
        0
  0
XRECORD
  5
406
102
{ACAD_REACTORS
330
3E6
102
}
330
3E6
100
AcDbXrecord
1000
DSTYLE
1002
{
1070
   179
 70
     2
1070
   171
 70
     2
1070
   143
 40
25.4
1070
   274
 70
     2
1070
    41
 40
3.000001907348633
1070
    79
 70
     2
1070
   141
 40
0.0
1070
    43
 40
10.0
1070
   278
 70
    46
1070
    44
 40
1.0
1070
    42
 40
1.0
1070
   147
 40
0.09
1070
   146
 40
0.65
1070
   172
 70
     0
1070
   340
340
11
1070
   140
 40
3.5
1070
   284
 70
     0
1070
    90
 70
     1
1002
}
  0
XRECORD
  5
3F1
102
{ACAD_REACTORS
330
3E6
102
}
330
3E6
100
AcDbXrecord
  1
{87398EDF-27F3-4F6C-B80E-39717A921318}
  0
XRECORD
  5
3E9
102
{ACAD_REACTORS
330
3E6
102
}
330
3E6
100
AcDbXrecord
  1

  0
XRECORD
  5
3EE
102
{ACAD_REACTORS
330
3E6
102
}
330
3E6
100
AcDbXrecord
 90
        4
  0
XRECORD
  5
3EB
102
{ACAD_REACTORS
330
3E6
102
}
330
3E6
100
AcDbXrecord
340
1A
  0
XRECORD
  5
3ED
102
{ACAD_REACTORS
330
3E6
102
}
330
3E6
100
AcDbXrecord
 90
    10781
  0
XRECORD
  5
3EC
102
{ACAD_REACTORS
330
3E6
102
}
330
3E6
100
AcDbXrecord
340
19
  0
XRECORD
  5
3F3
102
{ACAD_REACTORS
330
3E6
102
}
330
3E6
100
AcDbXrecord
 40
0.0
  0
XRECORD
  5
3F6
102
{ACAD_REACTORS
330
3E6
102
}
330
3E6
100
AcDbXrecord
340
0
  0
XRECORD
  5
3FC
102
{ACAD_REACTORS
330
3E6
102
}
330
3E6
100
AcDbXrecord
 10
0.0
 20
0.0
 30
0.0
  0
XRECORD
  5
3F8
102
{ACAD_REACTORS
330
3E6
102
}
330
3E6
100
AcDbXrecord
 10
0.0
 20
0.0
 30
0.0
  0
XRECORD
  5
3FB
102
{ACAD_REACTORS
330
3E6
102
}
330
3E6
100
AcDbXrecord
 10
0.0
 20
0.0
 30
0.0
  0
XRECORD
  5
3F9
102
{ACAD_REACTORS
330
3E6
102
}
330
3E6
100
AcDbXrecord
 10
0.0
 20
0.0
 30
0.0
  0
XRECORD
  5
3FA
102
{ACAD_REACTORS
330
3E6
102
}
330
3E6
100
AcDbXrecord
 10
0.0
 20
0.0
 30
0.0
  0
XRECORD
  5
3F7
102
{ACAD_REACTORS
330
3E6
102
}
330
3E6
100
AcDbXrecord
 10
0.0
 20
0.0
 30
0.0
  0
XRECORD
  5
3F4
102
{ACAD_REACTORS
330
3E6
102
}
330
3E6
100
AcDbXrecord
340
0
  0
XRECORD
  5
3F5
102
{ACAD_REACTORS
330
3E6
102
}
330
3E6
100
AcDbXrecord
 70
     0
  0
XRECORD
  5
3EA
102
{ACAD_REACTORS
330
3E6
102
}
330
3E6
100
AcDbXrecord
  1

  0
XRECORD
  5
3E7
102
{ACAD_REACTORS
330
3E6
102
}
330
3E6
100
AcDbXrecord
 90
        1
  0
XRECORD
  5
3E8
102
{ACAD_REACTORS
330
3E6
102
}
330
3E6
100
AcDbXrecord
 90
       70
  0
XRECORD
  5
3FF
102
{ACAD_REACTORS
330
3E6
102
}
330
3E6
100
AcDbXrecord
340
0
  0
XRECORD
  5
405
102
{ACAD_REACTORS
330
3E6
102
}
330
3E6
100
AcDbXrecord
 10
0.0
 20
0.0
 30
0.0
  0
XRECORD
  5
401
102
{ACAD_REACTORS
330
3E6
102
}
330
3E6
100
AcDbXrecord
 10
0.0
 20
0.0
 30
0.0
  0
XRECORD
  5
404
102
{ACAD_REACTORS
330
3E6
102
}
330
3E6
100
AcDbXrecord
 10
0.0
 20
0.0
 30
0.0
  0
XRECORD
  5
402
102
{ACAD_REACTORS
330
3E6
102
}
330
3E6
100
AcDbXrecord
 10
0.0
 20
0.0
 30
0.0
  0
XRECORD
  5
403
102
{ACAD_REACTORS
330
3E6
102
}
330
3E6
100
AcDbXrecord
 10
0.0
 20
0.0
 30
0.0
  0
XRECORD
  5
400
102
{ACAD_REACTORS
330
3E6
102
}
330
3E6
100
AcDbXrecord
 10
0.0
 20
0.0
 30
0.0
  0
XRECORD
  5
3FD
102
{ACAD_REACTORS
330
3E6
102
}
330
3E6
100
AcDbXrecord
340
0
  0
XRECORD
  5
3FE
102
{ACAD_REACTORS
330
3E6
102
}
330
3E6
100
AcDbXrecord
 70
     0
  0
XRECORD
  5
3F2
102
{ACAD_REACTORS
330
3E6
102
}
330
3E6
100
AcDbXrecord
  1
{FAEB1C32-E019-11D5-929B-00C0DF256EC4}
  0
DICTIONARYVAR
  5
410
102
{ACAD_REACTORS
330
407
102
}
330
407
100
DictionaryVariables
280
     0
  1
1:1
  0
DICTIONARYVAR
  5
40C
102
{ACAD_REACTORS
330
407
102
}
330
407
100
DictionaryVariables
280
     0
  1
2
  0
DICTIONARYVAR
  5
40D
102
{ACAD_REACTORS
330
407
102
}
330
407
100
DictionaryVariables
280
     0
  1
1
  0
DICTIONARYVAR
  5
411
102
{ACAD_REACTORS
330
407
102
}
330
407
100
DictionaryVariables
280
     0
  1
1
  0
DICTIONARY
  5
414
330
45
100
AcDbDictionary
280
     1
  3
ACAD_XREC_ROUNDTRIP
360
415
  0
DICTIONARY
  5
412
330
44
100
AcDbDictionary
280
     1
  3
ACAD_XREC_ROUNDTRIP
360
413
  0
DICTIONARY
  5
416
330
46
100
AcDbDictionary
280
     1
  3
ACAD_XREC_ROUNDTRIP
360
417
  0
XRECORD
  5
415
102
{ACAD_REACTORS
330
414
102
}
330
414
100
AcDbXrecord
102
MATERIAL
148
0.0
149
0.0
149
0.0
 93
        0
 94
      127
282
     0
 72
     1
 77
     1
171
     1
175
     1
179
     1
273
     0
  0
XRECORD
  5
413
102
{ACAD_REACTORS
330
412
102
}
330
412
100
AcDbXrecord
102
MATERIAL
148
0.0
149
0.0
149
0.0
 93
        0
 94
      127
282
     0
 72
     1
 77
     1
171
     1
175
     1
179
     1
273
     0
  0
XRECORD
  5
417
102
{ACAD_REACTORS
330
416
102
}
330
416
100
AcDbXrecord
102
MATERIAL
148
0.0
149
0.0
149
0.0
 93
        0
 94
      127
282
     0
 72
     1
 77
     1
171
     1
175
     1
179
     1
273
     0
  0
ENDSEC
  0
EOF
