  0
SECTION
  2
HEADER
  9
$ACADVER
  1
AC1014
  9
$ACADMAINTVER
 70
     9
  9
$DWGCODEPAGE
  3
ANSI_932
  9
$INSBASE
 10
0.0
 20
0.0
 30
0.0
  9
$EXTMIN
 10
-772.7627011439401
 20
-788.3836275306553
 30
0.0
  9
$EXTMAX
 10
771.87621499026
 20
776.7419608640553
 30
0.0
  9
$LIMMIN
 10
-594.5
 20
-420.5
  9
$LIMMAX
 10
594.5
 20
420.5
  9
$ORTHOMODE
 70
     0
  9
$REGENMODE
 70
     1
  9
$FILLMODE
 70
     1
  9
$QTEXTMODE
 70
     0
  9
$MIRRTEXT
 70
     1
  9
$DRAGMODE
 70
     2
  9
$LTSCALE
 40
0.25
  9
$OSMODE
 70
    37
  9
$ATTMODE
 70
     1
  9
$TEXTSIZE
 40
0.2
  9
$TRACEWID
 40
0.05
  9
$TEXTSTYLE
  7
STANDARD
  9
$CLAYER
  8
0
  9
$CELTYPE
  6
BYLAYER
  9
$CECOLOR
 62
   256
  9
$CELTSCALE
 40
1.0
  9
$DELOBJ
 70
     1
  9
$DISPSILH
 70
     0
  9
$DIMSCALE
 40
1.0
  9
$DIMASZ
 40
3.000001907348633
  9
$DIMEXO
 40
1.0
  9
$DIMDLI
 40
10.0
  9
$DIMRND
 40
0.0
  9
$DIMDLE
 40
0.0
  9
$DIMEXE
 40
1.0
  9
$DIMTP
 40
0.0
  9
$DIMTM
 40
0.0
  9
$DIMTXT
 40
3.5
  9
$DIMCEN
 40
0.0
  9
$DIMTSZ
 40
0.0
  9
$DIMTOL
 70
     0
  9
$DIMLIM
 70
     0
  9
$DIMTIH
 70
     0
  9
$DIMTOH
 70
     0
  9
$DIMSE1
 70
     0
  9
$DIMSE2
 70
     0
  9
$DIMTAD
 70
     1
  9
$DIMZIN
 70
     8
  9
$DIMBLK
  1

  9
$DIMASO
 70
     1
  9
$DIMSHO
 70
     1
  9
$DIMPOST
  1

  9
$DIMAPOST
  1

  9
$DIMALT
 70
     0
  9
$DIMALTD
 70
     2
  9
$DIMALTF
 40
25.4
  9
$DIMLFAC
 40
1.0
  9
$DIMTOFL
 70
     0
  9
$DIMTVP
 40
0.0
  9
$DIMTIX
 70
     0
  9
$DIMSOXD
 70
     0
  9
$DIMSAH
 70
     0
  9
$DIMBLK1
  1

  9
$DIMBLK2
  1

  9
$DIMSTYLE
  2
STANDARD
  9
$DIMCLRD
 70
     0
  9
$DIMCLRE
 70
     0
  9
$DIMCLRT
 70
     0
  9
$DIMTFAC
 40
0.65
  9
$DIMGAP
 40
0.09
  9
$DIMJUST
 70
     0
  9
$DIMSD1
 70
     0
  9
$DIMSD2
 70
     0
  9
$DIMTOLJ
 70
     0
  9
$DIMTZIN
 70
     0
  9
$DIMALTZ
 70
     0
  9
$DIMALTTZ
 70
     0
  9
$DIMFIT
 70
     3
  9
$DIMUPT
 70
     0
  9
$DIMUNIT
 70
     2
  9
$DIMDEC
 70
     2
  9
$DIMTDEC
 70
     2
  9
$DIMALTU
 70
     2
  9
$DIMALTTD
 70
     2
  9
$DIMTXSTY
  7
STANDARD
  9
$DIMAUNIT
 70
     0
  9
$LUNITS
 70
     2
  9
$LUPREC
 70
     4
  9
$SKETCHINC
 40
0.1
  9
$FILLETRAD
 40
0.5
  9
$AUNITS
 70
     0
  9
$AUPREC
 70
     0
  9
$MENU
  1
.
  9
$ELEVATION
 40
0.0
  9
$PELEVATION
 40
0.0
  9
$THICKNESS
 40
0.0
  9
$LIMCHECK
 70
     0
  9
$CHAMFERA
 40
0.0
  9
$CHAMFERB
 40
0.0
  9
$CHAMFERC
 40
0.0
  9
$CHAMFERD
 40
0.0
  9
$SKPOLY
 70
     0
  9
$TDCREATE
 40
2457242.423507025
  9
$TDUPDATE
 40
2457242.423507199
  9
$TDINDWG
 40
0.0000000116
  9
$TDUSRTIMER
 40
0.0000000116
  9
$USRTIMER
 70
     1
  9
$ANGBASE
 50
0.0
  9
$ANGDIR
 70
     0
  9
$PDMODE
 70
     0
  9
$PDSIZE
 40
1.0
  9
$PLINEWID
 40
0.0
  9
$COORDS
 70
     1
  9
$SPLFRAME
 70
     0
  9
$SPLINETYPE
 70
     6
  9
$SPLINESEGS
 70
     8
  9
$ATTDIA
 70
     0
  9
$ATTREQ
 70
     1
  9
$HANDLING
 70
     1
  9
$HANDSEED
  5
60E
  9
$SURFTAB1
 70
     6
  9
$SURFTAB2
 70
     6
  9
$SURFTYPE
 70
     6
  9
$SURFU
 70
     6
  9
$SURFV
 70
     6
  9
$UCSNAME
  2

  9
$UCSORG
 10
0.0
 20
0.0
 30
0.0
  9
$UCSXDIR
 10
1.0
 20
0.0
 30
0.0
  9
$UCSYDIR
 10
0.0
 20
1.0
 30
0.0
  9
$PUCSNAME
  2

  9
$PUCSORG
 10
0.0
 20
0.0
 30
0.0
  9
$PUCSXDIR
 10
1.0
 20
0.0
 30
0.0
  9
$PUCSYDIR
 10
0.0
 20
1.0
 30
0.0
  9
$USERI1
 70
     0
  9
$USERI2
 70
     0
  9
$USERI3
 70
     0
  9
$USERI4
 70
     0
  9
$USERI5
 70
     0
  9
$USERR1
 40
0.0
  9
$USERR2
 40
0.0
  9
$USERR3
 40
0.0
  9
$USERR4
 40
0.0
  9
$USERR5
 40
0.0
  9
$WORLDVIEW
 70
     1
  9
$SHADEDGE
 70
     3
  9
$SHADEDIF
 70
    70
  9
$TILEMODE
 70
     1
  9
$MAXACTVP
 70
    64
  9
$PINSBASE
 10
0.0
 20
0.0
 30
0.0
  9
$PLIMCHECK
 70
     0
  9
$PEXTMIN
 10
1.000000000000000E+20
 20
1.000000000000000E+20
 30
1.000000000000000E+20
  9
$PEXTMAX
 10
-1.000000000000000E+20
 20
-1.000000000000000E+20
 30
-1.000000000000000E+20
  9
$PLIMMIN
 10
0.0
 20
0.0
  9
$PLIMMAX
 10
12.0
 20
9.0
  9
$UNITMODE
 70
     0
  9
$VISRETAIN
 70
     0
  9
$PLINEGEN
 70
     1
  9
$PSLTSCALE
 70
     0
  9
$TREEDEPTH
 70
  3020
  9
$PICKSTYLE
 70
     1
  9
$CMLSTYLE
  2
STANDARD
  9
$CMLJUST
 70
     0
  9
$CMLSCALE
 40
1.0
  9
$PROXYGRAPHICS
 70
     0
  9
$MEASUREMENT
 70
     1
  0
ENDSEC
  0
SECTION
  2
CLASSES
  0
CLASS
  1
ACDBDICTIONARYWDFLT
  2
AcDbDictionaryWithDefault
  3
ObjectDBX Classes
 90
        0
280
     0
281
     0
  0
CLASS
  1
VISUALSTYLE
  2
AcDbVisualStyle
  3
ObjectDBX Classes
 90
     4095
280
     0
281
     0
  0
CLASS
  1
MATERIAL
  2
AcDbMaterial
  3
ObjectDBX Classes
 90
     1153
280
     0
281
     0
  0
CLASS
  1
SCALE
  2
AcDbScale
  3
ObjectDBX Classes
 90
     1153
280
     0
281
     0
  0
CLASS
  1
SUN
  2
AcDbSun
  3
SCENEOE
 90
     1153
280
     0
281
     0
  0
CLASS
  1
DICTIONARYVAR
  2
AcDbDictionaryVar
  3
ObjectDBX Classes
 90
        0
280
     0
281
     0
  0
CLASS
  1
XRECORD
  2
AcDbXrecord
  3
ObjectDBX Classes
 90
        0
280
     0
281
     0
  0
CLASS
  1
LWPOLYLINE
  2
AcDbPolyline
  3
ObjectDBX Classes
 90
        0
280
     0
281
     1
  0
CLASS
  1
HATCH
  2
AcDbHatch
  3
ObjectDBX Classes
 90
        0
280
     0
281
     1
  0
CLASS
  1
ACDBPLACEHOLDER
  2
AcDbPlaceHolder
  3
ObjectDBX Classes
 90
        0
280
     0
281
     0
  0
CLASS
  1
LAYOUT
  2
AcDbLayout
  3
ObjectDBX Classes
 90
        0
280
     0
281
     0
  0
ENDSEC
  0
SECTION
  2
TABLES
  0
TABLE
  2
VPORT
  5
8
102
{ACAD_XDICTIONARY
360
604
102
}
330
0
100
AcDbSymbolTable
 70
     1
  0
VPORT
  5
29
330
8
100
AcDbSymbolTableRecord
100
AcDbViewportTableRecord
  2
*ACTIVE
 70
     0
 10
0.0
 20
0.0
 11
1.0
 21
1.0
 12
4.345506923129957
 22
-5.820833333300016
 13
0.0
 23
0.0
 14
0.5
 24
0.5
 15
0.5
 25
0.5
 16
0.0
 26
0.0
 36
1.0
 17
0.0
 27
0.0
 37
0.0
 40
532.1427000542017
 41
1.00526847672829
 42
50.0
 43
0.0
 44
0.0
 50
0.0
 51
0.0
 71
     0
 72
  1000
 73
     1
 74
     1
 75
     0
 76
     0
 77
     0
 78
     0
  0
ENDTAB
  0
TABLE
  2
LTYPE
  5
5
330
0
100
AcDbSymbolTable
 70
    67
  0
LTYPE
  5
14
330
5
100
AcDbSymbolTableRecord
100
AcDbLinetypeTableRecord
  2
BYBLOCK
 70
     0
  3

 72
    65
 73
     0
 40
0.0
  0
LTYPE
  5
15
330
5
100
AcDbSymbolTableRecord
100
AcDbLinetypeTableRecord
  2
BYLAYER
 70
     0
  3

 72
    65
 73
     0
 40
0.0
  0
LTYPE
  5
16
330
5
100
AcDbSymbolTableRecord
100
AcDbLinetypeTableRecord
  2
CONTINUOUS
 70
     0
  3
Solid line
 72
    65
 73
     0
 40
0.0
  0
LTYPE
  5
6B
330
5
100
AcDbSymbolTableRecord
100
AcDbLinetypeTableRecord
  2
HIDDENX2
 70
     0
  3
Hidden (2x) ____ ____ ____ ____ ____ ____ ____ 
 72
    65
 73
     2
 40
19.05
 49
12.7
 74
     0
 49
-6.35
 74
     0
  0
LTYPE
  5
6C
330
5
100
AcDbSymbolTableRecord
100
AcDbLinetypeTableRecord
  2
HIDDEN
 70
     0
  3
Hidden __ __ __ __ __ __ __ __ __ __ __ __ __ __
 72
    65
 73
     2
 40
9.524999999999999
 49
6.35
 74
     0
 49
-3.175
 74
     0
  0
LTYPE
  5
6D
330
5
100
AcDbSymbolTableRecord
100
AcDbLinetypeTableRecord
  2
HIDDEN2
 70
     0
  3
Hidden (.5x) _ _ _ _ _ _ _ _ _ _ _ _ _ _ _ _ _ 
 72
    65
 73
     2
 40
4.762499999999999
 49
3.175
 74
     0
 49
-1.5875
 74
     0
  0
LTYPE
  5
6E
330
5
100
AcDbSymbolTableRecord
100
AcDbLinetypeTableRecord
  2
DASHED
 70
     0
  3
Dashed __ __ __ __ __ __ __ __ __ __ __ __ __ _
 72
    65
 73
     2
 40
19.05
 49
12.7
 74
     0
 49
-6.35
 74
     0
  0
LTYPE
  5
6F
330
5
100
AcDbSymbolTableRecord
100
AcDbLinetypeTableRecord
  2
DASHED2
 70
     0
  3
Dashed (.5x) _ _ _ _ _ _ _ _ _ _ _ _ _ _ _ _ _ 
 72
    65
 73
     2
 40
9.524999999999999
 49
6.35
 74
     0
 49
-3.175
 74
     0
  0
LTYPE
  5
70
330
5
100
AcDbSymbolTableRecord
100
AcDbLinetypeTableRecord
  2
DASHEDX2
 70
     0
  3
Dashed (2x) ____  ____  ____  ____  ____  ___
 72
    65
 73
     2
 40
38.09999999999999
 49
25.4
 74
     0
 49
-12.7
 74
     0
  0
LTYPE
  5
71
330
5
100
AcDbSymbolTableRecord
100
AcDbLinetypeTableRecord
  2
DOTX2
 70
     0
  3
Dot (2x) .  .  .  .  .  .  .  .  .  .  .  .  .  .
 72
    65
 73
     2
 40
12.7
 49
0.0
 74
     0
 49
-12.7
 74
     0
  0
LTYPE
  5
72
330
5
100
AcDbSymbolTableRecord
100
AcDbLinetypeTableRecord
  2
DOT
 70
     0
  3
Dot . . . . . . . . . . . . . . . . . . . . . . . .
 72
    65
 73
     2
 40
6.35
 49
0.0
 74
     0
 49
-6.35
 74
     0
  0
LTYPE
  5
73
330
5
100
AcDbSymbolTableRecord
100
AcDbLinetypeTableRecord
  2
DOT2
 70
     0
  3
Dot (.5x) ........................................
 72
    65
 73
     2
 40
3.175
 49
0.0
 74
     0
 49
-3.175
 74
     0
  0
LTYPE
  5
74
330
5
100
AcDbSymbolTableRecord
100
AcDbLinetypeTableRecord
  2
CENTERX2
 70
     0
  3
Center (2x) ________  __  ________  __  _____
 72
    65
 73
     4
 40
101.6
 49
63.5
 74
     0
 49
-12.7
 74
     0
 49
12.7
 74
     0
 49
-12.7
 74
     0
  0
LTYPE
  5
75
330
5
100
AcDbSymbolTableRecord
100
AcDbLinetypeTableRecord
  2
CENTER
 70
     0
  3
Center ____ _ ____ _ ____ _ ____ _ ____ _ ____
 72
    65
 73
     4
 40
50.8
 49
31.75
 74
     0
 49
-6.35
 74
     0
 49
6.35
 74
     0
 49
-6.35
 74
     0
  0
LTYPE
  5
76
330
5
100
AcDbSymbolTableRecord
100
AcDbLinetypeTableRecord
  2
CENTER2
 70
     0
  3
Center (.5x) ___ _ ___ _ ___ _ ___ _ ___ _ ___
 72
    65
 73
     4
 40
28.575
 49
19.05
 74
     0
 49
-3.175
 74
     0
 49
3.175
 74
     0
 49
-3.175
 74
     0
  0
LTYPE
  5
77
330
5
100
AcDbSymbolTableRecord
100
AcDbLinetypeTableRecord
  2
DASHDOTX2
 70
     0
  3
Dash dot (2x) ____  .  ____  .  ____  .  ___
 72
    65
 73
     4
 40
50.8
 49
25.4
 74
     0
 49
-12.7
 74
     0
 49
0.0
 74
     0
 49
-12.7
 74
     0
  0
LTYPE
  5
78
330
5
100
AcDbSymbolTableRecord
100
AcDbLinetypeTableRecord
  2
DASHDOT
 70
     0
  3
Dash dot __ . __ . __ . __ . __ . __ . __ . __
 72
    65
 73
     4
 40
25.4
 49
12.7
 74
     0
 49
-6.35
 74
     0
 49
0.0
 74
     0
 49
-6.35
 74
     0
  0
LTYPE
  5
79
330
5
100
AcDbSymbolTableRecord
100
AcDbLinetypeTableRecord
  2
DASHDOT2
 70
     0
  3
Dash dot (.5x) _._._._._._._._._._._._._._._.
 72
    65
 73
     4
 40
12.7
 49
6.35
 74
     0
 49
-3.175
 74
     0
 49
0.0
 74
     0
 49
-3.175
 74
     0
  0
LTYPE
  5
7A
330
5
100
AcDbSymbolTableRecord
100
AcDbLinetypeTableRecord
  2
DIVIDEX2
 70
     0
  3
Divide (2x) ________  .  .  ________  .  .  _
 72
    65
 73
     6
 40
63.5
 49
25.4
 74
     0
 49
-12.7
 74
     0
 49
0.0
 74
     0
 49
-12.7
 74
     0
 49
0.0
 74
     0
 49
-12.7
 74
     0
  0
LTYPE
  5
7B
330
5
100
AcDbSymbolTableRecord
100
AcDbLinetypeTableRecord
  2
DIVIDE
 70
     0
  3
Divide ____ . . ____ . . ____ . . ____ . . ____
 72
    65
 73
     6
 40
31.75
 49
12.7
 74
     0
 49
-6.35
 74
     0
 49
0.0
 74
     0
 49
-6.35
 74
     0
 49
0.0
 74
     0
 49
-6.35
 74
     0
  0
LTYPE
  5
7C
330
5
100
AcDbSymbolTableRecord
100
AcDbLinetypeTableRecord
  2
DIVIDE2
 70
     0
  3
Divide (.5x) __..__..__..__..__..__..__..__.._
 72
    65
 73
     6
 40
15.875
 49
6.35
 74
     0
 49
-3.175
 74
     0
 49
0.0
 74
     0
 49
-3.175
 74
     0
 49
0.0
 74
     0
 49
-3.175
 74
     0
  0
LTYPE
  5
7D
330
5
100
AcDbSymbolTableRecord
100
AcDbLinetypeTableRecord
  2
BORDERX2
 70
     0
  3
Border (2x) ____  ____  .  ____  ____  .  ___
 72
    65
 73
     6
 40
88.89999999999999
 49
25.4
 74
     0
 49
-12.7
 74
     0
 49
25.4
 74
     0
 49
-12.7
 74
     0
 49
0.0
 74
     0
 49
-12.7
 74
     0
  0
LTYPE
  5
7E
330
5
100
AcDbSymbolTableRecord
100
AcDbLinetypeTableRecord
  2
BORDER
 70
     0
  3
Border __ __ . __ __ . __ __ . __ __ . __ __ .
 72
    65
 73
     6
 40
44.45
 49
12.7
 74
     0
 49
-6.35
 74
     0
 49
12.7
 74
     0
 49
-6.35
 74
     0
 49
0.0
 74
     0
 49
-6.35
 74
     0
  0
LTYPE
  5
7F
330
5
100
AcDbSymbolTableRecord
100
AcDbLinetypeTableRecord
  2
BORDER2
 70
     0
  3
Border (.5x) __.__.__.__.__.__.__.__.__.__.__.
 72
    65
 73
     6
 40
22.225
 49
6.35
 74
     0
 49
-3.175
 74
     0
 49
6.35
 74
     0
 49
-3.175
 74
     0
 49
0.0
 74
     0
 49
-3.175
 74
     0
  0
LTYPE
  5
80
330
5
100
AcDbSymbolTableRecord
100
AcDbLinetypeTableRecord
  2
PHANTOMX2
 70
     0
  3
Phantom (2x) ____________    ____    ____   _
 72
    65
 73
     6
 40
127.0
 49
63.5
 74
     0
 49
-12.7
 74
     0
 49
12.7
 74
     0
 49
-12.7
 74
     0
 49
12.7
 74
     0
 49
-12.7
 74
     0
  0
LTYPE
  5
81
330
5
100
AcDbSymbolTableRecord
100
AcDbLinetypeTableRecord
  2
PHANTOM
 70
     0
  3
Phantom ______  __  __  ______  __  __  ______ 
 72
    65
 73
     6
 40
63.5
 49
31.75
 74
     0
 49
-6.35
 74
     0
 49
6.35
 74
     0
 49
-6.35
 74
     0
 49
6.35
 74
     0
 49
-6.35
 74
     0
  0
LTYPE
  5
82
330
5
100
AcDbSymbolTableRecord
100
AcDbLinetypeTableRecord
  2
PHANTOM2
 70
     0
  3
Phantom (.5x) ___ _ _ ___ _ _ ___ _ _ ___ _ _
 72
    65
 73
     6
 40
31.75
 49
15.875
 74
     0
 49
-3.175
 74
     0
 49
3.175
 74
     0
 49
-3.175
 74
     0
 49
3.175
 74
     0
 49
-3.175
 74
     0
  0
LTYPE
  5
83
330
5
100
AcDbSymbolTableRecord
100
AcDbLinetypeTableRecord
  2
ACAD_ISO06W100
 70
     0
  3
ISO long-dash triple-dot ____ ... ____ ... ____
 72
    65
 73
     8
 40
36.0
 49
24.0
 74
     0
 49
-3.0
 74
     0
 49
0.0
 74
     0
 49
-3.0
 74
     0
 49
0.0
 74
     0
 49
-3.0
 74
     0
 49
0.0
 74
     0
 49
-3.0
 74
     0
  0
LTYPE
  5
84
330
5
100
AcDbSymbolTableRecord
100
AcDbLinetypeTableRecord
  2
ACAD_ISO13W100
 70
     0
  3
ISO double-dash double-dot __ __ . . __ __ . . _
 72
    65
 73
     8
 40
36.0
 49
12.0
 74
     0
 49
-3.0
 74
     0
 49
12.0
 74
     0
 49
-3.0
 74
     0
 49
0.0
 74
     0
 49
-3.0
 74
     0
 49
0.0
 74
     0
 49
-3.0
 74
     0
  0
LTYPE
  5
85
330
5
100
AcDbSymbolTableRecord
100
AcDbLinetypeTableRecord
  2
ACAD_ISO14W100
 70
     0
  3
ISO dash triple-dot __ . . . __ . . . __ . . . _
 72
    65
 73
     8
 40
24.0
 49
12.0
 74
     0
 49
-3.0
 74
     0
 49
0.0
 74
     0
 49
-3.0
 74
     0
 49
0.0
 74
     0
 49
-3.0
 74
     0
 49
0.0
 74
     0
 49
-3.0
 74
     0
  0
LTYPE
  5
86
330
5
100
AcDbSymbolTableRecord
100
AcDbLinetypeTableRecord
  2
ACAD_ISO02W100
 70
     0
  3
ISO dash __ __ __ __ __ __ __ __ __ __ __ __ __
 72
    65
 73
     2
 40
15.0
 49
12.0
 74
     0
 49
-3.0
 74
     0
  0
LTYPE
  5
87
330
5
100
AcDbSymbolTableRecord
100
AcDbLinetypeTableRecord
  2
ACAD_ISO03W100
 70
     0
  3
ISO dash space __    __    __    __    __    __
 72
    65
 73
     2
 40
30.0
 49
12.0
 74
     0
 49
-18.0
 74
     0
  0
LTYPE
  5
88
330
5
100
AcDbSymbolTableRecord
100
AcDbLinetypeTableRecord
  2
ACAD_ISO04W100
 70
     0
  3
ISO long-dash dot ____ . ____ . ____ . ____ . _
 72
    65
 73
     4
 40
30.0
 49
24.0
 74
     0
 49
-3.0
 74
     0
 49
0.0
 74
     0
 49
-3.0
 74
     0
  0
LTYPE
  5
89
330
5
100
AcDbSymbolTableRecord
100
AcDbLinetypeTableRecord
  2
ACAD_ISO05W100
 70
     0
  3
ISO long-dash double-dot ____ .. ____ .. ____ . 
 72
    65
 73
     6
 40
33.0
 49
24.0
 74
     0
 49
-3.0
 74
     0
 49
0.0
 74
     0
 49
-3.0
 74
     0
 49
0.0
 74
     0
 49
-3.0
 74
     0
  0
LTYPE
  5
8A
330
5
100
AcDbSymbolTableRecord
100
AcDbLinetypeTableRecord
  2
ACAD_ISO07W100
 70
     0
  3
ISO dot . . . . . . . . . . . . . . . . . . . . 
 72
    65
 73
     2
 40
3.0
 49
0.0
 74
     0
 49
-3.0
 74
     0
  0
LTYPE
  5
8B
330
5
100
AcDbSymbolTableRecord
100
AcDbLinetypeTableRecord
  2
ACAD_ISO08W100
 70
     0
  3
ISO long-dash short-dash ____ __ ____ __ ____ _
 72
    65
 73
     4
 40
36.0
 49
24.0
 74
     0
 49
-3.0
 74
     0
 49
6.0
 74
     0
 49
-3.0
 74
     0
  0
LTYPE
  5
8C
330
5
100
AcDbSymbolTableRecord
100
AcDbLinetypeTableRecord
  2
ACAD_ISO09W100
 70
     0
  3
ISO long-dash double-short-dash ____ __ __ ____
 72
    65
 73
     6
 40
45.0
 49
24.0
 74
     0
 49
-3.0
 74
     0
 49
6.0
 74
     0
 49
-3.0
 74
     0
 49
6.0
 74
     0
 49
-3.0
 74
     0
  0
LTYPE
  5
8D
330
5
100
AcDbSymbolTableRecord
100
AcDbLinetypeTableRecord
  2
ACAD_ISO10W100
 70
     0
  3
ISO dash dot __ . __ . __ . __ . __ . __ . __ . 
 72
    65
 73
     4
 40
18.0
 49
12.0
 74
     0
 49
-3.0
 74
     0
 49
0.0
 74
     0
 49
-3.0
 74
     0
  0
LTYPE
  5
8E
330
5
100
AcDbSymbolTableRecord
100
AcDbLinetypeTableRecord
  2
ACAD_ISO11W100
 70
     0
  3
ISO double-dash dot __ __ . __ __ . __ __ . __ _
 72
    65
 73
     6
 40
33.0
 49
12.0
 74
     0
 49
-3.0
 74
     0
 49
12.0
 74
     0
 49
-3.0
 74
     0
 49
0.0
 74
     0
 49
-3.0
 74
     0
  0
LTYPE
  5
8F
330
5
100
AcDbSymbolTableRecord
100
AcDbLinetypeTableRecord
  2
ACAD_ISO12W100
 70
     0
  3
ISO dash double-dot __ . . __ . . __ . . __ . . 
 72
    65
 73
     6
 40
21.0
 49
12.0
 74
     0
 49
-3.0
 74
     0
 49
0.0
 74
     0
 49
-3.0
 74
     0
 49
0.0
 74
     0
 49
-3.0
 74
     0
  0
LTYPE
  5
90
330
5
100
AcDbSymbolTableRecord
100
AcDbLinetypeTableRecord
  2
ACAD_ISO15W100
 70
     0
  3
ISO double-dash triple-dot __ __ . . . __ __ . .
 72
    65
 73
    10
 40
39.0
 49
12.0
 74
     0
 49
-3.0
 74
     0
 49
12.0
 74
     0
 49
-3.0
 74
     0
 49
0.0
 74
     0
 49
-3.0
 74
     0
 49
0.0
 74
     0
 49
-3.0
 74
     0
 49
0.0
 74
     0
 49
-3.0
 74
     0
  0
LTYPE
  5
91
330
5
100
AcDbSymbolTableRecord
100
AcDbLinetypeTableRecord
  2
JIS_02_0_7
 70
     0
  3
HIDDEN0.75 _ _ _ _ _ _ _ _ _ _ _ _ _ _ _ _ _ 
 72
    65
 73
     2
 40
1.35
 49
0.75
 74
     0
 49
-0.6
 74
     0
  0
LTYPE
  5
92
330
5
100
AcDbSymbolTableRecord
100
AcDbLinetypeTableRecord
  2
JIS_02_1_0
 70
     0
  3
HIDDEN01 _ _ _ _ _ _ _ _ _ _ _ _ _ _ _ _ _ 
 72
    65
 73
     2
 40
2.0
 49
1.0
 74
     0
 49
-1.0
 74
     0
  0
LTYPE
  5
93
330
5
100
AcDbSymbolTableRecord
100
AcDbLinetypeTableRecord
  2
JIS_02_1_2
 70
     0
  3
HIDDEN01.25  _ _ _ _ _ _ _ _ _ _ _ _ _ _ _ _ _ 
 72
    65
 73
     2
 40
2.5
 49
1.25
 74
     0
 49
-1.25
 74
     0
  0
LTYPE
  5
94
330
5
100
AcDbSymbolTableRecord
100
AcDbLinetypeTableRecord
  2
JIS_02_2_0
 70
     0
  3
HIDDEN02 __ __ __ __ __ __ __ __ __ __ __ 
 72
    65
 73
     2
 40
3.0
 49
2.0
 74
     0
 49
-1.0
 74
     0
  0
LTYPE
  5
95
330
5
100
AcDbSymbolTableRecord
100
AcDbLinetypeTableRecord
  2
JIS_02_4_0
 70
     0
  3
HIDDEN04 ____ ____ ____ ____ ____ ____ ____ 
 72
    65
 73
     2
 40
5.5
 49
4.0
 74
     0
 49
-1.5
 74
     0
  0
LTYPE
  5
96
330
5
100
AcDbSymbolTableRecord
100
AcDbLinetypeTableRecord
  2
JIS_08_11
 70
     0
  3
1SASEN11 ___ _ ___ _ ___ _ ___ _ ___ _ ___
 72
    65
 73
     4
 40
12.8
 49
11.0
 74
     0
 49
-0.6
 74
     0
 49
0.6
 74
     0
 49
-0.6
 74
     0
  0
LTYPE
  5
97
330
5
100
AcDbSymbolTableRecord
100
AcDbLinetypeTableRecord
  2
JIS_08_15
 70
     0
  3
1SASEN15 ____ _ ____ _ ____ _ ____ _ ____ 
 72
    65
 73
     4
 40
17.25
 49
15.0
 74
     0
 49
-0.75
 74
     0
 49
0.75
 74
     0
 49
-0.75
 74
     0
  0
LTYPE
  5
98
330
5
100
AcDbSymbolTableRecord
100
AcDbLinetypeTableRecord
  2
JIS_08_25
 70
     0
  3
1SASEN25 ________  __  ________  __  _____
 72
    65
 73
     4
 40
28.0
 49
25.0
 74
     0
 49
-1.125
 74
     0
 49
0.75
 74
     0
 49
-1.125
 74
     0
  0
LTYPE
  5
99
330
5
100
AcDbSymbolTableRecord
100
AcDbLinetypeTableRecord
  2
JIS_08_37
 70
     0
  3
1SASEN37 ________  __  ________  __  _____
 72
    65
 73
     4
 40
40.5
 49
37.5
 74
     0
 49
-1.125
 74
     0
 49
0.75
 74
     0
 49
-1.125
 74
     0
  0
LTYPE
  5
9A
330
5
100
AcDbSymbolTableRecord
100
AcDbLinetypeTableRecord
  2
JIS_08_50
 70
     0
  3
1SASEN50 _______________  __  ____________
 72
    65
 73
     4
 40
53.0
 49
50.0
 74
     0
 49
-1.125
 74
     0
 49
0.75
 74
     0
 49
-1.125
 74
     0
  0
LTYPE
  5
9B
330
5
100
AcDbSymbolTableRecord
100
AcDbLinetypeTableRecord
  2
JIS_09_08
 70
     0
  3
2SASEN8 __ _ _ __ _ _ __ _ _ __ _ _ __ _ _ 
 72
    65
 73
     6
 40
10.75
 49
8.0
 74
     0
 49
-0.55
 74
     0
 49
0.55
 74
     0
 49
-0.55
 74
     0
 49
0.55
 74
     0
 49
-0.55
 74
     0
  0
LTYPE
  5
9C
330
5
100
AcDbSymbolTableRecord
100
AcDbLinetypeTableRecord
  2
JIS_09_15
 70
     0
  3
2SASEN15 ___ _ _ ___ _ _ ___ _ _ ___ _ _ ___ 
 72
    65
 73
     6
 40
18.9
 49
15.0
 74
     0
 49
-0.9
 74
     0
 49
0.6
 74
     0
 49
-0.9
 74
     0
 49
0.6
 74
     0
 49
-0.9
 74
     0
  0
LTYPE
  5
9D
330
5
100
AcDbSymbolTableRecord
100
AcDbLinetypeTableRecord
  2
JIS_09_29
 70
     0
  3
2SASEN29 ______　__  __  ______　__  __  ___
 72
    65
 73
     6
 40
34.0
 49
29.0
 74
     0
 49
-1.2
 74
     0
 49
0.7
 74
     0
 49
-1.2
 74
     0
 49
0.7
 74
     0
 49
-1.2
 74
     0
  0
LTYPE
  5
9E
330
5
100
AcDbSymbolTableRecord
100
AcDbLinetypeTableRecord
  2
JIS_09_50
 70
     0
  3
2SASEN50 ____________　__  __  _____________
 72
    65
 73
     6
 40
55.0
 49
50.0
 74
     0
 49
-1.2
 74
     0
 49
0.7
 74
     0
 49
-1.2
 74
     0
 49
0.7
 74
     0
 49
-1.2
 74
     0
  0
LTYPE
  5
9F
330
5
100
AcDbSymbolTableRecord
100
AcDbLinetypeTableRecord
  2
SXF_破線
 70
     0
  3
02 dashed -- -- -- -- -- --
 72
    65
 73
     2
 40
7.5
 49
6.0
 74
     0
 49
-1.5
 74
     0
  0
LTYPE
  5
A0
330
5
100
AcDbSymbolTableRecord
100
AcDbLinetypeTableRecord
  2
SXF_跳び破線
 70
     0
  3
03 dashed_spaced --  --  --  --
 72
    65
 73
     2
 40
12.0
 49
6.0
 74
     0
 49
-6.0
 74
     0
  0
LTYPE
  5
A1
330
5
100
AcDbSymbolTableRecord
100
AcDbLinetypeTableRecord
  2
SXF_一点長鎖線
 70
     0
  3
04 long_dashed_dotted ---- . ---- . ----
 72
    65
 73
     4
 40
15.25
 49
12.0
 74
     0
 49
-1.5
 74
     0
 49
0.25
 74
     0
 49
-1.5
 74
     0
  0
LTYPE
  5
A2
330
5
100
AcDbSymbolTableRecord
100
AcDbLinetypeTableRecord
  2
SXF_二点長鎖線
 70
     0
  3
05 long_dashed_double-dotted ---- . . ---- 
 72
    65
 73
     6
 40
17.0
 49
12.0
 74
     0
 49
-1.5
 74
     0
 49
0.25
 74
     0
 49
-1.5
 74
     0
 49
0.25
 74
     0
 49
-1.5
 74
     0
  0
LTYPE
  5
A3
330
5
100
AcDbSymbolTableRecord
100
AcDbLinetypeTableRecord
  2
SXF_三点長鎖線
 70
     0
  3
06 long_dashed_triplicate-dotted ---- ... ---- 
 72
    65
 73
     8
 40
18.75
 49
12.0
 74
     0
 49
-1.5
 74
     0
 49
0.25
 74
     0
 49
-1.5
 74
     0
 49
0.25
 74
     0
 49
-1.5
 74
     0
 49
0.25
 74
     0
 49
-1.5
 74
     0
  0
LTYPE
  5
A4
330
5
100
AcDbSymbolTableRecord
100
AcDbLinetypeTableRecord
  2
SXF_点線
 70
     0
  3
07 dotted . . . . . . . . . . . . 
 72
    65
 73
     2
 40
1.75
 49
0.25
 74
     0
 49
-1.5
 74
     0
  0
LTYPE
  5
A5
330
5
100
AcDbSymbolTableRecord
100
AcDbLinetypeTableRecord
  2
SXF_一点鎖線
 70
     0
  3
08 chain ---- - --- - --- - ---
 72
    65
 73
     4
 40
18.5
 49
12.0
 74
     0
 49
-1.5
 74
     0
 49
3.5
 74
     0
 49
-1.5
 74
     0
  0
LTYPE
  5
A6
330
5
100
AcDbSymbolTableRecord
100
AcDbLinetypeTableRecord
  2
SXF_二点鎖線
 70
     0
  3
09 chain_double_dash ---- - - ---- - - ----
 72
    65
 73
     6
 40
23.5
 49
12.0
 74
     0
 49
-1.5
 74
     0
 49
3.5
 74
     0
 49
-1.5
 74
     0
 49
3.5
 74
     0
 49
-1.5
 74
     0
  0
LTYPE
  5
A7
330
5
100
AcDbSymbolTableRecord
100
AcDbLinetypeTableRecord
  2
SXF_一点短鎖線
 70
     0
  3
10 dashed_dotted -- . -- . -- . --
 72
    65
 73
     4
 40
9.25
 49
6.0
 74
     0
 49
-1.5
 74
     0
 49
0.25
 74
     0
 49
-1.5
 74
     0
  0
LTYPE
  5
A8
330
5
100
AcDbSymbolTableRecord
100
AcDbLinetypeTableRecord
  2
SXF_一点二短鎖線
 70
     0
  3
11 double-dashed_dotted -- -- . -- --
 72
    65
 73
     6
 40
16.75
 49
6.0
 74
     0
 49
-1.5
 74
     0
 49
6.0
 74
     0
 49
-1.5
 74
     0
 49
0.25
 74
     0
 49
-1.5
 74
     0
  0
LTYPE
  5
A9
330
5
100
AcDbSymbolTableRecord
100
AcDbLinetypeTableRecord
  2
SXF_二点短鎖線
 70
     0
  3
12 dashed_double_dotted -- . . -- . . --
 72
    65
 73
     6
 40
11.0
 49
6.0
 74
     0
 49
-1.5
 74
     0
 49
0.25
 74
     0
 49
-1.5
 74
     0
 49
0.25
 74
     0
 49
-1.5
 74
     0
  0
LTYPE
  5
AA
330
5
100
AcDbSymbolTableRecord
100
AcDbLinetypeTableRecord
  2
SXF_二点二短鎖線
 70
     0
  3
13 double-dashed_double-dotted -- -- . . -- --
 72
    65
 73
     8
 40
18.5
 49
6.0
 74
     0
 49
-1.5
 74
     0
 49
6.0
 74
     0
 49
-1.5
 74
     0
 49
0.25
 74
     0
 49
-1.5
 74
     0
 49
0.25
 74
     0
 49
-1.5
 74
     0
  0
LTYPE
  5
AB
330
5
100
AcDbSymbolTableRecord
100
AcDbLinetypeTableRecord
  2
SXF_三点短鎖線
 70
     0
  3
14 dashed triplicate-dotted -- . . . -- . . . --
 72
    65
 73
     8
 40
12.75
 49
6.0
 74
     0
 49
-1.5
 74
     0
 49
0.25
 74
     0
 49
-1.5
 74
     0
 49
0.25
 74
     0
 49
-1.5
 74
     0
 49
0.25
 74
     0
 49
-1.5
 74
     0
  0
LTYPE
  5
AC
330
5
100
AcDbSymbolTableRecord
100
AcDbLinetypeTableRecord
  2
SXF_三点二短鎖線
 70
     0
  3
15 double-dashed triplicate-dotted -- -- . . . -- -- 
 72
    65
 73
    10
 40
20.25
 49
6.0
 74
     0
 49
-1.5
 74
     0
 49
6.0
 74
     0
 49
-1.5
 74
     0
 49
0.25
 74
     0
 49
-1.5
 74
     0
 49
0.25
 74
     0
 49
-1.5
 74
     0
 49
0.25
 74
     0
 49
-1.5
 74
     0
  0
ENDTAB
  0
TABLE
  2
LAYER
  5
2
330
0
100
AcDbSymbolTable
 70
     1
  0
LAYER
  5
10
330
2
100
AcDbSymbolTableRecord
100
AcDbLayerTableRecord
  2
0
 70
     0
 62
     7
  6
CONTINUOUS
  0
ENDTAB
  0
TABLE
  2
STYLE
  5
3
330
0
100
AcDbSymbolTable
 70
     2
  0
STYLE
  5
11
330
3
100
AcDbSymbolTableRecord
100
AcDbTextStyleTableRecord
  2
STANDARD
 70
     0
 40
0.0
 41
1.0
 50
0.0
 71
     0
 42
0.2
  3
txt.shx
  4
bigfont.shx
  0
STYLE
  5
5DA
330
3
100
AcDbSymbolTableRecord
100
AcDbTextStyleTableRecord
  2
DCSTYLE0
 70
     0
 40
0.0
 41
0.2999999999999998
 50
0.0
 71
     0
 42
0.2
  3
txt.shx
  4
bigfont
  0
ENDTAB
  0
TABLE
  2
VIEW
  5
6
330
0
100
AcDbSymbolTable
 70
     0
  0
ENDTAB
  0
TABLE
  2
UCS
  5
7
330
0
100
AcDbSymbolTable
 70
     0
  0
ENDTAB
  0
TABLE
  2
APPID
  5
9
330
0
100
AcDbSymbolTable
 70
     2
  0
APPID
  5
12
330
9
100
AcDbSymbolTableRecord
100
AcDbRegAppTableRecord
  2
ACAD
 70
     0
  0
APPID
  5
6A
330
9
100
AcDbSymbolTableRecord
100
AcDbRegAppTableRecord
  2
DAFUSIONOUT
 70
     0
  0
ENDTAB
  0
TABLE
  2
DIMSTYLE
  5
A
330
0
100
AcDbSymbolTable
 70
     1
  0
DIMSTYLE
105
27
330
A
100
AcDbSymbolTableRecord
100
AcDbDimStyleTableRecord
  2
STANDARD
 70
     0
  3

  4

  5

  6

  7

 40
1.0
 41
0.18
 42
0.0625
 43
0.38
 44
0.18
 45
0.0
 46
0.0
 47
0.0
 48
0.0
140
0.18
141
0.09
142
0.0
143
25.4
144
1.0
145
0.0
146
1.0
147
0.09
 71
     0
 72
     0
 73
     1
 74
     1
 75
     0
 76
     0
 77
     0
 78
     0
170
     0
171
     2
172
     0
173
     0
174
     0
175
     0
176
     0
177
     0
178
     0
270
     2
271
     4
272
     4
273
     2
274
     2
340
11
275
     0
280
     0
281
     0
282
     0
283
     1
284
     0
285
     0
286
     0
287
     3
288
     0
  0
ENDTAB
  0
TABLE
  2
BLOCK_RECORD
  5
1
330
0
100
AcDbSymbolTable
 70
     1
  0
BLOCK_RECORD
  5
1F
330
1
100
AcDbSymbolTableRecord
100
AcDbBlockTableRecord
  2
*MODEL_SPACE
  0
BLOCK_RECORD
  5
1B
330
1
100
AcDbSymbolTableRecord
100
AcDbBlockTableRecord
  2
*PAPER_SPACE
  0
ENDTAB
  0
ENDSEC
  0
SECTION
  2
BLOCKS
  0
BLOCK
  5
20
330
1F
100
AcDbEntity
  8
0
100
AcDbBlockBegin
  2
*MODEL_SPACE
 70
     0
 10
0.0
 20
0.0
 30
0.0
  3
*MODEL_SPACE
  1

  0
ENDBLK
  5
21
330
1F
100
AcDbEntity
  8
0
100
AcDbBlockEnd
  0
BLOCK
  5
1C
330
1B
100
AcDbEntity
 67
     1
  8
0
100
AcDbBlockBegin
  2
*PAPER_SPACE
 70
     0
 10
0.0
 20
0.0
 30
0.0
  3
*PAPER_SPACE
  1

  0
ENDBLK
  5
1D
330
1B
100
AcDbEntity
 67
     1
  8
0
100
AcDbBlockEnd
  0
ENDSEC
  0
SECTION
  2
ENTITIES
  0
LINE
  5
AE
330
1F
100
AcDbEntity
  8
0
  6
CENTER
 62
     7
100
AcDbLine
 10
-181.5694602649401
 20
89.38342771854815
 30
0.0
 11
-174.7194602649401
 21
89.38342771854815
 31
0.0
  0
LINE
  5
AF
330
1F
100
AcDbEntity
  8
0
  6
CENTER
 62
     7
100
AcDbLine
 10
-174.7194602649401
 20
95.68342771854816
 30
0.0
 11
-181.5694602649401
 21
95.68342771854816
 31
0.0
  0
LINE
  5
B0
330
1F
100
AcDbEntity
  8
0
  6
CENTER
 62
     7
100
AcDbLine
 10
-104.71946026494
 20
86.03342771854818
 30
0.0
 11
-28.70222874154007
 21
86.03342771854818
 31
0.0
  0
LINE
  5
B1
330
1F
100
AcDbEntity
  8
0
  6
CENTER
 62
     7
100
AcDbLine
 10
-28.70222874154007
 20
99.03342771854818
 30
0.0
 11
-104.71946026494
 21
99.03342771854818
 31
0.0
  0
LINE
  5
B2
330
1F
100
AcDbEntity
  8
0
  6
CENTER
 62
     7
100
AcDbLine
 10
-174.7194602649401
 20
89.88342771854815
 30
0.0
 11
-173.7194602649401
 21
89.88342771854815
 31
0.0
  0
LINE
  5
B3
330
1F
100
AcDbEntity
  8
0
  6
CENTER
 62
     7
100
AcDbLine
 10
-173.7194602649401
 20
95.18342771854816
 30
0.0
 11
-174.7194602649401
 21
95.18342771854816
 31
0.0
  0
LINE
  5
B4
330
1F
100
AcDbEntity
  8
0
  6
CENTER
 62
     7
100
AcDbLine
 10
-173.7194602649401
 20
89.38342771854815
 30
0.0
 11
-139.71946026494
 21
89.38342771854815
 31
0.0
  0
LINE
  5
B5
330
1F
100
AcDbEntity
  8
0
  6
CENTER
 62
     7
100
AcDbLine
 10
-139.71946026494
 20
95.68342771854816
 30
0.0
 11
-173.7194602649401
 21
95.68342771854816
 31
0.0
  0
LINE
  5
B6
330
1F
100
AcDbEntity
  8
0
  6
CENTER
 62
     7
100
AcDbLine
 10
-139.71946026494
 20
89.38342771854815
 30
0.0
 11
-104.71946026494
 21
86.03342771854818
 31
0.0
  0
LINE
  5
B7
330
1F
100
AcDbEntity
  8
0
  6
CENTER
 62
     7
100
AcDbLine
 10
-104.71946026494
 20
99.03342771854818
 30
0.0
 11
-139.71946026494
 21
95.68342771854816
 31
0.0
  0
LINE
  5
B8
330
1F
100
AcDbEntity
  8
0
  6
CENTER
 62
     7
100
AcDbLine
 10
-173.7194602649401
 20
95.66046067194816
 30
0.0
 11
-173.7194602649401
 21
89.40639476514815
 31
0.0
  0
LINE
  5
B9
330
1F
100
AcDbEntity
  8
0
  6
CENTER
 62
     7
100
AcDbLine
 10
-174.7194602649401
 20
95.66046067194816
 30
0.0
 11
-174.7194602649401
 21
89.40639476514815
 31
0.0
  0
ARC
  5
BA
330
1F
100
AcDbEntity
  8
0
  6
CENTER
 62
     7
100
AcDbCircle
 10
-181.5694602649401
 20
92.53342771854818
 30
0.0
 40
3.150000000000091
100
AcDbArc
 50
180.0
 51
270.0
  0
ARC
  5
BB
330
1F
100
AcDbEntity
  8
0
  6
CENTER
 62
     7
100
AcDbCircle
 10
-181.5694602649401
 20
92.53342771854818
 30
0.0
 40
3.150000000000091
100
AcDbArc
 50
90.0
 51
180.0
  0
LINE
  5
BC
330
1F
100
AcDbEntity
  8
0
  6
CENTER
 62
     7
100
AcDbLine
 10
-222.9830624325401
 20
42.53343023094817
 30
0.0
 11
-257.88306243254
 21
42.53343023094817
 31
0.0
  0
LINE
  5
BD
330
1F
100
AcDbEntity
  8
0
  6
CENTER
 62
     7
100
AcDbLine
 10
133.5210599974599
 20
42.53343023094817
 30
0.0
 11
-9.967741470940041
 21
42.53343023094817
 31
0.0
  0
LINE
  5
BE
330
1F
100
AcDbEntity
  8
0
  6
CENTER
 62
     7
100
AcDbLine
 10
136.65944542886
 20
-187.4665697690518
 30
0.0
 11
-9.967741470940041
 21
-187.4665697690518
 31
0.0
  0
LINE
  5
BF
330
1F
100
AcDbEntity
  8
0
  6
CENTER
 62
     7
100
AcDbLine
 10
-240.4330625071401
 20
117.2625098749481
 30
0.0
 11
-240.4330625071401
 21
-30.19770030845183
 31
0.0
  0
LINE
  5
C0
330
1F
100
AcDbEntity
  8
0
  6
CONTINUOUS
 62
     7
100
AcDbLine
 10
3.747820723059931
 20
98.78343097594814
 30
0.0
 11
11.24782102105996
 21
98.78343097594814
 31
0.0
  0
LINE
  5
C1
330
1F
100
AcDbEntity
  8
0
  6
CONTINUOUS
 62
     7
100
AcDbLine
 10
-233.9330622985401
 20
175.0334230783482
 30
0.0
 11
-237.2830624285401
 21
210.0334344031482
 31
0.0
  0
LINE
  5
C2
330
1F
100
AcDbEntity
  8
0
  6
CONTINUOUS
 62
     7
100
AcDbLine
 10
-243.5830624367401
 20
210.0334344031482
 30
0.0
 11
-246.9330625667401
 21
175.0334230783482
 31
0.0
  0
LINE
  5
C3
330
1F
100
AcDbEntity
  8
0
  6
CONTINUOUS
 62
     7
100
AcDbLine
 10
-233.9330622985401
 20
85.03343067794816
 30
0.0
 11
-233.9330622985401
 21
175.0334230783482
 31
0.0
  0
LINE
  5
C4
330
1F
100
AcDbEntity
  8
0
  6
CONTINUOUS
 62
     7
100
AcDbLine
 10
-246.9330625667401
 20
175.0334230783482
 30
0.0
 11
-246.9330625667401
 21
85.03343067794816
 31
0.0
  0
LINE
  5
C5
330
1F
100
AcDbEntity
  8
0
  6
CONTINUOUS
 62
     7
100
AcDbLine
 10
-237.2830624285401
 20
210.0334344031482
 30
0.0
 11
-237.2830624285401
 21
244.0334288003482
 31
0.0
  0
LINE
  5
C6
330
1F
100
AcDbEntity
  8
0
  6
CONTINUOUS
 62
     7
100
AcDbLine
 10
-243.5830624367401
 20
244.0334288003482
 30
0.0
 11
-243.5830624367401
 21
210.0334344031482
 31
0.0
  0
LINE
  5
C7
330
1F
100
AcDbEntity
  8
0
  6
CONTINUOUS
 62
     7
100
AcDbLine
 10
-237.2830624285401
 20
245.0334308269482
 30
0.0
 11
-237.2830624285401
 21
251.8834350231481
 31
0.0
  0
LINE
  5
C8
330
1F
100
AcDbEntity
  8
0
  6
CONTINUOUS
 62
     7
100
AcDbLine
 10
-243.5830624367401
 20
251.8834350231481
 30
0.0
 11
-243.5830624367401
 21
245.0334308269482
 31
0.0
  0
LINE
  5
C9
330
1F
100
AcDbEntity
  8
0
  6
CONTINUOUS
 62
     7
100
AcDbLine
 10
-237.78306251034
 20
244.0334288003482
 30
0.0
 11
-237.78306251034
 21
245.0334308269482
 31
0.0
  0
LINE
  5
CA
330
1F
100
AcDbEntity
  8
0
  6
CONTINUOUS
 62
     7
100
AcDbLine
 10
-243.0830623547401
 20
245.0334308269482
 30
0.0
 11
-243.0830623547401
 21
244.0334288003482
 31
0.0
  0
LINE
  5
CB
330
1F
100
AcDbEntity
  8
0
  6
CONTINUOUS
 62
     7
100
AcDbLine
 10
-254.1830623581401
 20
-20.46657078245181
 30
0.0
 11
-254.1830623581401
 21
105.5334312441482
 31
0.0
  0
LINE
  5
CC
330
1F
100
AcDbEntity
  8
0
  6
CONTINUOUS
 62
     7
100
AcDbLine
 10
-254.1830623581401
 20
-22.16656975725186
 30
0.0
 11
-254.1830623581401
 21
-20.46657078245181
 31
0.0
  0
LINE
  5
CD
330
1F
100
AcDbEntity
  8
0
  6
CONTINUOUS
 62
     7
100
AcDbLine
 10
-226.68306243264
 20
107.2334302308482
 30
0.0
 11
-226.68306243264
 21
105.5334312440482
 31
0.0
  0
LINE
  5
CE
330
1F
100
AcDbEntity
  8
0
  6
CONTINUOUS
 62
     7
100
AcDbLine
 10
-226.68306243264
 20
-20.46657078255186
 30
0.0
 11
-226.68306243264
 21
-22.16656975735185
 31
0.0
  0
LINE
  5
CF
330
1F
100
AcDbEntity
  8
0
  6
CONTINUOUS
 62
     7
100
AcDbLine
 10
-254.1830623581401
 20
105.5334312441482
 30
0.0
 11
-254.1830623581401
 21
107.2334302189482
 31
0.0
  0
LINE
  5
D0
330
1F
100
AcDbEntity
  8
0
  6
CONTINUOUS
 62
     7
100
AcDbLine
 10
-226.68306243264
 20
105.5334312440482
 30
0.0
 11
-226.68306243264
 21
-20.46657078255186
 31
0.0
  0
LINE
  5
D1
330
1F
100
AcDbEntity
  8
0
  6
CONTINUOUS
 62
     7
100
AcDbLine
 10
-226.9830623953401
 20
-22.46656973185185
 30
0.0
 11
-253.8830623953401
 21
-22.46656973185185
 31
0.0
  0
LINE
  5
D2
330
1F
100
AcDbEntity
  8
0
  6
CONTINUOUS
 62
     7
100
AcDbLine
 10
-236.78306234654
 20
76.53343207864816
 30
0.0
 11
-235.5830622895401
 21
76.53343207864816
 31
0.0
  0
LINE
  5
D3
330
1F
100
AcDbEntity
  8
0
  6
CONTINUOUS
 62
     7
100
AcDbLine
 10
-236.78306243254
 20
71.53343023104816
 30
0.0
 11
-235.5830622895401
 21
71.53342939664816
 31
0.0
  0
LINE
  5
D4
330
1F
100
AcDbEntity
  8
0
  6
CONTINUOUS
 62
     7
100
AcDbLine
 10
-243.68306254814
 20
70.48343011554817
 30
0.0
 11
-243.68306254814
 21
77.58343011554814
 31
0.0
  0
LINE
  5
D5
330
1F
100
AcDbEntity
  8
0
  6
CONTINUOUS
 62
     7
100
AcDbLine
 10
-235.5830624325401
 20
77.73342838344814
 30
0.0
 11
-236.78306234654
 21
77.73343004004818
 31
0.0
  0
LINE
  5
D6
330
1F
100
AcDbEntity
  8
0
  6
CONTINUOUS
 62
     7
100
AcDbLine
 10
-235.5830624325401
 20
72.73343106544814
 30
0.0
 11
-236.78306243254
 21
72.73343023104815
 31
0.0
  0
LINE
  5
D7
330
1F
100
AcDbEntity
  8
0
  6
CONTINUOUS
 62
     7
100
AcDbLine
 10
-236.78306243254
 20
66.53343023104816
 30
0.0
 11
-235.5830624325401
 21
66.53343023104816
 31
0.0
  0
LINE
  5
D8
330
1F
100
AcDbEntity
  8
0
  6
CONTINUOUS
 62
     7
100
AcDbLine
 10
-248.9830628095401
 20
77.58343122634818
 30
0.0
 11
-248.9830628095401
 21
70.48343024874816
 31
0.0
  0
LINE
  5
D9
330
1F
100
AcDbEntity
  8
0
  6
CONTINUOUS
 62
     7
100
AcDbLine
 10
-235.5830622895401
 20
67.73343047224819
 30
0.0
 11
-236.78306243254
 21
67.73343023104815
 31
0.0
  0
LINE
  5
DA
330
1F
100
AcDbEntity
  8
0
  6
CONTINUOUS
 62
     7
100
AcDbLine
 10
-235.5830622180401
 20
82.73342987534818
 30
0.0
 11
-236.78306243254
 21
82.73343001634817
 31
0.0
  0
LINE
  5
DB
330
1F
100
AcDbEntity
  8
0
  6
CONTINUOUS
 62
     7
100
AcDbLine
 10
-247.9830627613401
 20
69.48342996954818
 30
0.0
 11
-244.68306254814
 21
69.48343011554817
 31
0.0
  0
LINE
  5
DC
330
1F
100
AcDbEntity
  8
0
  6
CONTINUOUS
 62
     7
100
AcDbLine
 10
-244.6830626210401
 20
78.58343041944818
 30
0.0
 11
-247.9830626210401
 21
78.58343041944818
 31
0.0
  0
LINE
  5
DD
330
1F
100
AcDbEntity
  8
0
  6
CONTINUOUS
 62
     7
100
AcDbLine
 10
-236.78306243254
 20
81.53343001634818
 30
0.0
 11
-235.5830624325401
 21
81.53343001634818
 31
0.0
  0
LINE
  5
DE
330
1F
100
AcDbEntity
  8
0
  6
CONTINUOUS
 62
     7
100
AcDbLine
 10
-253.8830623953401
 20
107.5334301937482
 30
0.0
 11
-246.9330625295401
 21
107.5334278095482
 31
0.0
  0
LINE
  5
DF
330
1F
100
AcDbEntity
  8
0
  6
CONTINUOUS
 62
     7
100
AcDbLine
 10
-233.9330622986401
 20
107.5334210252482
 30
0.0
 11
-226.9830624326401
 21
107.5334302308482
 31
0.0
  0
LINE
  5
E0
330
1F
100
AcDbEntity
  8
0
  6
CONTINUOUS
 62
     7
100
AcDbLine
 10
-252.28478201314
 20
10.21025977754817
 30
0.0
 11
-252.2747805399401
 21
10.21025977754817
 31
0.0
  0
LINE
  5
E1
330
1F
100
AcDbEntity
  8
0
  6
CONTINUOUS
 62
     7
100
AcDbLine
 10
-238.08306246654
 20
45.45843015154816
 30
0.0
 11
-236.38306232754
 21
45.45843015154816
 31
0.0
  0
LINE
  5
E2
330
1F
100
AcDbEntity
  8
0
  6
CONTINUOUS
 62
     7
100
AcDbLine
 10
-236.38306232754
 20
45.45843015154816
 30
0.0
 11
-236.38306232754
 21
42.60843023454817
 31
0.0
  0
LINE
  5
E3
330
1F
100
AcDbEntity
  8
0
  6
CONTINUOUS
 62
     7
100
AcDbLine
 10
-238.08306246654
 20
42.60843023454817
 30
0.0
 11
-236.38306232754
 21
42.60843023454817
 31
0.0
  0
LINE
  5
E4
330
1F
100
AcDbEntity
  8
0
  6
CONTINUOUS
 62
     7
100
AcDbLine
 10
-236.38306232754
 20
31.45842995234818
 30
0.0
 11
-236.38306232754
 21
28.60843013694819
 31
0.0
  0
LINE
  5
E5
330
1F
100
AcDbEntity
  8
0
  6
CONTINUOUS
 62
     7
100
AcDbLine
 10
-238.08306246654
 20
31.45842995234818
 30
0.0
 11
-236.38306232754
 21
31.45842995234818
 31
0.0
  0
LINE
  5
E6
330
1F
100
AcDbEntity
  8
0
  6
CONTINUOUS
 62
     7
100
AcDbLine
 10
-238.08306246654
 20
28.60843013694819
 30
0.0
 11
-236.38306232754
 21
28.60843013694819
 31
0.0
  0
LINE
  5
E7
330
1F
100
AcDbEntity
  8
0
  6
CONTINUOUS
 62
     7
100
AcDbLine
 10
-236.38306232754
 20
41.95843021814818
 30
0.0
 11
-236.38306232754
 21
39.10843022834814
 31
0.0
  0
LINE
  5
E8
330
1F
100
AcDbEntity
  8
0
  6
CONTINUOUS
 62
     7
100
AcDbLine
 10
-238.08306246654
 20
41.95843021814818
 30
0.0
 11
-236.38306232754
 21
41.95843021814818
 31
0.0
  0
LINE
  5
E9
330
1F
100
AcDbEntity
  8
0
  6
CONTINUOUS
 62
     7
100
AcDbLine
 10
-238.08306246654
 20
39.10843022834814
 30
0.0
 11
-236.38306232754
 21
39.10843022834814
 31
0.0
  0
LINE
  5
EA
330
1F
100
AcDbEntity
  8
0
  6
CONTINUOUS
 62
     7
100
AcDbLine
 10
-236.38306232754
 20
38.45843016834817
 30
0.0
 11
-236.38306232754
 21
35.60843035314815
 31
0.0
  0
LINE
  5
EB
330
1F
100
AcDbEntity
  8
0
  6
CONTINUOUS
 62
     7
100
AcDbLine
 10
-238.08306246654
 20
35.60843035314815
 30
0.0
 11
-236.38306232754
 21
35.60843035314815
 31
0.0
  0
LINE
  5
EC
330
1F
100
AcDbEntity
  8
0
  6
CONTINUOUS
 62
     7
100
AcDbLine
 10
-238.08306246654
 20
38.45843016834817
 30
0.0
 11
-236.38306232754
 21
38.45843016834817
 31
0.0
  0
LINE
  5
ED
330
1F
100
AcDbEntity
  8
0
  6
CONTINUOUS
 62
     7
100
AcDbLine
 10
-236.38306232754
 20
34.95843006034818
 30
0.0
 11
-236.38306232754
 21
32.10842977934817
 31
0.0
  0
LINE
  5
EE
330
1F
100
AcDbEntity
  8
0
  6
CONTINUOUS
 62
     7
100
AcDbLine
 10
-238.08306246654
 20
32.10842977934817
 30
0.0
 11
-236.38306232754
 21
32.10842977934817
 31
0.0
  0
LINE
  5
EF
330
1F
100
AcDbEntity
  8
0
  6
CONTINUOUS
 62
     7
100
AcDbLine
 10
-238.08306246654
 20
34.95843006034818
 30
0.0
 11
-236.38306232754
 21
34.95843006034818
 31
0.0
  0
LINE
  5
F0
330
1F
100
AcDbEntity
  8
0
  6
CONTINUOUS
 62
     7
100
AcDbLine
 10
-238.08306246654
 20
35.60843035314815
 30
0.0
 11
-238.08306246654
 21
38.45843016834817
 31
0.0
  0
LINE
  5
F1
330
1F
100
AcDbEntity
  8
0
  6
CONTINUOUS
 62
     7
100
AcDbLine
 10
-238.08306246654
 20
32.10842977934817
 30
0.0
 11
-238.08306246654
 21
34.95843006034818
 31
0.0
  0
LINE
  5
F2
330
1F
100
AcDbEntity
  8
0
  6
CONTINUOUS
 62
     7
100
AcDbLine
 10
-238.08306246654
 20
39.10843022834814
 30
0.0
 11
-238.08306246654
 21
41.95843021814818
 31
0.0
  0
LINE
  5
F3
330
1F
100
AcDbEntity
  8
0
  6
CONTINUOUS
 62
     7
100
AcDbLine
 10
-238.08306246654
 20
42.60843023454817
 30
0.0
 11
-238.08306246654
 21
45.45843015154816
 31
0.0
  0
LINE
  5
F4
330
1F
100
AcDbEntity
  8
0
  6
CONTINUOUS
 62
     7
100
AcDbLine
 10
-238.08306246654
 20
28.60843013694819
 30
0.0
 11
-238.08306246654
 21
31.45842995234818
 31
0.0
  0
LINE
  5
F5
330
1F
100
AcDbEntity
  8
0
  6
CONTINUOUS
 62
     7
100
AcDbLine
 10
-242.1830624865401
 20
38.45843016834817
 30
0.0
 11
-242.1830624865401
 21
35.60843035314815
 31
0.0
  0
LINE
  5
F6
330
1F
100
AcDbEntity
  8
0
  6
CONTINUOUS
 62
     7
100
AcDbLine
 10
-242.1830624865401
 20
45.45843015154816
 30
0.0
 11
-242.1830624865401
 21
42.60843023454817
 31
0.0
  0
LINE
  5
F7
330
1F
100
AcDbEntity
  8
0
  6
CONTINUOUS
 62
     7
100
AcDbLine
 10
-242.1830624865401
 20
31.45842995234818
 30
0.0
 11
-242.1830624865401
 21
28.60843013694819
 31
0.0
  0
LINE
  5
F8
330
1F
100
AcDbEntity
  8
0
  6
CONTINUOUS
 62
     7
100
AcDbLine
 10
-242.1830624865401
 20
34.95843006034818
 30
0.0
 11
-242.1830624865401
 21
32.10842977934817
 31
0.0
  0
LINE
  5
F9
330
1F
100
AcDbEntity
  8
0
  6
CONTINUOUS
 62
     7
100
AcDbLine
 10
-242.1830624865401
 20
41.95843021814818
 30
0.0
 11
-242.1830624865401
 21
39.10843022834814
 31
0.0
  0
LINE
  5
FA
330
1F
100
AcDbEntity
  8
0
  6
CONTINUOUS
 62
     7
100
AcDbLine
 10
-243.88306239274
 20
32.10842977934817
 30
0.0
 11
-243.88306239274
 21
34.95843006034818
 31
0.0
  0
LINE
  5
FB
330
1F
100
AcDbEntity
  8
0
  6
CONTINUOUS
 62
     7
100
AcDbLine
 10
-242.1830624865401
 20
34.95843006034818
 30
0.0
 11
-243.88306239274
 21
34.95843006034818
 31
0.0
  0
LINE
  5
FC
330
1F
100
AcDbEntity
  8
0
  6
CONTINUOUS
 62
     7
100
AcDbLine
 10
-243.88306239274
 20
32.10842977934817
 30
0.0
 11
-242.1830624865401
 21
32.10842977934817
 31
0.0
  0
LINE
  5
FD
330
1F
100
AcDbEntity
  8
0
  6
CONTINUOUS
 62
     7
100
AcDbLine
 10
-243.88306239274
 20
35.60843035314815
 30
0.0
 11
-243.88306239274
 21
38.45843016834817
 31
0.0
  0
LINE
  5
FE
330
1F
100
AcDbEntity
  8
0
  6
CONTINUOUS
 62
     7
100
AcDbLine
 10
-243.88306239274
 20
35.60843035314815
 30
0.0
 11
-242.1830624865401
 21
35.60843035314815
 31
0.0
  0
LINE
  5
FF
330
1F
100
AcDbEntity
  8
0
  6
CONTINUOUS
 62
     7
100
AcDbLine
 10
-242.1830624865401
 20
38.45843016834817
 30
0.0
 11
-243.88306239274
 21
38.45843016834817
 31
0.0
  0
LINE
  5
100
330
1F
100
AcDbEntity
  8
0
  6
CONTINUOUS
 62
     7
100
AcDbLine
 10
-243.88306239274
 20
39.10843022834814
 30
0.0
 11
-243.88306239274
 21
41.95843021814818
 31
0.0
  0
LINE
  5
101
330
1F
100
AcDbEntity
  8
0
  6
CONTINUOUS
 62
     7
100
AcDbLine
 10
-242.1830624865401
 20
41.95843021814818
 30
0.0
 11
-243.88306239274
 21
41.95843021814818
 31
0.0
  0
LINE
  5
102
330
1F
100
AcDbEntity
  8
0
  6
CONTINUOUS
 62
     7
100
AcDbLine
 10
-242.1830624865401
 20
39.10843022834814
 30
0.0
 11
-243.88306239274
 21
39.10843022834814
 31
0.0
  0
LINE
  5
103
330
1F
100
AcDbEntity
  8
0
  6
CONTINUOUS
 62
     7
100
AcDbLine
 10
-243.88306239274
 20
42.60843023454817
 30
0.0
 11
-243.88306239274
 21
45.45843015154816
 31
0.0
  0
LINE
  5
104
330
1F
100
AcDbEntity
  8
0
  6
CONTINUOUS
 62
     7
100
AcDbLine
 10
-243.88306239274
 20
42.60843023454817
 30
0.0
 11
-242.1830624865401
 21
42.60843023454817
 31
0.0
  0
LINE
  5
105
330
1F
100
AcDbEntity
  8
0
  6
CONTINUOUS
 62
     7
100
AcDbLine
 10
-242.1830624865401
 20
45.45843015154816
 30
0.0
 11
-243.88306239274
 21
45.45843015154816
 31
0.0
  0
LINE
  5
106
330
1F
100
AcDbEntity
  8
0
  6
CONTINUOUS
 62
     7
100
AcDbLine
 10
-243.88306239274
 20
28.60843013694819
 30
0.0
 11
-243.88306239274
 21
31.45842995234818
 31
0.0
  0
LINE
  5
107
330
1F
100
AcDbEntity
  8
0
  6
CONTINUOUS
 62
     7
100
AcDbLine
 10
-242.1830624865401
 20
31.45842995234818
 30
0.0
 11
-243.88306239274
 21
31.45842995234818
 31
0.0
  0
LINE
  5
108
330
1F
100
AcDbEntity
  8
0
  6
CONTINUOUS
 62
     7
100
AcDbLine
 10
-242.1830624865401
 20
28.60843013694819
 30
0.0
 11
-243.88306239274
 21
28.60843013694819
 31
0.0
  0
LINE
  5
109
330
1F
100
AcDbEntity
  8
0
  6
CONTINUOUS
 62
     7
100
AcDbLine
 10
-238.18306252934
 20
32.03343078004815
 30
0.0
 11
-238.18306252934
 21
32.73343052224817
 31
0.0
  0
LINE
  5
10A
330
1F
100
AcDbEntity
  8
0
  6
CONTINUOUS
 62
     7
100
AcDbLine
 10
-236.2831095291401
 20
31.53342994554816
 30
0.0
 11
-236.2831095291401
 21
32.03343078004815
 31
0.0
  0
LINE
  5
10B
330
1F
100
AcDbEntity
  8
0
  6
CONTINUOUS
 62
     7
100
AcDbLine
 10
-238.18306252934
 20
30.83343020334814
 30
0.0
 11
-238.18306252934
 21
31.53342994554816
 31
0.0
  0
LINE
  5
10C
330
1F
100
AcDbEntity
  8
0
  6
CONTINUOUS
 62
     7
100
AcDbLine
 10
-238.7330624099401
 20
30.83343020334814
 30
0.0
 11
-238.18306252934
 21
30.83343020334814
 31
0.0
  0
LINE
  5
10D
330
1F
100
AcDbEntity
  8
0
  6
CONTINUOUS
 62
     7
100
AcDbLine
 10
-238.18306252934
 20
29.23343012734819
 30
0.0
 11
-238.7330624325401
 21
29.23342988594817
 31
0.0
  0
LINE
  5
10E
330
1F
100
AcDbEntity
  8
0
  6
CONTINUOUS
 62
     7
100
AcDbLine
 10
-238.18306252934
 20
28.53342945374817
 30
0.0
 11
-238.18306252934
 21
29.23343012734819
 31
0.0
  0
LINE
  5
10F
330
1F
100
AcDbEntity
  8
0
  6
CONTINUOUS
 62
     7
100
AcDbLine
 10
-236.2831095291401
 20
27.90843039474817
 30
0.0
 11
-236.2831095291401
 21
28.53342945374817
 31
0.0
  0
LINE
  5
110
330
1F
100
AcDbEntity
  8
0
  6
CONTINUOUS
 62
     7
100
AcDbLine
 10
-243.9830151911401
 20
27.90843039474817
 30
0.0
 11
-243.9830151911401
 21
28.53342979874816
 31
0.0
  0
LINE
  5
111
330
1F
100
AcDbEntity
  8
0
  6
CONTINUOUS
 62
     7
100
AcDbLine
 10
-242.08306242354
 20
28.53342979874816
 30
0.0
 11
-243.9830151911401
 21
28.53342979874816
 31
0.0
  0
LINE
  5
112
330
1F
100
AcDbEntity
  8
0
  6
CONTINUOUS
 62
     7
100
AcDbLine
 10
-242.08306242354
 20
31.53343029054815
 30
0.0
 11
-242.08306242354
 21
28.53342979874816
 31
0.0
  0
LINE
  5
113
330
1F
100
AcDbEntity
  8
0
  6
CONTINUOUS
 62
     7
100
AcDbLine
 10
-243.9830151911401
 20
31.53343029054815
 30
0.0
 11
-242.08306242354
 21
31.53343029054815
 31
0.0
  0
LINE
  5
114
330
1F
100
AcDbEntity
  8
0
  6
CONTINUOUS
 62
     7
100
AcDbLine
 10
-243.9830151911401
 20
32.03343037254814
 30
0.0
 11
-243.9830151911401
 21
31.53343029054815
 31
0.0
  0
LINE
  5
115
330
1F
100
AcDbEntity
  8
0
  6
CONTINUOUS
 62
     7
100
AcDbLine
 10
-242.08306242354
 20
32.03343037254814
 30
0.0
 11
-243.9830151911401
 21
32.03343037254814
 31
0.0
  0
LINE
  5
116
330
1F
100
AcDbEntity
  8
0
  6
CONTINUOUS
 62
     7
100
AcDbLine
 10
-242.08306242354
 20
35.03343039854815
 30
0.0
 11
-242.08306242354
 21
32.03343037254814
 31
0.0
  0
LINE
  5
117
330
1F
100
AcDbEntity
  8
0
  6
CONTINUOUS
 62
     7
100
AcDbLine
 10
-243.9830151911401
 20
35.03343039854815
 30
0.0
 11
-242.08306242354
 21
35.03343039854815
 31
0.0
  0
LINE
  5
118
330
1F
100
AcDbEntity
  8
0
  6
CONTINUOUS
 62
     7
100
AcDbLine
 10
-243.9830151911401
 20
35.53343001494818
 30
0.0
 11
-243.9830151911401
 21
35.03343039854815
 31
0.0
  0
LINE
  5
119
330
1F
100
AcDbEntity
  8
0
  6
CONTINUOUS
 62
     7
100
AcDbLine
 10
-242.08306242354
 20
35.53343001494818
 30
0.0
 11
-243.9830151911401
 21
35.53343001494818
 31
0.0
  0
LINE
  5
11A
330
1F
100
AcDbEntity
  8
0
  6
CONTINUOUS
 62
     7
100
AcDbLine
 10
-242.08306242354
 20
38.53343004094819
 30
0.0
 11
-242.08306242354
 21
35.53343001494818
 31
0.0
  0
LINE
  5
11B
330
1F
100
AcDbEntity
  8
0
  6
CONTINUOUS
 62
     7
100
AcDbLine
 10
-243.9830151911401
 20
38.53343004094819
 30
0.0
 11
-242.08306242354
 21
38.53343004094819
 31
0.0
  0
LINE
  5
11C
330
1F
100
AcDbEntity
  8
0
  6
CONTINUOUS
 62
     7
100
AcDbLine
 10
-243.9830151911401
 20
39.03343012294818
 30
0.0
 11
-243.9830151911401
 21
38.53343004094819
 31
0.0
  0
LINE
  5
11D
330
1F
100
AcDbEntity
  8
0
  6
CONTINUOUS
 62
     7
100
AcDbLine
 10
-242.08306242354
 20
39.03343012294818
 30
0.0
 11
-243.9830151911401
 21
39.03343012294818
 31
0.0
  0
LINE
  5
11E
330
1F
100
AcDbEntity
  8
0
  6
CONTINUOUS
 62
     7
100
AcDbLine
 10
-242.08306242354
 20
42.03343020714817
 30
0.0
 11
-242.08306242354
 21
39.03343012294818
 31
0.0
  0
LINE
  5
11F
330
1F
100
AcDbEntity
  8
0
  6
CONTINUOUS
 62
     7
100
AcDbLine
 10
-243.9830151911401
 20
42.03343020714817
 30
0.0
 11
-242.08306242354
 21
42.03343020714817
 31
0.0
  0
LINE
  5
120
330
1F
100
AcDbEntity
  8
0
  6
CONTINUOUS
 62
     7
100
AcDbLine
 10
-243.9830151911401
 20
42.53343023094817
 30
0.0
 11
-243.9830151911401
 21
42.03343020714817
 31
0.0
  0
LINE
  5
121
330
1F
100
AcDbEntity
  8
0
  6
CONTINUOUS
 62
     7
100
AcDbLine
 10
-242.08306242354
 20
42.53343023094817
 30
0.0
 11
-243.9830151911401
 21
42.53343023094817
 31
0.0
  0
LINE
  5
122
330
1F
100
AcDbEntity
  8
0
  6
CONTINUOUS
 62
     7
100
AcDbLine
 10
-242.08306242354
 20
45.53343025694818
 30
0.0
 11
-242.08306242354
 21
42.53343023094817
 31
0.0
  0
LINE
  5
123
330
1F
100
AcDbEntity
  8
0
  6
CONTINUOUS
 62
     7
100
AcDbLine
 10
-243.9830151911401
 20
45.53343025694818
 30
0.0
 11
-242.08306242354
 21
45.53343025694818
 31
0.0
  0
LINE
  5
124
330
1F
100
AcDbEntity
  8
0
  6
CONTINUOUS
 62
     7
100
AcDbLine
 10
-243.9830151911401
 20
46.15843012654818
 30
0.0
 11
-243.9830151911401
 21
45.53343025694818
 31
0.0
  0
LINE
  5
125
330
1F
100
AcDbEntity
  8
0
  6
CONTINUOUS
 62
     7
100
AcDbLine
 10
-236.2831095291401
 20
45.53343024444814
 30
0.0
 11
-236.2831095291401
 21
46.15843012654818
 31
0.0
  0
LINE
  5
126
330
1F
100
AcDbEntity
  8
0
  6
CONTINUOUS
 62
     7
100
AcDbLine
 10
-238.18306252934
 20
44.83343026944817
 30
0.0
 11
-238.18306252934
 21
45.53343024444814
 31
0.0
  0
LINE
  5
127
330
1F
100
AcDbEntity
  8
0
  6
CONTINUOUS
 62
     7
100
AcDbLine
 10
-238.7330624099401
 20
44.83343026944817
 30
0.0
 11
-238.18306252934
 21
44.83343026944817
 31
0.0
  0
LINE
  5
128
330
1F
100
AcDbEntity
  8
0
  6
CONTINUOUS
 62
     7
100
AcDbLine
 10
-238.18306252934
 20
43.23343021844818
 30
0.0
 11
-238.7330624325401
 21
43.23343021844818
 31
0.0
  0
LINE
  5
129
330
1F
100
AcDbEntity
  8
0
  6
CONTINUOUS
 62
     7
100
AcDbLine
 10
-238.18306252934
 20
42.53343024344815
 30
0.0
 11
-238.18306252934
 21
43.23343021844818
 31
0.0
  0
LINE
  5
12A
330
1F
100
AcDbEntity
  8
0
  6
CONTINUOUS
 62
     7
100
AcDbLine
 10
-236.2831095291401
 20
42.03343019884818
 30
0.0
 11
-236.2831095291401
 21
42.53343024344815
 31
0.0
  0
LINE
  5
12B
330
1F
100
AcDbEntity
  8
0
  6
CONTINUOUS
 62
     7
100
AcDbLine
 10
-238.18306252934
 20
41.33343016564817
 30
0.0
 11
-238.18306252934
 21
42.03343019884818
 31
0.0
  0
LINE
  5
12C
330
1F
100
AcDbEntity
  8
0
  6
CONTINUOUS
 62
     7
100
AcDbLine
 10
-238.7330624099401
 20
41.33343016564817
 30
0.0
 11
-238.18306252934
 21
41.33343016564817
 31
0.0
  0
LINE
  5
12D
330
1F
100
AcDbEntity
  8
0
  6
CONTINUOUS
 62
     7
100
AcDbLine
 10
-238.18306252934
 20
39.73343022264817
 30
0.0
 11
-238.7330624325401
 21
39.73343022264817
 31
0.0
  0
LINE
  5
12E
330
1F
100
AcDbEntity
  8
0
  6
CONTINUOUS
 62
     7
100
AcDbLine
 10
-238.18306252934
 20
39.03343001484814
 30
0.0
 11
-238.18306252934
 21
39.73343022264817
 31
0.0
  0
LINE
  5
12F
330
1F
100
AcDbEntity
  8
0
  6
CONTINUOUS
 62
     7
100
AcDbLine
 10
-236.2831095291401
 20
38.53343003684819
 30
0.0
 11
-236.2831095291401
 21
39.03343001484814
 31
0.0
  0
LINE
  5
130
330
1F
100
AcDbEntity
  8
0
  6
CONTINUOUS
 62
     7
100
AcDbLine
 10
-238.18306252934
 20
37.83343029464817
 30
0.0
 11
-238.18306252934
 21
38.53343003684819
 31
0.0
  0
LINE
  5
131
330
1F
100
AcDbEntity
  8
0
  6
CONTINUOUS
 62
     7
100
AcDbLine
 10
-238.7330624099401
 20
37.83343029464817
 30
0.0
 11
-238.18306252934
 21
37.83343029464817
 31
0.0
  0
LINE
  5
132
330
1F
100
AcDbEntity
  8
0
  6
CONTINUOUS
 62
     7
100
AcDbLine
 10
-238.18306252934
 20
36.23343022684816
 30
0.0
 11
-238.7330624325401
 21
36.23343022684816
 31
0.0
  0
LINE
  5
133
330
1F
100
AcDbEntity
  8
0
  6
CONTINUOUS
 62
     7
100
AcDbLine
 10
-238.18306252934
 20
35.53343001904818
 30
0.0
 11
-238.18306252934
 21
36.23343022684816
 31
0.0
  0
LINE
  5
134
330
1F
100
AcDbEntity
  8
0
  6
CONTINUOUS
 62
     7
100
AcDbLine
 10
-236.2831095291401
 20
35.03343080604816
 30
0.0
 11
-236.2831095291401
 21
35.53343001904818
 31
0.0
  0
LINE
  5
135
330
1F
100
AcDbEntity
  8
0
  6
CONTINUOUS
 62
     7
100
AcDbLine
 10
-238.18306252934
 20
34.33343059824819
 30
0.0
 11
-238.18306252934
 21
35.03343080604816
 31
0.0
  0
LINE
  5
136
330
1F
100
AcDbEntity
  8
0
  6
CONTINUOUS
 62
     7
100
AcDbLine
 10
-238.7330624099401
 20
34.33343059824819
 30
0.0
 11
-238.18306252934
 21
34.33343059824819
 31
0.0
  0
LINE
  5
137
330
1F
100
AcDbEntity
  8
0
  6
CONTINUOUS
 62
     7
100
AcDbLine
 10
-238.18306252934
 20
32.73343052224817
 30
0.0
 11
-238.7330624325401
 21
32.73343063844817
 31
0.0
  0
LINE
  5
138
330
1F
100
AcDbEntity
  8
0
  6
CONTINUOUS
 62
     7
100
AcDbLine
 10
-238.18306252934
 20
45.53343024444814
 30
0.0
 11
-236.2831095291401
 21
45.53343024444814
 31
0.0
  0
LINE
  5
139
330
1F
100
AcDbEntity
  8
0
  6
CONTINUOUS
 62
     7
100
AcDbLine
 10
-236.2831095291401
 20
42.53343024344815
 30
0.0
 11
-238.18306252934
 21
42.53343024344815
 31
0.0
  0
LINE
  5
13A
330
1F
100
AcDbEntity
  8
0
  6
CONTINUOUS
 62
     7
100
AcDbLine
 10
-238.18306252934
 20
35.03343080604816
 30
0.0
 11
-236.2831095291401
 21
35.03343080604816
 31
0.0
  0
LINE
  5
13B
330
1F
100
AcDbEntity
  8
0
  6
CONTINUOUS
 62
     7
100
AcDbLine
 10
-238.18306252934
 20
31.53342994554816
 30
0.0
 11
-236.2831095291401
 21
31.53342994554816
 31
0.0
  0
LINE
  5
13C
330
1F
100
AcDbEntity
  8
0
  6
CONTINUOUS
 62
     7
100
AcDbLine
 10
-238.18306252934
 20
42.03343019884818
 30
0.0
 11
-236.2831095291401
 21
42.03343019884818
 31
0.0
  0
LINE
  5
13D
330
1F
100
AcDbEntity
  8
0
  6
CONTINUOUS
 62
     7
100
AcDbLine
 10
-236.2831095291401
 20
32.03343078004815
 30
0.0
 11
-238.18306252934
 21
32.03343078004815
 31
0.0
  0
LINE
  5
13E
330
1F
100
AcDbEntity
  8
0
  6
CONTINUOUS
 62
     7
100
AcDbLine
 10
-236.2831095291401
 20
35.53343001904818
 30
0.0
 11
-238.18306252934
 21
35.53343001904818
 31
0.0
  0
LINE
  5
13F
330
1F
100
AcDbEntity
  8
0
  6
CONTINUOUS
 62
     7
100
AcDbLine
 10
-238.18306252934
 20
38.53343003684819
 30
0.0
 11
-236.2831095291401
 21
38.53343003684819
 31
0.0
  0
LINE
  5
140
330
1F
100
AcDbEntity
  8
0
  6
CONTINUOUS
 62
     7
100
AcDbLine
 10
-236.2831095291401
 20
39.03343001484814
 30
0.0
 11
-238.18306252934
 21
39.03343001484814
 31
0.0
  0
LINE
  5
141
330
1F
100
AcDbEntity
  8
0
  6
CONTINUOUS
 62
     7
100
AcDbLine
 10
-236.2831095291401
 20
28.53342945374817
 30
0.0
 11
-238.18306252934
 21
28.53342945374817
 31
0.0
  0
LINE
  5
142
330
1F
100
AcDbEntity
  8
0
  6
CONTINUOUS
 62
     7
100
AcDbLine
 10
-236.2831095291401
 20
46.15843012654818
 30
0.0
 11
-243.9830151911401
 21
46.15843012654818
 31
0.0
  0
LINE
  5
143
330
1F
100
AcDbEntity
  8
0
  6
CONTINUOUS
 62
     7
100
AcDbLine
 10
-236.2831095291401
 20
27.90843039474817
 30
0.0
 11
-243.9830151911401
 21
27.90843039474817
 31
0.0
  0
LINE
  5
144
330
1F
100
AcDbEntity
  8
0
  6
CONTINUOUS
 62
     7
100
AcDbLine
 10
-235.7057593821401
 20
28.53342945374817
 30
0.0
 11
-235.7057593821401
 21
27.90843039474817
 31
0.0
  0
LINE
  5
145
330
1F
100
AcDbEntity
  8
0
  6
CONTINUOUS
 62
     7
100
AcDbLine
 10
-235.7057593821401
 20
28.53342945374817
 30
0.0
 11
-236.2831095291401
 21
28.53342945374817
 31
0.0
  0
LINE
  5
146
330
1F
100
AcDbEntity
  8
0
  6
CONTINUOUS
 62
     7
100
AcDbLine
 10
-235.7057593821401
 20
27.90843039474817
 30
0.0
 11
-236.2831095291401
 21
27.90843039474817
 31
0.0
  0
LINE
  5
147
330
1F
100
AcDbEntity
  8
0
  6
CONTINUOUS
 62
     7
100
AcDbLine
 10
-235.7057593821401
 20
32.03343078004815
 30
0.0
 11
-235.7057593821401
 21
31.53342994554816
 31
0.0
  0
LINE
  5
148
330
1F
100
AcDbEntity
  8
0
  6
CONTINUOUS
 62
     7
100
AcDbLine
 10
-235.7057593821401
 20
31.53342994554816
 30
0.0
 11
-236.2831095291401
 21
31.53342994554816
 31
0.0
  0
LINE
  5
149
330
1F
100
AcDbEntity
  8
0
  6
CONTINUOUS
 62
     7
100
AcDbLine
 10
-235.7057593821401
 20
32.03343078004815
 30
0.0
 11
-236.2831095291401
 21
32.03343078004815
 31
0.0
  0
LINE
  5
14A
330
1F
100
AcDbEntity
  8
0
  6
CONTINUOUS
 62
     7
100
AcDbLine
 10
-235.7057593821401
 20
35.53343001904818
 30
0.0
 11
-235.7057593821401
 21
35.03343080604816
 31
0.0
  0
LINE
  5
14B
330
1F
100
AcDbEntity
  8
0
  6
CONTINUOUS
 62
     7
100
AcDbLine
 10
-235.7057593821401
 20
35.03343080604816
 30
0.0
 11
-236.2831095291401
 21
35.03343080604816
 31
0.0
  0
LINE
  5
14C
330
1F
100
AcDbEntity
  8
0
  6
CONTINUOUS
 62
     7
100
AcDbLine
 10
-235.7057593821401
 20
35.53343001904818
 30
0.0
 11
-236.2831095291401
 21
35.53343001904818
 31
0.0
  0
LINE
  5
14D
330
1F
100
AcDbEntity
  8
0
  6
CONTINUOUS
 62
     7
100
AcDbLine
 10
-235.7057593821401
 20
39.03343001484814
 30
0.0
 11
-235.7057593821401
 21
38.53343003684819
 31
0.0
  0
LINE
  5
14E
330
1F
100
AcDbEntity
  8
0
  6
CONTINUOUS
 62
     7
100
AcDbLine
 10
-235.7057593821401
 20
38.53343003684819
 30
0.0
 11
-236.2831095291401
 21
38.53343003684819
 31
0.0
  0
LINE
  5
14F
330
1F
100
AcDbEntity
  8
0
  6
CONTINUOUS
 62
     7
100
AcDbLine
 10
-235.7057593821401
 20
39.03343001484814
 30
0.0
 11
-236.2831095291401
 21
39.03343001484814
 31
0.0
  0
LINE
  5
150
330
1F
100
AcDbEntity
  8
0
  6
CONTINUOUS
 62
     7
100
AcDbLine
 10
-235.7057593821401
 20
42.53343024344815
 30
0.0
 11
-235.7057593821401
 21
42.03343019884818
 31
0.0
  0
LINE
  5
151
330
1F
100
AcDbEntity
  8
0
  6
CONTINUOUS
 62
     7
100
AcDbLine
 10
-235.7057593821401
 20
42.53343024344815
 30
0.0
 11
-236.2831095291401
 21
42.53343024344815
 31
0.0
  0
LINE
  5
152
330
1F
100
AcDbEntity
  8
0
  6
CONTINUOUS
 62
     7
100
AcDbLine
 10
-235.7057593821401
 20
42.03343019884818
 30
0.0
 11
-236.2831095291401
 21
42.03343019884818
 31
0.0
  0
LINE
  5
153
330
1F
100
AcDbEntity
  8
0
  6
CONTINUOUS
 62
     7
100
AcDbLine
 10
-238.7330624099401
 20
44.58343024094819
 30
0.0
 11
-238.18306252934
 21
44.58343024094819
 31
0.0
  0
LINE
  5
154
330
1F
100
AcDbEntity
  8
0
  6
CONTINUOUS
 62
     7
100
AcDbLine
 10
-238.18306252934
 20
44.58343024094819
 30
0.0
 11
-238.18306252934
 21
44.83343026944817
 31
0.0
  0
LINE
  5
155
330
1F
100
AcDbEntity
  8
0
  6
CONTINUOUS
 62
     7
100
AcDbLine
 10
-238.7330624099401
 20
36.48343026374818
 30
0.0
 11
-238.18306252934
 21
36.48343026374818
 31
0.0
  0
LINE
  5
156
330
1F
100
AcDbEntity
  8
0
  6
CONTINUOUS
 62
     7
100
AcDbLine
 10
-238.18306252934
 20
36.23343022684816
 30
0.0
 11
-238.18306252934
 21
36.48343026374818
 31
0.0
  0
LINE
  5
157
330
1F
100
AcDbEntity
  8
0
  6
CONTINUOUS
 62
     7
100
AcDbLine
 10
-238.7330624099401
 20
43.48343024694816
 30
0.0
 11
-238.18306252934
 21
43.48343024694816
 31
0.0
  0
LINE
  5
158
330
1F
100
AcDbEntity
  8
0
  6
CONTINUOUS
 62
     7
100
AcDbLine
 10
-238.18306252934
 20
43.23343021844818
 30
0.0
 11
-238.18306252934
 21
43.48343024694816
 31
0.0
  0
LINE
  5
159
330
1F
100
AcDbEntity
  8
0
  6
CONTINUOUS
 62
     7
100
AcDbLine
 10
-238.7330624099401
 20
29.48343004754815
 30
0.0
 11
-238.18306252934
 21
29.48343004754815
 31
0.0
  0
LINE
  5
15A
330
1F
100
AcDbEntity
  8
0
  6
CONTINUOUS
 62
     7
100
AcDbLine
 10
-238.18306252934
 20
29.23343012734819
 30
0.0
 11
-238.18306252934
 21
29.48343004754815
 31
0.0
  0
LINE
  5
15B
330
1F
100
AcDbEntity
  8
0
  6
CONTINUOUS
 62
     7
100
AcDbLine
 10
-238.7330624099401
 20
39.98343013894817
 30
0.0
 11
-238.18306252934
 21
39.98343013894817
 31
0.0
  0
LINE
  5
15C
330
1F
100
AcDbEntity
  8
0
  6
CONTINUOUS
 62
     7
100
AcDbLine
 10
-238.18306252934
 20
39.73343022264817
 30
0.0
 11
-238.18306252934
 21
39.98343013894817
 31
0.0
  0
LINE
  5
15D
330
1F
100
AcDbEntity
  8
0
  6
CONTINUOUS
 62
     7
100
AcDbLine
 10
-235.7057593821401
 20
46.15843012654818
 30
0.0
 11
-235.7057593821401
 21
45.53343024444814
 31
0.0
  0
LINE
  5
15E
330
1F
100
AcDbEntity
  8
0
  6
CONTINUOUS
 62
     7
100
AcDbLine
 10
-236.2831095291401
 20
45.53343024444814
 30
0.0
 11
-235.7057593821401
 21
45.53343024444814
 31
0.0
  0
LINE
  5
15F
330
1F
100
AcDbEntity
  8
0
  6
CONTINUOUS
 62
     7
100
AcDbLine
 10
-235.7057593821401
 20
46.15843012654818
 30
0.0
 11
-236.2831095291401
 21
46.15843012654818
 31
0.0
  0
LINE
  5
160
330
1F
100
AcDbEntity
  8
0
  6
CONTINUOUS
 62
     7
100
AcDbLine
 10
-238.7330624099401
 20
32.98343062134819
 30
0.0
 11
-238.18306252934
 21
32.98343062134819
 31
0.0
  0
LINE
  5
161
330
1F
100
AcDbEntity
  8
0
  6
CONTINUOUS
 62
     7
100
AcDbLine
 10
-238.18306252934
 20
32.73343052224817
 30
0.0
 11
-238.18306252934
 21
32.98343062134819
 31
0.0
  0
LINE
  5
162
330
1F
100
AcDbEntity
  8
0
  6
CONTINUOUS
 62
     7
100
AcDbLine
 10
-244.5603655709401
 20
28.53342979874816
 30
0.0
 11
-244.5603655709401
 21
27.90843039474817
 31
0.0
  0
LINE
  5
163
330
1F
100
AcDbEntity
  8
0
  6
CONTINUOUS
 62
     7
100
AcDbLine
 10
-243.9830151911401
 20
28.53342979874816
 30
0.0
 11
-244.5603655709401
 21
28.53342979874816
 31
0.0
  0
LINE
  5
164
330
1F
100
AcDbEntity
  8
0
  6
CONTINUOUS
 62
     7
100
AcDbLine
 10
-243.9830151911401
 20
27.90843039474817
 30
0.0
 11
-244.5603655709401
 21
27.90843039474817
 31
0.0
  0
LINE
  5
165
330
1F
100
AcDbEntity
  8
0
  6
CONTINUOUS
 62
     7
100
AcDbLine
 10
-244.5603655709401
 20
42.53343023094817
 30
0.0
 11
-244.5603655709401
 21
42.03343020714817
 31
0.0
  0
LINE
  5
166
330
1F
100
AcDbEntity
  8
0
  6
CONTINUOUS
 62
     7
100
AcDbLine
 10
-243.9830151911401
 20
42.03343020714817
 30
0.0
 11
-244.5603655709401
 21
42.03343020714817
 31
0.0
  0
LINE
  5
167
330
1F
100
AcDbEntity
  8
0
  6
CONTINUOUS
 62
     7
100
AcDbLine
 10
-243.9830151911401
 20
42.53343023094817
 30
0.0
 11
-244.5603655709401
 21
42.53343023094817
 31
0.0
  0
LINE
  5
168
330
1F
100
AcDbEntity
  8
0
  6
CONTINUOUS
 62
     7
100
AcDbLine
 10
-244.5603655709401
 20
32.03343037254814
 30
0.0
 11
-244.5603655709401
 21
31.53343029054815
 31
0.0
  0
LINE
  5
169
330
1F
100
AcDbEntity
  8
0
  6
CONTINUOUS
 62
     7
100
AcDbLine
 10
-243.9830151911401
 20
31.53343029054815
 30
0.0
 11
-244.5603655709401
 21
31.53343029054815
 31
0.0
  0
LINE
  5
16A
330
1F
100
AcDbEntity
  8
0
  6
CONTINUOUS
 62
     7
100
AcDbLine
 10
-243.9830151911401
 20
32.03343037254814
 30
0.0
 11
-244.5603655709401
 21
32.03343037254814
 31
0.0
  0
LINE
  5
16B
330
1F
100
AcDbEntity
  8
0
  6
CONTINUOUS
 62
     7
100
AcDbLine
 10
-244.5603655709401
 20
35.53343001494818
 30
0.0
 11
-244.5603655709401
 21
35.03343039854815
 31
0.0
  0
LINE
  5
16C
330
1F
100
AcDbEntity
  8
0
  6
CONTINUOUS
 62
     7
100
AcDbLine
 10
-243.9830151911401
 20
35.03343039854815
 30
0.0
 11
-244.5603655709401
 21
35.03343039854815
 31
0.0
  0
LINE
  5
16D
330
1F
100
AcDbEntity
  8
0
  6
CONTINUOUS
 62
     7
100
AcDbLine
 10
-243.9830151911401
 20
35.53343001494818
 30
0.0
 11
-244.5603655709401
 21
35.53343001494818
 31
0.0
  0
LINE
  5
16E
330
1F
100
AcDbEntity
  8
0
  6
CONTINUOUS
 62
     7
100
AcDbLine
 10
-244.5603655709401
 20
39.03343012294818
 30
0.0
 11
-244.5603655709401
 21
38.53343004094819
 31
0.0
  0
LINE
  5
16F
330
1F
100
AcDbEntity
  8
0
  6
CONTINUOUS
 62
     7
100
AcDbLine
 10
-243.9830151911401
 20
39.03343012294818
 30
0.0
 11
-244.5603655709401
 21
39.03343012294818
 31
0.0
  0
LINE
  5
170
330
1F
100
AcDbEntity
  8
0
  6
CONTINUOUS
 62
     7
100
AcDbLine
 10
-243.9830151911401
 20
38.53343004094819
 30
0.0
 11
-244.5603655709401
 21
38.53343004094819
 31
0.0
  0
LINE
  5
171
330
1F
100
AcDbEntity
  8
0
  6
CONTINUOUS
 62
     7
100
AcDbLine
 10
-238.7330624099401
 20
30.58343004174816
 30
0.0
 11
-238.18306252934
 21
30.58343004174816
 31
0.0
  0
LINE
  5
172
330
1F
100
AcDbEntity
  8
0
  6
CONTINUOUS
 62
     7
100
AcDbLine
 10
-238.18306252934
 20
30.58343004174816
 30
0.0
 11
-238.18306252934
 21
30.83343020334814
 31
0.0
  0
LINE
  5
173
330
1F
100
AcDbEntity
  8
0
  6
CONTINUOUS
 62
     7
100
AcDbLine
 10
-238.7330624099401
 20
34.08343061534816
 30
0.0
 11
-238.18306252934
 21
34.08343061534816
 31
0.0
  0
LINE
  5
174
330
1F
100
AcDbEntity
  8
0
  6
CONTINUOUS
 62
     7
100
AcDbLine
 10
-238.18306252934
 20
34.08343061534816
 30
0.0
 11
-238.18306252934
 21
34.33343059824819
 31
0.0
  0
LINE
  5
175
330
1F
100
AcDbEntity
  8
0
  6
CONTINUOUS
 62
     7
100
AcDbLine
 10
-238.7330624099401
 20
41.08343024934817
 30
0.0
 11
-238.18306252934
 21
41.08343024934817
 31
0.0
  0
LINE
  5
176
330
1F
100
AcDbEntity
  8
0
  6
CONTINUOUS
 62
     7
100
AcDbLine
 10
-238.18306252934
 20
41.08343024934817
 30
0.0
 11
-238.18306252934
 21
41.33343016564817
 31
0.0
  0
LINE
  5
177
330
1F
100
AcDbEntity
  8
0
  6
CONTINUOUS
 62
     7
100
AcDbLine
 10
-238.7330624099401
 20
37.58343025774815
 30
0.0
 11
-238.18306252934
 21
37.58343025774815
 31
0.0
  0
LINE
  5
178
330
1F
100
AcDbEntity
  8
0
  6
CONTINUOUS
 62
     7
100
AcDbLine
 10
-238.18306252934
 20
37.58343025774815
 30
0.0
 11
-238.18306252934
 21
37.83343029464817
 31
0.0
  0
LINE
  5
179
330
1F
100
AcDbEntity
  8
0
  6
CONTINUOUS
 62
     7
100
AcDbLine
 10
-244.5603655709401
 20
46.15843012654818
 30
0.0
 11
-244.5603655709401
 21
45.53343025694818
 31
0.0
  0
LINE
  5
17A
330
1F
100
AcDbEntity
  8
0
  6
CONTINUOUS
 62
     7
100
AcDbLine
 10
-244.5603655709401
 20
45.53343025694818
 30
0.0
 11
-243.9830151911401
 21
45.53343025694818
 31
0.0
  0
LINE
  5
17B
330
1F
100
AcDbEntity
  8
0
  6
CONTINUOUS
 62
     7
100
AcDbLine
 10
-243.9830151911401
 20
46.15843012654818
 30
0.0
 11
-244.5603655709401
 21
46.15843012654818
 31
0.0
  0
LINE
  5
17C
330
1F
100
AcDbEntity
  8
0
  6
CONTINUOUS
 62
     7
100
AcDbLine
 10
-247.9830626457401
 20
27.90843039474817
 30
0.0
 11
-247.9830626457401
 21
46.15843012654818
 31
0.0
  0
LINE
  5
17D
330
1F
100
AcDbEntity
  8
0
  6
CONTINUOUS
 62
     7
100
AcDbLine
 10
-244.5603655709401
 20
46.15843012654818
 30
0.0
 11
-247.9830626457401
 21
46.15843012654818
 31
0.0
  0
LINE
  5
17E
330
1F
100
AcDbEntity
  8
0
  6
CONTINUOUS
 62
     7
100
AcDbLine
 10
-244.5603655709401
 20
27.90843039474817
 30
0.0
 11
-247.9830626457401
 21
27.90843039474817
 31
0.0
  0
LINE
  5
17F
330
1F
100
AcDbEntity
  8
0
  6
CONTINUOUS
 62
     7
100
AcDbLine
 10
-232.2830623073401
 20
46.15843012654818
 30
0.0
 11
-232.2830623073401
 21
27.90843039474817
 31
0.0
  0
LINE
  5
180
330
1F
100
AcDbEntity
  8
0
  6
CONTINUOUS
 62
     7
100
AcDbLine
 10
-232.2830623073401
 20
46.15843012654818
 30
0.0
 11
-235.7057593821401
 21
46.15843012654818
 31
0.0
  0
LINE
  5
181
330
1F
100
AcDbEntity
  8
0
  6
CONTINUOUS
 62
     7
100
AcDbLine
 10
-232.2830623073401
 20
27.90843039474817
 30
0.0
 11
-235.7057593821401
 21
27.90843039474817
 31
0.0
  0
LINE
  5
182
330
1F
100
AcDbEntity
  8
0
  6
CONTINUOUS
 62
     7
100
AcDbLine
 10
-238.08306246654
 20
27.90843039474817
 30
0.0
 11
-238.08306246654
 21
24.10843023094816
 31
0.0
  0
LINE
  5
183
330
1F
100
AcDbEntity
  8
0
  6
CONTINUOUS
 62
     7
100
AcDbLine
 10
-232.48306223414
 20
24.10842963174815
 30
0.0
 11
-232.48306223414
 21
27.90843062714816
 31
0.0
  0
LINE
  5
184
330
1F
100
AcDbEntity
  8
0
  6
CONTINUOUS
 62
     7
100
AcDbLine
 10
-237.08306246654
 20
23.10843023094816
 30
0.0
 11
-233.48306246654
 21
23.10843023094816
 31
0.0
  0
LINE
  5
185
330
1F
100
AcDbEntity
  8
0
  6
CONTINUOUS
 62
     7
100
AcDbLine
 10
-232.4830624495401
 20
49.95843024794817
 30
0.0
 11
-232.4830619847401
 21
46.15843014354817
 31
0.0
  0
LINE
  5
186
330
1F
100
AcDbEntity
  8
0
  6
CONTINUOUS
 62
     7
100
AcDbLine
 10
-238.08306246654
 20
46.15843012654818
 30
0.0
 11
-238.08306246654
 21
49.95843019074817
 31
0.0
  0
LINE
  5
187
330
1F
100
AcDbEntity
  8
0
  6
CONTINUOUS
 62
     7
100
AcDbLine
 10
-237.0830624495401
 20
50.95843024794817
 30
0.0
 11
-233.4830624495401
 21
50.95843024794817
 31
0.0
  0
LINE
  5
188
330
1F
100
AcDbEntity
  8
0
  6
CONTINUOUS
 62
     7
100
AcDbLine
 10
-238.1830624809401
 20
27.38342993814814
 30
0.0
 11
-238.1830624809401
 21
23.63343027934815
 31
0.0
  0
LINE
  5
189
330
1F
100
AcDbEntity
  8
0
  6
CONTINUOUS
 62
     7
100
AcDbLine
 10
-239.18306246054
 20
27.88342997154814
 30
0.0
 11
-238.6830624325401
 21
27.88343023094814
 31
0.0
  0
LINE
  5
18A
330
1F
100
AcDbEntity
  8
0
  6
CONTINUOUS
 62
     7
100
AcDbLine
 10
-238.6830623785401
 20
46.18343031694815
 30
0.0
 11
-239.18306246054
 21
46.18343031694815
 31
0.0
  0
LINE
  5
18B
330
1F
100
AcDbEntity
  8
0
  6
CONTINUOUS
 62
     7
100
AcDbLine
 10
-238.1830624755401
 20
50.43342989254819
 30
0.0
 11
-238.1830624755401
 21
46.68343027394815
 31
0.0
  0
LINE
  5
18C
330
1F
100
AcDbEntity
  8
0
  6
CONTINUOUS
 62
     7
100
AcDbLine
 10
-232.78306223954
 20
50.93343008114817
 30
0.0
 11
-233.26085726294
 21
50.93343008114817
 31
0.0
  0
LINE
  5
18D
330
1F
100
AcDbEntity
  8
0
  6
CONTINUOUS
 62
     7
100
AcDbLine
 10
-237.3052672487401
 20
50.93343002274815
 30
0.0
 11
-237.68306242714
 21
50.93343032234816
 31
0.0
  0
LINE
  5
18E
330
1F
100
AcDbEntity
  8
0
  6
CONTINUOUS
 62
     7
100
AcDbLine
 10
-232.28306243254
 20
50.43343023094815
 30
0.0
 11
-232.2830623073401
 21
46.15843012654818
 31
0.0
  0
LINE
  5
18F
330
1F
100
AcDbEntity
  8
0
  6
CONTINUOUS
 62
     7
100
AcDbLine
 10
-232.2830623073401
 20
27.90843039474817
 30
0.0
 11
-232.2830623073401
 21
23.63343067194819
 31
0.0
  0
LINE
  5
190
330
1F
100
AcDbEntity
  8
0
  6
CONTINUOUS
 62
     7
100
AcDbLine
 10
-237.6830624809401
 20
23.13343027934815
 30
0.0
 11
-237.30526730254
 21
23.13342970714814
 31
0.0
  0
LINE
  5
191
330
1F
100
AcDbEntity
  8
0
  6
CONTINUOUS
 62
     7
100
AcDbLine
 10
-233.26085735014
 20
23.13342959614818
 30
0.0
 11
-232.7830623699401
 21
23.13343016834818
 31
0.0
  0
LINE
  5
192
330
1F
100
AcDbEntity
  8
0
  6
CONTINUOUS
 62
     7
100
AcDbLine
 10
-239.2830624071401
 20
27.90843039474817
 30
0.0
 11
-239.2830624071401
 21
27.88342997154814
 31
0.0
  0
LINE
  5
193
330
1F
100
AcDbEntity
  8
0
  6
CONTINUOUS
 62
     7
100
AcDbLine
 10
-239.2830624071401
 20
27.88342997154814
 30
0.0
 11
-239.18306246054
 21
27.88342997154814
 31
0.0
  0
LINE
  5
194
330
1F
100
AcDbEntity
  8
0
  6
CONTINUOUS
 62
     7
100
AcDbLine
 10
-239.2830624071401
 20
46.18343031694815
 30
0.0
 11
-239.2830624071401
 21
46.15843012654818
 31
0.0
  0
LINE
  5
195
330
1F
100
AcDbEntity
  8
0
  6
CONTINUOUS
 62
     7
100
AcDbLine
 10
-239.18306246054
 20
46.18343031694815
 30
0.0
 11
-239.2830624071401
 21
46.18343031694815
 31
0.0
  0
LINE
  5
196
330
1F
100
AcDbEntity
  8
0
  6
CONTINUOUS
 62
     7
100
AcDbLine
 10
-239.5330624479401
 20
46.18343031694815
 30
0.0
 11
-239.5330624479401
 21
46.15843012654818
 31
0.0
  0
LINE
  5
197
330
1F
100
AcDbEntity
  8
0
  6
CONTINUOUS
 62
     7
100
AcDbLine
 10
-239.5330624479401
 20
27.90843039474817
 30
0.0
 11
-239.5330624479401
 21
27.88342997154814
 31
0.0
  0
LINE
  5
198
330
1F
100
AcDbEntity
  8
0
  6
CONTINUOUS
 62
     7
100
AcDbLine
 10
-239.2830624071401
 20
46.18343031694815
 30
0.0
 11
-239.5330624479401
 21
46.18343031694815
 31
0.0
  0
LINE
  5
199
330
1F
100
AcDbEntity
  8
0
  6
CONTINUOUS
 62
     7
100
AcDbLine
 10
-239.5330624479401
 20
27.88342997154814
 30
0.0
 11
-239.2830624071401
 21
27.88342997154814
 31
0.0
  0
LINE
  5
19A
330
1F
100
AcDbEntity
  8
0
  6
CONTINUOUS
 62
     7
100
AcDbLine
 10
-235.8330623305401
 20
-17.06950836145182
 30
0.0
 11
-235.8330623305401
 21
-15.56950532165183
 31
0.0
  0
LINE
  5
19B
330
1F
100
AcDbEntity
  8
0
  6
CONTINUOUS
 62
     7
100
AcDbLine
 10
-235.8330623305401
 20
16.53049230314815
 30
0.0
 11
-235.8330623305401
 21
-15.56950532165183
 31
0.0
  0
LINE
  5
19C
330
1F
100
AcDbEntity
  8
0
  6
CONTINUOUS
 62
     7
100
AcDbLine
 10
-235.8330623305401
 20
16.53049230314815
 30
0.0
 11
-226.8830621673401
 21
16.53049230314815
 31
0.0
  0
LINE
  5
19D
330
1F
100
AcDbEntity
  8
0
  6
CONTINUOUS
 62
     7
100
AcDbLine
 10
-226.8830621673401
 20
-17.06949414705184
 30
0.0
 11
-235.8330623305401
 21
-17.06950836145182
 31
0.0
  0
LINE
  5
19E
330
1F
100
AcDbEntity
  8
0
  6
CONTINUOUS
 62
     7
100
AcDbLine
 10
-234.5330622105401
 20
-14.21950854625186
 30
0.0
 11
-233.1830626411401
 21
-14.21950854625186
 31
0.0
  0
LINE
  5
19F
330
1F
100
AcDbEntity
  8
0
  6
CONTINUOUS
 62
     7
100
AcDbLine
 10
-233.1830626411401
 20
-14.21950854625186
 30
0.0
 11
-233.1830626411401
 21
-11.91950686545186
 31
0.0
  0
LINE
  5
1A0
330
1F
100
AcDbEntity
  8
0
  6
CONTINUOUS
 62
     7
100
AcDbLine
 10
-234.5330622105401
 20
-11.91950686545186
 30
0.0
 11
-234.5330622105401
 21
-14.21950854625186
 31
0.0
  0
LINE
  5
1A1
330
1F
100
AcDbEntity
  8
0
  6
CONTINUOUS
 62
     7
100
AcDbLine
 10
-228.3830624131401
 20
10.33049352194814
 30
0.0
 11
-229.58306223734
 21
10.33049352194814
 31
0.0
  0
LINE
  5
1A2
330
1F
100
AcDbEntity
  8
0
  6
CONTINUOUS
 62
     7
100
AcDbLine
 10
-229.58306223734
 20
10.33049352194814
 30
0.0
 11
-229.58306223734
 21
7.230493200148146
 31
0.0
  0
LINE
  5
1A3
330
1F
100
AcDbEntity
  8
0
  6
CONTINUOUS
 62
     7
100
AcDbLine
 10
-229.58306223734
 20
7.230493200148146
 30
0.0
 11
-228.3830624131401
 21
7.230493200148146
 31
0.0
  0
LINE
  5
1A4
330
1F
100
AcDbEntity
  8
0
  6
CONTINUOUS
 62
     7
100
AcDbLine
 10
-233.1830626411401
 20
-11.91950686545186
 30
0.0
 11
-234.5330622105401
 21
-11.91950686545186
 31
0.0
  0
LINE
  5
1A5
330
1F
100
AcDbEntity
  8
0
  6
CONTINUOUS
 62
     7
100
AcDbLine
 10
-228.3830624131401
 20
7.230493200148146
 30
0.0
 11
-228.2330626679401
 21
7.230493200148146
 31
0.0
  0
LINE
  5
1A6
330
1F
100
AcDbEntity
  8
0
  6
CONTINUOUS
 62
     7
100
AcDbLine
 10
-228.2330626679401
 20
7.230493200148146
 30
0.0
 11
-228.2330626679401
 21
10.33049352194814
 31
0.0
  0
LINE
  5
1A7
330
1F
100
AcDbEntity
  8
0
  6
CONTINUOUS
 62
     7
100
AcDbLine
 10
-228.2330626679401
 20
10.33049352194814
 30
0.0
 11
-228.3830624131401
 21
10.33049352194814
 31
0.0
  0
LINE
  5
1A8
330
1F
100
AcDbEntity
  8
0
  6
CONTINUOUS
 62
     7
100
AcDbLine
 10
-226.88308172514
 20
-15.56950532165183
 30
0.0
 11
-226.88308172514
 21
-5.569507407851859
 31
0.0
  0
LINE
  5
1A9
330
1F
100
AcDbEntity
  8
0
  6
CONTINUOUS
 62
     7
100
AcDbLine
 10
-238.23267974974
 20
-6.49068476785186
 30
0.0
 11
-236.4738150641401
 21
-11.59880969065182
 31
0.0
  0
LINE
  5
1AA
330
1F
100
AcDbEntity
  8
0
  6
CONTINUOUS
 62
     7
100
AcDbLine
 10
-241.8283952625401
 20
-13.86299734365184
 30
0.0
 11
-236.43306224254
 21
-12.00522952045185
 31
0.0
  0
LINE
  5
1AB
330
1F
100
AcDbEntity
  8
0
  6
CONTINUOUS
 62
     7
100
AcDbLine
 10
-243.7166885997401
 20
-8.378983515251832
 30
0.0
 11
-238.23267974974
 21
-6.49068476785186
 31
0.0
  0
LINE
  5
1AC
330
1F
100
AcDbEntity
  8
0
  6
CONTINUOUS
 62
     7
100
AcDbLine
 10
-241.8283952625401
 20
-13.86299734365184
 30
0.0
 11
-243.7166885997401
 21
-8.378983515251832
 31
0.0
  0
LINE
  5
1AD
330
1F
100
AcDbEntity
  8
0
  6
CONTINUOUS
 62
     7
100
AcDbLine
 10
-234.9031101971401
 20
-18.85950662465183
 30
0.0
 11
-235.66504940974
 21
-18.85950662465183
 31
0.0
  0
LINE
  5
1AE
330
1F
100
AcDbEntity
  8
0
  6
CONTINUOUS
 62
     7
100
AcDbLine
 10
-227.0830627589401
 20
-18.85950662465183
 30
0.0
 11
-234.9031101971401
 21
-18.85950662465183
 31
0.0
  0
LINE
  5
1AF
330
1F
100
AcDbEntity
  8
0
  6
CONTINUOUS
 62
     7
100
AcDbLine
 10
-235.8555342129401
 20
-17.24950693825184
 30
0.0
 11
-226.8830622416401
 21
-17.24950693825184
 31
0.0
  0
LINE
  5
1B0
330
1F
100
AcDbEntity
  8
0
  6
CONTINUOUS
 62
     7
100
AcDbLine
 10
-226.8830622416401
 20
-17.24950693825184
 30
0.0
 11
-226.88306250684
 21
-18.65950669895182
 31
0.0
  0
LINE
  5
1B1
330
1F
100
AcDbEntity
  8
0
  6
CONTINUOUS
 62
     7
100
AcDbLine
 10
-234.9031101971401
 20
18.34049351254816
 30
0.0
 11
-227.0830627589401
 21
18.34049351254816
 31
0.0
  0
LINE
  5
1B2
330
1F
100
AcDbEntity
  8
0
  6
CONTINUOUS
 62
     7
100
AcDbLine
 10
4.737820380259961
 20
-132.6665696200518
 30
0.0
 11
5.497820924059965
 21
-132.6665682370518
 31
0.0
  0
LINE
  5
1B3
330
1F
100
AcDbEntity
  8
0
  6
CONTINUOUS
 62
     7
100
AcDbLine
 10
-226.8830620245401
 20
16.73049382594814
 30
0.0
 11
-226.8830622897401
 21
18.14049336974819
 31
0.0
  0
LINE
  5
1B4
330
1F
100
AcDbEntity
  8
0
  6
CONTINUOUS
 62
     7
100
AcDbLine
 10
-235.66504940974
 20
18.34049351254816
 30
0.0
 11
-234.9031101971401
 21
18.34049351254816
 31
0.0
  0
LINE
  5
1B5
330
1F
100
AcDbEntity
  8
0
  6
CONTINUOUS
 62
     7
100
AcDbLine
 10
-235.66504940974
 20
-18.85950662465183
 30
0.0
 11
-236.2330624325401
 21
-18.85950677325184
 31
0.0
  0
LINE
  5
1B6
330
1F
100
AcDbEntity
  8
0
  6
CONTINUOUS
 62
     7
100
AcDbLine
 10
-236.43306224254
 20
-17.24950693825184
 30
0.0
 11
-236.4330624325401
 21
-18.65950677325185
 31
0.0
  0
LINE
  5
1B7
330
1F
100
AcDbEntity
  8
0
  6
CONTINUOUS
 62
     7
100
AcDbLine
 10
-235.8555342129401
 20
-17.24950693825184
 30
0.0
 11
-236.43306224254
 21
-17.24950693825184
 31
0.0
  0
LINE
  5
1B8
330
1F
100
AcDbEntity
  8
0
  6
CONTINUOUS
 62
     7
100
AcDbLine
 10
-236.43306224254
 20
16.73049382594814
 30
0.0
 11
-236.43306224254
 21
18.14049385214815
 31
0.0
  0
LINE
  5
1B9
330
1F
100
AcDbEntity
  8
0
  6
CONTINUOUS
 62
     7
100
AcDbLine
 10
-236.43306224254
 20
16.73049382594814
 30
0.0
 11
-226.8830620245401
 21
16.73049382594814
 31
0.0
  0
LINE
  5
1BA
330
1F
100
AcDbEntity
  8
0
  6
CONTINUOUS
 62
     7
100
AcDbLine
 10
-236.2330624325401
 20
18.34049322674815
 30
0.0
 11
-235.66504940974
 21
18.34049351254816
 31
0.0
  0
LINE
  5
1BB
330
1F
100
AcDbEntity
  8
0
  6
CONTINUOUS
 62
     7
100
AcDbLine
 10
4.497820380259952
 20
-137.4665690240518
 30
0.0
 11
4.497820380259952
 21
-142.0265696200518
 31
0.0
  0
LINE
  5
1BC
330
1F
100
AcDbEntity
  8
0
  6
CONTINUOUS
 62
     7
100
AcDbLine
 10
-226.8830620245401
 20
16.73049382594814
 30
0.0
 11
-226.8830620245401
 21
-5.569507407851859
 31
0.0
  0
LINE
  5
1BD
330
1F
100
AcDbEntity
  8
0
  6
CONTINUOUS
 62
     7
100
AcDbLine
 10
-226.8830622416401
 20
-15.56950532165183
 30
0.0
 11
-226.8830622416401
 21
-17.24950693825184
 31
0.0
  0
LINE
  5
1BE
330
1F
100
AcDbEntity
  8
0
  6
CONTINUOUS
 62
     7
100
AcDbLine
 10
-236.43306224254
 20
16.73049382594814
 30
0.0
 11
-236.43306224254
 21
-17.24950693825184
 31
0.0
  0
LINE
  5
1BF
330
1F
100
AcDbEntity
  8
0
  6
CONTINUOUS
 62
     7
100
AcDbLine
 10
-236.43306224254
 20
-5.65950669625181
 30
0.0
 11
-245.38306243254
 21
-8.74123708845184
 31
0.0
  0
LINE
  5
1C0
330
1F
100
AcDbEntity
  8
0
  6
CONTINUOUS
 62
     7
100
AcDbLine
 10
-245.38306243254
 20
-5.798489189251825
 30
0.0
 11
-236.43306224254
 21
-2.716754603051811
 31
0.0
  0
LINE
  5
1C1
330
1F
100
AcDbEntity
  8
0
  6
CONTINUOUS
 62
     7
100
AcDbLine
 10
-245.38306243254
 20
-15.29848562125181
 30
0.0
 11
-236.43306224254
 21
-12.21675522885181
 31
0.0
  0
LINE
  5
1C2
330
1F
100
AcDbEntity
  8
0
  6
CONTINUOUS
 62
     7
100
AcDbLine
 10
-236.2330624325401
 20
-18.85950677325184
 30
0.0
 11
-244.38306224174
 21
-18.85950662465183
 31
0.0
  0
LINE
  5
1C3
330
1F
100
AcDbEntity
  8
0
  6
CONTINUOUS
 62
     7
100
AcDbLine
 10
5.497820924059965
 20
-142.2665698106518
 30
0.0
 11
4.737820380259961
 21
-142.2665696200518
 31
0.0
  0
LINE
  5
1C4
330
1F
100
AcDbEntity
  8
0
  6
CONTINUOUS
 62
     7
100
AcDbLine
 10
-244.38306224174
 20
-18.85950662465183
 30
0.0
 11
-245.1830624325401
 21
-18.85950677325184
 31
0.0
  0
LINE
  5
1C5
330
1F
100
AcDbEntity
  8
0
  6
CONTINUOUS
 62
     7
100
AcDbLine
 10
4.497820380259952
 20
-132.9065696200518
 30
0.0
 11
4.497820380259952
 21
-137.4665690240518
 31
0.0
  0
LINE
  5
1C6
330
1F
100
AcDbEntity
  8
0
  6
CONTINUOUS
 62
     7
100
AcDbLine
 10
-245.38306243254
 20
-18.65950677325185
 30
0.0
 11
-245.38306243254
 21
18.14049322674816
 31
0.0
  0
LINE
  5
1C7
330
1F
100
AcDbEntity
  8
0
  6
CONTINUOUS
 62
     7
100
AcDbLine
 10
-245.38306240574
 20
3.701514524548145
 30
0.0
 11
-236.43306224254
 21
6.783246022748187
 31
0.0
  0
LINE
  5
1C8
330
1F
100
AcDbEntity
  8
0
  6
CONTINUOUS
 62
     7
100
AcDbLine
 10
-236.43306224254
 20
3.840493929748163
 30
0.0
 11
-245.38306240574
 21
0.7587624315481776
 31
0.0
  0
LINE
  5
1C9
330
1F
100
AcDbEntity
  8
0
  6
CONTINUOUS
 62
     7
100
AcDbLine
 10
-245.1830624325401
 20
18.34049322674815
 30
0.0
 11
-244.38306224174
 21
18.34049351254816
 31
0.0
  0
LINE
  5
1CA
330
1F
100
AcDbEntity
  8
0
  6
CONTINUOUS
 62
     7
100
AcDbLine
 10
-236.43306224254
 20
13.34049269294815
 30
0.0
 11
-245.38306243254
 21
10.25876046254814
 31
0.0
  0
LINE
  5
1CB
330
1F
100
AcDbEntity
  8
0
  6
CONTINUOUS
 62
     7
100
AcDbLine
 10
-244.38306224174
 20
18.34049351254816
 30
0.0
 11
-236.2330624325401
 21
18.34049322674815
 31
0.0
  0
LINE
  5
1CC
330
1F
100
AcDbEntity
  8
0
  6
CONTINUOUS
 62
     7
100
AcDbLine
 10
-244.1830623487401
 20
-14.88529242845186
 30
0.0
 11
-244.1830623487401
 21
-8.328047620851862
 31
0.0
  0
LINE
  5
1CD
330
1F
100
AcDbEntity
  8
0
  6
CONTINUOUS
 62
     7
100
AcDbLine
 10
-251.6830627095401
 20
8.840493056748187
 30
0.0
 11
-245.3830622357401
 21
8.840493056748187
 31
0.0
  0
LINE
  5
1CE
330
1F
100
AcDbEntity
  8
0
  6
CONTINUOUS
 62
     7
100
AcDbLine
 10
-245.3830618009401
 20
15.84049342914818
 30
0.0
 11
-251.6830622747401
 21
15.84049342914818
 31
0.0
  0
LINE
  5
1CF
330
1F
100
AcDbEntity
  8
0
  6
CONTINUOUS
 62
     7
100
AcDbLine
 10
-252.1830620301401
 20
15.34049302074817
 30
0.0
 11
-252.1830624325401
 21
9.340493226748151
 31
0.0
  0
LINE
  5
1D0
330
1F
100
AcDbEntity
  8
0
  6
CONTINUOUS
 62
     7
100
AcDbLine
 10
-233.9330622985401
 20
85.03343067794816
 30
0.0
 11
-246.9330625667401
 21
85.03343067794816
 31
0.0
  0
LINE
  5
1D1
330
1F
100
AcDbEntity
  8
0
  6
CONTINUOUS
 62
     7
100
AcDbLine
 10
-237.2830624285401
 20
244.0334288003482
 30
0.0
 11
-243.5830624367401
 21
244.0334288003482
 31
0.0
  0
LINE
  5
1D2
330
1F
100
AcDbEntity
  8
0
  6
CONTINUOUS
 62
     7
100
AcDbLine
 10
-237.2830624285401
 20
245.0334308269482
 30
0.0
 11
-243.5830624367401
 21
245.0334308269482
 31
0.0
  0
LINE
  5
1D3
330
1F
100
AcDbEntity
  8
0
  6
CONTINUOUS
 62
     7
100
AcDbLine
 10
-236.78306234654
 20
82.68803260954815
 30
0.0
 11
-235.5830622895401
 21
82.68803260954815
 31
0.0
  0
LINE
  5
1D4
330
1F
100
AcDbEntity
  8
0
  6
CONTINUOUS
 62
     7
100
AcDbLine
 10
-235.5830622895401
 20
66.57882682714819
 30
0.0
 11
-236.78306243254
 21
66.57882728214815
 31
0.0
  0
LINE
  5
1D5
330
1F
100
AcDbEntity
  8
0
  6
CONTINUOUS
 62
     7
100
AcDbLine
 10
-236.78306243254
 20
67.68803317994815
 30
0.0
 11
-235.5830622895401
 21
67.68803387614815
 31
0.0
  0
LINE
  5
1D6
330
1F
100
AcDbEntity
  8
0
  6
CONTINUOUS
 62
     7
100
AcDbLine
 10
-235.5830624325401
 20
81.57882728214815
 30
0.0
 11
-236.78306234654
 21
81.57882742314814
 31
0.0
  0
LINE
  5
1D7
330
1F
100
AcDbEntity
  8
0
  6
CONTINUOUS
 62
     7
100
AcDbLine
 10
-235.5830624325401
 20
71.57882728214815
 30
0.0
 11
-236.78306243254
 21
71.57882728214815
 31
0.0
  0
LINE
  5
1D8
330
1F
100
AcDbEntity
  8
0
  6
CONTINUOUS
 62
     7
100
AcDbLine
 10
-235.5830624325401
 20
76.57882728214815
 30
0.0
 11
-236.78306234654
 21
76.57882846614814
 31
0.0
  0
LINE
  5
1D9
330
1F
100
AcDbEntity
  8
0
  6
CONTINUOUS
 62
     7
100
AcDbLine
 10
-236.78306234654
 20
77.68803365254814
 30
0.0
 11
-235.5830624325401
 21
77.68803317994815
 31
0.0
  0
LINE
  5
1DA
330
1F
100
AcDbEntity
  8
0
  6
CONTINUOUS
 62
     7
100
AcDbLine
 10
-236.78306243254
 20
72.68803317994815
 30
0.0
 11
-235.5830624325401
 21
72.68803317994815
 31
0.0
  0
LINE
  5
1DB
330
1F
100
AcDbEntity
  8
0
  6
CONTINUOUS
 62
     7
100
AcDbLine
 10
-247.88306234994
 20
76.96843050154814
 30
0.0
 11
-246.5230622387401
 21
76.96843050154814
 31
0.0
  0
LINE
  5
1DC
330
1F
100
AcDbEntity
  8
0
  6
CONTINUOUS
 62
     7
100
AcDbLine
 10
-246.5230622387401
 20
71.09843097354815
 30
0.0
 11
-247.88306234994
 21
71.09843097354815
 31
0.0
  0
LINE
  5
1DD
330
1F
100
AcDbEntity
  8
0
  6
CONTINUOUS
 62
     7
100
AcDbLine
 10
-244.7830624937401
 20
70.58343007894814
 30
0.0
 11
-246.0030624701401
 21
70.58343007894814
 31
0.0
  0
LINE
  5
1DE
330
1F
100
AcDbEntity
  8
0
  6
CONTINUOUS
 62
     7
100
AcDbLine
 10
-244.7830624937401
 20
70.58343007894814
 30
0.0
 11
-244.7830624937401
 21
77.48342953354819
 31
0.0
  0
LINE
  5
1DF
330
1F
100
AcDbEntity
  8
0
  6
CONTINUOUS
 62
     7
100
AcDbLine
 10
-246.0030624701401
 20
77.48342953354819
 30
0.0
 11
-244.7830624937401
 21
77.48342953354819
 31
0.0
  0
LINE
  5
1E0
330
1F
100
AcDbEntity
  8
0
  6
CONTINUOUS
 62
     7
100
AcDbLine
 10
-246.5230622387401
 20
76.96843050154814
 30
0.0
 11
-246.0030624701401
 21
77.48342953354819
 31
0.0
  0
LINE
  5
1E1
330
1F
100
AcDbEntity
  8
0
  6
CONTINUOUS
 62
     7
100
AcDbLine
 10
-246.6876171587401
 20
77.36842982194815
 30
0.0
 11
-246.1676169245401
 21
77.88342885414818
 31
0.0
  0
LINE
  5
1E2
330
1F
100
AcDbEntity
  8
0
  6
CONTINUOUS
 62
     7
100
AcDbLine
 10
-246.1676169245401
 20
77.88342885414818
 30
0.0
 11
-244.38306224174
 21
77.88342885414818
 31
0.0
  0
LINE
  5
1E3
330
1F
100
AcDbEntity
  8
0
  6
CONTINUOUS
 62
     7
100
AcDbLine
 10
-244.38306224174
 20
77.88342885414818
 30
0.0
 11
-244.38306224174
 21
70.18343075834815
 31
0.0
  0
LINE
  5
1E4
330
1F
100
AcDbEntity
  8
0
  6
CONTINUOUS
 62
     7
100
AcDbLine
 10
-244.38306224174
 20
70.18343075834815
 30
0.0
 11
-246.1676169245401
 21
70.18343075834815
 31
0.0
  0
LINE
  5
1E5
330
1F
100
AcDbEntity
  8
0
  6
CONTINUOUS
 62
     7
100
AcDbLine
 10
-246.1676169245401
 20
70.18343075834815
 30
0.0
 11
-246.6876171587401
 21
70.69842979034814
 31
0.0
  0
LINE
  5
1E6
330
1F
100
AcDbEntity
  8
0
  6
CONTINUOUS
 62
     7
100
AcDbLine
 10
-246.6876171587401
 20
70.69842979034814
 30
0.0
 11
-248.28306213594
 21
70.69842979034814
 31
0.0
  0
LINE
  5
1E7
330
1F
100
AcDbEntity
  8
0
  6
CONTINUOUS
 62
     7
100
AcDbLine
 10
-248.28306213594
 20
77.36842982194815
 30
0.0
 11
-246.6876171587401
 21
77.36842982194815
 31
0.0
  0
LINE
  5
1E8
330
1F
100
AcDbEntity
  8
0
  6
CONTINUOUS
 62
     7
100
AcDbLine
 10
-248.28306213594
 20
70.69842979034814
 30
0.0
 11
-248.28306213594
 21
77.36842982194815
 31
0.0
  0
LINE
  5
1E9
330
1F
100
AcDbEntity
  8
0
  6
CONTINUOUS
 62
     7
100
AcDbLine
 10
-247.88306234994
 20
76.96843050154814
 30
0.0
 11
-247.88306234994
 21
71.09843097354815
 31
0.0
  0
LINE
  5
1EA
330
1F
100
AcDbEntity
  8
0
  6
CONTINUOUS
 62
     7
100
AcDbLine
 10
-246.0030624701401
 20
70.58343007894814
 30
0.0
 11
-246.5230622387401
 21
71.09843097354815
 31
0.0
  0
LINE
  5
1EB
330
1F
100
AcDbEntity
  8
0
  6
CONTINUOUS
 62
     7
100
AcDbLine
 10
-232.4357675447401
 20
61.33342995974817
 30
0.0
 11
-236.1303577257401
 21
61.33342995974817
 31
0.0
  0
LINE
  5
1EC
330
1F
100
AcDbEntity
  8
0
  6
CONTINUOUS
 62
     7
100
AcDbLine
 10
-235.8491085527401
 20
56.53343066314818
 30
0.0
 11
-232.7170162519401
 21
56.53343066314818
 31
0.0
  0
LINE
  5
1ED
330
1F
100
AcDbEntity
  8
0
  6
CONTINUOUS
 62
     7
100
AcDbLine
 10
-236.2830624973401
 20
59.03343014154814
 30
0.0
 11
-236.2830624973401
 21
56.86490513114819
 31
0.0
  0
LINE
  5
1EE
330
1F
100
AcDbEntity
  8
0
  6
CONTINUOUS
 62
     7
100
AcDbLine
 10
-232.2830623073401
 20
56.86490513114819
 30
0.0
 11
-232.2830623073401
 21
59.03343014154814
 31
0.0
  0
LINE
  5
1EF
330
1F
100
AcDbEntity
  8
0
  6
CONTINUOUS
 62
     7
100
AcDbLine
 10
-236.2830624973401
 20
61.20195515194814
 30
0.0
 11
-236.2830624973401
 21
59.03343014154814
 31
0.0
  0
LINE
  5
1F0
330
1F
100
AcDbEntity
  8
0
  6
CONTINUOUS
 62
     7
100
AcDbLine
 10
-232.2830623073401
 20
59.03343014154814
 30
0.0
 11
-232.2830623073401
 21
61.20195515194814
 31
0.0
  0
LINE
  5
1F1
330
1F
100
AcDbEntity
  8
0
  6
CONTINUOUS
 62
     7
100
AcDbLine
 10
-15.70218175654003
 20
98.03343094604816
 30
0.0
 11
-15.70218175654003
 21
175.0334230783482
 31
0.0
  0
LINE
  5
1F2
330
1F
100
AcDbEntity
  8
0
  6
CONTINUOUS
 62
     7
100
AcDbLine
 10
-28.70217829934006
 20
175.0334230783482
 30
0.0
 11
-28.70217829934006
 21
85.03343067794816
 31
0.0
  0
LINE
  5
1F3
330
1F
100
AcDbEntity
  8
0
  6
CONTINUOUS
 62
     7
100
AcDbLine
 10
-15.70218175654003
 20
175.0334230783482
 30
0.0
 11
-19.05217885974008
 21
210.0334344031482
 31
0.0
  0
LINE
  5
1F4
330
1F
100
AcDbEntity
  8
0
  6
CONTINUOUS
 62
     7
100
AcDbLine
 10
-25.35218119614007
 20
210.0334344031482
 30
0.0
 11
-28.70217829934006
 21
175.0334230783482
 31
0.0
  0
LINE
  5
1F5
330
1F
100
AcDbEntity
  8
0
  6
CONTINUOUS
 62
     7
100
AcDbLine
 10
-16.70218005774007
 20
97.03342891944817
 30
0.0
 11
-15.70218175654003
 21
98.03343094604816
 31
0.0
  0
LINE
  5
1F6
330
1F
100
AcDbEntity
  8
0
  6
CONTINUOUS
 62
     7
100
AcDbLine
 10
-19.05217885974008
 20
210.0334344031482
 30
0.0
 11
-19.05217885974008
 21
244.0334288003482
 31
0.0
  0
LINE
  5
1F7
330
1F
100
AcDbEntity
  8
0
  6
CONTINUOUS
 62
     7
100
AcDbLine
 10
-25.35218119614007
 20
244.0334288003482
 30
0.0
 11
-25.35218119614007
 21
210.0334344031482
 31
0.0
  0
LINE
  5
1F8
330
1F
100
AcDbEntity
  8
0
  6
CONTINUOUS
 62
     7
100
AcDbLine
 10
-19.05217885974008
 20
245.0334308269482
 30
0.0
 11
-19.05217885974008
 21
251.8834350231481
 31
0.0
  0
LINE
  5
1F9
330
1F
100
AcDbEntity
  8
0
  6
CONTINUOUS
 62
     7
100
AcDbLine
 10
-25.35218119614007
 20
251.8834350231481
 30
0.0
 11
-25.35218119614007
 21
245.0334308269482
 31
0.0
  0
LINE
  5
1FA
330
1F
100
AcDbEntity
  8
0
  6
CONTINUOUS
 62
     7
100
AcDbLine
 10
-19.55217987294003
 20
244.0334288003482
 30
0.0
 11
-19.55217987294003
 21
245.0334308269482
 31
0.0
  0
LINE
  5
1FB
330
1F
100
AcDbEntity
  8
0
  6
CONTINUOUS
 62
     7
100
AcDbLine
 10
-24.85218018294006
 20
245.0334308269482
 30
0.0
 11
-24.85218018294006
 21
244.0334288003482
 31
0.0
  0
LINE
  5
1FC
330
1F
100
AcDbEntity
  8
0
  6
CONTINUOUS
 62
     7
100
AcDbLine
 10
2.297821700659938
 20
99.03343023094817
 30
0.0
 11
-14.50218006974006
 21
99.03342924734818
 31
0.0
  0
LINE
  5
1FD
330
1F
100
AcDbEntity
  8
0
  6
CONTINUOUS
 62
     7
100
AcDbLine
 10
-14.50217895214007
 20
86.03342911334818
 30
0.0
 11
2.297821700659938
 21
86.03343023094817
 31
0.0
  0
LINE
  5
1FE
330
1F
100
AcDbEntity
  8
0
  6
CONTINUOUS
 62
     7
100
AcDbLine
 10
3.747820723059931
 20
98.53343195954818
 30
0.0
 11
2.797823268259947
 21
98.53343195954818
 31
0.0
  0
LINE
  5
1FF
330
1F
100
AcDbEntity
  8
0
  6
CONTINUOUS
 62
     7
100
AcDbLine
 10
12.19782170065997
 20
98.53343023094817
 30
0.0
 11
11.24782102105996
 21
98.53343195954818
 31
0.0
  0
LINE
  5
200
330
1F
100
AcDbEntity
  8
0
  6
CONTINUOUS
 62
     7
100
AcDbLine
 10
11.24782102105996
 20
86.53342999254818
 30
0.0
 11
12.19782170065997
 21
86.53343023094817
 31
0.0
  0
LINE
  5
201
330
1F
100
AcDbEntity
  8
0
  6
CONTINUOUS
 62
     7
100
AcDbLine
 10
2.797823268259947
 20
86.53342999254818
 30
0.0
 11
3.747820723059931
 21
86.53342999254818
 31
0.0
  0
LINE
  5
202
330
1F
100
AcDbEntity
  8
0
  6
CONTINUOUS
 62
     7
100
AcDbLine
 10
15.44055702105993
 20
87.91462979954815
 30
0.0
 11
15.79782166975997
 21
88.53343032284818
 31
0.0
  0
LINE
  5
203
330
1F
100
AcDbEntity
  8
0
  6
CONTINUOUS
 62
     7
100
AcDbLine
 10
15.79782166975997
 20
96.53343162934817
 30
0.0
 11
15.44055702115992
 21
97.15223215264814
 31
0.0
  0
LINE
  5
204
330
1F
100
AcDbEntity
  8
0
  6
CONTINUOUS
 62
     7
100
AcDbLine
 10
13.99782100625993
 20
88.53343032054818
 30
0.0
 11
14.35508752165993
 21
87.91462979954815
 31
0.0
  0
LINE
  5
205
330
1F
100
AcDbEntity
  8
0
  6
CONTINUOUS
 62
     7
100
AcDbLine
 10
14.35508752175997
 20
97.15223215274818
 30
0.0
 11
13.99782100625993
 21
96.53343163174816
 31
0.0
  0
LINE
  5
206
330
1F
100
AcDbEntity
  8
0
  6
CONTINUOUS
 62
     7
100
AcDbLine
 10
16.29782082455995
 20
97.63343162564814
 30
0.0
 11
15.79782167395996
 21
97.63343162564814
 31
0.0
  0
LINE
  5
207
330
1F
100
AcDbEntity
  8
0
  6
CONTINUOUS
 62
     7
100
AcDbLine
 10
15.79782167395996
 20
87.43343032624819
 30
0.0
 11
16.29782082455995
 21
87.43343032624819
 31
0.0
  0
LINE
  5
208
330
1F
100
AcDbEntity
  8
0
  6
CONTINUOUS
 62
     7
100
AcDbLine
 10
13.89782117605995
 20
89.35842938454817
 30
0.0
 11
13.99782100625993
 21
89.50128681694815
 31
0.0
  0
LINE
  5
209
330
1F
100
AcDbEntity
  8
0
  6
CONTINUOUS
 62
     7
100
AcDbLine
 10
13.99782100625993
 20
95.56557140974815
 30
0.0
 11
13.89782117605995
 21
95.70842884214818
 31
0.0
  0
LINE
  5
20A
330
1F
100
AcDbEntity
  8
0
  6
CONTINUOUS
 62
     7
100
AcDbLine
 10
13.89782117605995
 20
95.70842884214818
 30
0.0
 11
13.54782083945992
 21
95.20843155414815
 31
0.0
  0
LINE
  5
20B
330
1F
100
AcDbEntity
  8
0
  6
CONTINUOUS
 62
     7
100
AcDbLine
 10
13.54782083945992
 20
89.85843039774818
 30
0.0
 11
13.89782117605995
 21
89.35842938454817
 31
0.0
  0
LINE
  5
20C
330
1F
100
AcDbEntity
  8
0
  6
CONTINUOUS
 62
     7
100
AcDbLine
 10
13.19782236525992
 20
89.35842938454817
 30
0.0
 11
13.54782083945992
 21
89.85843039774818
 31
0.0
  0
LINE
  5
20D
330
1F
100
AcDbEntity
  8
0
  6
CONTINUOUS
 62
     7
100
AcDbLine
 10
13.54782083945992
 20
95.20843155414815
 30
0.0
 11
13.19782236525992
 21
95.70842884214818
 31
0.0
  0
LINE
  5
20E
330
1F
100
AcDbEntity
  8
0
  6
CONTINUOUS
 62
     7
100
AcDbLine
 10
13.19782236525992
 20
95.70842884214818
 30
0.0
 11
12.84782202845997
 21
95.20843155414815
 31
0.0
  0
LINE
  5
20F
330
1F
100
AcDbEntity
  8
0
  6
CONTINUOUS
 62
     7
100
AcDbLine
 10
12.84782202845997
 20
89.85843039774818
 30
0.0
 11
13.19782236525992
 21
89.35842938454817
 31
0.0
  0
LINE
  5
210
330
1F
100
AcDbEntity
  8
0
  6
CONTINUOUS
 62
     7
100
AcDbLine
 10
12.49782169165996
 20
89.35842938454817
 30
0.0
 11
12.84782202845997
 21
89.85843039774818
 31
0.0
  0
LINE
  5
211
330
1F
100
AcDbEntity
  8
0
  6
CONTINUOUS
 62
     7
100
AcDbLine
 10
12.84782202845997
 20
95.20843155414815
 30
0.0
 11
12.49782169165996
 21
95.70842884214818
 31
0.0
  0
LINE
  5
212
330
1F
100
AcDbEntity
  8
0
  6
CONTINUOUS
 62
     7
100
AcDbLine
 10
16.29782170065994
 20
-20.46656976905183
 30
0.0
 11
16.29782170065994
 21
105.5334312441482
 31
0.0
  0
LINE
  5
213
330
1F
100
AcDbEntity
  8
0
  6
CONTINUOUS
 62
     7
100
AcDbLine
 10
16.29782082445996
 20
46.15843012654818
 30
0.0
 11
1.997820901859939
 21
46.15843012654818
 31
0.0
  0
LINE
  5
214
330
1F
100
AcDbEntity
  8
0
  6
CONTINUOUS
 62
     7
100
AcDbLine
 10
1.997820901859939
 20
46.15843012654818
 30
0.0
 11
1.997820901859939
 21
27.90843039474817
 31
0.0
  0
LINE
  5
215
330
1F
100
AcDbEntity
  8
0
  6
CONTINUOUS
 62
     7
100
AcDbLine
 10
1.997820901859939
 20
27.90843039474817
 30
0.0
 11
16.29782082445996
 21
27.90843039474817
 31
0.0
  0
LINE
  5
216
330
1F
100
AcDbEntity
  8
0
  6
CONTINUOUS
 62
     7
100
AcDbLine
 10
8.597820866259951
 20
50.95843035454817
 30
0.0
 11
16.29782082445996
 21
50.95843035454817
 31
0.0
  0
LINE
  5
217
330
1F
100
AcDbEntity
  8
0
  6
CONTINUOUS
 62
     7
100
AcDbLine
 10
8.597820866259951
 20
49.95843019074817
 30
0.0
 11
8.597820866259951
 21
50.95843035454817
 31
0.0
  0
LINE
  5
218
330
1F
100
AcDbEntity
  8
0
  6
CONTINUOUS
 62
     7
100
AcDbLine
 10
8.597820866259951
 20
23.10843109814817
 30
0.0
 11
8.597820866259951
 21
24.10842939934815
 31
0.0
  0
LINE
  5
219
330
1F
100
AcDbEntity
  8
0
  6
CONTINUOUS
 62
     7
100
AcDbLine
 10
8.597820866259951
 20
23.10843109814817
 30
0.0
 11
16.29782082445996
 21
23.10843109814817
 31
0.0
  0
LINE
  5
21A
330
1F
100
AcDbEntity
  8
0
  6
CONTINUOUS
 62
     7
100
AcDbLine
 10
8.597820866259951
 20
24.10842939934815
 30
0.0
 11
8.597820866259951
 21
27.90843039474817
 31
0.0
  0
LINE
  5
21B
330
1F
100
AcDbEntity
  8
0
  6
CONTINUOUS
 62
     7
100
AcDbLine
 10
8.597820866259951
 20
49.95843019074817
 30
0.0
 11
8.597820866259951
 21
46.15843012654818
 31
0.0
  0
LINE
  5
21C
330
1F
100
AcDbEntity
  8
0
  6
CONTINUOUS
 62
     7
100
AcDbLine
 10
1.997820901859939
 20
42.03343020714817
 30
0.0
 11
0.9978226006599584
 21
42.03343020714817
 31
0.0
  0
LINE
  5
21D
330
1F
100
AcDbEntity
  8
0
  6
CONTINUOUS
 62
     7
100
AcDbLine
 10
0.9978226006599584
 20
42.03343020714817
 30
0.0
 11
0.9978226006599584
 21
42.53343023094817
 31
0.0
  0
LINE
  5
21E
330
1F
100
AcDbEntity
  8
0
  6
CONTINUOUS
 62
     7
100
AcDbLine
 10
1.997820901859939
 20
42.53343023094817
 30
0.0
 11
0.9978226006599584
 21
42.53343023094817
 31
0.0
  0
LINE
  5
21F
330
1F
100
AcDbEntity
  8
0
  6
CONTINUOUS
 62
     7
100
AcDbLine
 10
1.997820901859939
 20
31.53343029054815
 30
0.0
 11
0.9978226006599584
 21
31.53343029054815
 31
0.0
  0
LINE
  5
220
330
1F
100
AcDbEntity
  8
0
  6
CONTINUOUS
 62
     7
100
AcDbLine
 10
0.9978226006599584
 20
31.53343029054815
 30
0.0
 11
0.9978226006599584
 21
32.03343037254814
 31
0.0
  0
LINE
  5
221
330
1F
100
AcDbEntity
  8
0
  6
CONTINUOUS
 62
     7
100
AcDbLine
 10
1.997820901859939
 20
32.03343037254814
 30
0.0
 11
0.9978226006599584
 21
32.03343037254814
 31
0.0
  0
LINE
  5
222
330
1F
100
AcDbEntity
  8
0
  6
CONTINUOUS
 62
     7
100
AcDbLine
 10
0.9978226006599584
 20
27.90843039474817
 30
0.0
 11
0.9978226006599584
 21
28.53342979874816
 31
0.0
  0
LINE
  5
223
330
1F
100
AcDbEntity
  8
0
  6
CONTINUOUS
 62
     7
100
AcDbLine
 10
1.997820901859939
 20
28.53342979874816
 30
0.0
 11
0.9978226006599584
 21
28.53342979874816
 31
0.0
  0
LINE
  5
224
330
1F
100
AcDbEntity
  8
0
  6
CONTINUOUS
 62
     7
100
AcDbLine
 10
1.997820901859939
 20
27.90843039474817
 30
0.0
 11
0.9978226006599584
 21
27.90843039474817
 31
0.0
  0
LINE
  5
225
330
1F
100
AcDbEntity
  8
0
  6
CONTINUOUS
 62
     7
100
AcDbLine
 10
1.997820901859939
 20
35.03343039854815
 30
0.0
 11
0.9978226006599584
 21
35.03343039854815
 31
0.0
  0
LINE
  5
226
330
1F
100
AcDbEntity
  8
0
  6
CONTINUOUS
 62
     7
100
AcDbLine
 10
0.9978226006599584
 20
35.03343039854815
 30
0.0
 11
0.9978226006599584
 21
35.53343001494818
 31
0.0
  0
LINE
  5
227
330
1F
100
AcDbEntity
  8
0
  6
CONTINUOUS
 62
     7
100
AcDbLine
 10
1.997820901859939
 20
35.53343001494818
 30
0.0
 11
0.9978226006599584
 21
35.53343001494818
 31
0.0
  0
LINE
  5
228
330
1F
100
AcDbEntity
  8
0
  6
CONTINUOUS
 62
     7
100
AcDbLine
 10
1.997820901859939
 20
38.53343004094819
 30
0.0
 11
0.9978226006599584
 21
38.53343004094819
 31
0.0
  0
LINE
  5
229
330
1F
100
AcDbEntity
  8
0
  6
CONTINUOUS
 62
     7
100
AcDbLine
 10
0.9978226006599584
 20
38.53343004094819
 30
0.0
 11
0.9978226006599584
 21
39.03343012294818
 31
0.0
  0
LINE
  5
22A
330
1F
100
AcDbEntity
  8
0
  6
CONTINUOUS
 62
     7
100
AcDbLine
 10
1.997820901859939
 20
39.03343012294818
 30
0.0
 11
0.9978226006599584
 21
39.03343012294818
 31
0.0
  0
LINE
  5
22B
330
1F
100
AcDbEntity
  8
0
  6
CONTINUOUS
 62
     7
100
AcDbLine
 10
0.9978226006599584
 20
45.53343025694818
 30
0.0
 11
0.9978226006599584
 21
46.15843012654818
 31
0.0
  0
LINE
  5
22C
330
1F
100
AcDbEntity
  8
0
  6
CONTINUOUS
 62
     7
100
AcDbLine
 10
0.9978226006599584
 20
45.53343025694818
 30
0.0
 11
1.997820901859939
 21
45.53343025694818
 31
0.0
  0
LINE
  5
22D
330
1F
100
AcDbEntity
  8
0
  6
CONTINUOUS
 62
     7
100
AcDbLine
 10
1.997820901859939
 20
46.15843012654818
 30
0.0
 11
0.9978226006599584
 21
46.15843012654818
 31
0.0
  0
LINE
  5
22E
330
1F
100
AcDbEntity
  8
0
  6
CONTINUOUS
 62
     7
100
AcDbLine
 10
0.1979021908599634
 20
39.10843022834814
 30
0.0
 11
1.997820901859939
 21
39.10843022834814
 31
0.0
  0
LINE
  5
22F
330
1F
100
AcDbEntity
  8
0
  6
CONTINUOUS
 62
     7
100
AcDbLine
 10
1.997820901859939
 20
41.95843021814818
 30
0.0
 11
0.1979021908599634
 21
41.95843021814818
 31
0.0
  0
LINE
  5
230
330
1F
100
AcDbEntity
  8
0
  6
CONTINUOUS
 62
     7
100
AcDbLine
 10
1.997820901859939
 20
45.45843015154816
 30
0.0
 11
0.1979021908599634
 21
45.45843015154816
 31
0.0
  0
LINE
  5
231
330
1F
100
AcDbEntity
  8
0
  6
CONTINUOUS
 62
     7
100
AcDbLine
 10
0.1979021908599634
 20
42.60843023454817
 30
0.0
 11
1.997820901859939
 21
42.60843023454817
 31
0.0
  0
LINE
  5
232
330
1F
100
AcDbEntity
  8
0
  6
CONTINUOUS
 62
     7
100
AcDbLine
 10
1.997820901859939
 20
31.45842995234818
 30
0.0
 11
0.1979021908599634
 21
31.45842995234818
 31
0.0
  0
LINE
  5
233
330
1F
100
AcDbEntity
  8
0
  6
CONTINUOUS
 62
     7
100
AcDbLine
 10
0.1979021908599634
 20
28.60843013694819
 30
0.0
 11
1.997820901859939
 21
28.60843013694819
 31
0.0
  0
LINE
  5
234
330
1F
100
AcDbEntity
  8
0
  6
CONTINUOUS
 62
     7
100
AcDbLine
 10
0.1979021908599634
 20
35.60843035314815
 30
0.0
 11
1.997820901859939
 21
35.60843035314815
 31
0.0
  0
LINE
  5
235
330
1F
100
AcDbEntity
  8
0
  6
CONTINUOUS
 62
     7
100
AcDbLine
 10
1.997820901859939
 20
38.45843016834817
 30
0.0
 11
0.1979021908599634
 21
38.45843016834817
 31
0.0
  0
LINE
  5
236
330
1F
100
AcDbEntity
  8
0
  6
CONTINUOUS
 62
     7
100
AcDbLine
 10
0.1979021908599634
 20
32.10842977934817
 30
0.0
 11
1.997820901859939
 21
32.10842977934817
 31
0.0
  0
LINE
  5
237
330
1F
100
AcDbEntity
  8
0
  6
CONTINUOUS
 62
     7
100
AcDbLine
 10
1.997820901859939
 20
34.95843006034818
 30
0.0
 11
0.1979021908599634
 21
34.95843006034818
 31
0.0
  0
LINE
  5
238
330
1F
100
AcDbEntity
  8
0
  6
CONTINUOUS
 62
     7
100
AcDbLine
 10
-0.0020974695400469
 20
41.95843021814818
 30
0.0
 11
-0.0020974695400469
 21
39.10843022834814
 31
0.0
  0
LINE
  5
239
330
1F
100
AcDbEntity
  8
0
  6
CONTINUOUS
 62
     7
100
AcDbLine
 10
-0.0020974695400469
 20
39.10843022834814
 30
0.0
 11
0.1979021908599634
 21
39.10843022834814
 31
0.0
  0
LINE
  5
23A
330
1F
100
AcDbEntity
  8
0
  6
CONTINUOUS
 62
     7
100
AcDbLine
 10
-0.0020974695400469
 20
41.95843021814818
 30
0.0
 11
0.1979021908599634
 21
41.95843021814818
 31
0.0
  0
LINE
  5
23B
330
1F
100
AcDbEntity
  8
0
  6
CONTINUOUS
 62
     7
100
AcDbLine
 10
-0.0020974695400469
 20
45.45843015154816
 30
0.0
 11
-0.0020974695400469
 21
42.60843023454817
 31
0.0
  0
LINE
  5
23C
330
1F
100
AcDbEntity
  8
0
  6
CONTINUOUS
 62
     7
100
AcDbLine
 10
-0.0020974695400469
 20
45.45843015154816
 30
0.0
 11
0.1979021908599634
 21
45.45843015154816
 31
0.0
  0
LINE
  5
23D
330
1F
100
AcDbEntity
  8
0
  6
CONTINUOUS
 62
     7
100
AcDbLine
 10
-0.0020974695400469
 20
42.60843023454817
 30
0.0
 11
0.1979021908599634
 21
42.60843023454817
 31
0.0
  0
LINE
  5
23E
330
1F
100
AcDbEntity
  8
0
  6
CONTINUOUS
 62
     7
100
AcDbLine
 10
-0.0020974695400469
 20
31.45842995234818
 30
0.0
 11
-0.0020974695400469
 21
28.60843013694819
 31
0.0
  0
LINE
  5
23F
330
1F
100
AcDbEntity
  8
0
  6
CONTINUOUS
 62
     7
100
AcDbLine
 10
-0.0020974695400469
 20
31.45842995234818
 30
0.0
 11
0.1979021908599634
 21
31.45842995234818
 31
0.0
  0
LINE
  5
240
330
1F
100
AcDbEntity
  8
0
  6
CONTINUOUS
 62
     7
100
AcDbLine
 10
-0.0020974695400469
 20
28.60843013694819
 30
0.0
 11
0.1979021908599634
 21
28.60843013694819
 31
0.0
  0
LINE
  5
241
330
1F
100
AcDbEntity
  8
0
  6
CONTINUOUS
 62
     7
100
AcDbLine
 10
-0.0020974695400469
 20
38.45843016834817
 30
0.0
 11
-0.0020974695400469
 21
35.60843035314815
 31
0.0
  0
LINE
  5
242
330
1F
100
AcDbEntity
  8
0
  6
CONTINUOUS
 62
     7
100
AcDbLine
 10
-0.0020974695400469
 20
35.60843035314815
 30
0.0
 11
0.1979021908599634
 21
35.60843035314815
 31
0.0
  0
LINE
  5
243
330
1F
100
AcDbEntity
  8
0
  6
CONTINUOUS
 62
     7
100
AcDbLine
 10
-0.0020974695400469
 20
38.45843016834817
 30
0.0
 11
0.1979021908599634
 21
38.45843016834817
 31
0.0
  0
LINE
  5
244
330
1F
100
AcDbEntity
  8
0
  6
CONTINUOUS
 62
     7
100
AcDbLine
 10
-0.0020974695400469
 20
34.95843006034818
 30
0.0
 11
-0.0020974695400469
 21
32.10842977934817
 31
0.0
  0
LINE
  5
245
330
1F
100
AcDbEntity
  8
0
  6
CONTINUOUS
 62
     7
100
AcDbLine
 10
-0.0020974695400469
 20
32.10842977934817
 30
0.0
 11
0.1979021908599634
 21
32.10842977934817
 31
0.0
  0
LINE
  5
246
330
1F
100
AcDbEntity
  8
0
  6
CONTINUOUS
 62
     7
100
AcDbLine
 10
-0.0020974695400469
 20
34.95843006034818
 30
0.0
 11
0.1979021908599634
 21
34.95843006034818
 31
0.0
  0
LINE
  5
247
330
1F
100
AcDbEntity
  8
0
  6
CONTINUOUS
 62
     7
100
AcDbLine
 10
0.9978226006599584
 20
39.03343012294818
 30
0.0
 11
0.9978226006599584
 21
39.10843022834814
 31
0.0
  0
LINE
  5
248
330
1F
100
AcDbEntity
  8
0
  6
CONTINUOUS
 62
     7
100
AcDbLine
 10
0.9978226006599584
 20
32.03343037254814
 30
0.0
 11
0.9978226006599584
 21
32.10842977934817
 31
0.0
  0
LINE
  5
249
330
1F
100
AcDbEntity
  8
0
  6
CONTINUOUS
 62
     7
100
AcDbLine
 10
0.9978226006599584
 20
41.95843021814818
 30
0.0
 11
0.9978226006599584
 21
42.03343020714817
 31
0.0
  0
LINE
  5
24A
330
1F
100
AcDbEntity
  8
0
  6
CONTINUOUS
 62
     7
100
AcDbLine
 10
0.9978226006599584
 20
38.45843016834817
 30
0.0
 11
0.9978226006599584
 21
38.53343004094819
 31
0.0
  0
LINE
  5
24B
330
1F
100
AcDbEntity
  8
0
  6
CONTINUOUS
 62
     7
100
AcDbLine
 10
0.9978226006599584
 20
34.95843006034818
 30
0.0
 11
0.9978226006599584
 21
35.03343039854815
 31
0.0
  0
LINE
  5
24C
330
1F
100
AcDbEntity
  8
0
  6
CONTINUOUS
 62
     7
100
AcDbLine
 10
0.9978226006599584
 20
31.45842995234818
 30
0.0
 11
0.9978226006599584
 21
31.53343029054815
 31
0.0
  0
LINE
  5
24D
330
1F
100
AcDbEntity
  8
0
  6
CONTINUOUS
 62
     7
100
AcDbLine
 10
0.9978226006599584
 20
45.45843015154816
 30
0.0
 11
0.9978226006599584
 21
45.53343025694818
 31
0.0
  0
LINE
  5
24E
330
1F
100
AcDbEntity
  8
0
  6
CONTINUOUS
 62
     7
100
AcDbLine
 10
0.9978226006599584
 20
28.53342979874816
 30
0.0
 11
0.9978226006599584
 21
28.60843013694819
 31
0.0
  0
LINE
  5
24F
330
1F
100
AcDbEntity
  8
0
  6
CONTINUOUS
 62
     7
100
AcDbLine
 10
0.9978226006599584
 20
42.53343023094817
 30
0.0
 11
0.9978226006599584
 21
42.60843023454817
 31
0.0
  0
LINE
  5
250
330
1F
100
AcDbEntity
  8
0
  6
CONTINUOUS
 62
     7
100
AcDbLine
 10
0.9978226006599584
 20
35.53343001494818
 30
0.0
 11
0.9978226006599584
 21
35.60843035314815
 31
0.0
  0
LINE
  5
251
330
1F
100
AcDbEntity
  8
0
  6
CONTINUOUS
 62
     7
100
AcDbLine
 10
0.9903012396599706
 20
-15.56950532165183
 30
0.0
 11
0.9903012396599706
 21
-17.06950836145182
 31
0.0
  0
LINE
  5
252
330
1F
100
AcDbEntity
  8
0
  6
CONTINUOUS
 62
     7
100
AcDbLine
 10
-2.002179753740052
 20
-17.06950836145182
 30
0.0
 11
-2.002179753740052
 21
7.230493200148146
 31
0.0
  0
LINE
  5
253
330
1F
100
AcDbEntity
  8
0
  6
CONTINUOUS
 62
     7
100
AcDbLine
 10
-2.002179753740052
 20
7.230493200148146
 30
0.0
 11
-1.994658392540032
 21
7.230493200148146
 31
0.0
  0
LINE
  5
254
330
1F
100
AcDbEntity
  8
0
  6
CONTINUOUS
 62
     7
100
AcDbLine
 10
-1.994658392540032
 20
7.230493200148146
 30
0.0
 11
-1.994658392540032
 21
10.33049352194814
 31
0.0
  0
LINE
  5
255
330
1F
100
AcDbEntity
  8
0
  6
CONTINUOUS
 62
     7
100
AcDbLine
 10
-1.994658392540032
 20
10.33049352194814
 30
0.0
 11
-2.002179753740052
 21
10.33049352194814
 31
0.0
  0
LINE
  5
256
330
1F
100
AcDbEntity
  8
0
  6
CONTINUOUS
 62
     7
100
AcDbLine
 10
-2.002179753740052
 20
10.33049352194814
 30
0.0
 11
-2.002179753740052
 21
16.53049230314815
 31
0.0
  0
LINE
  5
257
330
1F
100
AcDbEntity
  8
0
  6
CONTINUOUS
 62
     7
100
AcDbLine
 10
0.9903012396599706
 20
16.53049230314815
 30
0.0
 11
0.9903012396599706
 21
15.03049298854819
 31
0.0
  0
LINE
  5
258
330
1F
100
AcDbEntity
  8
0
  6
CONTINUOUS
 62
     7
100
AcDbLine
 10
0.5903019190599252
 20
15.03049298854819
 30
0.0
 11
0.9903012396599706
 21
15.03049298854819
 31
0.0
  0
LINE
  5
259
330
1F
100
AcDbEntity
  8
0
  6
CONTINUOUS
 62
     7
100
AcDbLine
 10
0.5903019190599252
 20
15.03049298854819
 30
0.0
 11
0.5903019190599252
 21
-5.569507407851859
 31
0.0
  0
LINE
  5
25A
330
1F
100
AcDbEntity
  8
0
  6
CONTINUOUS
 62
     7
100
AcDbLine
 10
0.5903019190599252
 20
-5.569507407851859
 30
0.0
 11
-0.5096980749400473
 21
-5.569507407851859
 31
0.0
  0
LINE
  5
25B
330
1F
100
AcDbEntity
  8
0
  6
CONTINUOUS
 62
     7
100
AcDbLine
 10
-0.5096980749400473
 20
-15.56950532165183
 30
0.0
 11
-0.5096980749400473
 21
-5.569507407851859
 31
0.0
  0
LINE
  5
25C
330
1F
100
AcDbEntity
  8
0
  6
CONTINUOUS
 62
     7
100
AcDbLine
 10
-0.5096980749400473
 20
-15.56950532165183
 30
0.0
 11
0.9903012396599706
 21
-15.56950532165183
 31
0.0
  0
LINE
  5
25D
330
1F
100
AcDbEntity
  8
0
  6
CONTINUOUS
 62
     7
100
AcDbLine
 10
-2.002179753740052
 20
-17.06950836145182
 30
0.0
 11
0.9903012396599706
 21
-17.06950836145182
 31
0.0
  0
LINE
  5
25E
330
1F
100
AcDbEntity
  8
0
  6
CONTINUOUS
 62
     7
100
AcDbLine
 10
-2.002179753740052
 20
16.53049230314815
 30
0.0
 11
0.9903012396599706
 21
16.53049230314815
 31
0.0
  0
LINE
  5
25F
330
1F
100
AcDbEntity
  8
0
  6
CONTINUOUS
 62
     7
100
AcDbLine
 10
-2.002179753740052
 20
10.33049352194814
 30
0.0
 11
-2.002179753740052
 21
7.230493200148146
 31
0.0
  0
LINE
  5
260
330
1F
100
AcDbEntity
  8
0
  6
CONTINUOUS
 62
     7
100
AcDbLine
 10
-0.1021773933400709
 20
-14.06950600705181
 30
0.0
 11
-0.1021773933400709
 21
-12.06950567925185
 31
0.0
  0
LINE
  5
261
330
1F
100
AcDbEntity
  8
0
  6
CONTINUOUS
 62
     7
100
AcDbLine
 10
-0.1021773933400709
 20
-14.06950600705181
 30
0.0
 11
-0.5096980749400473
 21
-14.06950600705181
 31
0.0
  0
LINE
  5
262
330
1F
100
AcDbEntity
  8
0
  6
CONTINUOUS
 62
     7
100
AcDbLine
 10
-0.1021773933400709
 20
-12.06950567925185
 30
0.0
 11
-0.5096980749400473
 21
-12.06950567925185
 31
0.0
  0
LINE
  5
263
330
1F
100
AcDbEntity
  8
0
  6
CONTINUOUS
 62
     7
100
AcDbLine
 10
1.963178950659938
 20
18.34049322674815
 30
0.0
 11
6.163179743459921
 21
18.34049351254816
 31
0.0
  0
LINE
  5
264
330
1F
100
AcDbEntity
  8
0
  6
CONTINUOUS
 62
     7
100
AcDbLine
 10
6.163179743459921
 20
-18.85950677325184
 30
0.0
 11
1.96317942745992
 21
-18.85950677325184
 31
0.0
  0
LINE
  5
265
330
1F
100
AcDbEntity
  8
0
  6
CONTINUOUS
 62
     7
100
AcDbLine
 10
1.997821700559939
 20
18.14049322674816
 30
0.0
 11
1.997821700559939
 21
-18.65950677325185
 31
0.0
  0
LINE
  5
266
330
1F
100
AcDbEntity
  8
0
  6
CONTINUOUS
 62
     7
100
AcDbLine
 10
6.197821700559928
 20
18.14049351264816
 30
0.0
 11
6.197821700559928
 21
-18.65950677325185
 31
0.0
  0
LINE
  5
267
330
1F
100
AcDbEntity
  8
0
  6
CONTINUOUS
 62
     7
100
AcDbLine
 10
1.96317942745992
 20
-18.85950677325184
 30
0.0
 11
-1.802180093540073
 21
-18.85950677325184
 31
0.0
  0
LINE
  5
268
330
1F
100
AcDbEntity
  8
0
  6
CONTINUOUS
 62
     7
100
AcDbLine
 10
-1.802178299340028
 20
18.34049322674815
 30
0.0
 11
1.963178950659938
 21
18.34049322674815
 31
0.0
  0
LINE
  5
269
330
1F
100
AcDbEntity
  8
0
  6
CONTINUOUS
 62
     7
100
AcDbLine
 10
-2.002179679440076
 20
-17.24950701255182
 30
0.0
 11
-2.002178225040041
 21
-18.65950684755182
 31
0.0
  0
LINE
  5
26A
330
1F
100
AcDbEntity
  8
0
  6
CONTINUOUS
 62
     7
100
AcDbLine
 10
0.9978226749599344
 20
16.73049382594814
 30
0.0
 11
0.9978226749599344
 21
-17.24950701255182
 31
0.0
  0
LINE
  5
26B
330
1F
100
AcDbEntity
  8
0
  6
CONTINUOUS
 62
     7
100
AcDbLine
 10
-2.002179753740052
 20
16.73049382594814
 30
0.0
 11
-2.002178299340073
 21
18.14049322674816
 31
0.0
  0
LINE
  5
26C
330
1F
100
AcDbEntity
  8
0
  6
CONTINUOUS
 62
     7
100
AcDbLine
 10
0.9978226749599344
 20
16.73049382594814
 30
0.0
 11
-2.002179753740052
 21
16.73049382594814
 31
0.0
  0
LINE
  5
26D
330
1F
100
AcDbEntity
  8
0
  6
CONTINUOUS
 62
     7
100
AcDbLine
 10
-2.002179679440076
 20
-17.24950701255182
 30
0.0
 11
0.9978226749599344
 21
-17.24950701255182
 31
0.0
  0
LINE
  5
26E
330
1F
100
AcDbEntity
  8
0
  6
CONTINUOUS
 62
     7
100
AcDbLine
 10
6.163179743459921
 20
18.34049351254816
 30
0.0
 11
16.29782082445996
 21
18.34049351254816
 31
0.0
  0
LINE
  5
26F
330
1F
100
AcDbEntity
  8
0
  6
CONTINUOUS
 62
     7
100
AcDbLine
 10
16.29782168945997
 20
-18.85950677325184
 30
0.0
 11
6.163179743459921
 21
-18.85950677325184
 31
0.0
  0
LINE
  5
270
330
1F
100
AcDbEntity
  8
0
  6
CONTINUOUS
 62
     7
100
AcDbLine
 10
-0.5021767139400595
 20
-8.569506036851863
 30
0.0
 11
-0.5021767139400595
 21
-11.76950805165183
 31
0.0
  0
LINE
  5
271
330
1F
100
AcDbEntity
  8
0
  6
CONTINUOUS
 62
     7
100
AcDbLine
 10
0.9978226006599584
 20
-8.569506036851863
 30
0.0
 11
-0.5021767139400595
 21
-8.569506036851863
 31
0.0
  0
LINE
  5
272
330
1F
100
AcDbEntity
  8
0
  6
CONTINUOUS
 62
     7
100
AcDbLine
 10
0.9978226006599584
 20
-11.76950805165183
 30
0.0
 11
-0.5021767139400595
 21
-11.76950805165183
 31
0.0
  0
LINE
  5
273
330
1F
100
AcDbEntity
  8
0
  6
CONTINUOUS
 62
     7
100
AcDbLine
 10
0.9978226006599584
 20
-2.269507425651852
 30
0.0
 11
0.5903019190599252
 21
-2.269507425651852
 31
0.0
  0
LINE
  5
274
330
1F
100
AcDbEntity
  8
0
  6
CONTINUOUS
 62
     7
100
AcDbLine
 10
0.9978226006599584
 20
0.930494588948136
 30
0.0
 11
0.5903019190599252
 21
0.930494588948136
 31
0.0
  0
LINE
  5
275
330
1F
100
AcDbEntity
  8
0
  6
CONTINUOUS
 62
     7
100
AcDbLine
 10
0.9978226006599584
 20
10.43049148954816
 30
0.0
 11
0.5903019190599252
 21
10.43049148954816
 31
0.0
  0
LINE
  5
276
330
1F
100
AcDbEntity
  8
0
  6
CONTINUOUS
 62
     7
100
AcDbLine
 10
0.9978226006599584
 20
7.230493200148146
 30
0.0
 11
0.5903019190599252
 21
7.230493200148146
 31
0.0
  0
LINE
  5
277
330
1F
100
AcDbEntity
  8
0
  6
CONTINUOUS
 62
     7
100
AcDbLine
 10
-17.15837165714004
 20
98.03343094604816
 30
0.0
 11
-15.70218175654003
 21
98.03343094604816
 31
0.0
  0
LINE
  5
278
330
1F
100
AcDbEntity
  8
0
  6
CONTINUOUS
 62
     7
100
AcDbLine
 10
-17.15837165714004
 20
86.98275588184816
 30
0.0
 11
-17.15837165714004
 21
98.03343094604816
 31
0.0
  0
LINE
  5
279
330
1F
100
AcDbEntity
  8
0
  6
CONTINUOUS
 62
     7
100
AcDbLine
 10
-22.20218002794007
 20
85.03343067794816
 30
0.0
 11
-28.70217829934006
 21
85.03343067794816
 31
0.0
  0
LINE
  5
27A
330
1F
100
AcDbEntity
  8
0
  6
CONTINUOUS
 62
     7
100
AcDbLine
 10
-16.70218005774007
 20
97.03342891944817
 30
0.0
 11
-17.15837165714004
 21
97.03342891944817
 31
0.0
  0
LINE
  5
27B
330
1F
100
AcDbEntity
  8
0
  6
CONTINUOUS
 62
     7
100
AcDbLine
 10
-22.20218002794007
 20
244.0334288003482
 30
0.0
 11
-25.35218119614007
 21
244.0334288003482
 31
0.0
  0
LINE
  5
27C
330
1F
100
AcDbEntity
  8
0
  6
CONTINUOUS
 62
     7
100
AcDbLine
 10
-19.05217885974008
 20
244.0334288003482
 30
0.0
 11
-22.20218002794007
 21
244.0334288003482
 31
0.0
  0
LINE
  5
27D
330
1F
100
AcDbEntity
  8
0
  6
CONTINUOUS
 62
     7
100
AcDbLine
 10
-22.20218002794007
 20
245.0334308269482
 30
0.0
 11
-25.35218119614007
 21
245.0334308269482
 31
0.0
  0
LINE
  5
27E
330
1F
100
AcDbEntity
  8
0
  6
CONTINUOUS
 62
     7
100
AcDbLine
 10
-19.05217885974008
 20
245.0334308269482
 30
0.0
 11
-22.20218002794007
 21
245.0334308269482
 31
0.0
  0
LINE
  5
27F
330
1F
100
AcDbEntity
  8
0
  6
CONTINUOUS
 62
     7
100
AcDbLine
 10
2.497821915259919
 20
92.53343097594814
 30
0.0
 11
2.497821700659927
 21
86.23343023094816
 31
0.0
  0
LINE
  5
280
330
1F
100
AcDbEntity
  8
0
  6
CONTINUOUS
 62
     7
100
AcDbLine
 10
2.497821700659927
 20
98.83343023094818
 30
0.0
 11
2.497821915259919
 21
92.53343097594814
 31
0.0
  0
LINE
  5
281
330
1F
100
AcDbEntity
  8
0
  6
CONTINUOUS
 62
     7
100
AcDbLine
 10
-14.70217986994004
 20
86.23342973914816
 30
0.0
 11
-14.70217986994004
 21
98.83342973914819
 31
0.0
  0
LINE
  5
282
330
1F
100
AcDbEntity
  8
0
  6
CONTINUOUS
 62
     7
100
AcDbLine
 10
12.49782170065993
 20
92.53343097594814
 30
0.0
 11
12.49782170065993
 21
86.83343023094818
 31
0.0
  0
LINE
  5
283
330
1F
100
AcDbEntity
  8
0
  6
CONTINUOUS
 62
     7
100
AcDbLine
 10
12.49782170065993
 20
98.23343023094816
 30
0.0
 11
12.49782170065993
 21
92.53343097594814
 31
0.0
  0
LINE
  5
284
330
1F
100
AcDbEntity
  8
0
  6
CONTINUOUS
 62
     7
100
AcDbLine
 10
-14.70217972994004
 20
88.53343032034815
 30
0.0
 11
-17.15837165714004
 21
88.53343032034815
 31
0.0
  0
LINE
  5
285
330
1F
100
AcDbEntity
  8
0
  6
CONTINUOUS
 62
     7
100
AcDbLine
 10
-17.15837165714004
 20
96.53343163154818
 30
0.0
 11
-14.70217972994004
 21
96.53343163154818
 31
0.0
  0
LINE
  5
286
330
1F
100
AcDbEntity
  8
0
  6
CONTINUOUS
 62
     7
100
AcDbLine
 10
3.747820723059931
 20
86.28342948594815
 30
0.0
 11
3.747820723059931
 21
98.78343097594814
 31
0.0
  0
LINE
  5
287
330
1F
100
AcDbEntity
  8
0
  6
CONTINUOUS
 62
     7
100
AcDbLine
 10
11.24782102105996
 20
86.28342948594815
 30
0.0
 11
11.24782102105996
 21
98.78343097594814
 31
0.0
  0
LINE
  5
288
330
1F
100
AcDbEntity
  8
0
  6
CONTINUOUS
 62
     7
100
AcDbLine
 10
3.747820723059931
 20
86.28342948594815
 30
0.0
 11
11.24782102105996
 21
86.28342948594815
 31
0.0
  0
LINE
  5
289
330
1F
100
AcDbEntity
  8
0
  6
CONTINUOUS
 62
     7
100
AcDbLine
 10
15.44055702105993
 20
90.22403038784819
 30
0.0
 11
15.79782167385997
 21
89.06932823104819
 31
0.0
  0
LINE
  5
28A
330
1F
100
AcDbEntity
  8
0
  6
CONTINUOUS
 62
     7
100
AcDbLine
 10
13.99782100625993
 20
92.53343097614817
 30
0.0
 11
13.99782100625993
 21
95.99752999594818
 31
0.0
  0
LINE
  5
28B
330
1F
100
AcDbEntity
  8
0
  6
CONTINUOUS
 62
     7
100
AcDbLine
 10
14.35508752175997
 20
94.84283156444815
 30
0.0
 11
13.99782100625993
 21
95.99752999594818
 31
0.0
  0
LINE
  5
28C
330
1F
100
AcDbEntity
  8
0
  6
CONTINUOUS
 62
     7
100
AcDbLine
 10
13.99782100625993
 20
92.53343097614817
 30
0.0
 11
13.99782100625993
 21
89.06932823114818
 31
0.0
  0
LINE
  5
28D
330
1F
100
AcDbEntity
  8
0
  6
CONTINUOUS
 62
     7
100
AcDbLine
 10
15.44055702105993
 20
90.22403038784819
 30
0.0
 11
14.35508752175997
 21
90.22403038784819
 31
0.0
  0
LINE
  5
28E
330
1F
100
AcDbEntity
  8
0
  6
CONTINUOUS
 62
     7
100
AcDbLine
 10
15.44055702105993
 20
87.91462979954815
 30
0.0
 11
14.35508752165993
 21
87.91462979954815
 31
0.0
  0
LINE
  5
28F
330
1F
100
AcDbEntity
  8
0
  6
CONTINUOUS
 62
     7
100
AcDbLine
 10
14.35508752165993
 20
87.91462979954815
 30
0.0
 11
13.99782100625993
 21
89.06932823114818
 31
0.0
  0
LINE
  5
290
330
1F
100
AcDbEntity
  8
0
  6
CONTINUOUS
 62
     7
100
AcDbLine
 10
15.44055702105993
 20
94.84283156434816
 30
0.0
 11
14.35508752175997
 21
94.84283156444815
 31
0.0
  0
LINE
  5
291
330
1F
100
AcDbEntity
  8
0
  6
CONTINUOUS
 62
     7
100
AcDbLine
 10
15.44055702115992
 20
97.15223215264814
 30
0.0
 11
14.35508752175997
 21
97.15223215274818
 31
0.0
  0
LINE
  5
292
330
1F
100
AcDbEntity
  8
0
  6
CONTINUOUS
 62
     7
100
AcDbLine
 10
15.44055702115992
 20
97.15223215264814
 30
0.0
 11
15.79782167395996
 21
95.99752999584814
 31
0.0
  0
LINE
  5
293
330
1F
100
AcDbEntity
  8
0
  6
CONTINUOUS
 62
     7
100
AcDbLine
 10
13.99782100625993
 20
89.06932823114818
 30
0.0
 11
13.99782100625993
 21
88.53343032054818
 31
0.0
  0
LINE
  5
294
330
1F
100
AcDbEntity
  8
0
  6
CONTINUOUS
 62
     7
100
AcDbLine
 10
13.99782100625993
 20
96.53343163174816
 30
0.0
 11
13.99782100625993
 21
95.99752999594818
 31
0.0
  0
LINE
  5
295
330
1F
100
AcDbEntity
  8
0
  6
CONTINUOUS
 62
     7
100
AcDbLine
 10
15.79782167395996
 20
92.53343097604818
 30
0.0
 11
15.79782167395996
 21
97.63343162564814
 31
0.0
  0
LINE
  5
296
330
1F
100
AcDbEntity
  8
0
  6
CONTINUOUS
 62
     7
100
AcDbLine
 10
15.79782167395996
 20
87.43343032624819
 30
0.0
 11
15.79782167395996
 21
92.53343097604818
 31
0.0
  0
LINE
  5
297
330
1F
100
AcDbEntity
  8
0
  6
CONTINUOUS
 62
     7
100
AcDbLine
 10
-115.1813473012401
 20
-136.4927968939518
 30
0.0
 11
-115.1813473012401
 21
-140.4241131467518
 31
0.0
  0
LINE
  5
298
330
1F
100
AcDbEntity
  8
0
  6
CONTINUOUS
 62
     7
100
AcDbLine
 10
-88.18134730184005
 20
-140.4241131467518
 30
0.0
 11
-88.18134730184005
 21
-136.4927968939518
 31
0.0
  0
LINE
  5
299
330
1F
100
AcDbEntity
  8
0
  6
CONTINUOUS
 62
     7
100
AcDbLine
 10
-104.93134730154
 20
-114.4241131468518
 30
0.0
 11
-104.93134730154
 21
-119.4241131466518
 31
0.0
  0
LINE
  5
29A
330
1F
100
AcDbEntity
  8
0
  6
CONTINUOUS
 62
     7
100
AcDbLine
 10
-98.43134730154003
 20
-119.4241131466518
 30
0.0
 11
-98.43134730154003
 21
-114.4241131468518
 31
0.0
  0
LINE
  5
29B
330
1F
100
AcDbEntity
  8
0
  6
CONTINUOUS
 62
     7
100
AcDbLine
 10
-98.43134730154003
 20
-114.4241131468518
 30
0.0
 11
-100.68134730154
 21
-104.4241131468518
 31
0.0
  0
LINE
  5
29C
330
1F
100
AcDbEntity
  8
0
  6
CONTINUOUS
 62
     7
100
AcDbLine
 10
-102.68134730154
 20
-104.4241131468518
 30
0.0
 11
-104.93134730154
 21
-114.4241131468518
 31
0.0
  0
LINE
  5
29D
330
1F
100
AcDbEntity
  8
0
  6
CONTINUOUS
 62
     7
100
AcDbLine
 10
-103.18134730154
 20
-61.92411314685182
 30
0.0
 11
-103.18134730154
 21
-70.12411314685184
 31
0.0
  0
LINE
  5
29E
330
1F
100
AcDbEntity
  8
0
  6
CONTINUOUS
 62
     7
100
AcDbLine
 10
-100.18134730154
 20
-70.12411314685184
 30
0.0
 11
-100.18134730154
 21
-61.92411314685182
 31
0.0
  0
LINE
  5
29F
330
1F
100
AcDbEntity
  8
0
  6
CONTINUOUS
 62
     7
100
AcDbLine
 10
-102.2813473015401
 20
-70.42411314685182
 30
0.0
 11
-102.2813473015401
 21
-104.4241131468518
 31
0.0
  0
LINE
  5
2A0
330
1F
100
AcDbEntity
  8
0
  6
CONTINUOUS
 62
     7
100
AcDbLine
 10
-101.0813473015401
 20
-104.4241131468518
 30
0.0
 11
-101.0813473015401
 21
-70.42411314685182
 31
0.0
  0
LINE
  5
2A1
330
1F
100
AcDbEntity
  8
0
  6
CONTINUOUS
 62
     7
100
AcDbLine
 10
-101.6813473012401
 20
-140.4241131467518
 30
0.0
 11
-88.18134730184005
 21
-140.4241131467518
 31
0.0
  0
LINE
  5
2A2
330
1F
100
AcDbEntity
  8
0
  6
CONTINUOUS
 62
     7
100
AcDbLine
 10
-115.1813473012401
 20
-140.4241131467518
 30
0.0
 11
-101.6813473012401
 21
-140.4241131467518
 31
0.0
  0
LINE
  5
2A3
330
1F
100
AcDbEntity
  8
0
  6
CONTINUOUS
 62
     7
100
AcDbLine
 10
-101.6813473013401
 20
-119.4241131466518
 30
0.0
 11
-98.43134730154003
 21
-119.4241131466518
 31
0.0
  0
LINE
  5
2A4
330
1F
100
AcDbEntity
  8
0
  6
CONTINUOUS
 62
     7
100
AcDbLine
 10
-104.93134730154
 20
-119.4241131466518
 30
0.0
 11
-101.6813473013401
 21
-119.4241131466518
 31
0.0
  0
LINE
  5
2A5
330
1F
100
AcDbEntity
  8
0
  6
CONTINUOUS
 62
     7
100
AcDbLine
 10
-101.68134730154
 20
-114.4241131468518
 30
0.0
 11
-98.43134730154003
 21
-114.4241131468518
 31
0.0
  0
LINE
  5
2A6
330
1F
100
AcDbEntity
  8
0
  6
CONTINUOUS
 62
     7
100
AcDbLine
 10
-104.93134730154
 20
-114.4241131468518
 30
0.0
 11
-101.68134730154
 21
-114.4241131468518
 31
0.0
  0
LINE
  5
2A7
330
1F
100
AcDbEntity
  8
0
  6
CONTINUOUS
 62
     7
100
AcDbLine
 10
-101.68134730154
 20
-104.4241131468518
 30
0.0
 11
-100.68134730154
 21
-104.4241131468518
 31
0.0
  0
LINE
  5
2A8
330
1F
100
AcDbEntity
  8
0
  6
CONTINUOUS
 62
     7
100
AcDbLine
 10
-102.68134730154
 20
-104.4241131468518
 30
0.0
 11
-101.68134730154
 21
-104.4241131468518
 31
0.0
  0
LINE
  5
2A9
330
1F
100
AcDbEntity
  8
0
  6
CONTINUOUS
 62
     7
100
AcDbLine
 10
-101.68134730154
 20
-70.42411314685182
 30
0.0
 11
-102.8813473015401
 21
-70.42411314685182
 31
0.0
  0
LINE
  5
2AA
330
1F
100
AcDbEntity
  8
0
  6
CONTINUOUS
 62
     7
100
AcDbLine
 10
-100.48134730154
 20
-70.42411314685182
 30
0.0
 11
-101.68134730154
 21
-70.42411314685182
 31
0.0
  0
LINE
  5
2AB
330
1F
100
AcDbEntity
  8
0
  6
CONTINUOUS
 62
     7
100
AcDbLine
 10
120.8660361526599
 20
-125.8526553590518
 30
0.0
 11
120.6059556726599
 21
-125.9262744590518
 31
0.0
  0
LINE
  5
2AC
330
1F
100
AcDbEntity
  8
0
  6
CONTINUOUS
 62
     7
100
AcDbLine
 10
13.19782236525992
 20
-140.6415706154518
 30
0.0
 11
13.54782083945992
 21
-140.1415696022518
 31
0.0
  0
LINE
  5
2AD
330
1F
100
AcDbEntity
  8
0
  6
CONTINUOUS
 62
     7
100
AcDbLine
 10
118.55189414266
 20
-129.6429181290518
 30
0.0
 11
118.5568680026599
 21
-129.5200637090518
 31
0.0
  0
LINE
  5
2AE
330
1F
100
AcDbEntity
  8
0
  6
CONTINUOUS
 62
     7
100
AcDbLine
 10
-243.7166885997401
 20
1.121012916948189
 30
0.0
 11
-238.23267974974
 21
3.009311664148186
 31
0.0
  0
LINE
  5
2AF
330
1F
100
AcDbEntity
  8
0
  6
CONTINUOUS
 62
     7
100
AcDbLine
 10
-238.23267974974
 20
3.009311664148186
 30
0.0
 11
-236.4738150641401
 21
-2.09881325865183
 31
0.0
  0
LINE
  5
2B0
330
1F
100
AcDbEntity
  8
0
  6
CONTINUOUS
 62
     7
100
AcDbLine
 10
-241.8283952625401
 20
-4.363000911651852
 30
0.0
 11
-243.7166885997401
 21
1.121012916948189
 31
0.0
  0
LINE
  5
2B1
330
1F
100
AcDbEntity
  8
0
  6
CONTINUOUS
 62
     7
100
AcDbLine
 10
-244.1830623487401
 20
-5.385295996251841
 30
0.0
 11
-244.1830623487401
 21
1.171948811348159
 31
0.0
  0
LINE
  5
2B2
330
1F
100
AcDbEntity
  8
0
  6
CONTINUOUS
 62
     7
100
AcDbLine
 10
-241.8283952625401
 20
-4.363000911651852
 30
0.0
 11
-236.43306224254
 21
-2.505233088251828
 31
0.0
  0
LINE
  5
2B3
330
1F
100
AcDbEntity
  8
0
  6
CONTINUOUS
 62
     7
100
AcDbLine
 10
-244.18306232194
 20
4.114707717548185
 30
0.0
 11
-244.18306232194
 21
10.67195252514819
 31
0.0
  0
LINE
  5
2B4
330
1F
100
AcDbEntity
  8
0
  6
CONTINUOUS
 62
     7
100
AcDbLine
 10
-238.23267972294
 20
12.50931537814819
 30
0.0
 11
-236.47381503734
 21
7.401190455348171
 31
0.0
  0
LINE
  5
2B5
330
1F
100
AcDbEntity
  8
0
  6
CONTINUOUS
 62
     7
100
AcDbLine
 10
-241.8283952357401
 20
5.13700280234815
 30
0.0
 11
-236.4330622157401
 21
6.994770625548142
 31
0.0
  0
LINE
  5
2B6
330
1F
100
AcDbEntity
  8
0
  6
CONTINUOUS
 62
     7
100
AcDbLine
 10
-241.8283952357401
 20
5.13700280234815
 30
0.0
 11
-243.7166885729401
 21
10.62101663074816
 31
0.0
  0
LINE
  5
2B7
330
1F
100
AcDbEntity
  8
0
  6
CONTINUOUS
 62
     7
100
AcDbLine
 10
-243.7166885729401
 20
10.62101663074816
 30
0.0
 11
-238.23267972294
 21
12.50931537814819
 31
0.0
  0
LINE
  5
2B8
330
1F
100
AcDbEntity
  8
0
  6
CONTINUOUS
 62
     7
100
AcDbLine
 10
8.597820866259951
 20
-206.8915689018518
 30
0.0
 11
8.597820866259951
 21
-205.8915706006518
 31
0.0
  0
LINE
  5
2B9
330
1F
100
AcDbEntity
  8
0
  6
CONTINUOUS
 62
     7
100
AcDbLine
 10
101.8205941326599
 20
99.67550650094819
 30
0.0
 11
100.67251606266
 21
99.67550650094819
 31
0.0
  0
LINE
  5
2BA
330
1F
100
AcDbEntity
  8
0
  6
CONTINUOUS
 62
     7
100
AcDbLine
 10
91.42932487265989
 20
89.29500316094817
 30
0.0
 11
90.28124680265995
 21
89.29500316094817
 31
0.0
  0
LINE
  5
2BB
330
1F
100
AcDbEntity
  8
0
  6
CONTINUOUS
 62
     7
100
AcDbLine
 10
0.9978226006599584
 20
-191.4665699590518
 30
0.0
 11
0.9978226006599584
 21
-190.9665698770518
 31
0.0
  0
LINE
  5
2BC
330
1F
100
AcDbEntity
  8
0
  6
CONTINUOUS
 62
     7
100
AcDbLine
 10
-0.0020974695400469
 20
-191.5415698316518
 30
0.0
 11
-0.0020974695400469
 21
-194.3915696468518
 31
0.0
  0
LINE
  5
2BD
330
1F
100
AcDbEntity
  8
0
  6
CONTINUOUS
 62
     7
100
AcDbLine
 10
121.0798836726599
 20
102.6514661109481
 30
0.0
 11
120.9549442226599
 21
102.6035199209481
 31
0.0
  0
LINE
  5
2BE
330
1F
100
AcDbEntity
  8
0
  6
CONTINUOUS
 62
     7
100
AcDbLine
 10
-2.002179753740052
 20
-247.0695083614518
 30
0.0
 11
-2.002179753740052
 21
-222.7695067998519
 31
0.0
  0
LINE
  5
2BF
330
1F
100
AcDbEntity
  8
0
  6
CONTINUOUS
 62
     7
100
AcDbLine
 10
1.963178950659938
 20
-211.6595067732518
 30
0.0
 11
6.163179743459921
 21
-211.6595064874518
 31
0.0
  0
LINE
  5
2C0
330
1F
100
AcDbEntity
  8
0
  6
CONTINUOUS
 62
     7
100
AcDbLine
 10
0.9978226006599584
 20
-229.0695054110518
 30
0.0
 11
0.5903019190599252
 21
-229.0695054110518
 31
0.0
  0
LINE
  5
2C1
330
1F
100
AcDbEntity
  8
0
  6
CONTINUOUS
 62
     7
100
AcDbLine
 10
13.99782100625993
 20
-137.4665690238518
 30
0.0
 11
13.99782100625993
 21
-134.0024700040518
 31
0.0
  0
LINE
  5
2C2
330
1F
100
AcDbEntity
  8
0
  6
CONTINUOUS
 62
     7
100
AcDbLine
 10
120.45505533266
 20
-247.2902362290518
 30
0.0
 11
120.3477826626599
 21
-247.2921267990518
 31
0.0
  0
LINE
  5
2C3
330
1F
100
AcDbEntity
  8
0
  6
CONTINUOUS
 62
     7
100
AcDbLine
 10
124.4382074126599
 20
-127.9518464090518
 30
0.0
 11
124.35328747266
 21
-127.6966895390518
 31
0.0
  0
LINE
  5
2C4
330
1F
100
AcDbEntity
  8
0
  6
CONTINUOUS
 62
     7
100
AcDbLine
 10
124.5513341426599
 20
-128.7703247990518
 30
0.0
 11
124.5383810626599
 21
-128.4898143590518
 31
0.0
  0
LINE
  5
2C5
330
1F
100
AcDbEntity
  8
0
  6
CONTINUOUS
 62
     7
100
AcDbLine
 10
99.67257709265994
 20
-129.5243700790518
 30
0.0
 11
99.67257709265994
 21
-130.3244934990518
 31
0.0
  0
LINE
  5
2C6
330
1F
100
AcDbEntity
  8
0
  6
CONTINUOUS
 62
     7
100
AcDbLine
 10
120.6162843126599
 20
-127.6013275690518
 30
0.0
 11
120.51737893266
 21
-127.6880259590518
 31
0.0
  0
LINE
  5
2C7
330
1F
100
AcDbEntity
  8
0
  6
CONTINUOUS
 62
     7
100
AcDbLine
 10
123.05271760266
 20
-128.7703247990518
 30
0.0
 11
123.0462409926599
 21
-128.6301372390518
 31
0.0
  0
LINE
  5
2C8
330
1F
100
AcDbEntity
  8
0
  6
CONTINUOUS
 62
     7
100
AcDbLine
 10
122.0889483324599
 20
-247.2614404590518
 30
0.0
 11
121.6654383026599
 21
-247.2689044090518
 31
0.0
  0
LINE
  5
2C9
330
1F
100
AcDbEntity
  8
0
  6
CONTINUOUS
 62
     7
100
AcDbLine
 10
124.45142637266
 20
-250.2086487490518
 30
0.0
 11
122.4532709926599
 21
-251.4075419690518
 31
0.0
  0
LINE
  5
2CA
330
1F
100
AcDbEntity
  8
0
  6
CONTINUOUS
 62
     7
100
AcDbLine
 10
119.5559456876599
 20
-138.4454448340518
 30
0.0
 11
119.5559456876599
 21
-137.4911533840518
 31
0.0
  0
LINE
  5
2CB
330
1F
100
AcDbEntity
  8
0
  6
CONTINUOUS
 62
     7
100
AcDbLine
 10
118.4389811326599
 20
-130.1032201290518
 30
0.0
 11
118.4803868826599
 21
-129.9935851890518
 31
0.0
  0
LINE
  5
2CC
330
1F
100
AcDbEntity
  8
0
  6
CONTINUOUS
 62
     7
100
AcDbLine
 10
109.46440018076
 20
-125.7074692809518
 30
0.0
 11
109.46440018076
 21
-126.0031246409518
 31
0.0
  0
LINE
  5
2CD
330
1F
100
AcDbEntity
  8
0
  6
CONTINUOUS
 62
     7
100
AcDbLine
 10
109.46440018076
 20
-124.6208955809518
 30
0.0
 11
109.46440018076
 21
-125.0034768409518
 31
0.0
  0
LINE
  5
2CE
330
1F
100
AcDbEntity
  8
0
  6
CONTINUOUS
 62
     7
100
AcDbLine
 10
118.4803868826599
 20
-129.9935851890518
 30
0.0
 11
118.51326601266
 21
-129.8800654690518
 31
0.0
  0
LINE
  5
2CF
330
1F
100
AcDbEntity
  8
0
  6
CONTINUOUS
 62
     7
100
AcDbLine
 10
92.22944830265999
 20
-141.5038283490518
 30
0.0
 11
90.28124680265995
 21
-141.5038283490518
 31
0.0
  0
LINE
  5
2D0
330
1F
100
AcDbEntity
  8
0
  6
CONTINUOUS
 62
     7
100
AcDbLine
 10
16.29782082455995
 20
-132.3665683743518
 30
0.0
 11
15.79782167395996
 21
-132.3665683743518
 31
0.0
  0
LINE
  5
2D1
330
1F
100
AcDbEntity
  8
0
  6
CONTINUOUS
 62
     7
100
AcDbLine
 10
81.83817904265993
 20
-129.5243700790518
 30
0.0
 11
79.88997754265995
 21
-129.5243700790518
 31
0.0
  0
LINE
  5
2D2
330
1F
100
AcDbEntity
  8
0
  6
CONTINUOUS
 62
     7
100
AcDbLine
 10
1.997820901859939
 20
-198.4665697094518
 30
0.0
 11
0.9978226006599584
 21
-198.4665697094518
 31
0.0
  0
LINE
  5
2D3
330
1F
100
AcDbEntity
  8
0
  6
CONTINUOUS
 62
     7
100
AcDbLine
 10
1.997820901859939
 20
-198.5415700476518
 30
0.0
 11
0.1979021908599634
 21
-198.5415700476518
 31
0.0
  0
LINE
  5
2D4
330
1F
100
AcDbEntity
  8
0
  6
CONTINUOUS
 62
     7
100
AcDbLine
 10
1.997820901859939
 20
-195.0415699396518
 30
0.0
 11
0.1979021908599634
 21
-195.0415699396518
 31
0.0
  0
LINE
  5
2D5
330
1F
100
AcDbEntity
  8
0
  6
CONTINUOUS
 62
     7
100
AcDbLine
 10
0.9978226006599584
 20
-197.9665696274518
 30
0.0
 11
0.9978226006599584
 21
-197.8915702206518
 31
0.0
  0
LINE
  5
2D6
330
1F
100
AcDbEntity
  8
0
  6
CONTINUOUS
 62
     7
100
AcDbLine
 10
0.5903019190599252
 20
-214.9695070114518
 30
0.0
 11
0.5903019190599252
 21
-235.5695074078518
 31
0.0
  0
LINE
  5
2D7
330
1F
100
AcDbEntity
  8
0
  6
CONTINUOUS
 62
     7
100
AcDbLine
 10
0.9978226749599344
 20
-213.2695061740519
 30
0.0
 11
0.9978226749599344
 21
-247.2495070125518
 31
0.0
  0
LINE
  5
2D8
330
1F
100
AcDbEntity
  8
0
  6
CONTINUOUS
 62
     7
100
AcDbLine
 10
12.49782169885992
 20
-132.9065696200518
 30
0.0
 11
12.49782169885992
 21
-137.4665690240518
 31
0.0
  0
LINE
  5
2D9
330
1F
100
AcDbEntity
  8
0
  6
CONTINUOUS
 62
     7
100
AcDbLine
 10
15.44055702115992
 20
-132.8477678473518
 30
0.0
 11
14.35508752175997
 21
-132.8477678472518
 31
0.0
  0
LINE
  5
2DA
330
1F
100
AcDbEntity
  8
0
  6
CONTINUOUS
 62
     7
100
AcDbLine
 10
118.8280934726599
 20
-131.9387377790518
 30
0.0
 11
119.00846963266
 21
-131.7955758690518
 31
0.0
  0
LINE
  5
2DB
330
1F
100
AcDbEntity
  8
0
  6
CONTINUOUS
 62
     7
100
AcDbLine
 10
119.1563146126599
 20
-248.6695988090518
 30
0.0
 11
119.1563146126599
 21
-248.8741221990518
 31
0.0
  0
LINE
  5
2DC
330
1F
100
AcDbEntity
  8
0
  6
CONTINUOUS
 62
     7
100
AcDbLine
 10
122.24081004266
 20
-125.8526553590518
 30
0.0
 11
121.97155150266
 21
-125.8024416090518
 31
0.0
  0
LINE
  5
2DD
330
1F
100
AcDbEntity
  8
0
  6
CONTINUOUS
 62
     7
100
AcDbLine
 10
124.8625015207599
 20
-138.6112396209518
 30
0.0
 11
125.29782170076
 21
-138.6112396209518
 31
0.0
  0
LINE
  5
2DE
330
1F
100
AcDbEntity
  8
0
  6
CONTINUOUS
 62
     7
100
AcDbLine
 10
117.6412262126599
 20
-130.9008539390518
 30
0.0
 11
117.7465815426599
 21
-130.8513299890518
 31
0.0
  0
LINE
  5
2DF
330
1F
100
AcDbEntity
  8
0
  6
CONTINUOUS
 62
     7
100
AcDbLine
 10
39.62800788265997
 20
-140.5099182990518
 30
0.0
 11
37.22936015265992
 21
-140.5099182990518
 31
0.0
  0
LINE
  5
2E0
330
1F
100
AcDbEntity
  8
0
  6
CONTINUOUS
 62
     7
100
AcDbLine
 10
109.46440018076
 20
-126.5101923709518
 30
0.0
 11
109.48115661076
 21
-127.1644744709518
 31
0.0
  0
LINE
  5
2E1
330
1F
100
AcDbEntity
  8
0
  6
CONTINUOUS
 62
     7
100
AcDbLine
 10
39.62800788265997
 20
-229.4274021390518
 30
0.0
 11
39.62800788265997
 21
-239.4190403190518
 31
0.0
  0
LINE
  5
2E2
330
1F
100
AcDbEntity
  8
0
  6
CONTINUOUS
 62
     7
100
AcDbLine
 10
81.83817904265993
 20
-136.4283414290518
 30
0.0
 11
79.88997754265995
 21
-136.4283414290518
 31
0.0
  0
LINE
  5
2E3
330
1F
100
AcDbEntity
  8
0
  6
CONTINUOUS
 62
     7
100
AcDbLine
 10
119.1563146126599
 20
-249.1385830290518
 30
0.0
 11
119.1563146126599
 21
-249.4503628990518
 31
0.0
  0
LINE
  5
2E4
330
1F
100
AcDbEntity
  8
0
  6
CONTINUOUS
 62
     7
100
AcDbLine
 10
119.1563146126599
 20
-251.6081109390518
 30
0.0
 11
119.1563146126599
 21
-252.4665697690518
 31
0.0
  0
LINE
  5
2E5
330
1F
100
AcDbEntity
  8
0
  6
CONTINUOUS
 62
     7
100
AcDbLine
 10
123.6600879107599
 20
-138.6112396209518
 30
0.0
 11
123.9717571707599
 21
-138.6112396209518
 31
0.0
  0
LINE
  5
2E6
330
1F
100
AcDbEntity
  8
0
  6
CONTINUOUS
 62
     7
100
AcDbLine
 10
110.7314481507599
 20
-131.9164808209518
 30
0.0
 11
111.32345643076
 21
-132.9670292809518
 31
0.0
  0
LINE
  5
2E7
330
1F
100
AcDbEntity
  8
0
  6
CONTINUOUS
 62
     7
100
AcDbLine
 10
121.1351490126599
 20
-125.8024416090518
 30
0.0
 11
120.8660361526599
 21
-125.8526553590518
 31
0.0
  0
LINE
  5
2E8
330
1F
100
AcDbEntity
  8
0
  6
CONTINUOUS
 62
     7
100
AcDbLine
 10
119.44046520266
 20
-247.7153809690518
 30
0.0
 11
119.3688834026599
 21
-247.8086591490518
 31
0.0
  0
LINE
  5
2E9
330
1F
100
AcDbEntity
  8
0
  6
CONTINUOUS
 62
     7
100
AcDbLine
 10
109.48115661076
 20
-127.1644744709518
 30
0.0
 11
109.6127018807599
 21
-128.4215857209518
 31
0.0
  0
LINE
  5
2EA
330
1F
100
AcDbEntity
  8
0
  6
CONTINUOUS
 62
     7
100
AcDbLine
 10
12.49782169165996
 20
-140.6415706154518
 30
0.0
 11
12.84782202845997
 21
-140.1415696022518
 31
0.0
  0
LINE
  5
2EB
330
1F
100
AcDbEntity
  8
0
  6
CONTINUOUS
 62
     7
100
AcDbLine
 10
12.84782202845997
 20
-134.7915684458519
 30
0.0
 11
12.49782169165996
 21
-134.2915711578518
 31
0.0
  0
LINE
  5
2EC
330
1F
100
AcDbEntity
  8
0
  6
CONTINUOUS
 62
     7
100
AcDbLine
 10
1.997820901859939
 20
-202.0915696052518
 30
0.0
 11
16.29782082445996
 21
-202.0915696052518
 31
0.0
  0
LINE
  5
2ED
330
1F
100
AcDbEntity
  8
0
  6
CONTINUOUS
 62
     7
100
AcDbLine
 10
0.9978226006599584
 20
-194.9665696014519
 30
0.0
 11
0.9978226006599584
 21
-194.4665699850518
 31
0.0
  0
LINE
  5
2EE
330
1F
100
AcDbEntity
  8
0
  6
CONTINUOUS
 62
     7
100
AcDbLine
 10
-0.0020974695400469
 20
-198.5415700476518
 30
0.0
 11
-0.0020974695400469
 21
-201.3915698630518
 31
0.0
  0
LINE
  5
2EF
330
1F
100
AcDbEntity
  8
0
  6
CONTINUOUS
 62
     7
100
AcDbLine
 10
0.9978226006599584
 20
-187.4665697690518
 30
0.0
 11
0.9978226006599584
 21
-187.3915697654518
 31
0.0
  0
LINE
  5
2F0
330
1F
100
AcDbEntity
  8
0
  6
CONTINUOUS
 62
     7
100
AcDbLine
 10
-0.1021773933400709
 20
-244.0695060070518
 30
0.0
 11
-0.1021773933400709
 21
-242.0695056792518
 31
0.0
  0
LINE
  5
2F1
330
1F
100
AcDbEntity
  8
0
  6
CONTINUOUS
 62
     7
100
AcDbLine
 10
0.9978226006599584
 20
-238.5695060368518
 30
0.0
 11
-0.5021767139400595
 21
-238.5695060368518
 31
0.0
  0
LINE
  5
2F2
330
1F
100
AcDbEntity
  8
0
  6
CONTINUOUS
 62
     7
100
AcDbLine
 10
124.45142637266
 20
-249.9089254390518
 30
0.0
 11
124.45142637266
 21
-250.2086487490518
 31
0.0
  0
LINE
  5
2F3
330
1F
100
AcDbEntity
  8
0
  6
CONTINUOUS
 62
     7
100
AcDbLine
 10
91.42932487265989
 20
-130.3244934990518
 30
0.0
 11
90.28124680265995
 21
-130.3244934990518
 31
0.0
  0
LINE
  5
2F4
330
1F
100
AcDbEntity
  8
0
  6
CONTINUOUS
 62
     7
100
AcDbLine
 10
120.4264284126599
 20
-127.7829720890518
 30
0.0
 11
120.3440112826599
 21
-127.8855898290518
 31
0.0
  0
LINE
  5
2F5
330
1F
100
AcDbEntity
  8
0
  6
CONTINUOUS
 62
     7
100
AcDbLine
 10
89.28216911265997
 20
-130.3244934990518
 30
0.0
 11
88.13322977265994
 21
-130.3244934990518
 31
0.0
  0
LINE
  5
2F6
330
1F
100
AcDbEntity
  8
0
  6
CONTINUOUS
 62
     7
100
AcDbLine
 10
122.76352251266
 20
-127.8855898290518
 30
0.0
 11
122.6811233026599
 21
-127.7829720890518
 31
0.0
  0
LINE
  5
2F7
330
1F
100
AcDbEntity
  8
0
  6
CONTINUOUS
 62
     7
100
AcDbLine
 10
120.0154197926599
 20
-130.0062286890518
 30
0.0
 11
120.0446940626599
 21
-129.7658860190518
 31
0.0
  0
LINE
  5
2F8
330
1F
100
AcDbEntity
  8
0
  6
CONTINUOUS
 62
     7
100
AcDbLine
 10
79.88997754265995
 20
-136.4283414290518
 30
0.0
 11
79.88997754265995
 21
-135.6290792790518
 31
0.0
  0
LINE
  5
2F9
330
1F
100
AcDbEntity
  8
0
  6
CONTINUOUS
 62
     7
100
AcDbLine
 10
112.79601312076
 20
-134.8564146509518
 30
0.0
 11
113.66319515076
 21
-135.6818893609518
 31
0.0
  0
LINE
  5
2FA
330
1F
100
AcDbEntity
  8
0
  6
CONTINUOUS
 62
     7
100
AcDbLine
 10
121.88590039076
 20
-138.6112396209518
 30
0.0
 11
122.11543134076
 21
-138.6112396209518
 31
0.0
  0
LINE
  5
2FB
330
1F
100
AcDbEntity
  8
0
  6
CONTINUOUS
 62
     7
100
AcDbLine
 10
92.22944830265999
 20
-129.5243700790518
 30
0.0
 11
92.22944830265999
 21
-141.5038283490518
 31
0.0
  0
LINE
  5
2FC
330
1F
100
AcDbEntity
  8
0
  6
CONTINUOUS
 62
     7
100
AcDbLine
 10
121.8971843726599
 20
-127.3117160690518
 30
0.0
 11
121.76249716266
 21
-127.2866027290519
 31
0.0
  0
LINE
  5
2FD
330
1F
100
AcDbEntity
  8
0
  6
CONTINUOUS
 62
     7
100
AcDbLine
 10
81.83817904265993
 20
-129.5243700790518
 30
0.0
 11
81.83817904265993
 21
-136.4283414290518
 31
0.0
  0
LINE
  5
2FE
330
1F
100
AcDbEntity
  8
0
  6
CONTINUOUS
 62
     7
100
AcDbLine
 10
122.9961520726599
 20
-128.3612544690518
 30
0.0
 11
122.95368913266
 21
-128.2337115090518
 31
0.0
  0
LINE
  5
2FF
330
1F
100
AcDbEntity
  8
0
  6
CONTINUOUS
 62
     7
100
AcDbLine
 10
122.8367996726599
 20
-127.9953030590518
 30
0.0
 11
122.76352251266
 21
-127.8855898290518
 31
0.0
  0
LINE
  5
300
330
1F
100
AcDbEntity
  8
0
  6
CONTINUOUS
 62
     7
100
AcDbLine
 10
120.6059556726599
 20
-125.9262744590518
 30
0.0
 11
120.3560569226599
 21
-126.0221485890518
 31
0.0
  0
LINE
  5
301
330
1F
100
AcDbEntity
  8
0
  6
CONTINUOUS
 62
     7
100
AcDbLine
 10
122.02734694266
 20
-127.3485338890519
 30
0.0
 11
121.8971843726599
 21
-127.3117160690518
 31
0.0
  0
LINE
  5
302
330
1F
100
AcDbEntity
  8
0
  6
CONTINUOUS
 62
     7
100
AcDbLine
 10
15.79782166975997
 20
-133.4665683706518
 30
0.0
 11
15.44055702115992
 21
-132.8477678473518
 31
0.0
  0
LINE
  5
303
330
1F
100
AcDbEntity
  8
0
  6
CONTINUOUS
 62
     7
100
AcDbLine
 10
101.8205941326599
 20
-130.3244934990518
 30
0.0
 11
101.8205941326599
 21
-140.7049968390518
 31
0.0
  0
LINE
  5
304
330
1F
100
AcDbEntity
  8
0
  6
CONTINUOUS
 62
     7
100
AcDbLine
 10
1.997820901859939
 20
-187.9665697928518
 30
0.0
 11
0.9978226006599584
 21
-187.9665697928518
 31
0.0
  0
LINE
  5
305
330
1F
100
AcDbEntity
  8
0
  6
CONTINUOUS
 62
     7
100
AcDbLine
 10
1.997820901859939
 20
-183.8415698734518
 30
0.0
 11
0.9978226006599584
 21
-183.8415698734518
 31
0.0
  0
LINE
  5
306
330
1F
100
AcDbEntity
  8
0
  6
CONTINUOUS
 62
     7
100
AcDbLine
 10
0.1979021908599634
 20
-194.3915696468518
 30
0.0
 11
1.997820901859939
 21
-194.3915696468518
 31
0.0
  0
LINE
  5
307
330
1F
100
AcDbEntity
  8
0
  6
CONTINUOUS
 62
     7
100
AcDbLine
 10
-0.0020974695400469
 20
-197.8915702206518
 30
0.0
 11
0.1979021908599634
 21
-197.8915702206518
 31
0.0
  0
LINE
  5
308
330
1F
100
AcDbEntity
  8
0
  6
CONTINUOUS
 62
     7
100
AcDbLine
 10
-2.002179753740052
 20
-219.6695064780519
 30
0.0
 11
-2.002179753740052
 21
-213.4695076968518
 31
0.0
  0
LINE
  5
309
330
1F
100
AcDbEntity
  8
0
  6
CONTINUOUS
 62
     7
100
AcDbLine
 10
1.96317942745992
 20
-248.8595067732518
 30
0.0
 11
-1.802180093540073
 21
-248.8595067732518
 31
0.0
  0
LINE
  5
30A
330
1F
100
AcDbEntity
  8
0
  6
CONTINUOUS
 62
     7
100
AcDbLine
 10
5.497820916859951
 20
-132.4665690240518
 30
0.0
 11
11.49782115525994
 21
-132.4665690240518
 31
0.0
  0
LINE
  5
30B
330
1F
100
AcDbEntity
  8
0
  6
CONTINUOUS
 62
     7
100
AcDbLine
 10
15.44055702105993
 20
-142.0853702004518
 30
0.0
 11
14.35508752165993
 21
-142.0853702004518
 31
0.0
  0
LINE
  5
30C
330
1F
100
AcDbEntity
  8
0
  6
CONTINUOUS
 62
     7
100
AcDbLine
 10
117.77848269266
 20
-132.4297871490518
 30
0.0
 11
118.00553559266
 21
-132.3641140490518
 31
0.0
  0
LINE
  5
30D
330
1F
100
AcDbEntity
  8
0
  6
CONTINUOUS
 62
     7
100
AcDbLine
 10
117.84728599266
 20
-130.7940552290518
 30
0.0
 11
117.9429519826599
 21
-130.7294162490518
 31
0.0
  0
LINE
  5
30E
330
1F
100
AcDbEntity
  8
0
  6
CONTINUOUS
 62
     7
100
AcDbLine
 10
118.3894363626599
 20
-130.2085836990518
 30
0.0
 11
118.4389811326599
 21
-130.1032201290518
 31
0.0
  0
LINE
  5
30F
330
1F
100
AcDbEntity
  8
0
  6
CONTINUOUS
 62
     7
100
AcDbLine
 10
117.54440439266
 20
-132.4776506190518
 30
0.0
 11
117.77848269266
 21
-132.4297871490518
 31
0.0
  0
LINE
  5
310
330
1F
100
AcDbEntity
  8
0
  6
CONTINUOUS
 62
     7
100
AcDbLine
 10
43.12219598265995
 20
-251.9066501790518
 30
0.0
 11
42.12311829265997
 21
-251.9066501790518
 31
0.0
  0
LINE
  5
311
330
1F
100
AcDbEntity
  8
0
  6
CONTINUOUS
 62
     7
100
AcDbLine
 10
118.8613320826599
 20
-127.4522844990518
 30
0.0
 11
118.75478996266
 21
-127.6966895390518
 31
0.0
  0
LINE
  5
312
330
1F
100
AcDbEntity
  8
0
  6
CONTINUOUS
 62
     7
100
AcDbLine
 10
92.22944830265999
 20
-129.5243700790518
 30
0.0
 11
90.28124680265995
 21
-129.5243700790518
 31
0.0
  0
LINE
  5
313
330
1F
100
AcDbEntity
  8
0
  6
CONTINUOUS
 62
     7
100
AcDbLine
 10
119.3335161126599
 20
-131.4704649990518
 30
0.0
 11
119.4766464826599
 21
-131.2900572990518
 31
0.0
  0
LINE
  5
314
330
1F
100
AcDbEntity
  8
0
  6
CONTINUOUS
 62
     7
100
AcDbLine
 10
119.60582163266
 20
-131.0987755890518
 30
0.0
 11
119.72027157266
 21
-130.8973904890518
 31
0.0
  0
LINE
  5
315
330
1F
100
AcDbEntity
  8
0
  6
CONTINUOUS
 62
     7
100
AcDbLine
 10
118.5568680026599
 20
-128.7703247990518
 30
0.0
 11
118.5568680026599
 21
-129.5200637090518
 31
0.0
  0
LINE
  5
316
330
1F
100
AcDbEntity
  8
0
  6
CONTINUOUS
 62
     7
100
AcDbLine
 10
119.17720050266
 20
-131.6392280690518
 30
0.0
 11
119.3335161126599
 21
-131.4704649990518
 31
0.0
  0
LINE
  5
317
330
1F
100
AcDbEntity
  8
0
  6
CONTINUOUS
 62
     7
100
AcDbLine
 10
120.0446940626599
 20
-129.7658860190518
 30
0.0
 11
120.0546232626599
 21
-129.5200637090518
 31
0.0
  0
LINE
  5
318
330
1F
100
AcDbEntity
  8
0
  6
CONTINUOUS
 62
     7
100
AcDbLine
 10
124.5102194307599
 20
-138.6112396209518
 30
0.0
 11
124.71510888076
 21
-138.6112396209518
 31
0.0
  0
LINE
  5
319
330
1F
100
AcDbEntity
  8
0
  6
CONTINUOUS
 62
     7
100
AcDbLine
 10
120.11748926266
 20
-126.1391274390518
 30
0.0
 11
119.8914020526599
 21
-126.2760606790518
 31
0.0
  0
LINE
  5
31A
330
1F
100
AcDbEntity
  8
0
  6
CONTINUOUS
 62
     7
100
AcDbLine
 10
11.49782115525994
 20
-142.2665698106518
 30
0.0
 11
12.25782169885997
 21
-142.2665696200518
 31
0.0
  0
LINE
  5
31B
330
1F
100
AcDbEntity
  8
0
  6
CONTINUOUS
 62
     7
100
AcDbLine
 10
13.89782117605995
 20
-140.6415706154518
 30
0.0
 11
13.99782100625993
 21
-140.4987131830518
 31
0.0
  0
LINE
  5
31C
330
1F
100
AcDbEntity
  8
0
  6
CONTINUOUS
 62
     7
100
AcDbLine
 10
13.19782236525992
 20
-134.2915711578518
 30
0.0
 11
12.84782202845997
 21
-134.7915684458519
 31
0.0
  0
LINE
  5
31D
330
1F
100
AcDbEntity
  8
0
  6
CONTINUOUS
 62
     7
100
AcDbLine
 10
16.29782170065994
 20
-250.4665697690518
 30
0.0
 11
16.29782170065994
 21
-124.4665687558518
 31
0.0
  0
LINE
  5
31E
330
1F
100
AcDbEntity
  8
0
  6
CONTINUOUS
 62
     7
100
AcDbLine
 10
1.997820901859939
 20
-201.4665702012518
 30
0.0
 11
0.9978226006599584
 21
-201.4665702012518
 31
0.0
  0
LINE
  5
31F
330
1F
100
AcDbEntity
  8
0
  6
CONTINUOUS
 62
     7
100
AcDbLine
 10
-0.0020974695400469
 20
-184.5415698484518
 30
0.0
 11
-0.0020974695400469
 21
-187.3915697654518
 31
0.0
  0
LINE
  5
320
330
1F
100
AcDbEntity
  8
0
  6
CONTINUOUS
 62
     7
100
AcDbLine
 10
0.9978226006599584
 20
-198.5415700476518
 30
0.0
 11
0.9978226006599584
 21
-198.4665697094518
 31
0.0
  0
LINE
  5
321
330
1F
100
AcDbEntity
  8
0
  6
CONTINUOUS
 62
     7
100
AcDbLine
 10
-2.002179753740052
 20
-247.0695083614518
 30
0.0
 11
0.9903012396599706
 21
-247.0695083614518
 31
0.0
  0
LINE
  5
322
330
1F
100
AcDbEntity
  8
0
  6
CONTINUOUS
 62
     7
100
AcDbLine
 10
6.163179743459921
 20
-211.6595064874518
 30
0.0
 11
16.29782082445996
 21
-211.6595064874518
 31
0.0
  0
LINE
  5
323
330
1F
100
AcDbEntity
  8
0
  6
CONTINUOUS
 62
     7
100
AcDbLine
 10
15.79782167395996
 20
-137.4665690239518
 30
0.0
 11
15.79782167395996
 21
-132.3665683743518
 31
0.0
  0
LINE
  5
324
330
1F
100
AcDbEntity
  8
0
  6
CONTINUOUS
 62
     7
100
AcDbLine
 10
120.0801752226599
 20
-128.4935884190518
 30
0.0
 11
120.06110767266
 21
-128.6301372390518
 31
0.0
  0
LINE
  5
325
330
1F
100
AcDbEntity
  8
0
  6
CONTINUOUS
 62
     7
100
AcDbLine
 10
81.03977816265996
 20
-135.6290792790518
 30
0.0
 11
79.88997754265995
 21
-135.6290792790518
 31
0.0
  0
LINE
  5
326
330
1F
100
AcDbEntity
  8
0
  6
CONTINUOUS
 62
     7
100
AcDbLine
 10
125.29782170076
 20
-138.6112396209518
 30
0.0
 11
125.29782170076
 21
-249.9089250009519
 31
0.0
  0
LINE
  5
327
330
1F
100
AcDbEntity
  8
0
  6
CONTINUOUS
 62
     7
100
AcDbLine
 10
120.06110767266
 20
-128.6301372390518
 30
0.0
 11
120.0546232626599
 21
-128.7703247990518
 31
0.0
  0
LINE
  5
328
330
1F
100
AcDbEntity
  8
0
  6
CONTINUOUS
 62
     7
100
AcDbLine
 10
81.03977816265996
 20
-130.3244934990518
 30
0.0
 11
79.88997754265995
 21
-130.3244934990518
 31
0.0
  0
LINE
  5
329
330
1F
100
AcDbEntity
  8
0
  6
CONTINUOUS
 62
     7
100
AcDbLine
 10
119.1348447826599
 20
-127.0003311990518
 30
0.0
 11
118.98840013266
 21
-127.2197816190518
 31
0.0
  0
LINE
  5
32A
330
1F
100
AcDbEntity
  8
0
  6
CONTINUOUS
 62
     7
100
AcDbLine
 10
118.6368420126599
 20
-132.0679431790518
 30
0.0
 11
118.8280934726599
 21
-131.9387377790518
 31
0.0
  0
LINE
  5
32B
330
1F
100
AcDbEntity
  8
0
  6
CONTINUOUS
 62
     7
100
AcDbLine
 10
90.28124680265995
 20
-129.5243700790518
 30
0.0
 11
90.28124680265995
 21
-130.3244934990518
 31
0.0
  0
LINE
  5
32C
330
1F
100
AcDbEntity
  8
0
  6
CONTINUOUS
 62
     7
100
AcDbLine
 10
109.46440018076
 20
-126.2440488909518
 30
0.0
 11
109.46440018076
 21
-126.4173641009518
 31
0.0
  0
LINE
  5
32D
330
1F
100
AcDbEntity
  8
0
  6
CONTINUOUS
 62
     7
100
AcDbLine
 10
119.1563146126599
 20
-250.5434326290518
 30
0.0
 11
119.1563146126599
 21
-250.9183045490518
 31
0.0
  0
LINE
  5
32E
330
1F
100
AcDbEntity
  8
0
  6
CONTINUOUS
 62
     7
100
AcDbLine
 10
119.30657425266
 20
-247.9088442790518
 30
0.0
 11
119.2541719326599
 21
-248.0152924790518
 31
0.0
  0
LINE
  5
32F
330
1F
100
AcDbEntity
  8
0
  6
CONTINUOUS
 62
     7
100
AcDbLine
 10
117.05825146266
 20
-132.5168661390518
 30
0.0
 11
117.3040706526599
 21
-132.5069338190518
 31
0.0
  0
LINE
  5
330
330
1F
100
AcDbEntity
  8
0
  6
CONTINUOUS
 62
     7
100
AcDbLine
 10
120.6553389926599
 20
-247.2867064190518
 30
0.0
 11
120.45505533266
 21
-247.2902362290518
 31
0.0
  0
LINE
  5
331
330
1F
100
AcDbEntity
  8
0
  6
CONTINUOUS
 62
     7
100
AcDbLine
 10
118.6078809626599
 20
-128.2166047890518
 30
0.0
 11
118.56981280266
 21
-128.4898143590518
 31
0.0
  0
LINE
  5
332
330
1F
100
AcDbEntity
  8
0
  6
CONTINUOUS
 62
     7
100
AcDbLine
 10
123.80822781266
 20
-126.7950835790518
 30
0.0
 11
123.6263695126599
 21
-126.6051890790518
 31
0.0
  0
LINE
  5
333
330
1F
100
AcDbEntity
  8
0
  6
CONTINUOUS
 62
     7
100
AcDbLine
 10
8.597820866259951
 20
-206.8915689018518
 30
0.0
 11
16.29782082445996
 21
-206.8915689018518
 31
0.0
  0
LINE
  5
334
330
1F
100
AcDbEntity
  8
0
  6
CONTINUOUS
 62
     7
100
AcDbLine
 10
1.997820901859939
 20
-190.9665698770518
 30
0.0
 11
0.9978226006599584
 21
-190.9665698770518
 31
0.0
  0
LINE
  5
335
330
1F
100
AcDbEntity
  8
0
  6
CONTINUOUS
 62
     7
100
AcDbLine
 10
1.997820901859939
 20
-184.5415698484518
 30
0.0
 11
0.1979021908599634
 21
-184.5415698484518
 31
0.0
  0
LINE
  5
336
330
1F
100
AcDbEntity
  8
0
  6
CONTINUOUS
 62
     7
100
AcDbLine
 10
-0.0020974695400469
 20
-194.3915696468518
 30
0.0
 11
0.1979021908599634
 21
-194.3915696468518
 31
0.0
  0
LINE
  5
337
330
1F
100
AcDbEntity
  8
0
  6
CONTINUOUS
 62
     7
100
AcDbLine
 10
-2.002179753740052
 20
-222.7695067998519
 30
0.0
 11
-1.994658392540032
 21
-222.7695067998519
 31
0.0
  0
LINE
  5
338
330
1F
100
AcDbEntity
  8
0
  6
CONTINUOUS
 62
     7
100
AcDbLine
 10
6.163179743459921
 20
-248.8595067732518
 30
0.0
 11
1.96317942745992
 21
-248.8595067732518
 31
0.0
  0
LINE
  5
339
330
1F
100
AcDbEntity
  8
0
  6
CONTINUOUS
 62
     7
100
AcDbLine
 10
0.9978226006599584
 20
-219.5695085104518
 30
0.0
 11
0.5903019190599252
 21
-219.5695085104518
 31
0.0
  0
LINE
  5
33A
330
1F
100
AcDbEntity
  8
0
  6
CONTINUOUS
 62
     7
100
AcDbLine
 10
14.35508752175997
 20
-135.1571684355518
 30
0.0
 11
13.99782100625993
 21
-134.0024700040518
 31
0.0
  0
LINE
  5
33B
330
1F
100
AcDbEntity
  8
0
  6
CONTINUOUS
 62
     7
100
AcDbLine
 10
120.0546232626599
 20
-128.7703247990518
 30
0.0
 11
120.0546232626599
 21
-129.5200637090518
 31
0.0
  0
LINE
  5
33C
330
1F
100
AcDbEntity
  8
0
  6
CONTINUOUS
 62
     7
100
AcDbLine
 10
37.22936015265992
 20
-130.5191413990518
 30
0.0
 11
37.22936015265992
 21
-140.5099182990518
 31
0.0
  0
LINE
  5
33D
330
1F
100
AcDbEntity
  8
0
  6
CONTINUOUS
 62
     7
100
AcDbLine
 10
123.9729990726599
 20
-127.0003311990518
 30
0.0
 11
123.80822781266
 21
-126.7950835790518
 31
0.0
  0
LINE
  5
33E
330
1F
100
AcDbEntity
  8
0
  6
CONTINUOUS
 62
     7
100
AcDbLine
 10
121.4827609726599
 20
-127.2737699990518
 30
0.0
 11
121.34437059266
 21
-127.2866027290519
 31
0.0
  0
LINE
  5
33F
330
1F
100
AcDbEntity
  8
0
  6
CONTINUOUS
 62
     7
100
AcDbLine
 10
78.89089985265997
 20
-129.5243700790518
 30
0.0
 11
76.94269836265994
 21
-129.5243700790518
 31
0.0
  0
LINE
  5
340
330
1F
100
AcDbEntity
  8
0
  6
CONTINUOUS
 62
     7
100
AcDbLine
 10
122.98977565266
 20
-126.1391274390518
 30
0.0
 11
122.75107244266
 21
-126.0221485890518
 31
0.0
  0
LINE
  5
341
330
1F
100
AcDbEntity
  8
0
  6
CONTINUOUS
 62
     7
100
AcDbLine
 10
121.0537009526599
 20
-138.6013354090518
 30
0.0
 11
121.0537009526599
 21
-138.1121318490518
 31
0.0
  0
LINE
  5
342
330
1F
100
AcDbEntity
  8
0
  6
CONTINUOUS
 62
     7
100
AcDbLine
 10
124.11953298266
 20
-127.2197816190518
 30
0.0
 11
123.9729990726599
 21
-127.0003311990518
 31
0.0
  0
LINE
  5
343
330
1F
100
AcDbEntity
  8
0
  6
CONTINUOUS
 62
     7
100
AcDbLine
 10
121.6654383026599
 20
-247.2689044090518
 30
0.0
 11
121.27541223246
 21
-247.2757782390518
 31
0.0
  0
LINE
  5
344
330
1F
100
AcDbEntity
  8
0
  6
CONTINUOUS
 62
     7
100
AcDbLine
 10
124.50028871266
 20
-128.2166047890518
 30
0.0
 11
124.4382074126599
 21
-127.9518464090518
 31
0.0
  0
LINE
  5
345
330
1F
100
AcDbEntity
  8
0
  6
CONTINUOUS
 62
     7
100
AcDbLine
 10
118.2674799826599
 20
-130.4049502590518
 30
0.0
 11
118.33214011266
 21
-130.3092892690518
 31
0.0
  0
LINE
  5
346
330
1F
100
AcDbEntity
  8
0
  6
CONTINUOUS
 62
     7
100
AcDbLine
 10
121.5938530707599
 20
-138.6112396209518
 30
0.0
 11
121.70839038076
 21
-138.6112396209518
 31
0.0
  0
LINE
  5
347
330
1F
100
AcDbEntity
  8
0
  6
CONTINUOUS
 62
     7
100
AcDbLine
 10
117.7465815426599
 20
-130.8513299890518
 30
0.0
 11
117.84728599266
 21
-130.7940552290518
 31
0.0
  0
LINE
  5
348
330
1F
100
AcDbEntity
  8
0
  6
CONTINUOUS
 62
     7
100
AcDbLine
 10
39.62800788265997
 20
-130.5191413990518
 30
0.0
 11
37.22936015265992
 21
-130.5191413990518
 31
0.0
  0
LINE
  5
349
330
1F
100
AcDbEntity
  8
0
  6
CONTINUOUS
 62
     7
100
AcDbLine
 10
123.0271942526599
 20
-128.4935884190518
 30
0.0
 11
122.9961520726599
 21
-128.3612544690518
 31
0.0
  0
LINE
  5
34A
330
1F
100
AcDbEntity
  8
0
  6
CONTINUOUS
 62
     7
100
AcDbLine
 10
13.89782117605995
 20
-134.2915711578518
 30
0.0
 11
13.54782083945992
 21
-134.7915684458519
 31
0.0
  0
LINE
  5
34B
330
1F
100
AcDbEntity
  8
0
  6
CONTINUOUS
 62
     7
100
AcDbLine
 10
123.05271760266
 20
-133.9943814690518
 30
0.0
 11
119.5559456876599
 21
-137.4911533840518
 31
0.0
  0
LINE
  5
34C
330
1F
100
AcDbEntity
  8
0
  6
CONTINUOUS
 62
     7
100
AcDbLine
 10
0.9978226006599584
 20
-198.4665697094518
 30
0.0
 11
0.9978226006599584
 21
-197.9665696274518
 31
0.0
  0
LINE
  5
34D
330
1F
100
AcDbEntity
  8
0
  6
CONTINUOUS
 62
     7
100
AcDbLine
 10
-0.0020974695400469
 20
-188.0415697818518
 30
0.0
 11
-0.0020974695400469
 21
-190.8915697716518
 31
0.0
  0
LINE
  5
34E
330
1F
100
AcDbEntity
  8
0
  6
CONTINUOUS
 62
     7
100
AcDbLine
 10
0.9978226006599584
 20
-188.0415697818518
 30
0.0
 11
0.9978226006599584
 21
-187.9665697928518
 31
0.0
  0
LINE
  5
34F
330
1F
100
AcDbEntity
  8
0
  6
CONTINUOUS
 62
     7
100
AcDbLine
 10
0.5903019190599252
 20
-235.5695074078518
 30
0.0
 11
-0.5096980749400473
 21
-235.5695074078518
 31
0.0
  0
LINE
  5
350
330
1F
100
AcDbEntity
  8
0
  6
CONTINUOUS
 62
     7
100
AcDbLine
 10
-2.002179753740052
 20
-213.2695061740519
 30
0.0
 11
-2.002178299340073
 21
-211.8595067732518
 31
0.0
  0
LINE
  5
351
330
1F
100
AcDbEntity
  8
0
  6
CONTINUOUS
 62
     7
100
AcDbLine
 10
5.497820916859951
 20
-142.4665702160518
 30
0.0
 11
11.49782115525994
 21
-142.4665702160518
 31
0.0
  0
LINE
  5
352
330
1F
100
AcDbEntity
  8
0
  6
CONTINUOUS
 62
     7
100
AcDbLine
 10
15.44055702115992
 20
-132.8477678473518
 30
0.0
 11
15.79782167395996
 21
-134.0024700041518
 31
0.0
  0
LINE
  5
353
330
1F
100
AcDbEntity
  8
0
  6
CONTINUOUS
 62
     7
100
AcDbLine
 10
124.5383810626599
 20
-128.4898143590518
 30
0.0
 11
124.50028871266
 21
-128.2166047890518
 31
0.0
  0
LINE
  5
354
330
1F
100
AcDbEntity
  8
0
  6
CONTINUOUS
 62
     7
100
AcDbLine
 10
113.66319515076
 20
-135.6818893609518
 30
0.0
 11
114.60873538076
 21
-136.4189772609518
 31
0.0
  0
LINE
  5
355
330
1F
100
AcDbEntity
  8
0
  6
CONTINUOUS
 62
     7
100
AcDbLine
 10
88.13322977265994
 20
-130.3244934990518
 30
0.0
 11
88.13322977265994
 21
-140.7049968390518
 31
0.0
  0
LINE
  5
356
330
1F
100
AcDbEntity
  8
0
  6
CONTINUOUS
 62
     7
100
AcDbLine
 10
118.56981280266
 20
-128.4898143590518
 30
0.0
 11
118.5568680026599
 21
-128.7703247990518
 31
0.0
  0
LINE
  5
357
330
1F
100
AcDbEntity
  8
0
  6
CONTINUOUS
 62
     7
100
AcDbLine
 10
122.11543134076
 20
-138.6112396209518
 30
0.0
 11
122.3860314407599
 21
-138.6112396209518
 31
0.0
  0
LINE
  5
358
330
1F
100
AcDbEntity
  8
0
  6
CONTINUOUS
 62
     7
100
AcDbLine
 10
89.28216911265997
 20
-141.5038283490518
 30
0.0
 11
87.33396761265993
 21
-141.5038283490518
 31
0.0
  0
LINE
  5
359
330
1F
100
AcDbEntity
  8
0
  6
CONTINUOUS
 62
     7
100
AcDbLine
 10
119.70450469266
 20
-247.4834271490518
 30
0.0
 11
119.60891003266
 21
-247.5521210690519
 31
0.0
  0
LINE
  5
35A
330
1F
100
AcDbEntity
  8
0
  6
CONTINUOUS
 62
     7
100
AcDbLine
 10
122.4532709926599
 20
-251.4075419690518
 30
0.0
 11
121.45333203266
 21
-251.4075419690518
 31
0.0
  0
LINE
  5
35B
330
1F
100
AcDbEntity
  8
0
  6
CONTINUOUS
 62
     7
100
AcDbLine
 10
89.28216911265997
 20
-140.7049968390518
 30
0.0
 11
88.13322977265994
 21
-140.7049968390518
 31
0.0
  0
LINE
  5
35C
330
1F
100
AcDbEntity
  8
0
  6
CONTINUOUS
 62
     7
100
AcDbLine
 10
123.05271760266
 20
-128.7703247990518
 30
0.0
 11
123.05271760266
 21
-133.9943814690518
 31
0.0
  0
LINE
  5
35D
330
1F
100
AcDbEntity
  8
0
  6
CONTINUOUS
 62
     7
100
AcDbLine
 10
99.67257709265994
 20
-140.7049968390518
 30
0.0
 11
98.52363775265997
 21
-140.7049968390518
 31
0.0
  0
LINE
  5
35E
330
1F
100
AcDbEntity
  8
0
  6
CONTINUOUS
 62
     7
100
AcDbLine
 10
117.05825146266
 20
-131.0186802390518
 30
0.0
 11
110.33170252266
 21
-131.0186802390518
 31
0.0
  0
LINE
  5
35F
330
1F
100
AcDbEntity
  8
0
  6
CONTINUOUS
 62
     7
100
AcDbLine
 10
116.70815767076
 20
-137.6012682009518
 30
0.0
 11
117.8486733507599
 21
-138.0331090309518
 31
0.0
  0
LINE
  5
360
330
1F
100
AcDbEntity
  8
0
  6
CONTINUOUS
 62
     7
100
AcDbLine
 10
119.96757043266
 20
-130.2403210990518
 30
0.0
 11
120.0154197926599
 21
-130.0062286890518
 31
0.0
  0
LINE
  5
361
330
1F
100
AcDbEntity
  8
0
  6
CONTINUOUS
 62
     7
100
AcDbLine
 10
76.94269836265994
 20
-129.5243700790518
 30
0.0
 11
76.94269836265994
 21
-136.4283414290518
 31
0.0
  0
LINE
  5
362
330
1F
100
AcDbEntity
  8
0
  6
CONTINUOUS
 62
     7
100
AcDbLine
 10
121.0798836726599
 20
-127.3485338890519
 30
0.0
 11
120.9549442226599
 21
-127.3964800790518
 31
0.0
  0
LINE
  5
363
330
1F
100
AcDbEntity
  8
0
  6
CONTINUOUS
 62
     7
100
AcDbLine
 10
119.8068352826599
 20
-247.4242157590518
 30
0.0
 11
119.70450469266
 21
-247.4834271490518
 31
0.0
  0
LINE
  5
364
330
1F
100
AcDbEntity
  8
0
  6
CONTINUOUS
 62
     7
100
AcDbLine
 10
13.99782100625993
 20
-134.4344285902518
 30
0.0
 11
13.89782117605995
 21
-134.2915711578518
 31
0.0
  0
LINE
  5
365
330
1F
100
AcDbEntity
  8
0
  6
CONTINUOUS
 62
     7
100
AcDbLine
 10
117.8486733507599
 20
-138.0331090309518
 30
0.0
 11
119.04081447076
 21
-138.3498386209518
 31
0.0
  0
LINE
  5
366
330
1F
100
AcDbEntity
  8
0
  6
CONTINUOUS
 62
     7
100
AcDbLine
 10
8.597820866259951
 20
-179.0415696454518
 30
0.0
 11
16.29782082445996
 21
-179.0415696454518
 31
0.0
  0
LINE
  5
367
330
1F
100
AcDbEntity
  8
0
  6
CONTINUOUS
 62
     7
100
AcDbLine
 10
1.997820901859939
 20
-194.4665699850518
 30
0.0
 11
0.9978226006599584
 21
-194.4665699850518
 31
0.0
  0
LINE
  5
368
330
1F
100
AcDbEntity
  8
0
  6
CONTINUOUS
 62
     7
100
AcDbLine
 10
-0.0020974695400469
 20
-198.5415700476518
 30
0.0
 11
0.1979021908599634
 21
-198.5415700476518
 31
0.0
  0
LINE
  5
369
330
1F
100
AcDbEntity
  8
0
  6
CONTINUOUS
 62
     7
100
AcDbLine
 10
0.9978226006599584
 20
-194.4665699850518
 30
0.0
 11
0.9978226006599584
 21
-194.3915696468518
 31
0.0
  0
LINE
  5
36A
330
1F
100
AcDbEntity
  8
0
  6
CONTINUOUS
 62
     7
100
AcDbLine
 10
-0.1021773933400709
 20
-244.0695060070518
 30
0.0
 11
-0.5096980749400473
 21
-244.0695060070518
 31
0.0
  0
LINE
  5
36B
330
1F
100
AcDbEntity
  8
0
  6
CONTINUOUS
 62
     7
100
AcDbLine
 10
0.9978226006599584
 20
-241.7695080516518
 30
0.0
 11
-0.5021767139400595
 21
-241.7695080516518
 31
0.0
  0
LINE
  5
36C
330
1F
100
AcDbEntity
  8
0
  6
CONTINUOUS
 62
     7
100
AcDbLine
 10
5.497820916859951
 20
-142.4665702160518
 30
0.0
 11
5.497820916859951
 21
-132.4665690240518
 31
0.0
  0
LINE
  5
36D
330
1F
100
AcDbEntity
  8
0
  6
CONTINUOUS
 62
     7
100
AcDbLine
 10
109.8693876807599
 20
-129.6370779409518
 30
0.0
 11
110.2445308407599
 21
-130.8042700109518
 31
0.0
  0
LINE
  5
36E
330
1F
100
AcDbEntity
  8
0
  6
CONTINUOUS
 62
     7
100
AcDbLine
 10
91.42932487265989
 20
-130.3244934990518
 30
0.0
 11
91.42932487265989
 21
-140.7049968390518
 31
0.0
  0
LINE
  5
36F
330
1F
100
AcDbEntity
  8
0
  6
CONTINUOUS
 62
     7
100
AcDbLine
 10
124.1878962526599
 20
-247.2244485590518
 30
0.0
 11
123.8201928226599
 21
-247.2309289690518
 31
0.0
  0
LINE
  5
370
330
1F
100
AcDbEntity
  8
0
  6
CONTINUOUS
 62
     7
100
AcDbLine
 10
109.46440018076
 20
-125.0034768409518
 30
0.0
 11
109.46440018076
 21
-125.3699607109518
 31
0.0
  0
LINE
  5
371
330
1F
100
AcDbEntity
  8
0
  6
CONTINUOUS
 62
     7
100
AcDbLine
 10
87.33396761265993
 20
-129.5243700790518
 30
0.0
 11
87.33396761265993
 21
-141.5038283490518
 31
0.0
  0
LINE
  5
372
330
1F
100
AcDbEntity
  8
0
  6
CONTINUOUS
 62
     7
100
AcDbLine
 10
121.76249716266
 20
-127.2866027290519
 30
0.0
 11
121.62386001266
 21
-127.2737699990518
 31
0.0
  0
LINE
  5
373
330
1F
100
AcDbEntity
  8
0
  6
CONTINUOUS
 62
     7
100
AcDbLine
 10
123.4285745126599
 20
-126.4317979990518
 30
0.0
 11
123.2159931126599
 21
-126.2760606790518
 31
0.0
  0
LINE
  5
374
330
1F
100
AcDbEntity
  8
0
  6
CONTINUOUS
 62
     7
100
AcDbLine
 10
119.1816245226599
 20
-248.2444024890518
 30
0.0
 11
119.1627477826599
 21
-248.3657765090518
 31
0.0
  0
LINE
  5
375
330
1F
100
AcDbEntity
  8
0
  6
CONTINUOUS
 62
     7
100
AcDbLine
 10
119.8192263426599
 20
-130.6866726190518
 30
0.0
 11
119.9019159626599
 21
-130.4673926190519
 31
0.0
  0
LINE
  5
376
330
1F
100
AcDbEntity
  8
0
  6
CONTINUOUS
 62
     7
100
AcDbLine
 10
117.18104758266
 20
-131.0137094490518
 30
0.0
 11
117.30113069266
 21
-130.9990548290518
 31
0.0
  0
LINE
  5
377
330
1F
100
AcDbEntity
  8
0
  6
CONTINUOUS
 62
     7
100
AcDbLine
 10
119.72027157266
 20
-130.8973904890518
 30
0.0
 11
119.8192263426599
 21
-130.6866726190518
 31
0.0
  0
LINE
  5
378
330
1F
100
AcDbEntity
  8
0
  6
CONTINUOUS
 62
     7
100
AcDbLine
 10
90.28124680265995
 20
-140.7049968390518
 30
0.0
 11
90.28124680265995
 21
-141.5038283490518
 31
0.0
  0
LINE
  5
379
330
1F
100
AcDbEntity
  8
0
  6
CONTINUOUS
 62
     7
100
AcDbLine
 10
78.89089985265997
 20
-136.4283414290518
 30
0.0
 11
76.94269836265994
 21
-136.4283414290518
 31
0.0
  0
LINE
  5
37A
330
1F
100
AcDbEntity
  8
0
  6
CONTINUOUS
 62
     7
100
AcDbLine
 10
120.2778978307599
 20
-138.5447758509519
 30
0.0
 11
121.5532402307599
 21
-138.6112396209518
 31
0.0
  0
LINE
  5
37B
330
1F
100
AcDbEntity
  8
0
  6
CONTINUOUS
 62
     7
100
AcDbLine
 10
13.99782100625993
 20
-141.4665696794519
 30
0.0
 11
14.35508752165993
 21
-142.0853702004518
 31
0.0
  0
LINE
  5
37C
330
1F
100
AcDbEntity
  8
0
  6
CONTINUOUS
 62
     7
100
AcDbLine
 10
117.05825146266
 20
-131.0186802390518
 30
0.0
 11
117.18104758266
 21
-131.0137094490518
 31
0.0
  0
LINE
  5
37D
330
1F
100
AcDbEntity
  8
0
  6
CONTINUOUS
 62
     7
100
AcDbLine
 10
0.9978226006599584
 20
-187.9665697928518
 30
0.0
 11
0.9978226006599584
 21
-187.4665697690518
 31
0.0
  0
LINE
  5
37E
330
1F
100
AcDbEntity
  8
0
  6
CONTINUOUS
 62
     7
100
AcDbLine
 10
0.1979021908599634
 20
-190.8915697716518
 30
0.0
 11
1.997820901859939
 21
-190.8915697716518
 31
0.0
  0
LINE
  5
37F
330
1F
100
AcDbEntity
  8
0
  6
CONTINUOUS
 62
     7
100
AcDbLine
 10
1.997820901859939
 20
-191.5415698316518
 30
0.0
 11
0.1979021908599634
 21
-191.5415698316518
 31
0.0
  0
LINE
  5
380
330
1F
100
AcDbEntity
  8
0
  6
CONTINUOUS
 62
     7
100
AcDbLine
 10
-0.0020974695400469
 20
-195.0415699396518
 30
0.0
 11
0.1979021908599634
 21
-195.0415699396518
 31
0.0
  0
LINE
  5
381
330
1F
100
AcDbEntity
  8
0
  6
CONTINUOUS
 62
     7
100
AcDbLine
 10
0.9903012396599706
 20
-213.4695076968518
 30
0.0
 11
0.9903012396599706
 21
-214.9695070114518
 31
0.0
  0
LINE
  5
382
330
1F
100
AcDbEntity
  8
0
  6
CONTINUOUS
 62
     7
100
AcDbLine
 10
-1.802178299340028
 20
-211.6595067732518
 30
0.0
 11
1.963178950659938
 21
-211.6595067732518
 31
0.0
  0
LINE
  5
383
330
1F
100
AcDbEntity
  8
0
  6
CONTINUOUS
 62
     7
100
AcDbLine
 10
12.49782169885992
 20
-137.4665690240518
 30
0.0
 11
12.49782169885992
 21
-142.0265696200518
 31
0.0
  0
LINE
  5
384
330
1F
100
AcDbEntity
  8
0
  6
CONTINUOUS
 62
     7
100
AcDbLine
 10
14.35508752165993
 20
-142.0853702004518
 30
0.0
 11
13.99782100625993
 21
-140.9306717688518
 31
0.0
  0
LINE
  5
385
330
1F
100
AcDbEntity
  8
0
  6
CONTINUOUS
 62
     7
100
AcDbLine
 10
119.4766464826599
 20
-131.2900572990518
 30
0.0
 11
119.60582163266
 21
-131.0987755890518
 31
0.0
  0
LINE
  5
386
330
1F
100
AcDbEntity
  8
0
  6
CONTINUOUS
 62
     7
100
AcDbLine
 10
122.6867489307599
 20
-138.6112396209518
 30
0.0
 11
123.00663201076
 21
-138.6112396209518
 31
0.0
  0
LINE
  5
387
330
1F
100
AcDbEntity
  8
0
  6
CONTINUOUS
 62
     7
100
AcDbLine
 10
89.28216911265997
 20
-140.7049968390518
 30
0.0
 11
89.28216911265997
 21
-141.5038283490518
 31
0.0
  0
LINE
  5
388
330
1F
100
AcDbEntity
  8
0
  6
CONTINUOUS
 62
     7
100
AcDbLine
 10
109.46440018076
 20
-126.4173641009518
 30
0.0
 11
109.46440018076
 21
-126.5101923709518
 31
0.0
  0
LINE
  5
389
330
1F
100
AcDbEntity
  8
0
  6
CONTINUOUS
 62
     7
100
AcDbLine
 10
119.1563146126599
 20
-250.9183045490518
 30
0.0
 11
119.1563146126599
 21
-251.2774034490518
 31
0.0
  0
LINE
  5
38A
330
1F
100
AcDbEntity
  8
0
  6
CONTINUOUS
 62
     7
100
AcDbLine
 10
111.32345643076
 20
-132.9670292809518
 30
0.0
 11
112.0138724907599
 21
-133.9492342609518
 31
0.0
  0
LINE
  5
38B
330
1F
100
AcDbEntity
  8
0
  6
CONTINUOUS
 62
     7
100
AcDbLine
 10
121.62386001266
 20
-127.2737699990518
 30
0.0
 11
121.4827609726599
 21
-127.2737699990518
 31
0.0
  0
LINE
  5
38C
330
1F
100
AcDbEntity
  8
0
  6
CONTINUOUS
 62
     7
100
AcDbLine
 10
117.05825146266
 20
-132.5168661390518
 30
0.0
 11
111.0551725826599
 21
-132.5168661390518
 31
0.0
  0
LINE
  5
38D
330
1F
100
AcDbEntity
  8
0
  6
CONTINUOUS
 62
     7
100
AcDbLine
 10
112.0138724907599
 20
-133.9492342609518
 30
0.0
 11
112.79601312076
 21
-134.8564146509518
 31
0.0
  0
LINE
  5
38E
330
1F
100
AcDbEntity
  8
0
  6
CONTINUOUS
 62
     7
100
AcDbLine
 10
102.6207175626599
 20
-129.5243700790518
 30
0.0
 11
100.67251606266
 21
-129.5243700790518
 31
0.0
  0
LINE
  5
38F
330
1F
100
AcDbEntity
  8
0
  6
CONTINUOUS
 62
     7
100
AcDbLine
 10
122.95368913266
 20
-128.2337115090518
 30
0.0
 11
122.9003801026599
 21
-128.1115356590518
 31
0.0
  0
LINE
  5
390
330
1F
100
AcDbEntity
  8
0
  6
CONTINUOUS
 62
     7
100
AcDbLine
 10
119.67894464266
 20
-126.4317979990518
 30
0.0
 11
119.4812663826599
 21
-126.6051890790518
 31
0.0
  0
LINE
  5
391
330
1F
100
AcDbEntity
  8
0
  6
CONTINUOUS
 62
     7
100
AcDbLine
 10
119.1563146126599
 20
-248.5376312790518
 30
0.0
 11
119.1563146126599
 21
-248.6695988090518
 31
0.0
  0
LINE
  5
392
330
1F
100
AcDbEntity
  8
0
  6
CONTINUOUS
 62
     7
100
AcDbLine
 10
123.2159931126599
 20
-126.2760606790518
 30
0.0
 11
122.98977565266
 21
-126.1391274390518
 31
0.0
  0
LINE
  5
393
330
1F
100
AcDbEntity
  8
0
  6
CONTINUOUS
 62
     7
100
AcDbLine
 10
12.84782202845997
 20
-140.1415696022518
 30
0.0
 11
13.19782236525992
 21
-140.6415706154518
 31
0.0
  0
LINE
  5
394
330
1F
100
AcDbEntity
  8
0
  6
CONTINUOUS
 62
     7
100
AcDbLine
 10
16.29782082445996
 20
-183.8415698734518
 30
0.0
 11
1.997820901859939
 21
-183.8415698734518
 31
0.0
  0
LINE
  5
395
330
1F
100
AcDbEntity
  8
0
  6
CONTINUOUS
 62
     7
100
AcDbLine
 10
1.997820901859939
 20
-202.0915696052518
 30
0.0
 11
0.9978226006599584
 21
-202.0915696052518
 31
0.0
  0
LINE
  5
396
330
1F
100
AcDbEntity
  8
0
  6
CONTINUOUS
 62
     7
100
AcDbLine
 10
-0.0020974695400469
 20
-184.5415698484518
 30
0.0
 11
0.1979021908599634
 21
-184.5415698484518
 31
0.0
  0
LINE
  5
397
330
1F
100
AcDbEntity
  8
0
  6
CONTINUOUS
 62
     7
100
AcDbLine
 10
0.9978226006599584
 20
-184.5415698484518
 30
0.0
 11
0.9978226006599584
 21
-184.4665697430518
 31
0.0
  0
LINE
  5
398
330
1F
100
AcDbEntity
  8
0
  6
CONTINUOUS
 62
     7
100
AcDbLine
 10
-2.002179753740052
 20
-213.4695076968518
 30
0.0
 11
0.9903012396599706
 21
-213.4695076968518
 31
0.0
  0
LINE
  5
399
330
1F
100
AcDbEntity
  8
0
  6
CONTINUOUS
 62
     7
100
AcDbLine
 10
16.29782168945997
 20
-248.8595067732518
 30
0.0
 11
6.163179743459921
 21
-248.8595067732518
 31
0.0
  0
LINE
  5
39A
330
1F
100
AcDbEntity
  8
0
  6
CONTINUOUS
 62
     7
100
AcDbLine
 10
15.79782167395996
 20
-142.5665696737518
 30
0.0
 11
15.79782167395996
 21
-137.4665690239518
 31
0.0
  0
LINE
  5
39B
330
1F
100
AcDbEntity
  8
0
  6
CONTINUOUS
 62
     7
100
AcDbLine
 10
119.5206854726599
 20
-247.6296536490518
 30
0.0
 11
119.44046520266
 21
-247.7153809690518
 31
0.0
  0
LINE
  5
39C
330
1F
100
AcDbEntity
  8
0
  6
CONTINUOUS
 62
     7
100
AcDbLine
 10
122.27179951266
 20
-127.4549785090518
 30
0.0
 11
122.1524102226599
 21
-127.3964800790518
 31
0.0
  0
LINE
  5
39D
330
1F
100
AcDbEntity
  8
0
  6
CONTINUOUS
 62
     7
100
AcDbLine
 10
122.1524102226599
 20
-127.3964800790518
 30
0.0
 11
122.02734694266
 21
-127.3485338890519
 31
0.0
  0
LINE
  5
39E
330
1F
100
AcDbEntity
  8
0
  6
CONTINUOUS
 62
     7
100
AcDbLine
 10
119.1563146126599
 20
-251.2774034490518
 30
0.0
 11
119.1563146126599
 21
-251.6081109390518
 31
0.0
  0
LINE
  5
39F
330
1F
100
AcDbEntity
  8
0
  6
CONTINUOUS
 62
     7
100
AcDbLine
 10
109.46440018076
 20
-126.0031246409518
 30
0.0
 11
109.46440018076
 21
-126.2440488909518
 31
0.0
  0
LINE
  5
3A0
330
1F
100
AcDbEntity
  8
0
  6
CONTINUOUS
 62
     7
100
AcDbLine
 10
18.29782170075993
 20
-122.4665693309518
 30
0.0
 11
109.46440018076
 21
-122.4665693309518
 31
0.0
  0
LINE
  5
3A1
330
1F
100
AcDbEntity
  8
0
  6
CONTINUOUS
 62
     7
100
AcDbLine
 10
110.2445308407599
 20
-130.8042700109518
 30
0.0
 11
110.7314481507599
 21
-131.9164808209518
 31
0.0
  0
LINE
  5
3A2
330
1F
100
AcDbEntity
  8
0
  6
CONTINUOUS
 62
     7
100
AcDbLine
 10
122.75107244266
 20
-126.0221485890518
 30
0.0
 11
122.50103379266
 21
-125.9262744590518
 31
0.0
  0
LINE
  5
3A3
330
1F
100
AcDbEntity
  8
0
  6
CONTINUOUS
 62
     7
100
AcDbLine
 10
120.1112473726599
 20
-128.3612544690518
 30
0.0
 11
120.0801752226599
 21
-128.4935884190518
 31
0.0
  0
LINE
  5
3A4
330
1F
100
AcDbEntity
  8
0
  6
CONTINUOUS
 62
     7
100
AcDbLine
 10
99.67257709265994
 20
-130.3244934990518
 30
0.0
 11
98.52363775265997
 21
-130.3244934990518
 31
0.0
  0
LINE
  5
3A5
330
1F
100
AcDbEntity
  8
0
  6
CONTINUOUS
 62
     7
100
AcDbLine
 10
122.6811233026599
 20
-127.7829720890518
 30
0.0
 11
122.59017671266
 21
-127.6880259590518
 31
0.0
  0
LINE
  5
3A6
330
1F
100
AcDbEntity
  8
0
  6
CONTINUOUS
 62
     7
100
AcDbLine
 10
78.89089985265997
 20
-136.4283414290518
 30
0.0
 11
78.89089985265997
 21
-135.6290792790518
 31
0.0
  0
LINE
  5
3A7
330
1F
100
AcDbEntity
  8
0
  6
CONTINUOUS
 62
     7
100
AcDbLine
 10
117.9429519826599
 20
-130.7294162490518
 30
0.0
 11
118.03319195266
 21
-130.6577996490518
 31
0.0
  0
LINE
  5
3A8
330
1F
100
AcDbEntity
  8
0
  6
CONTINUOUS
 62
     7
100
AcDbLine
 10
78.89089985265997
 20
-135.6290792790518
 30
0.0
 11
77.74196051265994
 21
-135.6290792790518
 31
0.0
  0
LINE
  5
3A9
330
1F
100
AcDbEntity
  8
0
  6
CONTINUOUS
 62
     7
100
AcDbLine
 10
117.4181132226599
 20
-130.9751029590518
 30
0.0
 11
117.5316075826599
 21
-130.9422404590518
 31
0.0
  0
LINE
  5
3AA
330
1F
100
AcDbEntity
  8
0
  6
CONTINUOUS
 62
     7
100
AcDbLine
 10
15.44055702105993
 20
-142.0853702004518
 30
0.0
 11
15.79782166975997
 21
-141.4665696771518
 31
0.0
  0
LINE
  5
3AB
330
1F
100
AcDbEntity
  8
0
  6
CONTINUOUS
 62
     7
100
AcDbLine
 10
121.34437059266
 20
-127.2866027290519
 30
0.0
 11
121.2098853126599
 21
-127.3117160690518
 31
0.0
  0
LINE
  5
3AC
330
1F
100
AcDbEntity
  8
0
  6
CONTINUOUS
 62
     7
100
AcDbLine
 10
8.597820866259951
 20
-205.8915706006518
 30
0.0
 11
8.597820866259951
 21
-202.0915696052518
 31
0.0
  0
LINE
  5
3AD
330
1F
100
AcDbEntity
  8
0
  6
CONTINUOUS
 62
     7
100
AcDbLine
 10
0.9978226006599584
 20
-184.4665697430518
 30
0.0
 11
0.9978226006599584
 21
-183.8415698734518
 31
0.0
  0
LINE
  5
3AE
330
1F
100
AcDbEntity
  8
0
  6
CONTINUOUS
 62
     7
100
AcDbLine
 10
1.997820901859939
 20
-188.0415697818518
 30
0.0
 11
0.1979021908599634
 21
-188.0415697818518
 31
0.0
  0
LINE
  5
3AF
330
1F
100
AcDbEntity
  8
0
  6
CONTINUOUS
 62
     7
100
AcDbLine
 10
-0.0020974695400469
 20
-191.5415698316518
 30
0.0
 11
0.1979021908599634
 21
-191.5415698316518
 31
0.0
  0
LINE
  5
3B0
330
1F
100
AcDbEntity
  8
0
  6
CONTINUOUS
 62
     7
100
AcDbLine
 10
-1.994658392540032
 20
-222.7695067998519
 30
0.0
 11
-1.994658392540032
 21
-219.6695064780519
 31
0.0
  0
LINE
  5
3B1
330
1F
100
AcDbEntity
  8
0
  6
CONTINUOUS
 62
     7
100
AcDbLine
 10
1.997821700559939
 20
-211.8595067732518
 30
0.0
 11
1.997821700559939
 21
-248.6595067732518
 31
0.0
  0
LINE
  5
3B2
330
1F
100
AcDbEntity
  8
0
  6
CONTINUOUS
 62
     7
100
AcDbLine
 10
0.9978226006599584
 20
-222.7695067998519
 30
0.0
 11
0.5903019190599252
 21
-222.7695067998519
 31
0.0
  0
LINE
  5
3B3
330
1F
100
AcDbEntity
  8
0
  6
CONTINUOUS
 62
     7
100
AcDbLine
 10
11.49782115525994
 20
-142.4665702160518
 30
0.0
 11
11.49782115525994
 21
-132.4665690240518
 31
0.0
  0
LINE
  5
3B4
330
1F
100
AcDbEntity
  8
0
  6
CONTINUOUS
 62
     7
100
AcDbLine
 10
13.99782100625993
 20
-137.4665690238518
 30
0.0
 11
13.99782100625993
 21
-140.9306717688518
 31
0.0
  0
LINE
  5
3B5
330
1F
100
AcDbEntity
  8
0
  6
CONTINUOUS
 62
     7
100
AcDbLine
 10
89.28216911265997
 20
-129.5243700790518
 30
0.0
 11
87.33396761265993
 21
-129.5243700790518
 31
0.0
  0
LINE
  5
3B6
330
1F
100
AcDbEntity
  8
0
  6
CONTINUOUS
 62
     7
100
AcDbLine
 10
122.53106055246
 20
-247.2536486690518
 30
0.0
 11
122.0889483324599
 21
-247.2614404590518
 31
0.0
  0
LINE
  5
3B7
330
1F
100
AcDbEntity
  8
0
  6
CONTINUOUS
 62
     7
100
AcDbLine
 10
43.12219598265995
 20
-252.4665697690518
 30
0.0
 11
43.12219598265995
 21
-122.4665697690518
 31
0.0
  0
LINE
  5
3B8
330
1F
100
AcDbEntity
  8
0
  6
CONTINUOUS
 62
     7
100
AcDbLine
 10
120.9549442226599
 20
-127.3964800790518
 30
0.0
 11
120.83564549266
 21
-127.4549785090518
 31
0.0
  0
LINE
  5
3B9
330
1F
100
AcDbEntity
  8
0
  6
CONTINUOUS
 62
     7
100
AcDbLine
 10
78.89089985265997
 20
-129.5243700790518
 30
0.0
 11
78.89089985265997
 21
-130.3244934990518
 31
0.0
  0
LINE
  5
3BA
330
1F
100
AcDbEntity
  8
0
  6
CONTINUOUS
 62
     7
100
AcDbLine
 10
122.9003801026599
 20
-128.1115356590518
 30
0.0
 11
122.8367996726599
 21
-127.9953030590518
 31
0.0
  0
LINE
  5
3BB
330
1F
100
AcDbEntity
  8
0
  6
CONTINUOUS
 62
     7
100
AcDbLine
 10
123.9717571707599
 20
-138.6112396209518
 30
0.0
 11
124.2587849307599
 21
-138.6112396209518
 31
0.0
  0
LINE
  5
3BC
330
1F
100
AcDbEntity
  8
0
  6
CONTINUOUS
 62
     7
100
AcDbLine
 10
121.45333203266
 20
-250.4088949190518
 30
0.0
 11
119.1563146126599
 21
-250.4088949190518
 31
0.0
  0
LINE
  5
3BD
330
1F
100
AcDbEntity
  8
0
  6
CONTINUOUS
 62
     7
100
AcDbLine
 10
118.43548522266
 20
-132.1824214390518
 30
0.0
 11
118.6368420126599
 21
-132.0679431790518
 31
0.0
  0
LINE
  5
3BE
330
1F
100
AcDbEntity
  8
0
  6
CONTINUOUS
 62
     7
100
AcDbLine
 10
120.1479007726599
 20
-247.3099157990519
 30
0.0
 11
120.0291675026599
 21
-247.3368161890518
 31
0.0
  0
LINE
  5
3BF
330
1F
100
AcDbEntity
  8
0
  6
CONTINUOUS
 62
     7
100
AcDbLine
 10
117.30113069266
 20
-130.9990548290518
 30
0.0
 11
117.4181132226599
 21
-130.9751029590518
 31
0.0
  0
LINE
  5
3C0
330
1F
100
AcDbEntity
  8
0
  6
CONTINUOUS
 62
     7
100
AcDbLine
 10
119.1563146126599
 20
-250.1654061090518
 30
0.0
 11
119.1563146126599
 21
-250.5434326290518
 31
0.0
  0
LINE
  5
3C1
330
1F
100
AcDbEntity
  8
0
  6
CONTINUOUS
 62
     7
100
AcDbLine
 10
99.67257709265994
 20
-129.5243700790518
 30
0.0
 11
97.72523687265993
 21
-129.5243700790518
 31
0.0
  0
LINE
  5
3C2
330
1F
100
AcDbEntity
  8
0
  6
CONTINUOUS
 62
     7
100
AcDbLine
 10
118.5372309526599
 20
-129.7630475790518
 30
0.0
 11
118.55189414266
 21
-129.6429181290518
 31
0.0
  0
LINE
  5
3C3
330
1F
100
AcDbEntity
  8
0
  6
CONTINUOUS
 62
     7
100
AcDbLine
 10
91.42932487265989
 20
-140.7049968390518
 30
0.0
 11
90.28124680265995
 21
-140.7049968390518
 31
0.0
  0
LINE
  5
3C4
330
1F
100
AcDbEntity
  8
0
  6
CONTINUOUS
 62
     7
100
AcDbLine
 10
120.2707060826599
 20
-127.9953030590518
 30
0.0
 11
120.20709133266
 21
-128.1115356590518
 31
0.0
  0
LINE
  5
3C5
330
1F
100
AcDbEntity
  8
0
  6
CONTINUOUS
 62
     7
100
AcDbLine
 10
42.07488695265994
 20
-252.4665697690518
 30
0.0
 11
42.07488695265994
 21
-122.4665697690518
 31
0.0
  0
LINE
  5
3C6
330
1F
100
AcDbEntity
  8
0
  6
CONTINUOUS
 62
     7
100
AcDbLine
 10
1.997820901859939
 20
-197.9665696274518
 30
0.0
 11
0.9978226006599584
 21
-197.9665696274518
 31
0.0
  0
LINE
  5
3C7
330
1F
100
AcDbEntity
  8
0
  6
CONTINUOUS
 62
     7
100
AcDbLine
 10
-0.0020974695400469
 20
-190.8915697716518
 30
0.0
 11
0.1979021908599634
 21
-190.8915697716518
 31
0.0
  0
LINE
  5
3C8
330
1F
100
AcDbEntity
  8
0
  6
CONTINUOUS
 62
     7
100
AcDbLine
 10
0.9978226006599584
 20
-191.5415698316518
 30
0.0
 11
0.9978226006599584
 21
-191.4665699590518
 31
0.0
  0
LINE
  5
3C9
330
1F
100
AcDbEntity
  8
0
  6
CONTINUOUS
 62
     7
100
AcDbLine
 10
-0.5096980749400473
 20
-245.5695053216518
 30
0.0
 11
-0.5096980749400473
 21
-235.5695074078518
 31
0.0
  0
LINE
  5
3CA
330
1F
100
AcDbEntity
  8
0
  6
CONTINUOUS
 62
     7
100
AcDbLine
 10
0.9978226749599344
 20
-213.2695061740519
 30
0.0
 11
-2.002179753740052
 21
-213.2695061740519
 31
0.0
  0
LINE
  5
3CB
330
1F
100
AcDbEntity
  8
0
  6
CONTINUOUS
 62
     7
100
AcDbLine
 10
12.25782169885997
 20
-132.6665696200518
 30
0.0
 11
11.49782115525994
 21
-132.6665682370518
 31
0.0
  0
LINE
  5
3CC
330
1F
100
AcDbEntity
  8
0
  6
CONTINUOUS
 62
     7
100
AcDbLine
 10
13.99782100625993
 20
-140.9306717688518
 30
0.0
 11
13.99782100625993
 21
-141.4665696794519
 31
0.0
  0
LINE
  5
3CD
330
1F
100
AcDbEntity
  8
0
  6
CONTINUOUS
 62
     7
100
AcDbLine
 10
118.22479309266
 20
-132.2814019390518
 30
0.0
 11
118.43548522266
 21
-132.1824214390518
 31
0.0
  0
LINE
  5
3CE
330
1F
100
AcDbEntity
  8
0
  6
CONTINUOUS
 62
     7
100
AcDbLine
 10
119.1627477826599
 20
-248.3657765090518
 30
0.0
 11
119.1563146126599
 21
-248.4908380090518
 31
0.0
  0
LINE
  5
3CF
330
1F
100
AcDbEntity
  8
0
  6
CONTINUOUS
 62
     7
100
AcDbLine
 10
119.00846963266
 20
-131.7955758690518
 30
0.0
 11
119.17720050266
 21
-131.6392280690518
 31
0.0
  0
LINE
  5
3D0
330
1F
100
AcDbEntity
  8
0
  6
CONTINUOUS
 62
     7
100
AcDbLine
 10
122.50103379266
 20
-125.9262744590518
 30
0.0
 11
122.24081004266
 21
-125.8526553590518
 31
0.0
  0
LINE
  5
3D1
330
1F
100
AcDbEntity
  8
0
  6
CONTINUOUS
 62
     7
100
AcDbLine
 10
124.2587849307599
 20
-138.6112396209518
 30
0.0
 11
124.5102194307599
 21
-138.6112396209518
 31
0.0
  0
LINE
  5
3D2
330
1F
100
AcDbEntity
  8
0
  6
CONTINUOUS
 62
     7
100
AcDbLine
 10
39.62800788265997
 20
-239.4190403190518
 30
0.0
 11
37.22936015265992
 21
-239.4190403190518
 31
0.0
  0
LINE
  5
3D3
330
1F
100
AcDbEntity
  8
0
  6
CONTINUOUS
 62
     7
100
AcDbLine
 10
119.21231062266
 20
-248.1273598490518
 30
0.0
 11
119.1816245226599
 21
-248.2444024890518
 31
0.0
  0
LINE
  5
3D4
330
1F
100
AcDbEntity
  8
0
  6
CONTINUOUS
 62
     7
100
AcDbLine
 10
115.6259506207599
 20
-137.0609972409518
 30
0.0
 11
116.70815767076
 21
-137.6012682009518
 31
0.0
  0
LINE
  5
3D5
330
1F
100
AcDbEntity
  8
0
  6
CONTINUOUS
 62
     7
100
AcDbLine
 10
39.62800788265997
 20
-229.4274021390518
 30
0.0
 11
37.22936015265992
 21
-229.4274021390518
 31
0.0
  0
LINE
  5
3D6
330
1F
100
AcDbEntity
  8
0
  6
CONTINUOUS
 62
     7
100
AcDbLine
 10
122.49125744266
 20
-127.6013275690518
 30
0.0
 11
122.38494014266
 21
-127.5234530390518
 31
0.0
  0
LINE
  5
3D7
330
1F
100
AcDbEntity
  8
0
  6
CONTINUOUS
 62
     7
100
AcDbLine
 10
118.98840013266
 20
-127.2197816190518
 30
0.0
 11
118.8613320826599
 21
-127.4522844990518
 31
0.0
  0
LINE
  5
3D8
330
1F
100
AcDbEntity
  8
0
  6
CONTINUOUS
 62
     7
100
AcDbLine
 10
118.66992313266
 20
-127.9518464090518
 30
0.0
 11
118.6078809626599
 21
-128.2166047890518
 31
0.0
  0
LINE
  5
3D9
330
1F
100
AcDbEntity
  8
0
  6
CONTINUOUS
 62
     7
100
AcDbLine
 10
120.2708332426599
 20
-247.2950735390518
 30
0.0
 11
120.1479007726599
 21
-247.3099157990519
 31
0.0
  0
LINE
  5
3DA
330
1F
100
AcDbEntity
  8
0
  6
CONTINUOUS
 62
     7
100
AcDbLine
 10
123.33472893076
 20
-138.6112396209518
 30
0.0
 11
123.6600879107599
 21
-138.6112396209518
 31
0.0
  0
LINE
  5
3DB
330
1F
100
AcDbEntity
  8
0
  6
CONTINUOUS
 62
     7
100
AcDbLine
 10
89.28216911265997
 20
-129.5243700790518
 30
0.0
 11
89.28216911265997
 21
-130.3244934990518
 31
0.0
  0
LINE
  5
3DC
330
1F
100
AcDbEntity
  8
0
  6
CONTINUOUS
 62
     7
100
AcDbLine
 10
120.51737893266
 20
-127.6880259590518
 30
0.0
 11
120.4264284126599
 21
-127.7829720890518
 31
0.0
  0
LINE
  5
3DD
330
1F
100
AcDbEntity
  8
0
  6
CONTINUOUS
 62
     7
100
AcDbLine
 10
13.54782083945992
 20
-140.1415696022518
 30
0.0
 11
13.89782117605995
 21
-140.6415706154518
 31
0.0
  0
LINE
  5
3DE
330
1F
100
AcDbEntity
  8
0
  6
CONTINUOUS
 62
     7
100
AcDbLine
 10
124.24667922266
 20
-127.4522844990518
 30
0.0
 11
124.11953298266
 21
-127.2197816190518
 31
0.0
  0
LINE
  5
3DF
330
1F
100
AcDbEntity
  8
0
  6
CONTINUOUS
 62
     7
100
AcDbLine
 10
8.597820866259951
 20
-180.0415698092518
 30
0.0
 11
8.597820866259951
 21
-179.0415696454518
 31
0.0
  0
LINE
  5
3E0
330
1F
100
AcDbEntity
  8
0
  6
CONTINUOUS
 62
     7
100
AcDbLine
 10
1.997820901859939
 20
-191.4665699590518
 30
0.0
 11
0.9978226006599584
 21
-191.4665699590518
 31
0.0
  0
LINE
  5
3E1
330
1F
100
AcDbEntity
  8
0
  6
CONTINUOUS
 62
     7
100
AcDbLine
 10
-0.0020974695400469
 20
-201.3915698630518
 30
0.0
 11
0.1979021908599634
 21
-201.3915698630518
 31
0.0
  0
LINE
  5
3E2
330
1F
100
AcDbEntity
  8
0
  6
CONTINUOUS
 62
     7
100
AcDbLine
 10
0.9903012396599706
 20
-245.5695053216518
 30
0.0
 11
0.9903012396599706
 21
-247.0695083614518
 31
0.0
  0
LINE
  5
3E3
330
1F
100
AcDbEntity
  8
0
  6
CONTINUOUS
 62
     7
100
AcDbLine
 10
-0.1021773933400709
 20
-242.0695056792518
 30
0.0
 11
-0.5096980749400473
 21
-242.0695056792518
 31
0.0
  0
LINE
  5
3E4
330
1F
100
AcDbEntity
  8
0
  6
CONTINUOUS
 62
     7
100
AcDbLine
 10
0.9978226006599584
 20
-232.2695074256519
 30
0.0
 11
0.5903019190599252
 21
-232.2695074256519
 31
0.0
  0
LINE
  5
3E5
330
1F
100
AcDbEntity
  8
0
  6
CONTINUOUS
 62
     7
100
AcDbLine
 10
15.44055702105993
 20
-139.7759696121518
 30
0.0
 11
15.79782167385997
 21
-140.9306717689518
 31
0.0
  0
LINE
  5
3E6
330
1F
100
AcDbEntity
  8
0
  6
CONTINUOUS
 62
     7
100
AcDbLine
 10
114.60873538076
 20
-136.4189772609518
 30
0.0
 11
115.6259506207599
 21
-137.0609972409518
 31
0.0
  0
LINE
  5
3E7
330
1F
100
AcDbEntity
  8
0
  6
CONTINUOUS
 62
     7
100
AcDbLine
 10
124.35328747266
 20
-127.6966895390518
 30
0.0
 11
124.24667922266
 21
-127.4522844990518
 31
0.0
  0
LINE
  5
3E8
330
1F
100
AcDbEntity
  8
0
  6
CONTINUOUS
 62
     7
100
AcDbLine
 10
121.27541223246
 20
-247.2757782390518
 30
0.0
 11
120.93375187266
 21
-247.2817996690518
 31
0.0
  0
LINE
  5
3E9
330
1F
100
AcDbEntity
  8
0
  6
CONTINUOUS
 62
     7
100
AcDbLine
 10
121.70839038076
 20
-138.6112396209518
 30
0.0
 11
121.88590039076
 21
-138.6112396209518
 31
0.0
  0
LINE
  5
3EA
330
1F
100
AcDbEntity
  8
0
  6
CONTINUOUS
 62
     7
100
AcDbLine
 10
118.51326601266
 20
-129.8800654690518
 30
0.0
 11
118.5372309526599
 21
-129.7630475790518
 31
0.0
  0
LINE
  5
3EB
330
1F
100
AcDbEntity
  8
0
  6
CONTINUOUS
 62
     7
100
AcDbLine
 10
119.60891003266
 20
-247.5521210690519
 30
0.0
 11
119.5206854726599
 21
-247.6296536490518
 31
0.0
  0
LINE
  5
3EC
330
1F
100
AcDbEntity
  8
0
  6
CONTINUOUS
 62
     7
100
AcDbLine
 10
119.9152676126599
 20
-247.3751308090518
 30
0.0
 11
119.8068352826599
 21
-247.4242157590518
 31
0.0
  0
LINE
  5
3ED
330
1F
100
AcDbEntity
  8
0
  6
CONTINUOUS
 62
     7
100
AcDbLine
 10
119.8914020526599
 20
-126.2760606790518
 30
0.0
 11
119.67894464266
 21
-126.4317979990518
 31
0.0
  0
LINE
  5
3EE
330
1F
100
AcDbEntity
  8
0
  6
CONTINUOUS
 62
     7
100
AcDbLine
 10
121.5532402307599
 20
-138.6112396209518
 30
0.0
 11
121.5938530707599
 21
-138.6112396209518
 31
0.0
  0
LINE
  5
3EF
330
1F
100
AcDbEntity
  8
0
  6
CONTINUOUS
 62
     7
100
AcDbLine
 10
77.74196051265994
 20
-130.3244934990518
 30
0.0
 11
77.74196051265994
 21
-135.6290792790518
 31
0.0
  0
LINE
  5
3F0
330
1F
100
AcDbEntity
  8
0
  6
CONTINUOUS
 62
     7
100
AcDbLine
 10
123.00663201076
 20
-138.6112396209518
 30
0.0
 11
123.33472893076
 21
-138.6112396209518
 31
0.0
  0
LINE
  5
3F1
330
1F
100
AcDbEntity
  8
0
  6
CONTINUOUS
 62
     7
100
AcDbLine
 10
120.20709133266
 20
-128.1115356590518
 30
0.0
 11
120.1537455926599
 21
-128.2337115090518
 31
0.0
  0
LINE
  5
3F2
330
1F
100
AcDbEntity
  8
0
  6
CONTINUOUS
 62
     7
100
AcDbLine
 10
98.52363775265997
 20
-130.3244934990518
 30
0.0
 11
98.52363775265997
 21
-140.7049968390518
 31
0.0
  0
LINE
  5
3F3
330
1F
100
AcDbEntity
  8
0
  6
CONTINUOUS
 62
     7
100
AcDbLine
 10
39.62800788265997
 20
-130.5191413990518
 30
0.0
 11
39.62800788265997
 21
-140.5099182990518
 31
0.0
  0
LINE
  5
3F4
330
1F
100
AcDbEntity
  8
0
  6
CONTINUOUS
 62
     7
100
AcDbLine
 10
14.35508752175997
 20
-132.8477678472518
 30
0.0
 11
13.99782100625993
 21
-133.4665683682518
 31
0.0
  0
LINE
  5
3F5
330
1F
100
AcDbEntity
  8
0
  6
CONTINUOUS
 62
     7
100
AcDbLine
 10
119.9019159626599
 20
-130.4673926190519
 30
0.0
 11
119.96757043266
 21
-130.2403210990518
 31
0.0
  0
LINE
  5
3F6
330
1F
100
AcDbEntity
  8
0
  6
CONTINUOUS
 62
     7
100
AcDbLine
 10
1.997820901859939
 20
-187.4665697690518
 30
0.0
 11
0.9978226006599584
 21
-187.4665697690518
 31
0.0
  0
LINE
  5
3F7
330
1F
100
AcDbEntity
  8
0
  6
CONTINUOUS
 62
     7
100
AcDbLine
 10
0.1979021908599634
 20
-197.8915702206518
 30
0.0
 11
1.997820901859939
 21
-197.8915702206518
 31
0.0
  0
LINE
  5
3F8
330
1F
100
AcDbEntity
  8
0
  6
CONTINUOUS
 62
     7
100
AcDbLine
 10
0.9978226006599584
 20
-190.9665698770518
 30
0.0
 11
0.9978226006599584
 21
-190.8915697716518
 31
0.0
  0
LINE
  5
3F9
330
1F
100
AcDbEntity
  8
0
  6
CONTINUOUS
 62
     7
100
AcDbLine
 10
0.5903019190599252
 20
-214.9695070114518
 30
0.0
 11
0.9903012396599706
 21
-214.9695070114518
 31
0.0
  0
LINE
  5
3FA
330
1F
100
AcDbEntity
  8
0
  6
CONTINUOUS
 62
     7
100
AcDbLine
 10
-2.002179679440076
 20
-247.2495070125518
 30
0.0
 11
-2.002178225040041
 21
-248.6595068475518
 31
0.0
  0
LINE
  5
3FB
330
1F
100
AcDbEntity
  8
0
  6
CONTINUOUS
 62
     7
100
AcDbLine
 10
15.44055702105993
 20
-135.1571684356518
 30
0.0
 11
14.35508752175997
 21
-135.1571684355518
 31
0.0
  0
LINE
  5
3FC
330
1F
100
AcDbEntity
  8
0
  6
CONTINUOUS
 62
     7
100
AcDbLine
 10
123.8201928226599
 20
-247.2309289690518
 30
0.0
 11
123.4115645526599
 21
-247.2381306490518
 31
0.0
  0
LINE
  5
3FD
330
1F
100
AcDbEntity
  8
0
  6
CONTINUOUS
 62
     7
100
AcDbLine
 10
124.71510888076
 20
-138.6112396209518
 30
0.0
 11
124.8625015207599
 21
-138.6112396209518
 31
0.0
  0
LINE
  5
3FE
330
1F
100
AcDbEntity
  8
0
  6
CONTINUOUS
 62
     7
100
AcDbLine
 10
118.19584352266
 20
-130.4951800590518
 30
0.0
 11
118.2674799826599
 21
-130.4049502590518
 31
0.0
  0
LINE
  5
3FF
330
1F
100
AcDbEntity
  8
0
  6
CONTINUOUS
 62
     7
100
AcDbLine
 10
119.1563146126599
 20
-249.7968433990519
 30
0.0
 11
119.1563146126599
 21
-250.1654061090518
 31
0.0
  0
LINE
  5
400
330
1F
100
AcDbEntity
  8
0
  6
CONTINUOUS
 62
     7
100
AcDbLine
 10
37.22936015265992
 20
-229.4274021390518
 30
0.0
 11
37.22936015265992
 21
-239.4190403190518
 31
0.0
  0
LINE
  5
401
330
1F
100
AcDbEntity
  8
0
  6
CONTINUOUS
 62
     7
100
AcDbLine
 10
120.83564549266
 20
-127.4549785090518
 30
0.0
 11
120.72256600266
 21
-127.5234530390518
 31
0.0
  0
LINE
  5
402
330
1F
100
AcDbEntity
  8
0
  6
CONTINUOUS
 62
     7
100
AcDbLine
 10
121.2098853126599
 20
-127.3117160690518
 30
0.0
 11
121.0798836726599
 21
-127.3485338890519
 31
0.0
  0
LINE
  5
403
330
1F
100
AcDbEntity
  8
0
  6
CONTINUOUS
 62
     7
100
AcDbLine
 10
81.03977816265996
 20
-130.3244934990518
 30
0.0
 11
81.03977816265996
 21
-135.6290792790518
 31
0.0
  0
LINE
  5
404
330
1F
100
AcDbEntity
  8
0
  6
CONTINUOUS
 62
     7
100
AcDbLine
 10
119.04081447076
 20
-138.3498386209518
 30
0.0
 11
120.2778978307599
 21
-138.5447758509519
 31
0.0
  0
LINE
  5
405
330
1F
100
AcDbEntity
  8
0
  6
CONTINUOUS
 62
     7
100
AcDbLine
 10
118.33214011266
 20
-130.3092892690518
 30
0.0
 11
118.3894363626599
 21
-130.2085836990518
 31
0.0
  0
LINE
  5
406
330
1F
100
AcDbEntity
  8
0
  6
CONTINUOUS
 62
     7
100
AcDbLine
 10
120.1537455926599
 20
-128.2337115090518
 30
0.0
 11
120.1112473726599
 21
-128.3612544690518
 31
0.0
  0
LINE
  5
407
330
1F
100
AcDbEntity
  8
0
  6
CONTINUOUS
 62
     7
100
AcDbLine
 10
118.00553559266
 20
-132.3641140490518
 30
0.0
 11
118.22479309266
 21
-132.2814019390518
 31
0.0
  0
LINE
  5
408
330
1F
100
AcDbEntity
  8
0
  6
CONTINUOUS
 62
     7
100
AcDbLine
 10
121.45333203266
 20
-251.4075419690518
 30
0.0
 11
121.45333203266
 21
-250.4088949190518
 31
0.0
  0
LINE
  5
409
330
1F
100
AcDbEntity
  8
0
  6
CONTINUOUS
 62
     7
100
AcDbLine
 10
119.1563146126599
 20
-248.8741221990518
 30
0.0
 11
119.1563146126599
 21
-249.1385830290518
 31
0.0
  0
LINE
  5
40A
330
1F
100
AcDbEntity
  8
0
  6
CONTINUOUS
 62
     7
100
AcDbLine
 10
79.88997754265995
 20
-129.5243700790518
 30
0.0
 11
79.88997754265995
 21
-130.3244934990518
 31
0.0
  0
LINE
  5
40B
330
1F
100
AcDbEntity
  8
0
  6
CONTINUOUS
 62
     7
100
AcDbLine
 10
15.79782167395996
 20
-142.5665696737518
 30
0.0
 11
16.29782082455995
 21
-142.5665696737518
 31
0.0
  0
LINE
  5
40C
330
1F
100
AcDbEntity
  8
0
  6
CONTINUOUS
 62
     7
100
AcDbLine
 10
1.997820901859939
 20
-183.8415698734518
 30
0.0
 11
1.997820901859939
 21
-202.0915696052518
 31
0.0
  0
LINE
  5
40D
330
1F
100
AcDbEntity
  8
0
  6
CONTINUOUS
 62
     7
100
AcDbLine
 10
1.997820901859939
 20
-194.9665696014519
 30
0.0
 11
0.9978226006599584
 21
-194.9665696014519
 31
0.0
  0
LINE
  5
40E
330
1F
100
AcDbEntity
  8
0
  6
CONTINUOUS
 62
     7
100
AcDbLine
 10
-0.0020974695400469
 20
-187.3915697654518
 30
0.0
 11
0.1979021908599634
 21
-187.3915697654518
 31
0.0
  0
LINE
  5
40F
330
1F
100
AcDbEntity
  8
0
  6
CONTINUOUS
 62
     7
100
AcDbLine
 10
0.9978226006599584
 20
-201.4665702012518
 30
0.0
 11
0.9978226006599584
 21
-201.3915698630518
 31
0.0
  0
LINE
  5
410
330
1F
100
AcDbEntity
  8
0
  6
CONTINUOUS
 62
     7
100
AcDbLine
 10
-2.002179753740052
 20
-219.6695064780519
 30
0.0
 11
-2.002179753740052
 21
-222.7695067998519
 31
0.0
  0
LINE
  5
411
330
1F
100
AcDbEntity
  8
0
  6
CONTINUOUS
 62
     7
100
AcDbLine
 10
-0.5021767139400595
 20
-238.5695060368518
 30
0.0
 11
-0.5021767139400595
 21
-241.7695080516518
 31
0.0
  0
LINE
  5
412
330
1F
100
AcDbEntity
  8
0
  6
CONTINUOUS
 62
     7
100
AcDbLine
 10
100.67251606266
 20
-140.7049968390518
 30
0.0
 11
100.67251606266
 21
-141.5038283490518
 31
0.0
  0
LINE
  5
413
330
1F
100
AcDbEntity
  8
0
  6
CONTINUOUS
 62
     7
100
AcDbLine
 10
102.6207175626599
 20
-129.5243700790518
 30
0.0
 11
102.6207175626599
 21
-141.5038283490518
 31
0.0
  0
LINE
  5
414
330
1F
100
AcDbEntity
  8
0
  6
CONTINUOUS
 62
     7
100
AcDbLine
 10
122.38494014266
 20
-127.5234530390518
 30
0.0
 11
122.27179951266
 21
-127.4549785090518
 31
0.0
  0
LINE
  5
415
330
1F
100
AcDbEntity
  8
0
  6
CONTINUOUS
 62
     7
100
AcDbLine
 10
99.67257709265994
 20
-140.7049968390518
 30
0.0
 11
99.67257709265994
 21
-141.5038283490518
 31
0.0
  0
LINE
  5
416
330
1F
100
AcDbEntity
  8
0
  6
CONTINUOUS
 62
     7
100
AcDbLine
 10
78.89089985265997
 20
-130.3244934990518
 30
0.0
 11
77.74196051265994
 21
-130.3244934990518
 31
0.0
  0
LINE
  5
417
330
1F
100
AcDbEntity
  8
0
  6
CONTINUOUS
 62
     7
100
AcDbLine
 10
121.6944085026599
 20
-125.7767835490518
 30
0.0
 11
121.41214489266
 21
-125.7767835490518
 31
0.0
  0
LINE
  5
418
330
1F
100
AcDbEntity
  8
0
  6
CONTINUOUS
 62
     7
100
AcDbLine
 10
119.3688834026599
 20
-247.8086591490518
 30
0.0
 11
119.30657425266
 21
-247.9088442790518
 31
0.0
  0
LINE
  5
419
330
1F
100
AcDbEntity
  8
0
  6
CONTINUOUS
 62
     7
100
AcDbLine
 10
118.75478996266
 20
-127.6966895390518
 30
0.0
 11
118.66992313266
 21
-127.9518464090518
 31
0.0
  0
LINE
  5
41A
330
1F
100
AcDbEntity
  8
0
  6
CONTINUOUS
 62
     7
100
AcDbLine
 10
109.46440018076
 20
-125.3699607109518
 30
0.0
 11
109.46440018076
 21
-125.7074692809518
 31
0.0
  0
LINE
  5
41B
330
1F
100
AcDbEntity
  8
0
  6
CONTINUOUS
 62
     7
100
AcDbLine
 10
101.8205941326599
 20
-140.7049968390518
 30
0.0
 11
100.67251606266
 21
-140.7049968390518
 31
0.0
  0
LINE
  5
41C
330
1F
100
AcDbEntity
  8
0
  6
CONTINUOUS
 62
     7
100
AcDbLine
 10
119.4812663826599
 20
-126.6051890790518
 30
0.0
 11
119.2995166426599
 21
-126.7950835790518
 31
0.0
  0
LINE
  5
41D
330
1F
100
AcDbEntity
  8
0
  6
CONTINUOUS
 62
     7
100
AcDbLine
 10
123.4115645526599
 20
-247.2381306490518
 30
0.0
 11
122.9768932126599
 21
-247.2457912990518
 31
0.0
  0
LINE
  5
41E
330
1F
100
AcDbEntity
  8
0
  6
CONTINUOUS
 62
     7
100
AcDbLine
 10
122.59017671266
 20
-127.6880259590518
 30
0.0
 11
122.49125744266
 21
-127.6013275690518
 31
0.0
  0
LINE
  5
41F
330
1F
100
AcDbEntity
  8
0
  6
CONTINUOUS
 62
     7
100
AcDbLine
 10
119.2541719326599
 20
-248.0152924790518
 30
0.0
 11
119.21231062266
 21
-248.1273598490518
 31
0.0
  0
LINE
  5
420
330
1F
100
AcDbEntity
  8
0
  6
CONTINUOUS
 62
     7
100
AcDbLine
 10
118.11761832266
 20
-130.5795920590518
 30
0.0
 11
118.19584352266
 21
-130.4951800590518
 31
0.0
  0
LINE
  5
421
330
1F
100
AcDbEntity
  8
0
  6
CONTINUOUS
 62
     7
100
AcDbLine
 10
120.72256600266
 20
-127.5234530390518
 30
0.0
 11
120.6162843126599
 21
-127.6013275690518
 31
0.0
  0
LINE
  5
422
330
1F
100
AcDbEntity
  8
0
  6
CONTINUOUS
 62
     7
100
AcDbLine
 10
8.597820866259951
 20
-180.0415698092518
 30
0.0
 11
8.597820866259951
 21
-183.8415698734518
 31
0.0
  0
LINE
  5
423
330
1F
100
AcDbEntity
  8
0
  6
CONTINUOUS
 62
     7
100
AcDbLine
 10
0.9978226006599584
 20
-184.4665697430518
 30
0.0
 11
1.997820901859939
 21
-184.4665697430518
 31
0.0
  0
LINE
  5
424
330
1F
100
AcDbEntity
  8
0
  6
CONTINUOUS
 62
     7
100
AcDbLine
 10
0.1979021908599634
 20
-187.3915697654518
 30
0.0
 11
1.997820901859939
 21
-187.3915697654518
 31
0.0
  0
LINE
  5
425
330
1F
100
AcDbEntity
  8
0
  6
CONTINUOUS
 62
     7
100
AcDbLine
 10
0.1979021908599634
 20
-201.3915698630518
 30
0.0
 11
1.997820901859939
 21
-201.3915698630518
 31
0.0
  0
LINE
  5
426
330
1F
100
AcDbEntity
  8
0
  6
CONTINUOUS
 62
     7
100
AcDbLine
 10
-0.0020974695400469
 20
-195.0415699396518
 30
0.0
 11
-0.0020974695400469
 21
-197.8915702206518
 31
0.0
  0
LINE
  5
427
330
1F
100
AcDbEntity
  8
0
  6
CONTINUOUS
 62
     7
100
AcDbLine
 10
-1.994658392540032
 20
-219.6695064780519
 30
0.0
 11
-2.002179753740052
 21
-219.6695064780519
 31
0.0
  0
LINE
  5
428
330
1F
100
AcDbEntity
  8
0
  6
CONTINUOUS
 62
     7
100
AcDbLine
 10
6.197821700559928
 20
-211.8595064873518
 30
0.0
 11
6.197821700559928
 21
-248.6595067732518
 31
0.0
  0
LINE
  5
429
330
1F
100
AcDbEntity
  8
0
  6
CONTINUOUS
 62
     7
100
AcDbLine
 10
15.44055702105993
 20
-139.7759696121518
 30
0.0
 11
14.35508752175997
 21
-139.7759696121518
 31
0.0
  0
LINE
  5
42A
330
1F
100
AcDbEntity
  8
0
  6
CONTINUOUS
 62
     7
100
AcDbLine
 10
122.3860314407599
 20
-138.6112396209518
 30
0.0
 11
122.6867489307599
 21
-138.6112396209518
 31
0.0
  0
LINE
  5
42B
330
1F
100
AcDbEntity
  8
0
  6
CONTINUOUS
 62
     7
100
AcDbLine
 10
124.5513341426599
 20
-134.6149292890518
 30
0.0
 11
121.0537009526599
 21
-138.1121318490518
 31
0.0
  0
LINE
  5
42C
330
1F
100
AcDbEntity
  8
0
  6
CONTINUOUS
 62
     7
100
AcDbLine
 10
120.93375187266
 20
-247.2817996690518
 30
0.0
 11
120.6553389926599
 21
-247.2867064190518
 31
0.0
  0
LINE
  5
42D
330
1F
100
AcDbEntity
  8
0
  6
CONTINUOUS
 62
     7
100
AcDbLine
 10
109.6127018807599
 20
-128.4215857209518
 30
0.0
 11
109.8693876807599
 21
-129.6370779409518
 31
0.0
  0
LINE
  5
42E
330
1F
100
AcDbEntity
  8
0
  6
CONTINUOUS
 62
     7
100
AcDbLine
 10
97.72523687265993
 20
-129.5243700790518
 30
0.0
 11
97.72523687265993
 21
-141.5038283490518
 31
0.0
  0
LINE
  5
42F
330
1F
100
AcDbEntity
  8
0
  6
CONTINUOUS
 62
     7
100
AcDbLine
 10
124.5513341426599
 20
-128.7703247990518
 30
0.0
 11
124.5513341426599
 21
-134.6149292890518
 31
0.0
  0
LINE
  5
430
330
1F
100
AcDbEntity
  8
0
  6
CONTINUOUS
 62
     7
100
AcDbLine
 10
123.0462409926599
 20
-128.6301372390518
 30
0.0
 11
123.0271942526599
 21
-128.4935884190518
 31
0.0
  0
LINE
  5
431
330
1F
100
AcDbEntity
  8
0
  6
CONTINUOUS
 62
     7
100
AcDbLine
 10
121.41214489266
 20
-125.7767835490518
 30
0.0
 11
121.1351490126599
 21
-125.8024416090518
 31
0.0
  0
LINE
  5
432
330
1F
100
AcDbEntity
  8
0
  6
CONTINUOUS
 62
     7
100
AcDbLine
 10
122.9768932126599
 20
-247.2457912990518
 30
0.0
 11
122.53106055246
 21
-247.2536486690518
 31
0.0
  0
LINE
  5
433
330
1F
100
AcDbEntity
  8
0
  6
CONTINUOUS
 62
     7
100
AcDbLine
 10
118.03319195266
 20
-130.6577996490518
 30
0.0
 11
118.11761832266
 21
-130.5795920590518
 31
0.0
  0
LINE
  5
434
330
1F
100
AcDbEntity
  8
0
  6
CONTINUOUS
 62
     7
100
AcDbLine
 10
18.29782126265997
 20
-252.4665697690518
 30
0.0
 11
119.1563146126599
 21
-252.4665697690518
 31
0.0
  0
LINE
  5
435
330
1F
100
AcDbEntity
  8
0
  6
CONTINUOUS
 62
     7
100
AcDbLine
 10
120.0291675026599
 20
-247.3368161890518
 30
0.0
 11
119.9152676126599
 21
-247.3751308090518
 31
0.0
  0
LINE
  5
436
330
1F
100
AcDbEntity
  8
0
  6
CONTINUOUS
 62
     7
100
AcDbLine
 10
100.67251606266
 20
-129.5243700790518
 30
0.0
 11
100.67251606266
 21
-130.3244934990518
 31
0.0
  0
LINE
  5
437
330
1F
100
AcDbEntity
  8
0
  6
CONTINUOUS
 62
     7
100
AcDbLine
 10
101.8205941326599
 20
-130.3244934990518
 30
0.0
 11
100.67251606266
 21
-130.3244934990518
 31
0.0
  0
LINE
  5
438
330
1F
100
AcDbEntity
  8
0
  6
CONTINUOUS
 62
     7
100
AcDbLine
 10
13.54782083945992
 20
-134.7915684458519
 30
0.0
 11
13.19782236525992
 21
-134.2915711578518
 31
0.0
  0
LINE
  5
439
330
1F
100
AcDbEntity
  8
0
  6
CONTINUOUS
 62
     7
100
AcDbLine
 10
99.67257709265994
 20
-141.5038283490518
 30
0.0
 11
97.72523687265993
 21
-141.5038283490518
 31
0.0
  0
LINE
  5
43A
330
1F
100
AcDbEntity
  8
0
  6
CONTINUOUS
 62
     7
100
AcDbLine
 10
0.9978226006599584
 20
-202.0915696052518
 30
0.0
 11
0.9978226006599584
 21
-201.4665702012518
 31
0.0
  0
LINE
  5
43B
330
1F
100
AcDbEntity
  8
0
  6
CONTINUOUS
 62
     7
100
AcDbLine
 10
-0.0020974695400469
 20
-188.0415697818518
 30
0.0
 11
0.1979021908599634
 21
-188.0415697818518
 31
0.0
  0
LINE
  5
43C
330
1F
100
AcDbEntity
  8
0
  6
CONTINUOUS
 62
     7
100
AcDbLine
 10
0.9978226006599584
 20
-195.0415699396518
 30
0.0
 11
0.9978226006599584
 21
-194.9665696014519
 31
0.0
  0
LINE
  5
43D
330
1F
100
AcDbEntity
  8
0
  6
CONTINUOUS
 62
     7
100
AcDbLine
 10
-0.5096980749400473
 20
-245.5695053216518
 30
0.0
 11
0.9903012396599706
 21
-245.5695053216518
 31
0.0
  0
LINE
  5
43E
330
1F
100
AcDbEntity
  8
0
  6
CONTINUOUS
 62
     7
100
AcDbLine
 10
-2.002179679440076
 20
-247.2495070125518
 30
0.0
 11
0.9978226749599344
 21
-247.2495070125518
 31
0.0
  0
LINE
  5
43F
330
1F
100
AcDbEntity
  8
0
  6
CONTINUOUS
 62
     7
100
AcDbLine
 10
13.99782100625993
 20
-133.4665683682518
 30
0.0
 11
13.99782100625993
 21
-134.0024700040518
 31
0.0
  0
LINE
  5
440
330
1F
100
AcDbEntity
  8
0
  6
CONTINUOUS
 62
     7
100
AcDbLine
 10
123.6263695126599
 20
-126.6051890790518
 30
0.0
 11
123.4285745126599
 21
-126.4317979990518
 31
0.0
  0
LINE
  5
441
330
1F
100
AcDbEntity
  8
0
  6
CONTINUOUS
 62
     7
100
AcDbLine
 10
102.6207175626599
 20
-141.5038283490518
 30
0.0
 11
100.67251606266
 21
-141.5038283490518
 31
0.0
  0
LINE
  5
442
330
1F
100
AcDbEntity
  8
0
  6
CONTINUOUS
 62
     7
100
AcDbLine
 10
119.2995166426599
 20
-126.7950835790518
 30
0.0
 11
119.1348447826599
 21
-127.0003311990518
 31
0.0
  0
LINE
  5
443
330
1F
100
AcDbEntity
  8
0
  6
CONTINUOUS
 62
     7
100
AcDbLine
 10
117.3040706526599
 20
-132.5069338190518
 30
0.0
 11
117.54440439266
 21
-132.4776506190518
 31
0.0
  0
LINE
  5
444
330
1F
100
AcDbEntity
  8
0
  6
CONTINUOUS
 62
     7
100
AcDbLine
 10
119.1563146126599
 20
-248.4908380090518
 30
0.0
 11
119.1563146126599
 21
-248.5376312790518
 31
0.0
  0
LINE
  5
445
330
1F
100
AcDbEntity
  8
0
  6
CONTINUOUS
 62
     7
100
AcDbLine
 10
120.3560569226599
 20
-126.0221485890518
 30
0.0
 11
120.11748926266
 21
-126.1391274390518
 31
0.0
  0
LINE
  5
446
330
1F
100
AcDbEntity
  8
0
  6
CONTINUOUS
 62
     7
100
AcDbLine
 10
119.15631505076
 20
-249.9089250009519
 30
0.0
 11
125.29782170076
 21
-249.9089250009519
 31
0.0
  0
LINE
  5
447
330
1F
100
AcDbEntity
  8
0
  6
CONTINUOUS
 62
     7
100
AcDbLine
 10
120.3477826626599
 20
-247.2921267990518
 30
0.0
 11
120.2708332426599
 21
-247.2950735390518
 31
0.0
  0
LINE
  5
448
330
1F
100
AcDbEntity
  8
0
  6
CONTINUOUS
 62
     7
100
AcDbLine
 10
121.97155150266
 20
-125.8024416090518
 30
0.0
 11
121.6944085026599
 21
-125.7767835490518
 31
0.0
  0
LINE
  5
449
330
1F
100
AcDbEntity
  8
0
  6
CONTINUOUS
 62
     7
100
AcDbLine
 10
120.3440112826599
 20
-127.8855898290518
 30
0.0
 11
120.2707060826599
 21
-127.9953030590518
 31
0.0
  0
LINE
  5
44A
330
1F
100
AcDbEntity
  8
0
  6
CONTINUOUS
 62
     7
100
AcDbLine
 10
119.1563146126599
 20
-249.4503628990518
 30
0.0
 11
119.1563146126599
 21
-249.7968433990519
 31
0.0
  0
LINE
  5
44B
330
1F
100
AcDbEntity
  8
0
  6
CONTINUOUS
 62
     7
100
AcDbLine
 10
117.5316075826599
 20
-130.9422404590518
 30
0.0
 11
117.6412262126599
 21
-130.9008539390518
 31
0.0
  0
LINE
  5
44C
330
1F
100
AcDbEntity
  8
0
  6
CONTINUOUS
 62
     7
100
AcDbLine
 10
109.46440018076
 20
-122.4665693309518
 30
0.0
 11
109.46440018076
 21
-124.6208955809518
 31
0.0
  0
LINE
  5
44D
330
1F
100
AcDbEntity
  8
0
  6
CONTINUOUS
 62
     7
100
AcDbLine
 10
125.2978212626599
 20
-247.2048872090518
 30
0.0
 11
124.1878962526599
 21
-247.2244485590518
 31
0.0
  0
LINE
  5
44E
330
1F
100
AcDbEntity
  8
0
  6
CONTINUOUS
 62
     7
100
AcDbLine
 10
109.4811570488599
 20
102.8355259671482
 30
0.0
 11
109.61270231886
 21
101.5784147171482
 31
0.0
  0
LINE
  5
44F
330
1F
100
AcDbEntity
  8
0
  6
CONTINUOUS
 62
     7
100
AcDbLine
 10
79.88997754265995
 20
100.4756299209482
 30
0.0
 11
79.88997754265995
 21
99.67550650094819
 31
0.0
  0
LINE
  5
450
330
1F
100
AcDbEntity
  8
0
  6
CONTINUOUS
 62
     7
100
AcDbLine
 10
122.02734694266
 20
102.6514661109481
 30
0.0
 11
121.8971843726599
 21
102.6882839309482
 31
0.0
  0
LINE
  5
451
330
1F
100
AcDbEntity
  8
0
  6
CONTINUOUS
 62
     7
100
AcDbLine
 10
123.0271942526599
 20
101.5064115809482
 30
0.0
 11
122.9961520726599
 21
101.6387455309481
 31
0.0
  0
LINE
  5
452
330
1F
100
AcDbEntity
  8
0
  6
CONTINUOUS
 62
     7
100
AcDbLine
 10
120.2707060826599
 20
102.0046969409482
 30
0.0
 11
120.20709133266
 21
101.8884643409482
 31
0.0
  0
LINE
  5
453
330
1F
100
AcDbEntity
  8
0
  6
CONTINUOUS
 62
     7
100
AcDbLine
 10
120.8660361526599
 20
104.1473446409482
 30
0.0
 11
120.6059556726599
 21
104.0737255409481
 31
0.0
  0
LINE
  5
454
330
1F
100
AcDbEntity
  8
0
  6
CONTINUOUS
 62
     7
100
AcDbLine
 10
120.51737893266
 20
102.3119740409481
 30
0.0
 11
120.4264284126599
 21
102.2170279109482
 31
0.0
  0
LINE
  5
455
330
1F
100
AcDbEntity
  8
0
  6
CONTINUOUS
 62
     7
100
AcDbLine
 10
119.8068352826599
 20
-17.42421575905183
 30
0.0
 11
119.70450469266
 21
-17.48342714905186
 31
0.0
  0
LINE
  5
456
330
1F
100
AcDbEntity
  8
0
  6
CONTINUOUS
 62
     7
100
AcDbLine
 10
117.84867378886
 20
91.96689140714818
 30
0.0
 11
119.0408149088599
 21
91.65016181714816
 31
0.0
  0
LINE
  5
457
330
1F
100
AcDbEntity
  8
0
  6
CONTINUOUS
 62
     7
100
AcDbLine
 10
124.24667922266
 20
102.5477155009482
 30
0.0
 11
124.11953298266
 21
102.7802183809482
 31
0.0
  0
LINE
  5
458
330
1F
100
AcDbEntity
  8
0
  6
CONTINUOUS
 62
     7
100
AcDbLine
 10
118.55189414266
 20
100.3570818709482
 30
0.0
 11
118.5568680026599
 21
100.4799362909482
 31
0.0
  0
LINE
  5
459
330
1F
100
AcDbEntity
  8
0
  6
CONTINUOUS
 62
     7
100
AcDbLine
 10
123.80822781266
 20
103.2049164209482
 30
0.0
 11
123.6263695126599
 21
103.3948109209481
 31
0.0
  0
LINE
  5
45A
330
1F
100
AcDbEntity
  8
0
  6
CONTINUOUS
 62
     7
100
AcDbLine
 10
121.34437059266
 20
102.7133972709482
 30
0.0
 11
121.2098853126599
 21
102.6882839309482
 31
0.0
  0
LINE
  5
45B
330
1F
100
AcDbEntity
  8
0
  6
CONTINUOUS
 62
     7
100
AcDbLine
 10
120.72256600266
 20
102.4765469609482
 30
0.0
 11
120.6162843126599
 21
102.3986724309482
 31
0.0
  0
LINE
  5
45C
330
1F
100
AcDbEntity
  8
0
  6
CONTINUOUS
 62
     7
100
AcDbLine
 10
101.8205941326599
 20
99.67550650094819
 30
0.0
 11
101.8205941326599
 21
89.29500316094817
 31
0.0
  0
LINE
  5
45D
330
1F
100
AcDbEntity
  8
0
  6
CONTINUOUS
 62
     7
100
AcDbLine
 10
117.05825146266
 20
98.98131976094817
 30
0.0
 11
117.18104758266
 21
98.98629055094818
 31
0.0
  0
LINE
  5
45E
330
1F
100
AcDbEntity
  8
0
  6
CONTINUOUS
 62
     7
100
AcDbLine
 10
119.9019159626599
 20
99.53260738094815
 30
0.0
 11
119.96757043266
 21
99.75967890094819
 31
0.0
  0
LINE
  5
45F
330
1F
100
AcDbEntity
  8
0
  6
CONTINUOUS
 62
     7
100
AcDbLine
 10
81.83817904265993
 20
100.4756299209482
 30
0.0
 11
79.88997754265995
 21
100.4756299209482
 31
0.0
  0
LINE
  5
460
330
1F
100
AcDbEntity
  8
0
  6
CONTINUOUS
 62
     7
100
AcDbLine
 10
123.05271760266
 20
96.00561853094814
 30
0.0
 11
119.5559456876599
 21
92.50884661594819
 31
0.0
  0
LINE
  5
461
330
1F
100
AcDbEntity
  8
0
  6
CONTINUOUS
 62
     7
100
AcDbLine
 10
42.07488695265994
 20
-22.46656976905183
 30
0.0
 11
42.07488695265994
 21
107.5334302309482
 31
0.0
  0
LINE
  5
462
330
1F
100
AcDbEntity
  8
0
  6
CONTINUOUS
 62
     7
100
AcDbLine
 10
99.67257709265994
 20
88.49617165094816
 30
0.0
 11
97.72523687265993
 21
88.49617165094816
 31
0.0
  0
LINE
  5
463
330
1F
100
AcDbEntity
  8
0
  6
CONTINUOUS
 62
     7
100
AcDbLine
 10
119.5206854726599
 20
-17.62965364905182
 30
0.0
 11
119.44046520266
 21
-17.71538096905186
 31
0.0
  0
LINE
  5
464
330
1F
100
AcDbEntity
  8
0
  6
CONTINUOUS
 62
     7
100
AcDbLine
 10
100.67251606266
 20
89.29500316094817
 30
0.0
 11
100.67251606266
 21
88.49617165094816
 31
0.0
  0
LINE
  5
465
330
1F
100
AcDbEntity
  8
0
  6
CONTINUOUS
 62
     7
100
AcDbLine
 10
124.45142637266
 20
-19.90892543905181
 30
0.0
 11
124.45142637266
 21
-20.20864874905186
 31
0.0
  0
LINE
  5
466
330
1F
100
AcDbEntity
  8
0
  6
CONTINUOUS
 62
     7
100
AcDbLine
 10
109.8693881188599
 20
100.3629224971482
 30
0.0
 11
110.24453127886
 21
99.19573042714813
 31
0.0
  0
LINE
  5
467
330
1F
100
AcDbEntity
  8
0
  6
CONTINUOUS
 62
     7
100
AcDbLine
 10
114.6087358188599
 20
93.58102317714815
 30
0.0
 11
115.62595105886
 21
92.93900319714817
 31
0.0
  0
LINE
  5
468
330
1F
100
AcDbEntity
  8
0
  6
CONTINUOUS
 62
     7
100
AcDbLine
 10
120.45505533266
 20
-17.29023622905186
 30
0.0
 11
120.3477826626599
 21
-17.29212679905186
 31
0.0
  0
LINE
  5
469
330
1F
100
AcDbEntity
  8
0
  6
CONTINUOUS
 62
     7
100
AcDbLine
 10
120.0546232626599
 20
101.2296752009482
 30
0.0
 11
120.0546232626599
 21
100.4799362909482
 31
0.0
  0
LINE
  5
46A
330
1F
100
AcDbEntity
  8
0
  6
CONTINUOUS
 62
     7
100
AcDbLine
 10
89.28216911265997
 20
100.4756299209482
 30
0.0
 11
87.33396761265993
 21
100.4756299209482
 31
0.0
  0
LINE
  5
46B
330
1F
100
AcDbEntity
  8
0
  6
CONTINUOUS
 62
     7
100
AcDbLine
 10
122.38603187886
 20
91.38876081714818
 30
0.0
 11
122.68674936886
 21
91.38876081714818
 31
0.0
  0
LINE
  5
46C
330
1F
100
AcDbEntity
  8
0
  6
CONTINUOUS
 62
     7
100
AcDbLine
 10
117.77848269266
 20
97.57021285094817
 30
0.0
 11
118.00553559266
 21
97.63588595094814
 31
0.0
  0
LINE
  5
46D
330
1F
100
AcDbEntity
  8
0
  6
CONTINUOUS
 62
     7
100
AcDbLine
 10
119.4766464826599
 20
98.70994270094815
 30
0.0
 11
119.60582163266
 21
98.90122441094815
 31
0.0
  0
LINE
  5
46E
330
1F
100
AcDbEntity
  8
0
  6
CONTINUOUS
 62
     7
100
AcDbLine
 10
123.8201928226599
 20
-17.23092896905183
 30
0.0
 11
123.4115645526599
 21
-17.23813064905181
 31
0.0
  0
LINE
  5
46F
330
1F
100
AcDbEntity
  8
0
  6
CONTINUOUS
 62
     7
100
AcDbLine
 10
118.8280934726599
 20
98.06126222094815
 30
0.0
 11
119.00846963266
 21
98.20442413094815
 31
0.0
  0
LINE
  5
470
330
1F
100
AcDbEntity
  8
0
  6
CONTINUOUS
 62
     7
100
AcDbLine
 10
124.5383810626599
 20
101.5101856409482
 30
0.0
 11
124.50028871266
 21
101.7833952109482
 31
0.0
  0
LINE
  5
471
330
1F
100
AcDbEntity
  8
0
  6
CONTINUOUS
 62
     7
100
AcDbLine
 10
118.22479309266
 20
97.71859806094818
 30
0.0
 11
118.43548522266
 21
97.81757856094816
 31
0.0
  0
LINE
  5
472
330
1F
100
AcDbEntity
  8
0
  6
CONTINUOUS
 62
     7
100
AcDbLine
 10
123.6263695126599
 20
103.3948109209481
 30
0.0
 11
123.4285745126599
 21
103.5682020009482
 31
0.0
  0
LINE
  5
473
330
1F
100
AcDbEntity
  8
0
  6
CONTINUOUS
 62
     7
100
AcDbLine
 10
120.0801752226599
 20
101.5064115809482
 30
0.0
 11
120.06110767266
 21
101.3698627609481
 31
0.0
  0
LINE
  5
474
330
1F
100
AcDbEntity
  8
0
  6
CONTINUOUS
 62
     7
100
AcDbLine
 10
122.27179951266
 20
102.5450214909482
 30
0.0
 11
122.1524102226599
 21
102.6035199209481
 31
0.0
  0
LINE
  5
475
330
1F
100
AcDbEntity
  8
0
  6
CONTINUOUS
 62
     7
100
AcDbLine
 10
102.6207175626599
 20
100.4756299209482
 30
0.0
 11
102.6207175626599
 21
88.49617165094816
 31
0.0
  0
LINE
  5
476
330
1F
100
AcDbEntity
  8
0
  6
CONTINUOUS
 62
     7
100
AcDbLine
 10
91.42932487265989
 20
99.67550650094819
 30
0.0
 11
90.28124680265995
 21
99.67550650094819
 31
0.0
  0
LINE
  5
477
330
1F
100
AcDbEntity
  8
0
  6
CONTINUOUS
 62
     7
100
AcDbLine
 10
91.42932487265989
 20
99.67550650094819
 30
0.0
 11
91.42932487265989
 21
89.29500316094817
 31
0.0
  0
LINE
  5
478
330
1F
100
AcDbEntity
  8
0
  6
CONTINUOUS
 62
     7
100
AcDbLine
 10
124.35328747266
 20
102.3033104609482
 30
0.0
 11
124.24667922266
 21
102.5477155009482
 31
0.0
  0
LINE
  5
479
330
1F
100
AcDbEntity
  8
0
  6
CONTINUOUS
 62
     7
100
AcDbLine
 10
124.4382074126599
 20
102.0481535909482
 30
0.0
 11
124.35328747266
 21
102.3033104609482
 31
0.0
  0
LINE
  5
47A
330
1F
100
AcDbEntity
  8
0
  6
CONTINUOUS
 62
     7
100
AcDbLine
 10
37.22936015265992
 20
99.48085860094818
 30
0.0
 11
37.22936015265992
 21
89.49008170094817
 31
0.0
  0
LINE
  5
47B
330
1F
100
AcDbEntity
  8
0
  6
CONTINUOUS
 62
     7
100
AcDbLine
 10
122.53106055246
 20
-17.25364866905181
 30
0.0
 11
122.0889483324599
 21
-17.26144045905181
 31
0.0
  0
LINE
  5
47C
330
1F
100
AcDbEntity
  8
0
  6
CONTINUOUS
 62
     7
100
AcDbLine
 10
124.5513341426599
 20
95.38507071094818
 30
0.0
 11
121.0537009526599
 21
91.88786815094818
 31
0.0
  0
LINE
  5
47D
330
1F
100
AcDbEntity
  8
0
  6
CONTINUOUS
 62
     7
100
AcDbLine
 10
117.84728599266
 20
99.20594477094818
 30
0.0
 11
117.9429519826599
 21
99.27058375094816
 31
0.0
  0
LINE
  5
47E
330
1F
100
AcDbEntity
  8
0
  6
CONTINUOUS
 62
     7
100
AcDbLine
 10
122.68674936886
 20
91.38876081714818
 30
0.0
 11
123.0066324488599
 21
91.38876081714818
 31
0.0
  0
LINE
  5
47F
330
1F
100
AcDbEntity
  8
0
  6
CONTINUOUS
 62
     7
100
AcDbLine
 10
124.71510931886
 20
91.38876081714818
 30
0.0
 11
124.86250195886
 21
91.38876081714818
 31
0.0
  0
LINE
  5
480
330
1F
100
AcDbEntity
  8
0
  6
CONTINUOUS
 62
     7
100
AcDbLine
 10
119.1563146126599
 20
-18.66959880905182
 30
0.0
 11
119.1563146126599
 21
-18.87412219905184
 31
0.0
  0
LINE
  5
481
330
1F
100
AcDbEntity
  8
0
  6
CONTINUOUS
 62
     7
100
AcDbLine
 10
113.6631955888599
 20
94.31811107714816
 30
0.0
 11
114.6087358188599
 21
93.58102317714815
 31
0.0
  0
LINE
  5
482
330
1F
100
AcDbEntity
  8
0
  6
CONTINUOUS
 62
     7
100
AcDbLine
 10
119.1627477826599
 20
-18.36577650905184
 30
0.0
 11
119.1563146126599
 21
-18.49083800905186
 31
0.0
  0
LINE
  5
483
330
1F
100
AcDbEntity
  8
0
  6
CONTINUOUS
 62
     7
100
AcDbLine
 10
102.6207175626599
 20
88.49617165094816
 30
0.0
 11
100.67251606266
 21
88.49617165094816
 31
0.0
  0
LINE
  5
484
330
1F
100
AcDbEntity
  8
0
  6
CONTINUOUS
 62
     7
100
AcDbLine
 10
81.03977816265996
 20
94.37092072094816
 30
0.0
 11
79.88997754265995
 21
94.37092072094816
 31
0.0
  0
LINE
  5
485
330
1F
100
AcDbEntity
  8
0
  6
CONTINUOUS
 62
     7
100
AcDbLine
 10
122.1524102226599
 20
102.6035199209481
 30
0.0
 11
122.02734694266
 21
102.6514661109481
 31
0.0
  0
LINE
  5
486
330
1F
100
AcDbEntity
  8
0
  6
CONTINUOUS
 62
     7
100
AcDbLine
 10
122.38494014266
 20
102.4765469609482
 30
0.0
 11
122.27179951266
 21
102.5450214909482
 31
0.0
  0
LINE
  5
487
330
1F
100
AcDbEntity
  8
0
  6
CONTINUOUS
 62
     7
100
AcDbLine
 10
120.4264284126599
 20
102.2170279109482
 30
0.0
 11
120.3440112826599
 21
102.1144101709482
 31
0.0
  0
LINE
  5
488
330
1F
100
AcDbEntity
  8
0
  6
CONTINUOUS
 62
     7
100
AcDbLine
 10
124.1878962526599
 20
-17.22444855905184
 30
0.0
 11
123.8201928226599
 21
-17.23092896905183
 31
0.0
  0
LINE
  5
489
330
1F
100
AcDbEntity
  8
0
  6
CONTINUOUS
 62
     7
100
AcDbLine
 10
121.27541223246
 20
-17.27577823905182
 30
0.0
 11
120.93375187266
 21
-17.28179966905185
 31
0.0
  0
LINE
  5
48A
330
1F
100
AcDbEntity
  8
0
  6
CONTINUOUS
 62
     7
100
AcDbLine
 10
124.5513341426599
 20
101.2296752009482
 30
0.0
 11
124.5383810626599
 21
101.5101856409482
 31
0.0
  0
LINE
  5
48B
330
1F
100
AcDbEntity
  8
0
  6
CONTINUOUS
 62
     7
100
AcDbLine
 10
123.9729990726599
 20
102.9996688009481
 30
0.0
 11
123.80822781266
 21
103.2049164209482
 31
0.0
  0
LINE
  5
48C
330
1F
100
AcDbEntity
  8
0
  6
CONTINUOUS
 62
     7
100
AcDbLine
 10
43.12219598265995
 20
-22.46656976905183
 30
0.0
 11
43.12219598265995
 21
107.5334302309482
 31
0.0
  0
LINE
  5
48D
330
1F
100
AcDbEntity
  8
0
  6
CONTINUOUS
 62
     7
100
AcDbLine
 10
120.93375187266
 20
-17.28179966905185
 30
0.0
 11
120.6553389926599
 21
-17.28670641905182
 31
0.0
  0
LINE
  5
48E
330
1F
100
AcDbEntity
  8
0
  6
CONTINUOUS
 62
     7
100
AcDbLine
 10
118.3894363626599
 20
99.79141630094819
 30
0.0
 11
118.4389811326599
 21
99.89677987094814
 31
0.0
  0
LINE
  5
48F
330
1F
100
AcDbEntity
  8
0
  6
CONTINUOUS
 62
     7
100
AcDbLine
 10
89.28216911265997
 20
89.29500316094817
 30
0.0
 11
89.28216911265997
 21
88.49617165094816
 31
0.0
  0
LINE
  5
490
330
1F
100
AcDbEntity
  8
0
  6
CONTINUOUS
 62
     7
100
AcDbLine
 10
118.19584352266
 20
99.50481994094815
 30
0.0
 11
118.2674799826599
 21
99.59504974094818
 31
0.0
  0
LINE
  5
491
330
1F
100
AcDbEntity
  8
0
  6
CONTINUOUS
 62
     7
100
AcDbLine
 10
122.24081004266
 20
104.1473446409482
 30
0.0
 11
121.97155150266
 21
104.1975583909482
 31
0.0
  0
LINE
  5
492
330
1F
100
AcDbEntity
  8
0
  6
CONTINUOUS
 62
     7
100
AcDbLine
 10
88.13322977265994
 20
99.67550650094819
 30
0.0
 11
88.13322977265994
 21
89.29500316094817
 31
0.0
  0
LINE
  5
493
330
1F
100
AcDbEntity
  8
0
  6
CONTINUOUS
 62
     7
100
AcDbLine
 10
119.00846963266
 20
98.20442413094815
 30
0.0
 11
119.17720050266
 21
98.36077193094815
 31
0.0
  0
LINE
  5
494
330
1F
100
AcDbEntity
  8
0
  6
CONTINUOUS
 62
     7
100
AcDbLine
 10
119.2995166426599
 20
103.2049164209482
 30
0.0
 11
119.1348447826599
 21
102.9996688009481
 31
0.0
  0
LINE
  5
495
330
1F
100
AcDbEntity
  8
0
  6
CONTINUOUS
 62
     7
100
AcDbLine
 10
125.2978221388599
 20
91.38876081714818
 30
0.0
 11
125.2978221388599
 21
-19.90892456285184
 31
0.0
  0
LINE
  5
496
330
1F
100
AcDbEntity
  8
0
  6
CONTINUOUS
 62
     7
100
AcDbLine
 10
119.1563146126599
 20
-21.27740344905186
 30
0.0
 11
119.1563146126599
 21
-21.60811093905181
 31
0.0
  0
LINE
  5
497
330
1F
100
AcDbEntity
  8
0
  6
CONTINUOUS
 62
     7
100
AcDbLine
 10
99.67257709265994
 20
89.29500316094817
 30
0.0
 11
99.67257709265994
 21
88.49617165094816
 31
0.0
  0
LINE
  5
498
330
1F
100
AcDbEntity
  8
0
  6
CONTINUOUS
 62
     7
100
AcDbLine
 10
89.28216911265997
 20
99.67550650094819
 30
0.0
 11
88.13322977265994
 21
99.67550650094819
 31
0.0
  0
LINE
  5
499
330
1F
100
AcDbEntity
  8
0
  6
CONTINUOUS
 62
     7
100
AcDbLine
 10
109.4644006188599
 20
104.9965235971482
 30
0.0
 11
109.4644006188599
 21
104.6300397271482
 31
0.0
  0
LINE
  5
49A
330
1F
100
AcDbEntity
  8
0
  6
CONTINUOUS
 62
     7
100
AcDbLine
 10
121.7083908188599
 20
91.38876081714818
 30
0.0
 11
121.8859008288599
 21
91.38876081714818
 31
0.0
  0
LINE
  5
49B
330
1F
100
AcDbEntity
  8
0
  6
CONTINUOUS
 62
     7
100
AcDbLine
 10
99.67257709265994
 20
100.4756299209482
 30
0.0
 11
99.67257709265994
 21
99.67550650094819
 31
0.0
  0
LINE
  5
49C
330
1F
100
AcDbEntity
  8
0
  6
CONTINUOUS
 62
     7
100
AcDbLine
 10
121.4827609726599
 20
102.7262300009481
 30
0.0
 11
121.34437059266
 21
102.7133972709482
 31
0.0
  0
LINE
  5
49D
330
1F
100
AcDbEntity
  8
0
  6
CONTINUOUS
 62
     7
100
AcDbLine
 10
120.9549442226599
 20
102.6035199209481
 30
0.0
 11
120.83564549266
 21
102.5450214909482
 31
0.0
  0
LINE
  5
49E
330
1F
100
AcDbEntity
  8
0
  6
CONTINUOUS
 62
     7
100
AcDbLine
 10
109.61270231886
 20
101.5784147171482
 30
0.0
 11
109.8693881188599
 21
100.3629224971482
 31
0.0
  0
LINE
  5
49F
330
1F
100
AcDbEntity
  8
0
  6
CONTINUOUS
 62
     7
100
AcDbLine
 10
117.54440439266
 20
97.52234938094819
 30
0.0
 11
117.77848269266
 21
97.57021285094817
 31
0.0
  0
LINE
  5
4A0
330
1F
100
AcDbEntity
  8
0
  6
CONTINUOUS
 62
     7
100
AcDbLine
 10
109.4644006188599
 20
103.5826363371482
 30
0.0
 11
109.4644006188599
 21
103.4898080671481
 31
0.0
  0
LINE
  5
4A1
330
1F
100
AcDbEntity
  8
0
  6
CONTINUOUS
 62
     7
100
AcDbLine
 10
119.1563146126599
 20
-19.79684339905185
 30
0.0
 11
119.1563146126599
 21
-20.16540610905184
 31
0.0
  0
LINE
  5
4A2
330
1F
100
AcDbEntity
  8
0
  6
CONTINUOUS
 62
     7
100
AcDbLine
 10
124.86250195886
 20
91.38876081714818
 30
0.0
 11
125.2978221388599
 21
91.38876081714818
 31
0.0
  0
LINE
  5
4A3
330
1F
100
AcDbEntity
  8
0
  6
CONTINUOUS
 62
     7
100
AcDbLine
 10
118.56981280266
 20
101.5101856409482
 30
0.0
 11
118.5568680026599
 21
101.2296752009482
 31
0.0
  0
LINE
  5
4A4
330
1F
100
AcDbEntity
  8
0
  6
CONTINUOUS
 62
     7
100
AcDbLine
 10
122.50103379266
 20
104.0737255409481
 30
0.0
 11
122.24081004266
 21
104.1473446409482
 31
0.0
  0
LINE
  5
4A5
330
1F
100
AcDbEntity
  8
0
  6
CONTINUOUS
 62
     7
100
AcDbLine
 10
117.3040706526599
 20
97.49306618094818
 30
0.0
 11
117.54440439266
 21
97.52234938094819
 31
0.0
  0
LINE
  5
4A6
330
1F
100
AcDbEntity
  8
0
  6
CONTINUOUS
 62
     7
100
AcDbLine
 10
120.06110767266
 20
101.3698627609481
 30
0.0
 11
120.0546232626599
 21
101.2296752009482
 31
0.0
  0
LINE
  5
4A7
330
1F
100
AcDbEntity
  8
0
  6
CONTINUOUS
 62
     7
100
AcDbLine
 10
109.4644006188599
 20
103.9968757971482
 30
0.0
 11
109.4644006188599
 21
103.7559515471482
 31
0.0
  0
LINE
  5
4A8
330
1F
100
AcDbEntity
  8
0
  6
CONTINUOUS
 62
     7
100
AcDbLine
 10
78.89089985265997
 20
99.67550650094819
 30
0.0
 11
77.74196051265994
 21
99.67550650094819
 31
0.0
  0
LINE
  5
4A9
330
1F
100
AcDbEntity
  8
0
  6
CONTINUOUS
 62
     7
100
AcDbLine
 10
122.76352251266
 20
102.1144101709482
 30
0.0
 11
122.6811233026599
 21
102.2170279109482
 31
0.0
  0
LINE
  5
4AA
330
1F
100
AcDbEntity
  8
0
  6
CONTINUOUS
 62
     7
100
AcDbLine
 10
87.33396761265993
 20
100.4756299209482
 30
0.0
 11
87.33396761265993
 21
88.49617165094816
 31
0.0
  0
LINE
  5
4AB
330
1F
100
AcDbEntity
  8
0
  6
CONTINUOUS
 62
     7
100
AcDbLine
 10
118.51326601266
 20
100.1199345309482
 30
0.0
 11
118.5372309526599
 21
100.2369524209482
 31
0.0
  0
LINE
  5
4AC
330
1F
100
AcDbEntity
  8
0
  6
CONTINUOUS
 62
     7
100
AcDbLine
 10
120.6162843126599
 20
102.3986724309482
 30
0.0
 11
120.51737893266
 21
102.3119740409481
 31
0.0
  0
LINE
  5
4AD
330
1F
100
AcDbEntity
  8
0
  6
CONTINUOUS
 62
     7
100
AcDbLine
 10
78.89089985265997
 20
100.4756299209482
 30
0.0
 11
76.94269836265994
 21
100.4756299209482
 31
0.0
  0
LINE
  5
4AE
330
1F
100
AcDbEntity
  8
0
  6
CONTINUOUS
 62
     7
100
AcDbLine
 10
78.89089985265997
 20
100.4756299209482
 30
0.0
 11
78.89089985265997
 21
99.67550650094819
 31
0.0
  0
LINE
  5
4AF
330
1F
100
AcDbEntity
  8
0
  6
CONTINUOUS
 62
     7
100
AcDbLine
 10
97.72523687265993
 20
100.4756299209482
 30
0.0
 11
97.72523687265993
 21
88.49617165094816
 31
0.0
  0
LINE
  5
4B0
330
1F
100
AcDbEntity
  8
0
  6
CONTINUOUS
 62
     7
100
AcDbLine
 10
43.12219598265995
 20
-21.90665017905184
 30
0.0
 11
42.12311829265997
 21
-21.90665017905184
 31
0.0
  0
LINE
  5
4B1
330
1F
100
AcDbEntity
  8
0
  6
CONTINUOUS
 62
     7
100
AcDbLine
 10
119.1563146126599
 20
-20.91830454905181
 30
0.0
 11
119.1563146126599
 21
-21.27740344905186
 31
0.0
  0
LINE
  5
4B2
330
1F
100
AcDbEntity
  8
0
  6
CONTINUOUS
 62
     7
100
AcDbLine
 10
37.22936015265992
 20
0.5725978609481785
 30
0.0
 11
37.22936015265992
 21
-9.419040319051817
 31
0.0
  0
LINE
  5
4B3
330
1F
100
AcDbEntity
  8
0
  6
CONTINUOUS
 62
     7
100
AcDbLine
 10
117.6412262126599
 20
99.09914606094816
 30
0.0
 11
117.7465815426599
 21
99.14867001094814
 31
0.0
  0
LINE
  5
4B4
330
1F
100
AcDbEntity
  8
0
  6
CONTINUOUS
 62
     7
100
AcDbLine
 10
122.1154317788599
 20
91.38876081714818
 30
0.0
 11
122.38603187886
 21
91.38876081714818
 31
0.0
  0
LINE
  5
4B5
330
1F
100
AcDbEntity
  8
0
  6
CONTINUOUS
 62
     7
100
AcDbLine
 10
124.2587853688599
 20
91.38876081714818
 30
0.0
 11
124.51021986886
 21
91.38876081714818
 31
0.0
  0
LINE
  5
4B6
330
1F
100
AcDbEntity
  8
0
  6
CONTINUOUS
 62
     7
100
AcDbLine
 10
119.1563146126599
 20
-18.49083800905186
 30
0.0
 11
119.1563146126599
 21
-18.53763127905182
 31
0.0
  0
LINE
  5
4B7
330
1F
100
AcDbEntity
  8
0
  6
CONTINUOUS
 62
     7
100
AcDbLine
 10
81.03977816265996
 20
99.67550650094819
 30
0.0
 11
79.88997754265995
 21
99.67550650094819
 31
0.0
  0
LINE
  5
4B8
330
1F
100
AcDbEntity
  8
0
  6
CONTINUOUS
 62
     7
100
AcDbLine
 10
18.29782202845996
 20
107.5334311071481
 30
0.0
 11
109.4644006188599
 21
107.5334311071481
 31
0.0
  0
LINE
  5
4B9
330
1F
100
AcDbEntity
  8
0
  6
CONTINUOUS
 62
     7
100
AcDbLine
 10
121.6944085026599
 20
104.2232164509481
 30
0.0
 11
121.41214489266
 21
104.2232164509481
 31
0.0
  0
LINE
  5
4BA
330
1F
100
AcDbEntity
  8
0
  6
CONTINUOUS
 62
     7
100
AcDbLine
 10
120.0154197926599
 20
99.99377131094815
 30
0.0
 11
120.0446940626599
 21
100.2341139809482
 31
0.0
  0
LINE
  5
4BB
330
1F
100
AcDbEntity
  8
0
  6
CONTINUOUS
 62
     7
100
AcDbLine
 10
121.76249716266
 20
102.7133972709482
 30
0.0
 11
121.62386001266
 21
102.7262300009481
 31
0.0
  0
LINE
  5
4BC
330
1F
100
AcDbEntity
  8
0
  6
CONTINUOUS
 62
     7
100
AcDbLine
 10
119.60891003266
 20
-17.55212106905185
 30
0.0
 11
119.5206854726599
 21
-17.62965364905182
 31
0.0
  0
LINE
  5
4BD
330
1F
100
AcDbEntity
  8
0
  6
CONTINUOUS
 62
     7
100
AcDbLine
 10
123.05271760266
 20
101.2296752009482
 30
0.0
 11
123.0462409926599
 21
101.3698627609481
 31
0.0
  0
LINE
  5
4BE
330
1F
100
AcDbEntity
  8
0
  6
CONTINUOUS
 62
     7
100
AcDbLine
 10
122.98977565266
 20
103.8608725609482
 30
0.0
 11
122.75107244266
 21
103.9778514109482
 31
0.0
  0
LINE
  5
4BF
330
1F
100
AcDbEntity
  8
0
  6
CONTINUOUS
 62
     7
100
AcDbLine
 10
122.9003801026599
 20
101.8884643409482
 30
0.0
 11
122.8367996726599
 21
102.0046969409482
 31
0.0
  0
LINE
  5
4C0
330
1F
100
AcDbEntity
  8
0
  6
CONTINUOUS
 62
     7
100
AcDbLine
 10
118.8613320826599
 20
102.5477155009482
 30
0.0
 11
118.75478996266
 21
102.3033104609482
 31
0.0
  0
LINE
  5
4C1
330
1F
100
AcDbEntity
  8
0
  6
CONTINUOUS
 62
     7
100
AcDbLine
 10
111.3234568688599
 20
97.03297115714815
 30
0.0
 11
112.01387292886
 21
96.05076617714815
 31
0.0
  0
LINE
  5
4C2
330
1F
100
AcDbEntity
  8
0
  6
CONTINUOUS
 62
     7
100
AcDbLine
 10
120.83564549266
 20
102.5450214909482
 30
0.0
 11
120.72256600266
 21
102.4765469609482
 31
0.0
  0
LINE
  5
4C3
330
1F
100
AcDbEntity
  8
0
  6
CONTINUOUS
 62
     7
100
AcDbLine
 10
39.62800788265997
 20
89.49008170094817
 30
0.0
 11
37.22936015265992
 21
89.49008170094817
 31
0.0
  0
LINE
  5
4C4
330
1F
100
AcDbEntity
  8
0
  6
CONTINUOUS
 62
     7
100
AcDbLine
 10
89.28216911265997
 20
88.49617165094816
 30
0.0
 11
87.33396761265993
 21
88.49617165094816
 31
0.0
  0
LINE
  5
4C5
330
1F
100
AcDbEntity
  8
0
  6
CONTINUOUS
 62
     7
100
AcDbLine
 10
39.62800788265997
 20
-9.419040319051817
 30
0.0
 11
37.22936015265992
 21
-9.419040319051817
 31
0.0
  0
LINE
  5
4C6
330
1F
100
AcDbEntity
  8
0
  6
CONTINUOUS
 62
     7
100
AcDbLine
 10
120.3560569226599
 20
103.9778514109482
 30
0.0
 11
120.11748926266
 21
103.8608725609482
 31
0.0
  0
LINE
  5
4C7
330
1F
100
AcDbEntity
  8
0
  6
CONTINUOUS
 62
     7
100
AcDbLine
 10
119.1348447826599
 20
102.9996688009481
 30
0.0
 11
118.98840013266
 21
102.7802183809482
 31
0.0
  0
LINE
  5
4C8
330
1F
100
AcDbEntity
  8
0
  6
CONTINUOUS
 62
     7
100
AcDbLine
 10
110.24453127886
 20
99.19573042714813
 30
0.0
 11
110.73144858886
 21
98.08351961714817
 31
0.0
  0
LINE
  5
4C9
330
1F
100
AcDbEntity
  8
0
  6
CONTINUOUS
 62
     7
100
AcDbLine
 10
119.3688834026599
 20
-17.80865914905183
 30
0.0
 11
119.30657425266
 21
-17.90884427905183
 31
0.0
  0
LINE
  5
4CA
330
1F
100
AcDbEntity
  8
0
  6
CONTINUOUS
 62
     7
100
AcDbLine
 10
79.88997754265995
 20
93.57165857094816
 30
0.0
 11
79.88997754265995
 21
94.37092072094816
 31
0.0
  0
LINE
  5
4CB
330
1F
100
AcDbEntity
  8
0
  6
CONTINUOUS
 62
     7
100
AcDbLine
 10
123.4285745126599
 20
103.5682020009482
 30
0.0
 11
123.2159931126599
 21
103.7239393209481
 31
0.0
  0
LINE
  5
4CC
330
1F
100
AcDbEntity
  8
0
  6
CONTINUOUS
 62
     7
100
AcDbLine
 10
119.9152676126599
 20
-17.37513080905183
 30
0.0
 11
119.8068352826599
 21
-17.42421575905183
 31
0.0
  0
LINE
  5
4CD
330
1F
100
AcDbEntity
  8
0
  6
CONTINUOUS
 62
     7
100
AcDbLine
 10
122.0889483324599
 20
-17.26144045905181
 30
0.0
 11
121.6654383026599
 21
-17.26890440905186
 31
0.0
  0
LINE
  5
4CE
330
1F
100
AcDbEntity
  8
0
  6
CONTINUOUS
 62
     7
100
AcDbLine
 10
121.0537009526599
 20
91.39866459094816
 30
0.0
 11
121.0537009526599
 21
91.88786815094818
 31
0.0
  0
LINE
  5
4CF
330
1F
100
AcDbEntity
  8
0
  6
CONTINUOUS
 62
     7
100
AcDbLine
 10
123.9717576088599
 20
91.38876081714818
 30
0.0
 11
124.2587853688599
 21
91.38876081714818
 31
0.0
  0
LINE
  5
4D0
330
1F
100
AcDbEntity
  8
0
  6
CONTINUOUS
 62
     7
100
AcDbLine
 10
124.5513341426599
 20
101.2296752009482
 30
0.0
 11
124.5513341426599
 21
95.38507071094818
 31
0.0
  0
LINE
  5
4D1
330
1F
100
AcDbEntity
  8
0
  6
CONTINUOUS
 62
     7
100
AcDbLine
 10
92.22944830265999
 20
100.4756299209482
 30
0.0
 11
90.28124680265995
 21
100.4756299209482
 31
0.0
  0
LINE
  5
4D2
330
1F
100
AcDbEntity
  8
0
  6
CONTINUOUS
 62
     7
100
AcDbLine
 10
121.62386001266
 20
102.7262300009481
 30
0.0
 11
121.4827609726599
 21
102.7262300009481
 31
0.0
  0
LINE
  5
4D3
330
1F
100
AcDbEntity
  8
0
  6
CONTINUOUS
 62
     7
100
AcDbLine
 10
121.2098853126599
 20
102.6882839309482
 30
0.0
 11
121.0798836726599
 21
102.6514661109481
 31
0.0
  0
LINE
  5
4D4
330
1F
100
AcDbEntity
  8
0
  6
CONTINUOUS
 62
     7
100
AcDbLine
 10
109.4644006188599
 20
103.4898080671481
 30
0.0
 11
109.4811570488599
 21
102.8355259671482
 31
0.0
  0
LINE
  5
4D5
330
1F
100
AcDbEntity
  8
0
  6
CONTINUOUS
 62
     7
100
AcDbLine
 10
119.70450469266
 20
-17.48342714905186
 30
0.0
 11
119.60891003266
 21
-17.55212106905185
 31
0.0
  0
LINE
  5
4D6
330
1F
100
AcDbEntity
  8
0
  6
CONTINUOUS
 62
     7
100
AcDbLine
 10
119.21231062266
 20
-18.12735984905186
 30
0.0
 11
119.1816245226599
 21
-18.24440248905182
 31
0.0
  0
LINE
  5
4D7
330
1F
100
AcDbEntity
  8
0
  6
CONTINUOUS
 62
     7
100
AcDbLine
 10
119.1563154888599
 20
-19.90892456285184
 30
0.0
 11
125.2978221388599
 21
-19.90892456285184
 31
0.0
  0
LINE
  5
4D8
330
1F
100
AcDbEntity
  8
0
  6
CONTINUOUS
 62
     7
100
AcDbLine
 10
118.6368420126599
 20
97.93205682094816
 30
0.0
 11
118.8280934726599
 21
98.06126222094815
 31
0.0
  0
LINE
  5
4D9
330
1F
100
AcDbEntity
  8
0
  6
CONTINUOUS
 62
     7
100
AcDbLine
 10
122.75107244266
 20
103.9778514109482
 30
0.0
 11
122.50103379266
 21
104.0737255409481
 31
0.0
  0
LINE
  5
4DA
330
1F
100
AcDbEntity
  8
0
  6
CONTINUOUS
 62
     7
100
AcDbLine
 10
118.75478996266
 20
102.3033104609482
 30
0.0
 11
118.66992313266
 21
102.0481535909482
 31
0.0
  0
LINE
  5
4DB
330
1F
100
AcDbEntity
  8
0
  6
CONTINUOUS
 62
     7
100
AcDbLine
 10
112.79601355886
 20
95.14358578714814
 30
0.0
 11
113.6631955888599
 21
94.31811107714816
 31
0.0
  0
LINE
  5
4DC
330
1F
100
AcDbEntity
  8
0
  6
CONTINUOUS
 62
     7
100
AcDbLine
 10
119.1816245226599
 20
-18.24440248905182
 30
0.0
 11
119.1627477826599
 21
-18.36577650905184
 31
0.0
  0
LINE
  5
4DD
330
1F
100
AcDbEntity
  8
0
  6
CONTINUOUS
 62
     7
100
AcDbLine
 10
119.8914020526599
 20
103.7239393209481
 30
0.0
 11
119.67894464266
 21
103.5682020009482
 31
0.0
  0
LINE
  5
4DE
330
1F
100
AcDbEntity
  8
0
  6
CONTINUOUS
 62
     7
100
AcDbLine
 10
124.45142637266
 20
-20.20864874905186
 30
0.0
 11
122.4532709926599
 21
-21.40754196905186
 31
0.0
  0
LINE
  5
4DF
330
1F
100
AcDbEntity
  8
0
  6
CONTINUOUS
 62
     7
100
AcDbLine
 10
124.11953298266
 20
102.7802183809482
 30
0.0
 11
123.9729990726599
 21
102.9996688009481
 31
0.0
  0
LINE
  5
4E0
330
1F
100
AcDbEntity
  8
0
  6
CONTINUOUS
 62
     7
100
AcDbLine
 10
121.45333203266
 20
-20.40889491905182
 30
0.0
 11
119.1563146126599
 21
-20.40889491905182
 31
0.0
  0
LINE
  5
4E1
330
1F
100
AcDbEntity
  8
0
  6
CONTINUOUS
 62
     7
100
AcDbLine
 10
123.0462409926599
 20
101.3698627609481
 30
0.0
 11
123.0271942526599
 21
101.5064115809482
 31
0.0
  0
LINE
  5
4E2
330
1F
100
AcDbEntity
  8
0
  6
CONTINUOUS
 62
     7
100
AcDbLine
 10
119.3335161126599
 20
98.52953500094816
 30
0.0
 11
119.4766464826599
 21
98.70994270094815
 31
0.0
  0
LINE
  5
4E3
330
1F
100
AcDbEntity
  8
0
  6
CONTINUOUS
 62
     7
100
AcDbLine
 10
117.05825146266
 20
97.48313386094816
 30
0.0
 11
111.0551725826599
 21
97.48313386094816
 31
0.0
  0
LINE
  5
4E4
330
1F
100
AcDbEntity
  8
0
  6
CONTINUOUS
 62
     7
100
AcDbLine
 10
81.03977816265996
 20
99.67550650094819
 30
0.0
 11
81.03977816265996
 21
94.37092072094816
 31
0.0
  0
LINE
  5
4E5
330
1F
100
AcDbEntity
  8
0
  6
CONTINUOUS
 62
     7
100
AcDbLine
 10
39.62800788265997
 20
0.5725978609481785
 30
0.0
 11
39.62800788265997
 21
-9.419040319051817
 31
0.0
  0
LINE
  5
4E6
330
1F
100
AcDbEntity
  8
0
  6
CONTINUOUS
 62
     7
100
AcDbLine
 10
122.4532709926599
 20
-21.40754196905186
 30
0.0
 11
121.45333203266
 21
-21.40754196905186
 31
0.0
  0
LINE
  5
4E7
330
1F
100
AcDbEntity
  8
0
  6
CONTINUOUS
 62
     7
100
AcDbLine
 10
115.62595105886
 20
92.93900319714817
 30
0.0
 11
116.7081581088599
 21
92.39873223714818
 31
0.0
  0
LINE
  5
4E8
330
1F
100
AcDbEntity
  8
0
  6
CONTINUOUS
 62
     7
100
AcDbLine
 10
120.3477826626599
 20
-17.29212679905186
 30
0.0
 11
120.2708332426599
 21
-17.29507353905183
 31
0.0
  0
LINE
  5
4E9
330
1F
100
AcDbEntity
  8
0
  6
CONTINUOUS
 62
     7
100
AcDbLine
 10
90.28124680265995
 20
100.4756299209482
 30
0.0
 11
90.28124680265995
 21
99.67550650094819
 31
0.0
  0
LINE
  5
4EA
330
1F
100
AcDbEntity
  8
0
  6
CONTINUOUS
 62
     7
100
AcDbLine
 10
120.1112473726599
 20
101.6387455309481
 30
0.0
 11
120.0801752226599
 21
101.5064115809482
 31
0.0
  0
LINE
  5
4EB
330
1F
100
AcDbEntity
  8
0
  6
CONTINUOUS
 62
     7
100
AcDbLine
 10
109.4644006188599
 20
104.6300397271482
 30
0.0
 11
109.4644006188599
 21
104.2925311571482
 31
0.0
  0
LINE
  5
4EC
330
1F
100
AcDbEntity
  8
0
  6
CONTINUOUS
 62
     7
100
AcDbLine
 10
121.8859008288599
 20
91.38876081714818
 30
0.0
 11
122.1154317788599
 21
91.38876081714818
 31
0.0
  0
LINE
  5
4ED
330
1F
100
AcDbEntity
  8
0
  6
CONTINUOUS
 62
     7
100
AcDbLine
 10
119.8192263426599
 20
99.31332738094818
 30
0.0
 11
119.9019159626599
 21
99.53260738094815
 31
0.0
  0
LINE
  5
4EE
330
1F
100
AcDbEntity
  8
0
  6
CONTINUOUS
 62
     7
100
AcDbLine
 10
121.55324066886
 20
91.38876081714818
 30
0.0
 11
121.59385350886
 21
91.38876081714818
 31
0.0
  0
LINE
  5
4EF
330
1F
100
AcDbEntity
  8
0
  6
CONTINUOUS
 62
     7
100
AcDbLine
 10
119.5559456876599
 20
91.55455516594816
 30
0.0
 11
119.5559456876599
 21
92.50884661594819
 31
0.0
  0
LINE
  5
4F0
330
1F
100
AcDbEntity
  8
0
  6
CONTINUOUS
 62
     7
100
AcDbLine
 10
121.6654383026599
 20
-17.26890440905186
 30
0.0
 11
121.27541223246
 21
-17.27577823905182
 31
0.0
  0
LINE
  5
4F1
330
1F
100
AcDbEntity
  8
0
  6
CONTINUOUS
 62
     7
100
AcDbLine
 10
118.43548522266
 20
97.81757856094816
 30
0.0
 11
118.6368420126599
 21
97.93205682094816
 31
0.0
  0
LINE
  5
4F2
330
1F
100
AcDbEntity
  8
0
  6
CONTINUOUS
 62
     7
100
AcDbLine
 10
121.41214489266
 20
104.2232164509481
 30
0.0
 11
121.1351490126599
 21
104.1975583909482
 31
0.0
  0
LINE
  5
4F3
330
1F
100
AcDbEntity
  8
0
  6
CONTINUOUS
 62
     7
100
AcDbLine
 10
119.60582163266
 20
98.90122441094815
 30
0.0
 11
119.72027157266
 21
99.10260951094818
 31
0.0
  0
LINE
  5
4F4
330
1F
100
AcDbEntity
  8
0
  6
CONTINUOUS
 62
     7
100
AcDbLine
 10
112.01387292886
 20
96.05076617714815
 30
0.0
 11
112.79601355886
 21
95.14358578714814
 31
0.0
  0
LINE
  5
4F5
330
1F
100
AcDbEntity
  8
0
  6
CONTINUOUS
 62
     7
100
AcDbLine
 10
119.0408149088599
 20
91.65016181714816
 30
0.0
 11
120.27789826886
 21
91.45522458714817
 31
0.0
  0
LINE
  5
4F6
330
1F
100
AcDbEntity
  8
0
  6
CONTINUOUS
 62
     7
100
AcDbLine
 10
81.83817904265993
 20
93.57165857094816
 30
0.0
 11
79.88997754265995
 21
93.57165857094816
 31
0.0
  0
LINE
  5
4F7
330
1F
100
AcDbEntity
  8
0
  6
CONTINUOUS
 62
     7
100
AcDbLine
 10
89.28216911265997
 20
89.29500316094817
 30
0.0
 11
88.13322977265994
 21
89.29500316094817
 31
0.0
  0
LINE
  5
4F8
330
1F
100
AcDbEntity
  8
0
  6
CONTINUOUS
 62
     7
100
AcDbLine
 10
39.62800788265997
 20
0.5725978609481785
 30
0.0
 11
37.22936015265992
 21
0.5725978609481785
 31
0.0
  0
LINE
  5
4F9
330
1F
100
AcDbEntity
  8
0
  6
CONTINUOUS
 62
     7
100
AcDbLine
 10
121.97155150266
 20
104.1975583909482
 30
0.0
 11
121.6944085026599
 21
104.2232164509481
 31
0.0
  0
LINE
  5
4FA
330
1F
100
AcDbEntity
  8
0
  6
CONTINUOUS
 62
     7
100
AcDbLine
 10
109.4644006188599
 20
103.7559515471482
 30
0.0
 11
109.4644006188599
 21
103.5826363371482
 31
0.0
  0
LINE
  5
4FB
330
1F
100
AcDbEntity
  8
0
  6
CONTINUOUS
 62
     7
100
AcDbLine
 10
99.67257709265994
 20
99.67550650094819
 30
0.0
 11
98.52363775265997
 21
99.67550650094819
 31
0.0
  0
LINE
  5
4FC
330
1F
100
AcDbEntity
  8
0
  6
CONTINUOUS
 62
     7
100
AcDbLine
 10
101.8205941326599
 20
89.29500316094817
 30
0.0
 11
100.67251606266
 21
89.29500316094817
 31
0.0
  0
LINE
  5
4FD
330
1F
100
AcDbEntity
  8
0
  6
CONTINUOUS
 62
     7
100
AcDbLine
 10
92.22944830265999
 20
100.4756299209482
 30
0.0
 11
92.22944830265999
 21
88.49617165094816
 31
0.0
  0
LINE
  5
4FE
330
1F
100
AcDbEntity
  8
0
  6
CONTINUOUS
 62
     7
100
AcDbLine
 10
117.18104758266
 20
98.98629055094818
 30
0.0
 11
117.30113069266
 21
99.00094517094817
 31
0.0
  0
LINE
  5
4FF
330
1F
100
AcDbEntity
  8
0
  6
CONTINUOUS
 62
     7
100
AcDbLine
 10
77.74196051265994
 20
99.67550650094819
 30
0.0
 11
77.74196051265994
 21
94.37092072094816
 31
0.0
  0
LINE
  5
500
330
1F
100
AcDbEntity
  8
0
  6
CONTINUOUS
 62
     7
100
AcDbLine
 10
118.4389811326599
 20
99.89677987094814
 30
0.0
 11
118.4803868826599
 21
100.0064148109482
 31
0.0
  0
LINE
  5
501
330
1F
100
AcDbEntity
  8
0
  6
CONTINUOUS
 62
     7
100
AcDbLine
 10
124.50028871266
 20
101.7833952109482
 30
0.0
 11
124.4382074126599
 21
102.0481535909482
 31
0.0
  0
LINE
  5
502
330
1F
100
AcDbEntity
  8
0
  6
CONTINUOUS
 62
     7
100
AcDbLine
 10
120.1479007726599
 20
-17.30991579905185
 30
0.0
 11
120.0291675026599
 21
-17.33681618905183
 31
0.0
  0
LINE
  5
503
330
1F
100
AcDbEntity
  8
0
  6
CONTINUOUS
 62
     7
100
AcDbLine
 10
122.9768932126599
 20
-17.24579129905186
 30
0.0
 11
122.53106055246
 21
-17.25364866905181
 31
0.0
  0
LINE
  5
504
330
1F
100
AcDbEntity
  8
0
  6
CONTINUOUS
 62
     7
100
AcDbLine
 10
118.5568680026599
 20
101.2296752009482
 30
0.0
 11
118.5568680026599
 21
100.4799362909482
 31
0.0
  0
LINE
  5
505
330
1F
100
AcDbEntity
  8
0
  6
CONTINUOUS
 62
     7
100
AcDbLine
 10
102.6207175626599
 20
100.4756299209482
 30
0.0
 11
100.67251606266
 21
100.4756299209482
 31
0.0
  0
LINE
  5
506
330
1F
100
AcDbEntity
  8
0
  6
CONTINUOUS
 62
     7
100
AcDbLine
 10
118.33214011266
 20
99.69071073094818
 30
0.0
 11
118.3894363626599
 21
99.79141630094819
 31
0.0
  0
LINE
  5
507
330
1F
100
AcDbEntity
  8
0
  6
CONTINUOUS
 62
     7
100
AcDbLine
 10
119.1563146126599
 20
-19.13858302905186
 30
0.0
 11
119.1563146126599
 21
-19.45036289905181
 31
0.0
  0
LINE
  5
508
330
1F
100
AcDbEntity
  8
0
  6
CONTINUOUS
 62
     7
100
AcDbLine
 10
123.05271760266
 20
101.2296752009482
 30
0.0
 11
123.05271760266
 21
96.00561853094814
 31
0.0
  0
LINE
  5
509
330
1F
100
AcDbEntity
  8
0
  6
CONTINUOUS
 62
     7
100
AcDbLine
 10
122.49125744266
 20
102.3986724309482
 30
0.0
 11
122.38494014266
 21
102.4765469609482
 31
0.0
  0
LINE
  5
50A
330
1F
100
AcDbEntity
  8
0
  6
CONTINUOUS
 62
     7
100
AcDbLine
 10
120.3440112826599
 20
102.1144101709482
 30
0.0
 11
120.2707060826599
 21
102.0046969409482
 31
0.0
  0
LINE
  5
50B
330
1F
100
AcDbEntity
  8
0
  6
CONTINUOUS
 62
     7
100
AcDbLine
 10
119.1563146126599
 20
-20.54343262905184
 30
0.0
 11
119.1563146126599
 21
-20.91830454905181
 31
0.0
  0
LINE
  5
50C
330
1F
100
AcDbEntity
  8
0
  6
CONTINUOUS
 62
     7
100
AcDbLine
 10
122.6811233026599
 20
102.2170279109482
 30
0.0
 11
122.59017671266
 21
102.3119740409481
 31
0.0
  0
LINE
  5
50D
330
1F
100
AcDbEntity
  8
0
  6
CONTINUOUS
 62
     7
100
AcDbLine
 10
119.4812663826599
 20
103.3948109209481
 30
0.0
 11
119.2995166426599
 21
103.2049164209482
 31
0.0
  0
LINE
  5
50E
330
1F
100
AcDbEntity
  8
0
  6
CONTINUOUS
 62
     7
100
AcDbLine
 10
121.8971843726599
 20
102.6882839309482
 30
0.0
 11
121.76249716266
 21
102.7133972709482
 31
0.0
  0
LINE
  5
50F
330
1F
100
AcDbEntity
  8
0
  6
CONTINUOUS
 62
     7
100
AcDbLine
 10
119.72027157266
 20
99.10260951094818
 30
0.0
 11
119.8192263426599
 21
99.31332738094818
 31
0.0
  0
LINE
  5
510
330
1F
100
AcDbEntity
  8
0
  6
CONTINUOUS
 62
     7
100
AcDbLine
 10
123.0066324488599
 20
91.38876081714818
 30
0.0
 11
123.3347293688599
 21
91.38876081714818
 31
0.0
  0
LINE
  5
511
330
1F
100
AcDbEntity
  8
0
  6
CONTINUOUS
 62
     7
100
AcDbLine
 10
109.4644006188599
 20
104.2925311571482
 30
0.0
 11
109.4644006188599
 21
103.9968757971482
 31
0.0
  0
LINE
  5
512
330
1F
100
AcDbEntity
  8
0
  6
CONTINUOUS
 62
     7
100
AcDbLine
 10
118.2674799826599
 20
99.59504974094818
 30
0.0
 11
118.33214011266
 21
99.69071073094818
 31
0.0
  0
LINE
  5
513
330
1F
100
AcDbEntity
  8
0
  6
CONTINUOUS
 62
     7
100
AcDbLine
 10
117.30113069266
 20
99.00094517094817
 30
0.0
 11
117.4181132226599
 21
99.02489704094819
 31
0.0
  0
LINE
  5
514
330
1F
100
AcDbEntity
  8
0
  6
CONTINUOUS
 62
     7
100
AcDbLine
 10
118.03319195266
 20
99.34220035094819
 30
0.0
 11
118.11761832266
 21
99.42040794094817
 31
0.0
  0
LINE
  5
515
330
1F
100
AcDbEntity
  8
0
  6
CONTINUOUS
 62
     7
100
AcDbLine
 10
119.17720050266
 20
98.36077193094815
 30
0.0
 11
119.3335161126599
 21
98.52953500094816
 31
0.0
  0
LINE
  5
516
330
1F
100
AcDbEntity
  8
0
  6
CONTINUOUS
 62
     7
100
AcDbLine
 10
122.95368913266
 20
101.7662884909482
 30
0.0
 11
122.9003801026599
 21
101.8884643409482
 31
0.0
  0
LINE
  5
517
330
1F
100
AcDbEntity
  8
0
  6
CONTINUOUS
 62
     7
100
AcDbLine
 10
120.1537455926599
 20
101.7662884909482
 30
0.0
 11
120.1112473726599
 21
101.6387455309481
 31
0.0
  0
LINE
  5
518
330
1F
100
AcDbEntity
  8
0
  6
CONTINUOUS
 62
     7
100
AcDbLine
 10
119.1563146126599
 20
-21.60811093905181
 30
0.0
 11
119.1563146126599
 21
-22.46656976905183
 31
0.0
  0
LINE
  5
519
330
1F
100
AcDbEntity
  8
0
  6
CONTINUOUS
 62
     7
100
AcDbLine
 10
99.67257709265994
 20
89.29500316094817
 30
0.0
 11
98.52363775265997
 21
89.29500316094817
 31
0.0
  0
LINE
  5
51A
330
1F
100
AcDbEntity
  8
0
  6
CONTINUOUS
 62
     7
100
AcDbLine
 10
118.98840013266
 20
102.7802183809482
 30
0.0
 11
118.8613320826599
 21
102.5477155009482
 31
0.0
  0
LINE
  5
51B
330
1F
100
AcDbEntity
  8
0
  6
CONTINUOUS
 62
     7
100
AcDbLine
 10
119.1563146126599
 20
-19.45036289905181
 30
0.0
 11
119.1563146126599
 21
-19.79684339905185
 31
0.0
  0
LINE
  5
51C
330
1F
100
AcDbEntity
  8
0
  6
CONTINUOUS
 62
     7
100
AcDbLine
 10
119.30657425266
 20
-17.90884427905183
 30
0.0
 11
119.2541719326599
 21
-18.01529247905182
 31
0.0
  0
LINE
  5
51D
330
1F
100
AcDbEntity
  8
0
  6
CONTINUOUS
 62
     7
100
AcDbLine
 10
78.89089985265997
 20
93.57165857094816
 30
0.0
 11
78.89089985265997
 21
94.37092072094816
 31
0.0
  0
LINE
  5
51E
330
1F
100
AcDbEntity
  8
0
  6
CONTINUOUS
 62
     7
100
AcDbLine
 10
123.4115645526599
 20
-17.23813064905181
 30
0.0
 11
122.9768932126599
 21
-17.24579129905186
 31
0.0
  0
LINE
  5
51F
330
1F
100
AcDbEntity
  8
0
  6
CONTINUOUS
 62
     7
100
AcDbLine
 10
81.83817904265993
 20
100.4756299209482
 30
0.0
 11
81.83817904265993
 21
93.57165857094816
 31
0.0
  0
LINE
  5
520
330
1F
100
AcDbEntity
  8
0
  6
CONTINUOUS
 62
     7
100
AcDbLine
 10
90.28124680265995
 20
89.29500316094817
 30
0.0
 11
90.28124680265995
 21
88.49617165094816
 31
0.0
  0
LINE
  5
521
330
1F
100
AcDbEntity
  8
0
  6
CONTINUOUS
 62
     7
100
AcDbLine
 10
120.20709133266
 20
101.8884643409482
 30
0.0
 11
120.1537455926599
 21
101.7662884909482
 31
0.0
  0
LINE
  5
522
330
1F
100
AcDbEntity
  8
0
  6
CONTINUOUS
 62
     7
100
AcDbLine
 10
109.4644006188599
 20
105.3791048571481
 30
0.0
 11
109.4644006188599
 21
104.9965235971482
 31
0.0
  0
LINE
  5
523
330
1F
100
AcDbEntity
  8
0
  6
CONTINUOUS
 62
     7
100
AcDbLine
 10
121.59385350886
 20
91.38876081714818
 30
0.0
 11
121.7083908188599
 21
91.38876081714818
 31
0.0
  0
LINE
  5
524
330
1F
100
AcDbEntity
  8
0
  6
CONTINUOUS
 62
     7
100
AcDbLine
 10
119.1563146126599
 20
-20.16540610905184
 30
0.0
 11
119.1563146126599
 21
-20.54343262905184
 31
0.0
  0
LINE
  5
525
330
1F
100
AcDbEntity
  8
0
  6
CONTINUOUS
 62
     7
100
AcDbLine
 10
18.29782115225993
 20
-22.46656976905183
 30
0.0
 11
119.1563146126599
 21
-22.46656976905183
 31
0.0
  0
LINE
  5
526
330
1F
100
AcDbEntity
  8
0
  6
CONTINUOUS
 62
     7
100
AcDbLine
 10
120.0446940626599
 20
100.2341139809482
 30
0.0
 11
120.0546232626599
 21
100.4799362909482
 31
0.0
  0
LINE
  5
527
330
1F
100
AcDbEntity
  8
0
  6
CONTINUOUS
 62
     7
100
AcDbLine
 10
119.67894464266
 20
103.5682020009482
 30
0.0
 11
119.4812663826599
 21
103.3948109209481
 31
0.0
  0
LINE
  5
528
330
1F
100
AcDbEntity
  8
0
  6
CONTINUOUS
 62
     7
100
AcDbLine
 10
118.00553559266
 20
97.63588595094814
 30
0.0
 11
118.22479309266
 21
97.71859806094818
 31
0.0
  0
LINE
  5
529
330
1F
100
AcDbEntity
  8
0
  6
CONTINUOUS
 62
     7
100
AcDbLine
 10
123.66008834886
 20
91.38876081714818
 30
0.0
 11
123.9717576088599
 21
91.38876081714818
 31
0.0
  0
LINE
  5
52A
330
1F
100
AcDbEntity
  8
0
  6
CONTINUOUS
 62
     7
100
AcDbLine
 10
117.05825146266
 20
98.98131976094817
 30
0.0
 11
110.33170252266
 21
98.98131976094817
 31
0.0
  0
LINE
  5
52B
330
1F
100
AcDbEntity
  8
0
  6
CONTINUOUS
 62
     7
100
AcDbLine
 10
118.66992313266
 20
102.0481535909482
 30
0.0
 11
118.6078809626599
 21
101.7833952109482
 31
0.0
  0
LINE
  5
52C
330
1F
100
AcDbEntity
  8
0
  6
CONTINUOUS
 62
     7
100
AcDbLine
 10
117.5316075826599
 20
99.05775954094815
 30
0.0
 11
117.6412262126599
 21
99.09914606094816
 31
0.0
  0
LINE
  5
52D
330
1F
100
AcDbEntity
  8
0
  6
CONTINUOUS
 62
     7
100
AcDbLine
 10
117.05825146266
 20
97.48313386094816
 30
0.0
 11
117.3040706526599
 21
97.49306618094818
 31
0.0
  0
LINE
  5
52E
330
1F
100
AcDbEntity
  8
0
  6
CONTINUOUS
 62
     7
100
AcDbLine
 10
117.9429519826599
 20
99.27058375094816
 30
0.0
 11
118.03319195266
 21
99.34220035094819
 31
0.0
  0
LINE
  5
52F
330
1F
100
AcDbEntity
  8
0
  6
CONTINUOUS
 62
     7
100
AcDbLine
 10
122.59017671266
 20
102.3119740409481
 30
0.0
 11
122.49125744266
 21
102.3986724309482
 31
0.0
  0
LINE
  5
530
330
1F
100
AcDbEntity
  8
0
  6
CONTINUOUS
 62
     7
100
AcDbLine
 10
122.9961520726599
 20
101.6387455309481
 30
0.0
 11
122.95368913266
 21
101.7662884909482
 31
0.0
  0
LINE
  5
531
330
1F
100
AcDbEntity
  8
0
  6
CONTINUOUS
 62
     7
100
AcDbLine
 10
78.89089985265997
 20
93.57165857094816
 30
0.0
 11
76.94269836265994
 21
93.57165857094816
 31
0.0
  0
LINE
  5
532
330
1F
100
AcDbEntity
  8
0
  6
CONTINUOUS
 62
     7
100
AcDbLine
 10
98.52363775265997
 20
99.67550650094819
 30
0.0
 11
98.52363775265997
 21
89.29500316094817
 31
0.0
  0
LINE
  5
533
330
1F
100
AcDbEntity
  8
0
  6
CONTINUOUS
 62
     7
100
AcDbLine
 10
118.4803868826599
 20
100.0064148109482
 30
0.0
 11
118.51326601266
 21
100.1199345309482
 31
0.0
  0
LINE
  5
534
330
1F
100
AcDbEntity
  8
0
  6
CONTINUOUS
 62
     7
100
AcDbLine
 10
117.7465815426599
 20
99.14867001094814
 30
0.0
 11
117.84728599266
 21
99.20594477094818
 31
0.0
  0
LINE
  5
535
330
1F
100
AcDbEntity
  8
0
  6
CONTINUOUS
 62
     7
100
AcDbLine
 10
99.67257709265994
 20
100.4756299209482
 30
0.0
 11
97.72523687265993
 21
100.4756299209482
 31
0.0
  0
LINE
  5
536
330
1F
100
AcDbEntity
  8
0
  6
CONTINUOUS
 62
     7
100
AcDbLine
 10
120.0291675026599
 20
-17.33681618905183
 30
0.0
 11
119.9152676126599
 21
-17.37513080905183
 31
0.0
  0
LINE
  5
537
330
1F
100
AcDbEntity
  8
0
  6
CONTINUOUS
 62
     7
100
AcDbLine
 10
124.51021986886
 20
91.38876081714818
 30
0.0
 11
124.71510931886
 21
91.38876081714818
 31
0.0
  0
LINE
  5
538
330
1F
100
AcDbEntity
  8
0
  6
CONTINUOUS
 62
     7
100
AcDbLine
 10
119.1563146126599
 20
-18.53763127905182
 30
0.0
 11
119.1563146126599
 21
-18.66959880905182
 31
0.0
  0
LINE
  5
539
330
1F
100
AcDbEntity
  8
0
  6
CONTINUOUS
 62
     7
100
AcDbLine
 10
121.45333203266
 20
-21.40754196905186
 30
0.0
 11
121.45333203266
 21
-20.40889491905182
 31
0.0
  0
LINE
  5
53A
330
1F
100
AcDbEntity
  8
0
  6
CONTINUOUS
 62
     7
100
AcDbLine
 10
110.73144858886
 20
98.08351961714817
 30
0.0
 11
111.3234568688599
 21
97.03297115714815
 31
0.0
  0
LINE
  5
53B
330
1F
100
AcDbEntity
  8
0
  6
CONTINUOUS
 62
     7
100
AcDbLine
 10
116.7081581088599
 20
92.39873223714818
 30
0.0
 11
117.84867378886
 21
91.96689140714818
 31
0.0
  0
LINE
  5
53C
330
1F
100
AcDbEntity
  8
0
  6
CONTINUOUS
 62
     7
100
AcDbLine
 10
120.2708332426599
 20
-17.29507353905183
 30
0.0
 11
120.1479007726599
 21
-17.30991579905185
 31
0.0
  0
LINE
  5
53D
330
1F
100
AcDbEntity
  8
0
  6
CONTINUOUS
 62
     7
100
AcDbLine
 10
109.4644006188599
 20
107.5334311071481
 30
0.0
 11
109.4644006188599
 21
105.3791048571481
 31
0.0
  0
LINE
  5
53E
330
1F
100
AcDbEntity
  8
0
  6
CONTINUOUS
 62
     7
100
AcDbLine
 10
120.6553389926599
 20
-17.28670641905182
 30
0.0
 11
120.45505533266
 21
-17.29023622905186
 31
0.0
  0
LINE
  5
53F
330
1F
100
AcDbEntity
  8
0
  6
CONTINUOUS
 62
     7
100
AcDbLine
 10
78.89089985265997
 20
94.37092072094816
 30
0.0
 11
77.74196051265994
 21
94.37092072094816
 31
0.0
  0
LINE
  5
540
330
1F
100
AcDbEntity
  8
0
  6
CONTINUOUS
 62
     7
100
AcDbLine
 10
119.2541719326599
 20
-18.01529247905182
 30
0.0
 11
119.21231062266
 21
-18.12735984905186
 31
0.0
  0
LINE
  5
541
330
1F
100
AcDbEntity
  8
0
  6
CONTINUOUS
 62
     7
100
AcDbLine
 10
122.8367996726599
 20
102.0046969409482
 30
0.0
 11
122.76352251266
 21
102.1144101709482
 31
0.0
  0
LINE
  5
542
330
1F
100
AcDbEntity
  8
0
  6
CONTINUOUS
 62
     7
100
AcDbLine
 10
121.1351490126599
 20
104.1975583909482
 30
0.0
 11
120.8660361526599
 21
104.1473446409482
 31
0.0
  0
LINE
  5
543
330
1F
100
AcDbEntity
  8
0
  6
CONTINUOUS
 62
     7
100
AcDbLine
 10
119.96757043266
 20
99.75967890094819
 30
0.0
 11
120.0154197926599
 21
99.99377131094815
 31
0.0
  0
LINE
  5
544
330
1F
100
AcDbEntity
  8
0
  6
CONTINUOUS
 62
     7
100
AcDbLine
 10
123.3347293688599
 20
91.38876081714818
 30
0.0
 11
123.66008834886
 21
91.38876081714818
 31
0.0
  0
LINE
  5
545
330
1F
100
AcDbEntity
  8
0
  6
CONTINUOUS
 62
     7
100
AcDbLine
 10
125.2978212626599
 20
-17.20488720905183
 30
0.0
 11
124.1878962526599
 21
-17.22444855905184
 31
0.0
  0
LINE
  5
546
330
1F
100
AcDbEntity
  8
0
  6
CONTINUOUS
 62
     7
100
AcDbLine
 10
118.6078809626599
 20
101.7833952109482
 30
0.0
 11
118.56981280266
 21
101.5101856409482
 31
0.0
  0
LINE
  5
547
330
1F
100
AcDbEntity
  8
0
  6
CONTINUOUS
 62
     7
100
AcDbLine
 10
117.4181132226599
 20
99.02489704094819
 30
0.0
 11
117.5316075826599
 21
99.05775954094815
 31
0.0
  0
LINE
  5
548
330
1F
100
AcDbEntity
  8
0
  6
CONTINUOUS
 62
     7
100
AcDbLine
 10
118.11761832266
 20
99.42040794094817
 30
0.0
 11
118.19584352266
 21
99.50481994094815
 31
0.0
  0
LINE
  5
549
330
1F
100
AcDbEntity
  8
0
  6
CONTINUOUS
 62
     7
100
AcDbLine
 10
120.6059556726599
 20
104.0737255409481
 30
0.0
 11
120.3560569226599
 21
103.9778514109482
 31
0.0
  0
LINE
  5
54A
330
1F
100
AcDbEntity
  8
0
  6
CONTINUOUS
 62
     7
100
AcDbLine
 10
120.27789826886
 20
91.45522458714817
 30
0.0
 11
121.55324066886
 21
91.38876081714818
 31
0.0
  0
LINE
  5
54B
330
1F
100
AcDbEntity
  8
0
  6
CONTINUOUS
 62
     7
100
AcDbLine
 10
39.62800788265997
 20
99.48085860094818
 30
0.0
 11
39.62800788265997
 21
89.49008170094817
 31
0.0
  0
LINE
  5
54C
330
1F
100
AcDbEntity
  8
0
  6
CONTINUOUS
 62
     7
100
AcDbLine
 10
92.22944830265999
 20
88.49617165094816
 30
0.0
 11
90.28124680265995
 21
88.49617165094816
 31
0.0
  0
LINE
  5
54D
330
1F
100
AcDbEntity
  8
0
  6
CONTINUOUS
 62
     7
100
AcDbLine
 10
39.62800788265997
 20
99.48085860094818
 30
0.0
 11
37.22936015265992
 21
99.48085860094818
 31
0.0
  0
LINE
  5
54E
330
1F
100
AcDbEntity
  8
0
  6
CONTINUOUS
 62
     7
100
AcDbLine
 10
118.5372309526599
 20
100.2369524209482
 30
0.0
 11
118.55189414266
 21
100.3570818709482
 31
0.0
  0
LINE
  5
54F
330
1F
100
AcDbEntity
  8
0
  6
CONTINUOUS
 62
     7
100
AcDbLine
 10
100.67251606266
 20
100.4756299209482
 30
0.0
 11
100.67251606266
 21
99.67550650094819
 31
0.0
  0
LINE
  5
550
330
1F
100
AcDbEntity
  8
0
  6
CONTINUOUS
 62
     7
100
AcDbLine
 10
120.11748926266
 20
103.8608725609482
 30
0.0
 11
119.8914020526599
 21
103.7239393209481
 31
0.0
  0
LINE
  5
551
330
1F
100
AcDbEntity
  8
0
  6
CONTINUOUS
 62
     7
100
AcDbLine
 10
123.2159931126599
 20
103.7239393209481
 30
0.0
 11
122.98977565266
 21
103.8608725609482
 31
0.0
  0
LINE
  5
552
330
1F
100
AcDbEntity
  8
0
  6
CONTINUOUS
 62
     7
100
AcDbLine
 10
119.1563146126599
 20
-18.87412219905184
 30
0.0
 11
119.1563146126599
 21
-19.13858302905186
 31
0.0
  0
LINE
  5
553
330
1F
100
AcDbEntity
  8
0
  6
CONTINUOUS
 62
     7
100
AcDbLine
 10
119.44046520266
 20
-17.71538096905186
 30
0.0
 11
119.3688834026599
 21
-17.80865914905183
 31
0.0
  0
LINE
  5
554
330
1F
100
AcDbEntity
  8
0
  6
CONTINUOUS
 62
     7
100
AcDbLine
 10
76.94269836265994
 20
100.4756299209482
 30
0.0
 11
76.94269836265994
 21
93.57165857094816
 31
0.0
  0
LINE
  5
555
330
1F
100
AcDbEntity
  8
0
  6
CONTINUOUS
 62
     7
100
AcDbLine
 10
89.28216911265997
 20
100.4756299209482
 30
0.0
 11
89.28216911265997
 21
99.67550650094819
 31
0.0
  0
LINE
  5
556
330
1F
100
AcDbEntity
  8
0
  6
CONTINUOUS
 62
     7
100
AcDbLine
 10
-33.22938299654004
 20
-138.9665690240518
 30
0.0
 11
4.497820380259952
 21
-138.9665690240518
 31
0.0
  0
LINE
  5
557
330
1F
100
AcDbEntity
  8
0
  6
CONTINUOUS
 62
     7
100
AcDbLine
 10
-88.18134730154003
 20
-138.9665690240518
 30
0.0
 11
-41.47193486574008
 21
-138.9665690240518
 31
0.0
  0
LINE
  5
558
330
1F
100
AcDbEntity
  8
0
  6
CONTINUOUS
 62
     7
100
AcDbLine
 10
-88.30706891954003
 20
-135.9665690240518
 30
0.0
 11
-41.47193486574008
 21
-135.9665690240518
 31
0.0
  0
LINE
  5
559
330
1F
100
AcDbEntity
  8
0
  6
CONTINUOUS
 62
     7
100
AcDbLine
 10
-33.22938299654004
 20
-135.9665690240518
 30
0.0
 11
4.497820380259952
 21
-135.9665690240518
 31
0.0
  0
ARC
  5
55A
330
1F
100
AcDbEntity
  8
0
  6
CONTINUOUS
 62
     7
100
AcDbCircle
 10
4.737820380259961
 20
-142.0265696200518
 30
0.0
 40
0.2400000000000091
100
AcDbArc
 50
180.0
 51
270.0
  0
ARC
  5
55B
330
1F
100
AcDbEntity
  8
0
  6
CONTINUOUS
 62
     7
100
AcDbCircle
 10
-240.43306243264
 20
251.8834302309481
 30
0.0
 40
3.150000004103624
100
AcDbArc
 50
0.0000871659998369
 51
179.9999128340002
  0
ARC
  5
55C
330
1F
100
AcDbEntity
  8
0
  6
CONTINUOUS
 62
     7
100
AcDbCircle
 10
-253.8830623953401
 20
-22.16656976905182
 30
0.0
 40
0.2999999628000296
100
AcDbArc
 50
179.9999977463961
 51
270.0
  0
ARC
  5
55D
330
1F
100
AcDbEntity
  8
0
  6
CONTINUOUS
 62
     7
100
AcDbCircle
 10
-226.9830624326401
 20
107.2334302308482
 30
0.0
 40
0.2999999999999545
100
AcDbArc
 50
0.0
 51
90.0
  0
ARC
  5
55E
330
1F
100
AcDbEntity
  8
0
  6
CONTINUOUS
 62
     7
100
AcDbCircle
 10
-226.9830623953401
 20
-22.16656976915186
 30
0.0
 40
0.299999962700042
100
AcDbArc
 50
270.0
 51
0.0000022536039527
  0
ARC
  5
55F
330
1F
100
AcDbEntity
  8
0
  6
CONTINUOUS
 62
     7
100
AcDbCircle
 10
-253.8830623953401
 20
107.2334302309482
 30
0.0
 40
0.2999999628000014
100
AcDbArc
 50
90.0
 51
180.0000022917964
  0
ARC
  5
560
330
1F
100
AcDbEntity
  8
0
  6
CONTINUOUS
 62
     7
100
AcDbCircle
 10
-236.78306243254
 20
82.13343001634814
 30
0.0
 40
0.6000000000000227
100
AcDbArc
 50
90.0
 51
270.0
  0
ARC
  5
561
330
1F
100
AcDbEntity
  8
0
  6
CONTINUOUS
 62
     7
100
AcDbCircle
 10
-235.5830624325401
 20
77.13343023104818
 30
0.0
 40
0.5999981524000759
100
AcDbArc
 50
270.0000136555003
 51
90.0
  0
ARC
  5
562
330
1F
100
AcDbEntity
  8
0
  6
CONTINUOUS
 62
     7
100
AcDbCircle
 10
-236.78306243254
 20
72.13343023104818
 30
0.0
 40
0.6000000000000796
100
AcDbArc
 50
90.0
 51
270.0
  0
ARC
  5
563
330
1F
100
AcDbEntity
  8
0
  6
CONTINUOUS
 62
     7
100
AcDbCircle
 10
-235.5830624325401
 20
72.13343023104818
 30
0.0
 40
0.6000008344000776
100
AcDbArc
 50
270.000013655499
 51
90.0
  0
ARC
  5
564
330
1F
100
AcDbEntity
  8
0
  6
CONTINUOUS
 62
     7
100
AcDbCircle
 10
-235.5830622895401
 20
67.13343035164814
 30
0.0
 40
0.6000001206001002
100
AcDbArc
 50
269.9999863445011
 51
90.0
  0
CIRCLE
  5
565
330
1F
100
AcDbEntity
  8
0
  6
CONTINUOUS
 62
     7
100
AcDbCircle
 10
-234.28306243254
 20
59.03343023094817
 30
0.0
 40
2.94999999999996
  0
ARC
  5
566
330
1F
100
AcDbEntity
  8
0
  6
CONTINUOUS
 62
     7
100
AcDbCircle
 10
-244.68306254814
 20
70.48343011554817
 30
0.0
 40
1.0
100
AcDbArc
 50
270.0
 51
0.0
  0
ARC
  5
567
330
1F
100
AcDbEntity
  8
0
  6
CONTINUOUS
 62
     7
100
AcDbCircle
 10
-244.68306254814
 20
77.58343041944818
 30
0.0
 40
1.000000000000018
100
AcDbArc
 50
359.9999825878007
 51
90.00000417690022
  0
ARC
  5
568
330
1F
100
AcDbEntity
  8
0
  6
CONTINUOUS
 62
     7
100
AcDbCircle
 10
-236.78306243254
 20
67.13343023104818
 30
0.0
 40
0.6000000000000796
100
AcDbArc
 50
90.0
 51
270.0
  0
ARC
  5
569
330
1F
100
AcDbEntity
  8
0
  6
CONTINUOUS
 62
     7
100
AcDbCircle
 10
-247.9830626210401
 20
77.58343023094818
 30
0.0
 40
1.000000188500236
100
AcDbArc
 50
90.0
 51
179.9999429678016
  0
ARC
  5
56A
330
1F
100
AcDbEntity
  8
0
  6
CONTINUOUS
 62
     7
100
AcDbCircle
 10
-236.78306243254
 20
77.13343105934814
 30
0.0
 40
0.5999989807000422
100
AcDbArc
 50
89.99999178759913
 51
270.0000082124009
  0
ARC
  5
56B
330
1F
100
AcDbEntity
  8
0
  6
CONTINUOUS
 62
     7
100
AcDbCircle
 10
-247.9830625481401
 20
70.48343023094816
 30
0.0
 40
1.000000261400004
100
AcDbArc
 50
179.9999989800993
 51
269.9999877844993
  0
ARC
  5
56C
330
1F
100
AcDbEntity
  8
0
  6
CONTINUOUS
 62
     7
100
AcDbCircle
 10
-235.58306236104
 20
82.13342994584815
 30
0.0
 40
0.5999999295000336
100
AcDbArc
 50
269.9999931722999
 51
89.9999863444994
  0
ARC
  5
56D
330
1F
100
AcDbEntity
  8
0
  6
CONTINUOUS
 62
     7
100
AcDbCircle
 10
4.737820380259961
 20
-132.9065696200518
 30
0.0
 40
0.2400000000000091
100
AcDbArc
 50
90.0
 51
180.0
  0
ARC
  5
56E
330
1F
100
AcDbEntity
  8
0
  6
CONTINUOUS
 62
     7
100
AcDbCircle
 10
-238.7330624325401
 20
30.03343004464818
 30
0.0
 40
0.8000001586999591
100
AcDbArc
 50
89.99999838140027
 51
270.0
  0
ARC
  5
56F
330
1F
100
AcDbEntity
  8
0
  6
CONTINUOUS
 62
     7
100
AcDbCircle
 10
-238.7330624325401
 20
44.03343024394815
 30
0.0
 40
0.8000000255000262
100
AcDbArc
 50
89.99999838139999
 51
270.0
  0
ARC
  5
570
330
1F
100
AcDbEntity
  8
0
  6
CONTINUOUS
 62
     7
100
AcDbCircle
 10
-238.7330624325401
 20
40.53343019414814
 30
0.0
 40
0.799999971499972
100
AcDbArc
 50
89.99999838139989
 51
270.0
  0
ARC
  5
571
330
1F
100
AcDbEntity
  8
0
  6
CONTINUOUS
 62
     7
100
AcDbCircle
 10
-238.7330624325401
 20
37.03343026074816
 30
0.0
 40
0.8000000339000053
100
AcDbArc
 50
89.99999838140002
 51
270.0
  0
ARC
  5
572
330
1F
100
AcDbEntity
  8
0
  6
CONTINUOUS
 62
     7
100
AcDbCircle
 10
-238.7330624325401
 20
33.53343061834818
 30
0.0
 40
0.7999999799000079
100
AcDbArc
 50
89.9999983813999
 51
270.0
  0
ARC
  5
573
330
1F
100
AcDbEntity
  8
0
  6
CONTINUOUS
 62
     7
100
AcDbCircle
 10
-238.7330624325401
 20
44.03343024394815
 30
0.0
 40
0.5499999970000435
100
AcDbArc
 50
89.9999976456993
 51
270.0000023543007
  0
ARC
  5
574
330
1F
100
AcDbEntity
  8
0
  6
CONTINUOUS
 62
     7
100
AcDbCircle
 10
-238.7330624325401
 20
30.03343004464818
 30
0.0
 40
0.5499999970999743
100
AcDbArc
 50
89.9999976456993
 51
270.0000023543007
  0
ARC
  5
575
330
1F
100
AcDbEntity
  8
0
  6
CONTINUOUS
 62
     7
100
AcDbCircle
 10
-238.7330624325401
 20
33.53343061834818
 30
0.0
 40
0.5499999969999867
100
AcDbArc
 50
89.9999976456993
 51
270.0000023543007
  0
ARC
  5
576
330
1F
100
AcDbEntity
  8
0
  6
CONTINUOUS
 62
     7
100
AcDbCircle
 10
-238.7330624325401
 20
37.03343026074816
 30
0.0
 40
0.5499999969999867
100
AcDbArc
 50
89.9999976456993
 51
270.0000023543007
  0
ARC
  5
577
330
1F
100
AcDbEntity
  8
0
  6
CONTINUOUS
 62
     7
100
AcDbCircle
 10
-238.7330624325401
 20
40.53343019414814
 30
0.0
 40
0.5500000552000306
100
AcDbArc
 50
89.99999764569954
 51
270.0000023543005
  0
CIRCLE
  5
578
330
1F
100
AcDbEntity
  8
0
  6
CONTINUOUS
 62
     7
100
AcDbCircle
 10
-245.9330624325401
 20
33.65843023094817
 30
0.0
 40
1.5
  0
CIRCLE
  5
579
330
1F
100
AcDbEntity
  8
0
  6
CONTINUOUS
 62
     7
100
AcDbCircle
 10
-245.9330624325401
 20
40.65843023094817
 30
0.0
 40
1.5
  0
CIRCLE
  5
57A
330
1F
100
AcDbEntity
  8
0
  6
CONTINUOUS
 62
     7
100
AcDbCircle
 10
-245.9330624325401
 20
44.15843023094817
 30
0.0
 40
1.5
  0
CIRCLE
  5
57B
330
1F
100
AcDbEntity
  8
0
  6
CONTINUOUS
 62
     7
100
AcDbCircle
 10
-245.9330624325401
 20
37.15843023094817
 30
0.0
 40
1.5
  0
CIRCLE
  5
57C
330
1F
100
AcDbEntity
  8
0
  6
CONTINUOUS
 62
     7
100
AcDbCircle
 10
-245.9330624325401
 20
30.15843023094817
 30
0.0
 40
1.5
  0
CIRCLE
  5
57D
330
1F
100
AcDbEntity
  8
0
  6
CONTINUOUS
 62
     7
100
AcDbCircle
 10
-234.3330624325401
 20
29.90843023094817
 30
0.0
 40
1.5
  0
CIRCLE
  5
57E
330
1F
100
AcDbEntity
  8
0
  6
CONTINUOUS
 62
     7
100
AcDbCircle
 10
-235.28306243254
 20
25.73343023094816
 30
0.0
 40
1.949999999999989
  0
ARC
  5
57F
330
1F
100
AcDbEntity
  8
0
  6
CONTINUOUS
 62
     7
100
AcDbCircle
 10
-237.08306246654
 20
24.10843023094816
 30
0.0
 40
1.0
100
AcDbArc
 50
180.0
 51
270.0
  0
ARC
  5
580
330
1F
100
AcDbEntity
  8
0
  6
CONTINUOUS
 62
     7
100
AcDbCircle
 10
-233.48306246654
 20
24.10843046334816
 30
0.0
 40
1.000000232400315
100
AcDbArc
 50
270.0
 51
359.9999523528015
  0
CIRCLE
  5
581
330
1F
100
AcDbEntity
  8
0
  6
CONTINUOUS
 62
     7
100
AcDbCircle
 10
-235.28306243254
 20
48.33343023094818
 30
0.0
 40
1.949999999999989
  0
ARC
  5
582
330
1F
100
AcDbEntity
  8
0
  6
CONTINUOUS
 62
     7
100
AcDbCircle
 10
-233.4830624495401
 20
49.95843024794817
 30
0.0
 40
1.0
100
AcDbArc
 50
0.0
 51
90.0
  0
ARC
  5
583
330
1F
100
AcDbEntity
  8
0
  6
CONTINUOUS
 62
     7
100
AcDbCircle
 10
-237.0830624495401
 20
49.95843023094818
 30
0.0
 40
1.000000016999991
100
AcDbArc
 50
90.0
 51
180.0000023033004
  0
ARC
  5
584
330
1F
100
AcDbEntity
  8
0
  6
CONTINUOUS
 62
     7
100
AcDbCircle
 10
-237.6830624809401
 20
23.63343027934815
 30
0.0
 40
0.5
100
AcDbArc
 50
180.0
 51
270.0
  0
ARC
  5
585
330
1F
100
AcDbEntity
  8
0
  6
CONTINUOUS
 62
     7
100
AcDbCircle
 10
-238.6830624325401
 20
27.38343027934815
 30
0.0
 40
0.4999999516001337
100
AcDbArc
 50
359.9999609014011
 51
90.0
  0
ARC
  5
586
330
1F
100
AcDbEntity
  8
0
  6
CONTINUOUS
 62
     7
100
AcDbCircle
 10
-238.6830624325401
 20
46.68343027394815
 30
0.0
 40
0.499999957
100
AcDbArc
 50
270.0000061878988
 51
0.0
  0
ARC
  5
587
330
1F
100
AcDbEntity
  8
0
  6
CONTINUOUS
 62
     7
100
AcDbCircle
 10
-237.68306242714
 20
50.43343027394815
 30
0.0
 40
0.5000000484001565
100
AcDbArc
 50
90.0
 51
180.0000437051984
  0
ARC
  5
588
330
1F
100
AcDbEntity
  8
0
  6
CONTINUOUS
 62
     7
100
AcDbCircle
 10
-232.78306228274
 20
50.43343023094815
 30
0.0
 40
0.4999998502000285
100
AcDbArc
 50
0.0
 51
89.99999504960043
  0
ARC
  5
589
330
1F
100
AcDbEntity
  8
0
  6
CONTINUOUS
 62
     7
100
AcDbCircle
 10
-232.7830623699401
 20
23.63343023094814
 30
0.0
 40
0.5000000626002032
100
AcDbArc
 50
270.0
 51
0.0000505348969785
  0
CIRCLE
  5
58A
330
1F
100
AcDbEntity
  8
0
  6
CONTINUOUS
 62
     7
100
AcDbCircle
 10
-240.03053713714
 20
-10.17684076365185
 30
0.0
 40
2.750000000000057
  0
ARC
  5
58B
330
1F
100
AcDbEntity
  8
0
  6
CONTINUOUS
 62
     7
100
AcDbCircle
 10
-227.0830624325401
 20
-18.65950669895182
 30
0.0
 40
0.1999999257001264
100
AcDbArc
 50
269.9999064931965
 51
0.0
  0
ARC
  5
58C
330
1F
100
AcDbEntity
  8
0
  6
CONTINUOUS
 62
     7
100
AcDbCircle
 10
-227.0830624325401
 20
18.14049336974819
 30
0.0
 40
0.2000001428002455
100
AcDbArc
 50
0.0
 51
90.00009350670199
  0
ARC
  5
58D
330
1F
100
AcDbEntity
  8
0
  6
CONTINUOUS
 62
     7
100
AcDbCircle
 10
-236.2330624325401
 20
-18.65950677325185
 30
0.0
 40
0.1999999999999886
100
AcDbArc
 50
180.0
 51
270.0
  0
ARC
  5
58E
330
1F
100
AcDbEntity
  8
0
  6
CONTINUOUS
 62
     7
100
AcDbCircle
 10
-236.23306233754
 20
18.14049332174818
 30
0.0
 40
0.1999999050007018
100
AcDbArc
 50
90.00002721549721
 51
179.9998480514958
  0
ARC
  5
58F
330
1F
100
AcDbEntity
  8
0
  6
CONTINUOUS
 62
     7
100
AcDbCircle
 10
-245.1830624325401
 20
-18.65950677325185
 30
0.0
 40
0.1999999999999886
100
AcDbArc
 50
180.0
 51
270.0
  0
ARC
  5
590
330
1F
100
AcDbEntity
  8
0
  6
CONTINUOUS
 62
     7
100
AcDbCircle
 10
-245.1830624325401
 20
18.14049322674816
 30
0.0
 40
0.1999999999999886
100
AcDbArc
 50
90.0
 51
180.0
  0
ARC
  5
591
330
1F
100
AcDbEntity
  8
0
  6
CONTINUOUS
 62
     7
100
AcDbCircle
 10
-251.6830622625401
 20
9.340493226748151
 30
0.0
 40
0.5000001700001642
100
AcDbArc
 50
180.0
 51
269.9999487776013
  0
CIRCLE
  5
592
330
1F
100
AcDbEntity
  8
0
  6
CONTINUOUS
 62
     7
100
AcDbCircle
 10
-248.78306243254
 20
12.34049322674815
 30
0.0
 40
2.699999999999989
  0
ARC
  5
593
330
1F
100
AcDbEntity
  8
0
  6
CONTINUOUS
 62
     7
100
AcDbCircle
 10
-251.6830618277401
 20
15.34049322674815
 30
0.0
 40
0.5000002024002308
100
AcDbArc
 50
90.00005122239858
 51
180.0000236059016
  0
ARC
  5
594
330
1F
100
AcDbEntity
  8
0
  6
CONTINUOUS
 62
     7
100
AcDbCircle
 10
-236.78306243254
 20
67.13343023104818
 30
0.0
 40
0.5546029489000261
100
AcDbArc
 50
90.0
 51
270.0
  0
ARC
  5
595
330
1F
100
AcDbEntity
  8
0
  6
CONTINUOUS
 62
     7
100
AcDbCircle
 10
-235.58306236104
 20
82.13342994584815
 30
0.0
 40
0.5546026637000568
100
AcDbArc
 50
269.9999926134006
 51
89.99999261340058
  0
ARC
  5
596
330
1F
100
AcDbEntity
  8
0
  6
CONTINUOUS
 62
     7
100
AcDbCircle
 10
-236.78306243254
 20
72.13343023104818
 30
0.0
 40
0.5546029489000261
100
AcDbArc
 50
90.0
 51
270.0
  0
ARC
  5
597
330
1F
100
AcDbEntity
  8
0
  6
CONTINUOUS
 62
     7
100
AcDbCircle
 10
-235.5830622895401
 20
67.13343035164814
 30
0.0
 40
0.5546035245000098
100
AcDbArc
 50
270.0
 51
90.0
  0
ARC
  5
598
330
1F
100
AcDbEntity
  8
0
  6
CONTINUOUS
 62
     7
100
AcDbCircle
 10
-236.78306243254
 20
82.13343001634814
 30
0.0
 40
0.5546025932000087
100
AcDbArc
 50
89.99999111539968
 51
270.0000088846003
  0
ARC
  5
599
330
1F
100
AcDbEntity
  8
0
  6
CONTINUOUS
 62
     7
100
AcDbCircle
 10
-235.5830624325401
 20
72.13343023104818
 30
0.0
 40
0.5546029489000261
100
AcDbArc
 50
270.0
 51
90.0
  0
ARC
  5
59A
330
1F
100
AcDbEntity
  8
0
  6
CONTINUOUS
 62
     7
100
AcDbCircle
 10
-235.5830624325401
 20
77.13343023104818
 30
0.0
 40
0.554602948900083
100
AcDbArc
 50
270.0
 51
90.0
  0
ARC
  5
59B
330
1F
100
AcDbEntity
  8
0
  6
CONTINUOUS
 62
     7
100
AcDbCircle
 10
-236.78306243254
 20
77.13343105934814
 30
0.0
 40
0.5546025932000087
100
AcDbArc
 50
89.99999111539968
 51
270.0000088846003
  0
CIRCLE
  5
59C
330
1F
100
AcDbEntity
  8
0
  6
CONTINUOUS
 62
     7
100
AcDbCircle
 10
-234.28306243254
 20
59.03343023094817
 30
0.0
 40
2.0
  0
CIRCLE
  5
59D
330
1F
100
AcDbEntity
  8
0
  6
CONTINUOUS
 62
     7
100
AcDbCircle
 10
-234.28306243254
 20
59.03343023094817
 30
0.0
 40
1.300000000000011
  0
ARC
  5
59E
330
1F
100
AcDbEntity
  8
0
  6
CONTINUOUS
 62
     7
100
AcDbCircle
 10
-22.20218002794007
 20
251.8834302309481
 30
0.0
 40
3.150001168203637
100
AcDbArc
 50
0.0000871658993847
 51
179.9999128341006
  0
ARC
  5
59F
330
1F
100
AcDbEntity
  8
0
  6
CONTINUOUS
 62
     7
100
AcDbCircle
 10
2.297821700659938
 20
86.23343023094816
 30
0.0
 40
0.1999999999999886
100
AcDbArc
 50
270.0
 51
0.0
  0
ARC
  5
5A0
330
1F
100
AcDbEntity
  8
0
  6
CONTINUOUS
 62
     7
100
AcDbCircle
 10
2.297821700659938
 20
98.83343023094818
 30
0.0
 40
0.2000000000000455
100
AcDbArc
 50
0.0
 51
90.0
  0
ARC
  5
5A1
330
1F
100
AcDbEntity
  8
0
  6
CONTINUOUS
 62
     7
100
AcDbCircle
 10
-14.50217924414005
 20
86.23342973914816
 30
0.0
 40
0.2000006258002003
100
AcDbArc
 50
180.0
 51
270.0000836516036
  0
ARC
  5
5A2
330
1F
100
AcDbEntity
  8
0
  6
CONTINUOUS
 62
     7
100
AcDbCircle
 10
-14.50218036174005
 20
98.83342973914819
 30
0.0
 40
0.1999995082002073
100
AcDbArc
 50
89.99991634799407
 51
180.0
  0
ARC
  5
5A3
330
1F
100
AcDbEntity
  8
0
  6
CONTINUOUS
 62
     7
100
AcDbCircle
 10
12.19782170065997
 20
86.83343023094818
 30
0.0
 40
0.3000000000000682
100
AcDbArc
 50
270.0
 51
0.0
  0
ARC
  5
5A4
330
1F
100
AcDbEntity
  8
0
  6
CONTINUOUS
 62
     7
100
AcDbCircle
 10
12.19782170065997
 20
98.23343023094816
 30
0.0
 40
0.3000000000000682
100
AcDbArc
 50
0.0
 51
90.0
  0
ARC
  5
5A5
330
1F
100
AcDbEntity
  8
0
  6
CONTINUOUS
 62
     7
100
AcDbCircle
 10
2.797821700659938
 20
86.83343023094818
 30
0.0
 40
0.3000002384041551
100
AcDbArc
 50
180.0
 51
270.0002993892995
  0
ARC
  5
5A6
330
1F
100
AcDbEntity
  8
0
  6
CONTINUOUS
 62
     7
100
AcDbCircle
 10
2.797821700659938
 20
98.23343023094816
 30
0.0
 40
0.3000017286041186
100
AcDbArc
 50
89.99970061219854
 51
180.0
  0
ARC
  5
5A7
330
1F
100
AcDbEntity
  8
0
  6
CONTINUOUS
 62
     7
100
AcDbCircle
 10
18.29782170065994
 20
-20.46656976905183
 30
0.0
 40
2.000000000000075
100
AcDbArc
 50
180.0
 51
269.9999842895002
  0
ARC
  5
5A8
330
1F
100
AcDbEntity
  8
0
  6
CONTINUOUS
 62
     7
100
AcDbCircle
 10
18.29782257685997
 20
105.5334302309482
 30
0.0
 40
2.00000087620029
100
AcDbArc
 50
90.0000157104994
 51
179.999970974
  0
ARC
  5
5A9
330
1F
100
AcDbEntity
  8
0
  6
CONTINUOUS
 62
     7
100
AcDbCircle
 10
-1.802178299340028
 20
-18.65950684755182
 30
0.0
 40
0.1999999257040486
100
AcDbArc
 50
180.0
 51
269.9994859992929
  0
ARC
  5
5AA
330
1F
100
AcDbEntity
  8
0
  6
CONTINUOUS
 62
     7
100
AcDbCircle
 10
-1.802178299340028
 20
18.14049322674816
 30
0.0
 40
0.2000000000001023
100
AcDbArc
 50
90.0
 51
180.0
  0
ARC
  5
5AB
330
1F
100
AcDbEntity
  8
0
  6
CONTINUOUS
 62
     7
100
AcDbCircle
 10
-89.18134730184005
 20
-136.4927968939518
 30
0.0
 40
1.0
100
AcDbArc
 50
0.0
 51
58.46709497400093
  0
ARC
  5
5AC
330
1F
100
AcDbEntity
  8
0
  6
CONTINUOUS
 62
     7
100
AcDbCircle
 10
-114.1813473012401
 20
-136.4927968939518
 30
0.0
 40
1.0
100
AcDbArc
 50
121.5329050259991
 51
180.0
  0
ARC
  5
5AD
330
1F
100
AcDbEntity
  8
0
  6
CONTINUOUS
 62
     7
100
AcDbCircle
 10
-125.16409846524
 20
-118.5936578959518
 30
0.0
 40
19.99999999997508
100
AcDbArc
 50
301.5329050265
 51
356.8137758565
  0
ARC
  5
5AE
330
1F
100
AcDbEntity
  8
0
  6
CONTINUOUS
 62
     7
100
AcDbCircle
 10
-78.19859613804005
 20
-118.5936578958518
 30
0.0
 40
19.99999999992274
100
AcDbArc
 50
183.1862241435
 51
238.467094974
  0
ARC
  5
5AF
330
1F
100
AcDbEntity
  8
0
  6
CONTINUOUS
 62
     7
100
AcDbCircle
 10
-104.8954790839401
 20
-119.7219612135519
 30
0.0
 40
0.3000000000239141
100
AcDbArc
 50
96.86675147990306
 51
176.8137758788014
  0
ARC
  5
5B0
330
1F
100
AcDbEntity
  8
0
  6
CONTINUOUS
 62
     7
100
AcDbCircle
 10
-98.46721551914004
 20
-119.7219612134518
 30
0.0
 40
0.2999999999241842
100
AcDbArc
 50
3.186224123400593
 51
83.133248520001
  0
ARC
  5
5B1
330
1F
100
AcDbEntity
  8
0
  6
CONTINUOUS
 62
     7
100
AcDbCircle
 10
-102.8813473015401
 20
-70.12411314685184
 30
0.0
 40
0.2999999999999829
100
AcDbArc
 50
180.0
 51
270.0
  0
ARC
  5
5B2
330
1F
100
AcDbEntity
  8
0
  6
CONTINUOUS
 62
     7
100
AcDbCircle
 10
-100.48134730154
 20
-70.12411314685184
 30
0.0
 40
0.3000000000000114
100
AcDbArc
 50
270.0
 51
0.0
  0
ARC
  5
5B3
330
1F
100
AcDbEntity
  8
0
  6
CONTINUOUS
 62
     7
100
AcDbCircle
 10
-101.68134730154
 20
-61.92411314685182
 30
0.0
 40
1.5
100
AcDbArc
 50
0.0
 51
180.0
  0
ARC
  5
5B4
330
1F
100
AcDbEntity
  8
0
  6
CONTINUOUS
 62
     7
100
AcDbCircle
 10
12.25782169885997
 20
-132.9065696200518
 30
0.0
 40
0.2399999999999807
100
AcDbArc
 50
0.0
 51
90.0
  0
ARC
  5
5B5
330
1F
100
AcDbEntity
  8
0
  6
CONTINUOUS
 62
     7
100
AcDbCircle
 10
12.25782169885997
 20
-142.0265696200518
 30
0.0
 40
0.2399999999999807
100
AcDbArc
 50
270.0
 51
0.0
  0
ARC
  5
5B6
330
1F
100
AcDbEntity
  8
0
  6
CONTINUOUS
 62
     7
100
AcDbCircle
 10
-1.802178299340028
 20
-211.8595067732518
 30
0.0
 40
0.2000000000001023
100
AcDbArc
 50
90.0
 51
180.0
  0
CIRCLE
  5
5B7
330
1F
100
AcDbEntity
  8
0
  6
CONTINUOUS
 62
     7
100
AcDbCircle
 10
-240.03053713714
 20
-0.6768443314518322
 30
0.0
 40
2.750000000000057
  0
CIRCLE
  5
5B8
330
1F
100
AcDbEntity
  8
0
  6
CONTINUOUS
 62
     7
100
AcDbCircle
 10
-240.03053711034
 20
8.823159382348138
 30
0.0
 40
2.750000000000057
  0
ARC
  5
5B9
330
1F
100
AcDbEntity
  8
0
  6
CONTINUOUS
 62
     7
100
AcDbCircle
 10
18.29782170065994
 20
-250.4665697690518
 30
0.0
 40
2.000000000000048
100
AcDbArc
 50
180.0
 51
269.9999874522006
  0
CIRCLE
  5
5BA
330
1F
100
AcDbEntity
  8
0
  6
CONTINUOUS
 62
     7
100
AcDbCircle
 10
-234.3330624325401
 20
33.40843080474815
 30
0.0
 40
1.5
  0
CIRCLE
  5
5BB
330
1F
100
AcDbEntity
  8
0
  6
CONTINUOUS
 62
     7
100
AcDbCircle
 10
-234.3330624325401
 20
36.90843044714813
 30
0.0
 40
1.5
  0
CIRCLE
  5
5BC
330
1F
100
AcDbEntity
  8
0
  6
CONTINUOUS
 62
     7
100
AcDbCircle
 10
-234.3330624325401
 20
40.40843055514819
 30
0.0
 40
1.5
  0
CIRCLE
  5
5BD
330
1F
100
AcDbEntity
  8
0
  6
CONTINUOUS
 62
     7
100
AcDbCircle
 10
-234.3330624325401
 20
43.90843066314818
 30
0.0
 40
1.5
  0
ARC
  5
5BE
330
1F
100
AcDbEntity
  8
0
  6
CONTINUOUS
 62
     7
100
AcDbCircle
 10
18.29782213875995
 20
-124.4665697690518
 30
0.0
 40
2.00000043810016
100
AcDbArc
 50
90.00001254779986
 51
179.9999709740001
  0
ARC
  5
5BF
330
1F
100
AcDbEntity
  8
0
  6
CONTINUOUS
 62
     7
100
AcDbCircle
 10
-1.802178299340028
 20
-248.6595068475518
 30
0.0
 40
0.1999999257040486
100
AcDbArc
 50
180.0
 51
269.9994859992929
  0
SPLINE
  5
5C0
330
1F
100
AcDbEntity
  8
0
  6
CONTINUOUS
 62
     7
100
AcDbSpline
210
0.0
220
0.0
230
1.0
 70
     8
 71
     3
 72
    11
 73
     7
 74
     0
 42
0.000000001
 43
0.0000000001
 40
0.0
 40
0.0
 40
0.0
 40
0.0
 40
0.2067684670704239
 40
0.5608936350676353
 40
0.8516550673331417
 40
1.0
 40
1.0
 40
1.0
 40
1.0
 10
-17.15837165711127
 20
86.98275588184356
 30
0.0
 10
-17.40548868401686
 20
86.77390522458995
 30
0.0
 10
-18.07583445516826
 20
86.20736330457197
 30
0.0
 10
-19.45022859570958
 20
85.47902613497479
 30
0.0
 10
-20.99654669371108
 20
85.07782183740898
 30
0.0
 10
-21.89772994583467
 20
85.04464046433895
 30
0.0
 10
-22.20218002794007
 20
85.03343067794816
 30
0.0
  0
SPLINE
  5
5C1
330
1F
100
AcDbEntity
  8
0
  6
CONTINUOUS
 62
     7
100
AcDbSpline
210
0.0
220
0.0
230
1.0
 70
     8
 71
     3
 72
     9
 73
     5
 74
     0
 42
0.000000001
 43
0.0000000001
 40
0.0
 40
0.0
 40
0.0
 40
0.0
 40
0.7505903995493385
 40
1.0
 40
1.0
 40
1.0
 40
1.0
 10
15.44055702106613
 20
94.84283156435458
 30
0.0
 10
15.58392876814503
 20
94.27132760332029
 30
0.0
 10
15.77494073307952
 20
93.50992170021004
 30
0.0
 10
15.79325413552692
 20
92.72835997395379
 30
0.0
 10
15.79782167391443
 20
92.53343097608058
 30
0.0
  0
SPLINE
  5
5C2
330
1F
100
AcDbEntity
  8
0
  6
CONTINUOUS
 62
     7
100
AcDbSpline
210
0.0
220
0.0
230
1.0
 70
     8
 71
     3
 72
     9
 73
     5
 74
     0
 42
0.000000001
 43
0.0000000001
 40
0.0
 40
0.0
 40
0.0
 40
0.0
 40
0.0701846601748355
 40
1.0
 40
1.0
 40
1.0
 40
1.0
 10
15.79782167391443
 20
95.99752999584638
 30
0.0
 10
15.79746510093173
 20
95.97016361684018
 30
0.0
 10
15.79238460354617
 20
95.58024395435916
 30
0.0
 10
15.61007307600295
 20
95.19812843543536
 30
0.0
 10
15.44055702106613
 20
94.84283156435458
 30
0.0
  0
SPLINE
  5
5C3
330
1F
100
AcDbEntity
  8
0
  6
CONTINUOUS
 62
     7
100
AcDbSpline
210
0.0
220
0.0
230
1.0
 70
     8
 71
     3
 72
     9
 73
     5
 74
     0
 42
0.000000001
 43
0.0000000001
 40
0.0
 40
0.0
 40
0.0
 40
0.0
 40
0.7667083506233909
 40
0.9999999999999999
 40
0.9999999999999999
 40
0.9999999999999999
 40
0.9999999999999999
 10
15.79782167391443
 20
92.53343097608058
 30
0.0
 10
15.75523049656744
 20
91.93387958505718
 30
0.0
 10
15.69967980729666
 20
91.15189854815338
 30
0.0
 10
15.48957314975007
 20
90.39954758492757
 30
0.0
 10
15.44055702106613
 20
90.22403038780658
 30
0.0
  0
SPLINE
  5
5C4
330
1F
100
AcDbEntity
  8
0
  6
CONTINUOUS
 62
     7
100
AcDbSpline
210
0.0
220
0.0
230
1.0
 70
     8
 71
     3
 72
     9
 73
     5
 74
     0
 42
0.000000001
 43
0.0000000001
 40
0.0
 40
0.0
 40
0.0
 40
0.0
 40
0.2494095628856438
 40
1.0
 40
1.0
 40
1.0
 40
1.0
 10
13.99782100621792
 20
92.53343097617056
 30
0.0
 10
14.00238852033954
 20
92.72835997876416
 30
0.0
 10
14.02070182825162
 20
93.50992184166296
 30
0.0
 10
14.21171492096033
 20
94.27132764768277
 30
0.0
 10
14.35508752171137
 20
94.84283156444457
 30
0.0
  0
SPLINE
  5
5C5
330
1F
100
AcDbEntity
  8
0
  6
CONTINUOUS
 62
     7
100
AcDbSpline
210
0.0
220
0.0
230
1.0
 70
     8
 71
     3
 72
     9
 73
     5
 74
     0
 42
0.000000001
 43
0.0000000001
 40
0.0
 40
0.0
 40
0.0
 40
0.0
 40
0.2332916267598656
 40
1.0
 40
1.0
 40
1.0
 40
1.0
 10
14.35508752171137
 20
90.22403038789656
 30
0.0
 10
14.30607141500872
 20
90.39954758773456
 30
0.0
 10
14.09596483131656
 20
91.15189863554315
 30
0.0
 10
14.04041303420877
 20
91.93387961302284
 30
0.0
 10
13.99782100621792
 20
92.53343097617056
 30
0.0
  0
SPLINE
  5
5C6
330
1F
100
AcDbEntity
  8
0
  6
CONTINUOUS
 62
     7
100
AcDbSpline
210
0.0
220
0.0
230
1.0
 70
     8
 71
     3
 72
     9
 73
     5
 74
     0
 42
0.000000001
 43
0.0000000001
 40
0.0
 40
0.0
 40
0.0
 40
0.0
 40
0.0701854094539153
 40
1.0
 40
1.0
 40
1.0
 40
1.0
 10
13.99782100621792
 20
89.06932823111458
 30
0.0
 10
13.99817821516154
 20
89.09669588472417
 30
0.0
 10
14.00326771946897
 20
89.48662954504556
 30
0.0
 10
14.18557528619903
 20
89.86873922877555
 30
0.0
 10
14.35508752171137
 20
90.22403038789656
 30
0.0
  0
SPLINE
  5
5C7
330
1F
100
AcDbEntity
  8
0
  6
CONTINUOUS
 62
     7
100
AcDbSpline
210
0.0
220
0.0
230
1.0
 70
     8
 71
     3
 72
     9
 73
     5
 74
     0
 42
0.000000001
 43
0.0000000001
 40
0.0
 40
0.0
 40
0.0
 40
0.0
 40
0.0701855419659479
 40
1.0
 40
1.0
 40
1.0
 40
1.0
 10
15.79782167386617
 20
89.06932823100658
 30
0.0
 10
15.79746510877897
 20
89.04196057600677
 30
0.0
 10
15.79238478771714
 20
88.65202763207856
 30
0.0
 10
15.61007308141052
 20
88.26991948199498
 30
0.0
 10
15.44055702101792
 20
87.91462979951456
 30
0.0
  0
SPLINE
  5
5C8
330
1F
100
AcDbEntity
  8
0
  6
CONTINUOUS
 62
     7
100
AcDbSpline
210
0.0
220
0.0
230
1.0
 70
     8
 71
     3
 72
     9
 73
     5
 74
     0
 42
0.000000001
 43
0.0000000001
 40
0.0
 40
0.0
 40
0.0
 40
0.0
 40
0.0701854955865187
 40
1.0
 40
1.0
 40
1.0
 40
1.0
 10
13.99782100621792
 20
95.99752999597058
 30
0.0
 10
13.99817821439035
 20
96.02489764834638
 30
0.0
 10
14.00326770146353
 20
96.41483081254938
 30
0.0
 10
14.18557528566055
 20
96.79694077105438
 30
0.0
 10
14.35508752171137
 20
97.15223215275279
 30
0.0
  0
SPLINE
  5
5C9
330
1F
100
AcDbEntity
  8
0
  6
CONTINUOUS
 62
     7
100
AcDbSpline
210
0.0
220
0.0
230
1.0
 70
     8
 71
     3
 72
     9
 73
     5
 74
     0
 42
0.000000001
 43
0.0000000001
 40
0.0
 40
0.0
 40
0.0
 40
0.0
 40
0.0701854955865187
 40
1.0
 40
1.0
 40
1.0
 40
1.0
 10
13.99782100621792
 20
-134.0024700040293
 30
0.0
 10
13.99817821439035
 20
-133.975102351654
 30
0.0
 10
14.00326770146353
 20
-133.5851691874505
 30
0.0
 10
14.18557528566055
 20
-133.2030592289457
 30
0.0
 10
14.35508752171137
 20
-132.8477678472471
 30
0.0
  0
SPLINE
  5
5CA
330
1F
100
AcDbEntity
  8
0
  6
CONTINUOUS
 62
     7
100
AcDbSpline
210
0.0
220
0.0
230
1.0
 70
     8
 71
     3
 72
     9
 73
     5
 74
     0
 42
0.000000001
 43
0.0000000001
 40
0.0
 40
0.0
 40
0.0
 40
0.0
 40
0.2332916267598656
 40
1.0
 40
1.0
 40
1.0
 40
1.0
 10
14.35508752171137
 20
-139.7759696121033
 30
0.0
 10
14.30607141500872
 20
-139.6004524122655
 30
0.0
 10
14.09596483131656
 20
-138.8481013644569
 30
0.0
 10
14.04041303420877
 20
-138.0661203869773
 30
0.0
 10
13.99782100621792
 20
-137.4665690238294
 30
0.0
  0
SPLINE
  5
5CB
330
1F
100
AcDbEntity
  8
0
  6
CONTINUOUS
 62
     7
100
AcDbSpline
210
0.0
220
0.0
230
1.0
 70
     8
 71
     3
 72
     9
 73
     5
 74
     0
 42
0.000000001
 43
0.0000000001
 40
0.0
 40
0.0
 40
0.0
 40
0.0
 40
0.0701846601748355
 40
1.0
 40
1.0
 40
1.0
 40
1.0
 10
15.79782167391443
 20
-134.0024700041538
 30
0.0
 10
15.79746510093173
 20
-134.0298363831605
 30
0.0
 10
15.79238460354617
 20
-134.4197560456412
 30
0.0
 10
15.61007307600295
 20
-134.8018715645651
 30
0.0
 10
15.44055702106613
 20
-135.1571684356457
 30
0.0
  0
SPLINE
  5
5CC
330
1F
100
AcDbEntity
  8
0
  6
CONTINUOUS
 62
     7
100
AcDbSpline
210
0.0
220
0.0
230
1.0
 70
     8
 71
     3
 72
     9
 73
     5
 74
     0
 42
0.000000001
 43
0.0000000001
 40
0.0
 40
0.0
 40
0.0
 40
0.0
 40
0.0701854094539153
 40
1.0
 40
1.0
 40
1.0
 40
1.0
 10
13.99782100621792
 20
-140.9306717688855
 30
0.0
 10
13.99817821516154
 20
-140.9033041152759
 30
0.0
 10
14.00326771946897
 20
-140.5133704549545
 30
0.0
 10
14.18557528619903
 20
-140.1312607712244
 30
0.0
 10
14.35508752171137
 20
-139.7759696121033
 30
0.0
  0
SPLINE
  5
5CD
330
1F
100
AcDbEntity
  8
0
  6
CONTINUOUS
 62
     7
100
AcDbSpline
210
0.0
220
0.0
230
1.0
 70
     8
 71
     3
 72
     9
 73
     5
 74
     0
 42
0.000000001
 43
0.0000000001
 40
0.0
 40
0.0
 40
0.0
 40
0.0
 40
0.7667083506233909
 40
0.9999999999999999
 40
0.9999999999999999
 40
0.9999999999999999
 40
0.9999999999999999
 10
15.79782167391443
 20
-137.4665690239197
 30
0.0
 10
15.75523049656755
 20
-138.0661204149431
 30
0.0
 10
15.69967980729672
 20
-138.8481014518471
 30
0.0
 10
15.48957314975013
 20
-139.6004524150726
 30
0.0
 10
15.44055702106613
 20
-139.7759696121936
 30
0.0
  0
SPLINE
  5
5CE
330
1F
100
AcDbEntity
  8
0
  6
CONTINUOUS
 62
     7
100
AcDbSpline
210
0.0
220
0.0
230
1.0
 70
     8
 71
     3
 72
     9
 73
     5
 74
     0
 42
0.000000001
 43
0.0000000001
 40
0.0
 40
0.0
 40
0.0
 40
0.0
 40
0.0701855419659479
 40
1.0
 40
1.0
 40
1.0
 40
1.0
 10
15.79782167386617
 20
-140.9306717689936
 30
0.0
 10
15.79746510877897
 20
-140.9580394239935
 30
0.0
 10
15.79238478771714
 20
-141.3479723679217
 30
0.0
 10
15.61007308141052
 20
-141.7300805180052
 30
0.0
 10
15.44055702101792
 20
-142.0853702004855
 30
0.0
  0
SPLINE
  5
5CF
330
1F
100
AcDbEntity
  8
0
  6
CONTINUOUS
 62
     7
100
AcDbSpline
210
0.0
220
0.0
230
1.0
 70
     8
 71
     3
 72
     9
 73
     5
 74
     0
 42
0.000000001
 43
0.0000000001
 40
0.0
 40
0.0
 40
0.0
 40
0.0
 40
0.2494095628856438
 40
1.0
 40
1.0
 40
1.0
 40
1.0
 10
13.99782100621792
 20
-137.4665690238294
 30
0.0
 10
14.00238852033954
 20
-137.2716400212357
 30
0.0
 10
14.02070182825162
 20
-136.4900781583369
 30
0.0
 10
14.21171492096033
 20
-135.7286723523171
 30
0.0
 10
14.35508752171137
 20
-135.1571684355553
 30
0.0
  0
SPLINE
  5
5D0
330
1F
100
AcDbEntity
  8
0
  6
CONTINUOUS
 62
     7
100
AcDbSpline
210
0.0
220
0.0
230
1.0
 70
     8
 71
     3
 72
     9
 73
     5
 74
     0
 42
0.000000001
 43
0.0000000001
 40
0.0
 40
0.0
 40
0.0
 40
0.0
 40
0.7505903995493385
 40
1.0
 40
1.0
 40
1.0
 40
1.0
 10
15.44055702106613
 20
-135.1571684356457
 30
0.0
 10
15.58392876814503
 20
-135.7286723966803
 30
0.0
 10
15.77494073307952
 20
-136.4900782997903
 30
0.0
 10
15.79325413552692
 20
-137.2716400260465
 30
0.0
 10
15.79782167391443
 20
-137.4665690239197
 30
0.0
  0
ELLIPSE
  5
5D1
330
1F
100
AcDbEntity
  8
0
  6
CONTINUOUS
 62
     7
100
AcDbEllipse
 10
1.963178950659938
 20
18.14049322674816
 30
0.0
 11
0.0
 21
0.1999999999999318
 31
0.0
210
0.0
220
0.0
230
1.0
 40
0.1732137495000665
 41
4.712388980384863
 42
6.283185307179586
  0
ELLIPSE
  5
5D2
330
1F
100
AcDbEntity
  8
0
  6
CONTINUOUS
 62
     7
100
AcDbEllipse
 10
6.163178950659926
 20
18.14049351264816
 30
0.0
 11
0.0
 21
0.1999999999999318
 31
0.0
210
0.0
220
0.0
230
1.0
 40
0.1732137495000665
 41
4.712388980384863
 42
6.283162422160444
  0
ELLIPSE
  5
5D3
330
1F
100
AcDbEntity
  8
0
  6
CONTINUOUS
 62
     7
100
AcDbEllipse
 10
1.963178950659938
 20
-18.65950677325185
 30
0.0
 11
0.0
 21
0.1999999999999886
 31
0.0
210
0.0
220
0.0
230
1.0
 40
0.1732137495000173
 41
3.141606416930866
 42
4.712388980384863
  0
ELLIPSE
  5
5D4
330
1F
100
AcDbEntity
  8
0
  6
CONTINUOUS
 62
     7
100
AcDbEllipse
 10
6.163178950659926
 20
-18.65950677325185
 30
0.0
 11
0.0
 21
0.1999999999999318
 31
0.0
210
0.0
220
0.0
230
1.0
 40
0.1732137495000665
 41
3.141615538608935
 42
4.712388980384863
  0
ELLIPSE
  5
5D5
330
1F
100
AcDbEntity
  8
0
  6
CONTINUOUS
 62
     7
100
AcDbEllipse
 10
1.963178950659938
 20
-248.6595067732518
 30
0.0
 11
0.0
 21
0.2000000000000171
 31
0.0
210
0.0
220
0.0
230
1.0
 40
0.173213749500005
 41
3.141606416930866
 42
4.712388980384863
  0
ELLIPSE
  5
5D6
330
1F
100
AcDbEntity
  8
0
  6
CONTINUOUS
 62
     7
100
AcDbEllipse
 10
6.163178950659926
 20
-248.6595067732518
 30
0.0
 11
0.0
 21
0.2000000000000171
 31
0.0
210
0.0
220
0.0
230
1.0
 40
0.173213749500005
 41
3.141615538608935
 42
4.712388980384863
  0
ELLIPSE
  5
5D7
330
1F
100
AcDbEntity
  8
0
  6
CONTINUOUS
 62
     7
100
AcDbEllipse
 10
1.963178950659938
 20
-211.8595067732518
 30
0.0
 11
0.0
 21
0.1999999999999602
 31
0.0
210
0.0
220
0.0
230
1.0
 40
0.1732137495000419
 41
4.712388980384863
 42
6.283185307179586
  0
ELLIPSE
  5
5D8
330
1F
100
AcDbEntity
  8
0
  6
CONTINUOUS
 62
     7
100
AcDbEllipse
 10
6.163178950659926
 20
-211.8595064873518
 30
0.0
 11
0.0
 21
0.1999999999999318
 31
0.0
210
0.0
220
0.0
230
1.0
 40
0.1732137495000665
 41
4.712388980384863
 42
6.283162422160444
  0
ARC
  5
5D9
330
1F
100
AcDbEntity
  8
0
  6
DASHED
 62
     7
100
AcDbCircle
 10
-22.20218036174003
 20
92.53343023094817
 30
0.0
 40
162.5000000000001
100
AcDbArc
 50
90.0
 51
180.0
  0
TEXT
  5
5DB
330
1F
100
AcDbEntity
  8
0
 62
     7
100
AcDbText
 10
256.09657627886
 20
-266.6750980657518
 30
0.0
 40
11.6416666666
  1
000
 41
0.3315789473684208
  7
DCSTYLE0
 72
     5
 11
266.5740762788
 21
-266.6750980657518
 31
0.0
100
AcDbText
  0
VIEWPORT
  5
AD
330
1B
100
AcDbEntity
 67
     1
  8
0
100
AcDbViewport
 10
-0.4432430768400764
 20
-5.820833333300016
 30
0.0
 40
1544.6389161342
 41
1565.125588394711
 68
     1
 69
     1
1001
ACAD
1000
MVIEW
1002
{
1070
    16
1010
0.0
1020
0.0
1030
0.0
1010
0.0
1020
0.0
1030
1.0
1040
0.0
1040
1565.125588394711
1040
-0.4432430768400764
1040
-5.820833333300016
1040
50.0
1040
0.0
1040
0.0
1070
     0
1070
   100
1070
     0
1070
     3
1070
     0
1070
     0
1070
     0
1070
     0
1040
0.0
1040
0.0
1040
0.0
1040
0.5
1040
0.5
1040
0.0
1040
0.0
1070
     0
1002
{
1002
}
1002
}
  0
ENDSEC
  0
SECTION
  2
OBJECTS
  0
DICTIONARY
  5
C
330
0
100
AcDbDictionary
  3
ACAD_GROUP
350
D
  3
ACAD_LAYOUT
350
1A
  3
ACAD_MATERIAL
350
43
  3
ACAD_MLEADERSTYLE
350
5FF
  3
ACAD_MLINESTYLE
350
17
  3
ACAD_PLOTSETTINGS
350
19
  3
ACAD_SCALELIST
350
47
  3
ACAD_VISUALSTYLE
350
2A
  3
ACDBHEADERROUNDTRIPXREC
350
5DC
  3
ACDBVARIABLEDICTIONARY
350
5FD
  0
DICTIONARY
  5
604
330
8
100
AcDbDictionary
280
     1
  3
ACAD_XREC_ROUNDTRIP
360
605
  0
DICTIONARY
  5
D
102
{ACAD_REACTORS
330
C
102
}
330
C
100
AcDbDictionary
  0
DICTIONARY
  5
1A
102
{ACAD_REACTORS
330
C
102
}
330
C
100
AcDbDictionary
  0
DICTIONARY
  5
43
102
{ACAD_REACTORS
330
C
102
}
330
C
100
AcDbDictionary
  3
BYBLOCK
350
45
  3
BYLAYER
350
44
  3
GLOBAL
350
46
  0
DICTIONARY
  5
5FF
102
{ACAD_REACTORS
330
C
102
}
330
C
100
AcDbDictionary
  0
DICTIONARY
  5
17
102
{ACAD_REACTORS
330
C
102
}
330
C
100
AcDbDictionary
  3
STANDARD
350
18
  0
DICTIONARY
  5
19
102
{ACAD_REACTORS
330
C
102
}
330
C
100
AcDbDictionary
  0
DICTIONARY
  5
47
102
{ACAD_REACTORS
330
C
102
}
330
C
100
AcDbDictionary
  3
A0
350
48
  3
A1
350
49
  3
A2
350
4A
  3
A3
350
4B
  3
A4
350
4C
  3
A5
350
4D
  3
A6
350
4E
  3
A7
350
4F
  3
A8
350
50
  3
A9
350
51
  3
B0
350
52
  3
B1
350
53
  3
B2
350
54
  3
B3
350
55
  3
B4
350
56
  3
B5
350
57
  3
B6
350
58
  3
B7
350
59
  3
B8
350
5A
  3
B9
350
5B
  3
C0
350
5C
  3
C1
350
5D
  3
C2
350
5E
  3
C3
350
5F
  3
C4
350
60
  3
C5
350
61
  3
C6
350
62
  3
C7
350
63
  3
C8
350
64
  3
C9
350
65
  3
D0
350
66
  3
D1
350
67
  3
D2
350
68
  0
DICTIONARY
  5
2A
102
{ACAD_REACTORS
330
C
102
}
330
C
100
AcDbDictionary
  3
2DWIREFRAME
350
2F
  3
BASIC
350
32
  3
BRIGHTEN
350
36
  3
COLORCHANGE
350
3A
  3
CONCEPTUAL
350
34
  3
DIM
350
35
  3
EDGECOLOROFF
350
3D
  3
FACEPATTERN
350
39
  3
FLAT
350
2B
  3
FLATWITHEDGES
350
2C
  3
GOURAUD
350
2D
  3
GOURAUDWITHEDGES
350
2E
  3
HIDDEN
350
31
  3
JITTEROFF
350
3B
  3
LINEPATTERN
350
38
  3
OVERHANGOFF
350
3C
  3
REALISTIC
350
33
  3
SHADED
350
42
  3
SHADED_WITH_EDGES
350
41
  3
SHADES_OF_GRAY
350
3E
  3
SKETCHY
350
3F
  3
THICKEN
350
37
  3
WIREFRAME
350
30
  3
X-RAY
350
40
  0
DICTIONARY
  5
5DC
102
{ACAD_REACTORS
330
C
102
}
330
C
100
AcDbDictionary
  3
CEPSNID
350
5E6
  3
CEPSNTYPE
350
5E5
  3
DIMSTYLEDATA
350
5FC
  3
FINGERPRINTGUID
350
5E7
  3
HYPERLINKBASE
350
5DF
  3
INSUNITS
350
5E4
  3
LAYOUTDICT
350
5E1
  3
LWETCUNION
350
5E3
  3
PLOTSETDICT
350
5E2
  3
PSVPSCALE
350
5E9
  3
PUCSBASE
350
5EC
  3
PUCSORGBACK
350
5F2
  3
PUCSORGBOTTOM
350
5EE
  3
PUCSORGFRONT
350
5F1
  3
PUCSORGLEFT
350
5EF
  3
PUCSORGRIGHT
350
5F0
  3
PUCSORGTOP
350
5ED
  3
PUCSORTHOREF
350
5EA
  3
PUCSORTHOVIEW
350
5EB
  3
STYLESHEET
350
5E0
  3
TSTACKALIGN
350
5DD
  3
TSTACKSIZE
350
5DE
  3
UCSBASE
350
5F5
  3
UCSORGBACK
350
5FB
  3
UCSORGBOTTOM
350
5F7
  3
UCSORGFRONT
350
5FA
  3
UCSORGLEFT
350
5F8
  3
UCSORGRIGHT
350
5F9
  3
UCSORGTOP
350
5F6
  3
UCSORTHOREF
350
5F3
  3
UCSORTHOVIEW
350
5F4
  3
VERSIONGUID
350
5E8
  0
DICTIONARY
  5
5FD
102
{ACAD_REACTORS
330
C
102
}
330
C
100
AcDbDictionary
  3
CANNOSCALE
350
606
  3
DIMASSOC
350
602
  3
HIDETEXT
350
603
  3
MSLTSCALE
350
607
  0
XRECORD
  5
605
102
{ACAD_REACTORS
330
604
102
}
330
604
100
AcDbXrecord
102
VTR_0.000_0.000_1.000_1.000_GRIDDISPLAY
 70
     3
102
VTR_0.000_0.000_1.000_1.000_GRIDMAJOR
 70
     5
102
VTR_0.000_0.000_1.000_1.000_DEFAULTLIGHTING
280
     1
102
VTR_0.000_0.000_1.000_1.000_DEFAULTLIGHTINGTYPE
 70
     1
102
VTR_0.000_0.000_1.000_1.000_BRIGHTNESS
141
0.0
102
VTR_0.000_0.000_1.000_1.000_CONTRAST
142
0.0
  0
MATERIAL
  5
45
102
{ACAD_REACTORS
330
43
102
}
102
{ACAD_XDICTIONARY
360
60A
102
}
330
43
100
AcDbMaterial
  1
BYBLOCK
  0
MATERIAL
  5
44
102
{ACAD_REACTORS
330
43
102
}
102
{ACAD_XDICTIONARY
360
608
102
}
330
43
100
AcDbMaterial
  1
BYLAYER
  0
MATERIAL
  5
46
102
{ACAD_REACTORS
330
43
102
}
102
{ACAD_XDICTIONARY
360
60C
102
}
330
43
100
AcDbMaterial
  1
GLOBAL
  0
MLINESTYLE
  5
18
102
{ACAD_REACTORS
330
17
102
}
330
17
100
AcDbMlineStyle
  2
Standard
 70
     0
  3

 62
   256
 51
90.0
 52
90.0
 71
     2
 49
0.5
 62
   256
  6
BYLAYER
 49
-0.5
 62
   256
  6
BYLAYER
  0
ACAD_PROXY_OBJECT
  5
48
102
{ACAD_REACTORS
330
47
102
}
330
47
100
AcDbProxyObject
 90
      499
 91
      503
 93
       41
310
903313A31580
  0
ACAD_PROXY_OBJECT
  5
49
102
{ACAD_REACTORS
330
47
102
}
330
47
100
AcDbProxyObject
 90
      499
 91
      503
 93
      105
310
903313A324000000000000004000
  0
ACAD_PROXY_OBJECT
  5
4A
102
{ACAD_REACTORS
330
47
102
}
330
47
100
AcDbProxyObject
 90
      499
 91
      503
 93
      105
310
903313A344000000000000104000
  0
ACAD_PROXY_OBJECT
  5
4B
102
{ACAD_REACTORS
330
47
102
}
330
47
100
AcDbProxyObject
 90
      499
 91
      503
 93
      105
310
903313A354000000000000144000
  0
ACAD_PROXY_OBJECT
  5
4C
102
{ACAD_REACTORS
330
47
102
}
330
47
100
AcDbProxyObject
 90
      499
 91
      503
 93
      105
310
903313A384000000000000204000
  0
ACAD_PROXY_OBJECT
  5
4D
102
{ACAD_REACTORS
330
47
102
}
330
47
100
AcDbProxyObject
 90
      499
 91
      503
 93
      113
310
904313A31304000000000000244000
  0
ACAD_PROXY_OBJECT
  5
4E
102
{ACAD_REACTORS
330
47
102
}
330
47
100
AcDbProxyObject
 90
      499
 91
      503
 93
      113
310
904313A31364000000000000304000
  0
ACAD_PROXY_OBJECT
  5
4F
102
{ACAD_REACTORS
330
47
102
}
330
47
100
AcDbProxyObject
 90
      499
 91
      503
 93
      113
310
904313A32304000000000000344000
  0
ACAD_PROXY_OBJECT
  5
50
102
{ACAD_REACTORS
330
47
102
}
330
47
100
AcDbProxyObject
 90
      499
 91
      503
 93
      113
310
904313A333040000000000003E4000
  0
ACAD_PROXY_OBJECT
  5
51
102
{ACAD_REACTORS
330
47
102
}
330
47
100
AcDbProxyObject
 90
      499
 91
      503
 93
      113
310
904313A34304000000000000444000
  0
ACAD_PROXY_OBJECT
  5
52
102
{ACAD_REACTORS
330
47
102
}
330
47
100
AcDbProxyObject
 90
      499
 91
      503
 93
      113
310
904313A35304000000000000494000
  0
ACAD_PROXY_OBJECT
  5
53
102
{ACAD_REACTORS
330
47
102
}
330
47
100
AcDbProxyObject
 90
      499
 91
      503
 93
      121
310
905313A3130304000000000000594000
  0
ACAD_PROXY_OBJECT
  5
54
102
{ACAD_REACTORS
330
47
102
}
330
47
100
AcDbProxyObject
 90
      499
 91
      503
 93
      105
310
903323A310000000000000010100
  0
ACAD_PROXY_OBJECT
  5
55
102
{ACAD_REACTORS
330
47
102
}
330
47
100
AcDbProxyObject
 90
      499
 91
      503
 93
      105
310
903343A310000000000000410100
  0
ACAD_PROXY_OBJECT
  5
56
102
{ACAD_REACTORS
330
47
102
}
330
47
100
AcDbProxyObject
 90
      499
 91
      503
 93
      105
310
903383A310000000000000810100
  0
ACAD_PROXY_OBJECT
  5
57
102
{ACAD_REACTORS
330
47
102
}
330
47
100
AcDbProxyObject
 90
      499
 91
      503
 93
      113
310
90431303A310000000000000910100
  0
ACAD_PROXY_OBJECT
  5
58
102
{ACAD_REACTORS
330
47
102
}
330
47
100
AcDbProxyObject
 90
      499
 91
      503
 93
      121
310
9053130303A310000000000001650100
  0
ACAD_PROXY_OBJECT
  5
59
102
{ACAD_REACTORS
330
47
102
}
330
47
100
AcDbProxyObject
 90
      499
 91
      503
 93
      257
310
90E312F31323822203D2031272D3022000000000000200FC000000000000284000
  0
ACAD_PROXY_OBJECT
  5
5A
102
{ACAD_REACTORS
330
47
102
}
330
47
100
AcDbProxyObject
 90
      499
 91
      503
 93
      249
310
90D312F363422203D2031272D3022000000000000240FC000000000000284000
  0
ACAD_PROXY_OBJECT
  5
5B
102
{ACAD_REACTORS
330
47
102
}
330
47
100
AcDbProxyObject
 90
      499
 91
      503
 93
      249
310
90D312F333222203D2031272D3022000000000000280FC000000000000284000
  0
ACAD_PROXY_OBJECT
  5
5C
102
{ACAD_REACTORS
330
47
102
}
330
47
100
AcDbProxyObject
 90
      499
 91
      503
 93
      249
310
90D312F313622203D2031272D30220000000000002C0FC000000000000284000
  0
ACAD_PROXY_OBJECT
  5
5D
102
{ACAD_REACTORS
330
47
102
}
330
47
100
AcDbProxyObject
 90
      499
 91
      503
 93
      249
310
90D332F333222203D2031272D30220000000000002E0FC000000000000284000
  0
ACAD_PROXY_OBJECT
  5
5E
102
{ACAD_REACTORS
330
47
102
}
330
47
100
AcDbProxyObject
 90
      499
 91
      503
 93
      241
310
90C312F3822203D2031272D3022000000000000300FC000000000000284000
  0
ACAD_PROXY_OBJECT
  5
5F
102
{ACAD_REACTORS
330
47
102
}
330
47
100
AcDbProxyObject
 90
      499
 91
      503
 93
      249
310
90D332F313622203D2031272D3022000000000000320FC000000000000284000
  0
ACAD_PROXY_OBJECT
  5
60
102
{ACAD_REACTORS
330
47
102
}
330
47
100
AcDbProxyObject
 90
      499
 91
      503
 93
      241
310
90C312F3422203D2031272D3022000000000000340FC000000000000284000
  0
ACAD_PROXY_OBJECT
  5
61
102
{ACAD_REACTORS
330
47
102
}
330
47
100
AcDbProxyObject
 90
      499
 91
      503
 93
      241
310
90C332F3822203D2031272D3022000000000000360FC000000000000284000
  0
ACAD_PROXY_OBJECT
  5
62
102
{ACAD_REACTORS
330
47
102
}
330
47
100
AcDbProxyObject
 90
      499
 91
      503
 93
      241
310
90C312F3222203D2031272D3022000000000000380FC000000000000284000
  0
ACAD_PROXY_OBJECT
  5
63
102
{ACAD_REACTORS
330
47
102
}
330
47
100
AcDbProxyObject
 90
      499
 91
      503
 93
      241
310
90C332F3422203D2031272D30220000000000003A0FC000000000000284000
  0
ACAD_PROXY_OBJECT
  5
64
102
{ACAD_REACTORS
330
47
102
}
330
47
100
AcDbProxyObject
 90
      499
 91
      503
 93
      161
310
90A3122203D2031272D30224000000000000284000
  0
ACAD_PROXY_OBJECT
  5
65
102
{ACAD_REACTORS
330
47
102
}
330
47
100
AcDbProxyObject
 90
      499
 91
      503
 93
      257
310
90E312D312F3222203D2031272D30220000000000003E0FC000000000000284000
  0
ACAD_PROXY_OBJECT
  5
66
102
{ACAD_REACTORS
330
47
102
}
330
47
100
AcDbProxyObject
 90
      499
 91
      503
 93
      225
310
90A3322203D2031272D302200000000000002100000000000000284000
  0
ACAD_PROXY_OBJECT
  5
67
102
{ACAD_REACTORS
330
47
102
}
330
47
100
AcDbProxyObject
 90
      499
 91
      503
 93
      225
310
90A3622203D2031272D302200000000000006100000000000000284000
  0
ACAD_PROXY_OBJECT
  5
68
102
{ACAD_REACTORS
330
47
102
}
330
47
100
AcDbProxyObject
 90
      499
 91
      503
 93
      249
310
90D31272D3022203D2031272D30220000000000000A100000000000000284000
  0
ACAD_PROXY_OBJECT
  5
2F
102
{ACAD_REACTORS
330
2A
102
}
330
2A
100
AcDbProxyObject
 90
      499
 91
      501
 93
      436
310
42CC9915DA5C99599C985B595049028333333333333E33F0000000000000F90107901411070040501600405405064090741402480A0340
1001
ACAD
1000
AcDbSavedByObjectVersion
1070
     0
  0
ACAD_PROXY_OBJECT
  5
32
102
{ACAD_REACTORS
330
2A
102
}
330
2A
100
AcDbProxyObject
 90
      499
 91
      501
 93
      388
310
4150985CDA58D07406404333333333333E33F0000000000000F90107A41107004050150841D405064090741402480A0350
1001
ACAD
1000
AcDbSavedByObjectVersion
1070
     0
  0
ACAD_PROXY_OBJECT
  5
36
102
{ACAD_REACTORS
330
2A
102
}
330
2A
100
AcDbProxyObject
 90
      499
 91
      501
 93
      428
310
42109C9A59DA1D195B90C409028333333333333E33F0000000000000F9010790141107004050150841D405064090741402480A029950
1001
ACAD
1000
AcDbSavedByObjectVersion
1070
     0
  0
ACAD_PROXY_OBJECT
  5
3A
102
{ACAD_REACTORS
330
2A
102
}
330
2A
100
AcDbProxyObject
 90
      499
 91
      501
 93
      452
310
42D0DBDB1BDC90DA185B99D95104090240C333333333333E33F0000000000000F90108901411070040501508421405064090741402480A0350
1001
ACAD
1000
AcDbSavedByObjectVersion
1070
     0
  0
ACAD_PROXY_OBJECT
  5
34
102
{ACAD_REACTORS
330
2A
102
}
330
2A
100
AcDbProxyObject
 90
      499
 91
      501
 93
      500
310
4290DBDB98D95C1D1D585B10940D028333333333333E33F0000000000000F90107902409070040501000000000018199010841D405064090740C02480A0340
1001
ACAD
1000
AcDbSavedByObjectVersion
1070
     0
  0
ACAD_PROXY_OBJECT
  5
35
102
{ACAD_REACTORS
330
2A
102
}
330
2A
100
AcDbProxyObject
 90
      499
 91
      501
 93
      412
310
40D11A5B50B409028333333333333E33F0000000000000F9010790141107004050150841D405064090741402480A02677FFFFFD0
1001
ACAD
1000
AcDbSavedByObjectVersion
1070
     0
  0
ACAD_PROXY_OBJECT
  5
3D
102
{ACAD_REACTORS
330
2A
102
}
330
2A
100
AcDbProxyObject
 90
      499
 91
      501
 93
      452
310
43115919D950DBDB1BDC93D999916409028333333333333E33F0000000000000F9010790141107004050150841D405064090741402480A0350
1001
ACAD
1000
AcDbSavedByObjectVersion
1070
     0
  0
ACAD_PROXY_OBJECT
  5
39
102
{ACAD_REACTORS
330
2A
102
}
330
2A
100
AcDbProxyObject
 90
      499
 91
      501
 93
      444
310
42D19858D95C185D1D195C9B90F409028333333333333E33F0000000000000F9010790141107004050150841D405064090741402480A0350
1001
ACAD
1000
AcDbSavedByObjectVersion
1070
     0
  0
ACAD_PROXY_OBJECT
  5
2B
102
{ACAD_REACTORS
330
2A
102
}
330
2A
100
AcDbProxyObject
 90
      499
 91
      501
 93
      380
310
41119B185D240901404333333333333E33F0000000000000F9010740A907004050150841D405064090741402480A1B50
1001
ACAD
1000
AcDbSavedByObjectVersion
1070
     0
  0
ACAD_PROXY_OBJECT
  5
2C
102
{ACAD_REACTORS
330
2A
102
}
330
2A
100
AcDbProxyObject
 90
      499
 91
      501
 93
      468
310
43519B185D15DA5D1A115919D95CD0140901404333333333333E33F0000000000000F90107409019070040501600405405064090741402480A1B50
1001
ACAD
1000
AcDbSavedByObjectVersion
1070
     0
  0
ACAD_PROXY_OBJECT
  5
2D
102
{ACAD_REACTORS
330
2A
102
}
330
2A
100
AcDbProxyObject
 90
      499
 91
      501
 93
      404
310
41D1DBDD5C985D5910240902404333333333333E33F0000000000000F9010740A9070040501641D405064090741402480A1B50
1001
ACAD
1000
AcDbSavedByObjectVersion
1070
     0
  0
ACAD_PROXY_OBJECT
  5
2E
102
{ACAD_REACTORS
330
2A
102
}
330
2A
100
AcDbProxyObject
 90
      499
 91
      501
 93
      492
310
4411DBDD5C985D5915DA5D1A115919D95CD0340902404333333333333E33F0000000000000F90107409019070040501600405405064090741402480A1B50
1001
ACAD
1000
AcDbSavedByObjectVersion
1070
     0
  0
ACAD_PROXY_OBJECT
  5
31
102
{ACAD_REACTORS
330
2A
102
}
330
2A
100
AcDbProxyObject
 90
      499
 91
      501
 93
      476
310
41921A5919195B90640502408333333333333E33F0000000000000F901079024090700405020000000000001110200405405064090740C02480A0340
1001
ACAD
1000
AcDbSavedByObjectVersion
1070
     0
  0
ACAD_PROXY_OBJECT
  5
3B
102
{ACAD_REACTORS
330
2A
102
}
330
2A
100
AcDbProxyObject
 90
      499
 91
      501
 93
      428
310
42529A5D1D195C93D999914409028333333333333E33F0000000000000F9010790141107004050150A41D405064090741402480A0350
1001
ACAD
1000
AcDbSavedByObjectVersion
1070
     0
  0
ACAD_PROXY_OBJECT
  5
38
102
{ACAD_REACTORS
330
2A
102
}
330
2A
100
AcDbProxyObject
 90
      499
 91
      501
 93
      444
310
42D31A5B995C185D1D195C9B90E409028333333333333E33F0000000000000F9010790141107004050750841D405064090741402483A0350
1001
ACAD
1000
AcDbSavedByObjectVersion
1070
     0
  0
ACAD_PROXY_OBJECT
  5
3C
102
{ACAD_REACTORS
330
2A
102
}
330
2A
100
AcDbProxyObject
 90
      499
 91
      501
 93
      444
310
42D3DD995C9A185B99D3D999915409028333333333333E33F0000000000000F9010790141107004050150941D405064090741402480A0350
1001
ACAD
1000
AcDbSavedByObjectVersion
1070
     0
  0
ACAD_PROXY_OBJECT
  5
33
102
{ACAD_REACTORS
330
2A
102
}
330
2A
100
AcDbProxyObject
 90
      499
 91
      501
 93
      428
310
425499585B1A5CDD1A58D08409038333333333333E33F0000000000000F9010740A907004050150800405405064090740C02480A1B40
1001
ACAD
1000
AcDbSavedByObjectVersion
1070
     0
  0
ACAD_PROXY_OBJECT
  5
42
102
{ACAD_REACTORS
330
2A
102
}
330
2A
100
AcDbProxyObject
 90
      499
 91
      501
 93
      420
310
4194DA1859195911B40902404333333333333E33F0000000000000F9010740A41107004050150800405405064090840C02480A0B40
1001
ACAD
1000
AcDbSavedByObjectVersion
1070
     0
  0
ACAD_PROXY_OBJECT
  5
41
102
{ACAD_REACTORS
330
2A
102
}
330
2A
100
AcDbProxyObject
 90
      499
 91
      501
 93
      516
310
4454DA18591959081DDA5D1A08195919D95CD1A40902404333333333333E33F0000000000000F901074090142907004050250800405405064090740C02480A0B40
1001
ACAD
1000
AcDbSavedByObjectVersion
1070
     0
  0
ACAD_PROXY_OBJECT
  5
3E
102
{ACAD_REACTORS
330
2A
102
}
330
2A
100
AcDbProxyObject
 90
      499
 91
      501
 93
      532
310
4394DA1859195CC81BD98811DC985E5174090240C333333333333E33F0000000000000F901079024090741D01000000000000111010841D405064090740C02480A0340
1001
ACAD
1000
AcDbSavedByObjectVersion
1070
     0
  0
ACAD_PROXY_OBJECT
  5
3F
102
{ACAD_REACTORS
330
2A
102
}
330
2A
100
AcDbProxyObject
 90
      499
 91
      501
 93
      476
310
41D4DAD95D18DA1E51840502408333333333333E33F0000000000000F901079024090741D01000000000000111010B41D405064090741802480A0340
1001
ACAD
1000
AcDbSavedByObjectVersion
1070
     0
  0
ACAD_PROXY_OBJECT
  5
37
102
{ACAD_REACTORS
330
2A
102
}
330
2A
100
AcDbProxyObject
 90
      499
 91
      501
 93
      412
310
41D51A1A58DAD95B90D409028333333333333E33F0000000000000F9010790141107004050150C41D405064090741402480A0350
1001
ACAD
1000
AcDbSavedByObjectVersion
1070
     0
  0
ACAD_PROXY_OBJECT
  5
30
102
{ACAD_REACTORS
330
2A
102
}
330
2A
100
AcDbProxyObject
 90
      499
 91
      501
 93
      420
310
4255DA5C99599C985B595059028333333333333E33F0000000000000F90107901411070040501600405405064090740C02480A0340
1001
ACAD
1000
AcDbSavedByObjectVersion
1070
     0
  0
ACAD_PROXY_OBJECT
  5
40
102
{ACAD_REACTORS
330
2A
102
}
330
2A
100
AcDbProxyObject
 90
      499
 91
      501
 93
      404
310
41560B54985E51940902404000000000000E03F0000000000000F9010740501907004050150841D405064090740C02480A1B40
1001
ACAD
1000
AcDbSavedByObjectVersion
1070
     0
  0
XRECORD
  5
5E6
102
{ACAD_REACTORS
330
5DC
102
}
330
5DC
100
AcDbXrecord
340
0
  0
XRECORD
  5
5E5
102
{ACAD_REACTORS
330
5DC
102
}
330
5DC
100
AcDbXrecord
 90
        0
  0
XRECORD
  5
5FC
102
{ACAD_REACTORS
330
5DC
102
}
330
5DC
100
AcDbXrecord
1000
DSTYLE
1002
{
1070
   179
 70
     2
1070
   171
 70
     2
1070
   143
 40
25.4
1070
   274
 70
     2
1070
    41
 40
3.000001907348633
1070
    79
 70
     2
1070
   141
 40
0.0
1070
    43
 40
10.0
1070
   278
 70
    46
1070
    44
 40
1.0
1070
    42
 40
1.0
1070
   147
 40
0.09
1070
   146
 40
0.65
1070
   172
 70
     0
1070
   340
340
11
1070
   140
 40
3.5
1070
   284
 70
     0
1070
    90
 70
     1
1002
}
  0
XRECORD
  5
5E7
102
{ACAD_REACTORS
330
5DC
102
}
330
5DC
100
AcDbXrecord
  1
{114D184B-1B10-48D7-863D-A7B6958B7951}
  0
XRECORD
  5
5DF
102
{ACAD_REACTORS
330
5DC
102
}
330
5DC
100
AcDbXrecord
  1

  0
XRECORD
  5
5E4
102
{ACAD_REACTORS
330
5DC
102
}
330
5DC
100
AcDbXrecord
 90
        4
  0
XRECORD
  5
5E1
102
{ACAD_REACTORS
330
5DC
102
}
330
5DC
100
AcDbXrecord
340
1A
  0
XRECORD
  5
5E3
102
{ACAD_REACTORS
330
5DC
102
}
330
5DC
100
AcDbXrecord
 90
    10781
  0
XRECORD
  5
5E2
102
{ACAD_REACTORS
330
5DC
102
}
330
5DC
100
AcDbXrecord
340
19
  0
XRECORD
  5
5E9
102
{ACAD_REACTORS
330
5DC
102
}
330
5DC
100
AcDbXrecord
 40
0.0
  0
XRECORD
  5
5EC
102
{ACAD_REACTORS
330
5DC
102
}
330
5DC
100
AcDbXrecord
340
0
  0
XRECORD
  5
5F2
102
{ACAD_REACTORS
330
5DC
102
}
330
5DC
100
AcDbXrecord
 10
0.0
 20
0.0
 30
0.0
  0
XRECORD
  5
5EE
102
{ACAD_REACTORS
330
5DC
102
}
330
5DC
100
AcDbXrecord
 10
0.0
 20
0.0
 30
0.0
  0
XRECORD
  5
5F1
102
{ACAD_REACTORS
330
5DC
102
}
330
5DC
100
AcDbXrecord
 10
0.0
 20
0.0
 30
0.0
  0
XRECORD
  5
5EF
102
{ACAD_REACTORS
330
5DC
102
}
330
5DC
100
AcDbXrecord
 10
0.0
 20
0.0
 30
0.0
  0
XRECORD
  5
5F0
102
{ACAD_REACTORS
330
5DC
102
}
330
5DC
100
AcDbXrecord
 10
0.0
 20
0.0
 30
0.0
  0
XRECORD
  5
5ED
102
{ACAD_REACTORS
330
5DC
102
}
330
5DC
100
AcDbXrecord
 10
0.0
 20
0.0
 30
0.0
  0
XRECORD
  5
5EA
102
{ACAD_REACTORS
330
5DC
102
}
330
5DC
100
AcDbXrecord
340
0
  0
XRECORD
  5
5EB
102
{ACAD_REACTORS
330
5DC
102
}
330
5DC
100
AcDbXrecord
 70
     0
  0
XRECORD
  5
5E0
102
{ACAD_REACTORS
330
5DC
102
}
330
5DC
100
AcDbXrecord
  1

  0
XRECORD
  5
5DD
102
{ACAD_REACTORS
330
5DC
102
}
330
5DC
100
AcDbXrecord
 90
        1
  0
XRECORD
  5
5DE
102
{ACAD_REACTORS
330
5DC
102
}
330
5DC
100
AcDbXrecord
 90
       70
  0
XRECORD
  5
5F5
102
{ACAD_REACTORS
330
5DC
102
}
330
5DC
100
AcDbXrecord
340
0
  0
XRECORD
  5
5FB
102
{ACAD_REACTORS
330
5DC
102
}
330
5DC
100
AcDbXrecord
 10
0.0
 20
0.0
 30
0.0
  0
XRECORD
  5
5F7
102
{ACAD_REACTORS
330
5DC
102
}
330
5DC
100
AcDbXrecord
 10
0.0
 20
0.0
 30
0.0
  0
XRECORD
  5
5FA
102
{ACAD_REACTORS
330
5DC
102
}
330
5DC
100
AcDbXrecord
 10
0.0
 20
0.0
 30
0.0
  0
XRECORD
  5
5F8
102
{ACAD_REACTORS
330
5DC
102
}
330
5DC
100
AcDbXrecord
 10
0.0
 20
0.0
 30
0.0
  0
XRECORD
  5
5F9
102
{ACAD_REACTORS
330
5DC
102
}
330
5DC
100
AcDbXrecord
 10
0.0
 20
0.0
 30
0.0
  0
XRECORD
  5
5F6
102
{ACAD_REACTORS
330
5DC
102
}
330
5DC
100
AcDbXrecord
 10
0.0
 20
0.0
 30
0.0
  0
XRECORD
  5
5F3
102
{ACAD_REACTORS
330
5DC
102
}
330
5DC
100
AcDbXrecord
340
0
  0
XRECORD
  5
5F4
102
{ACAD_REACTORS
330
5DC
102
}
330
5DC
100
AcDbXrecord
 70
     0
  0
XRECORD
  5
5E8
102
{ACAD_REACTORS
330
5DC
102
}
330
5DC
100
AcDbXrecord
  1
{FAEB1C32-E019-11D5-929B-00C0DF256EC4}
  0
DICTIONARYVAR
  5
606
102
{ACAD_REACTORS
330
5FD
102
}
330
5FD
100
DictionaryVariables
280
     0
  1
1:1
  0
DICTIONARYVAR
  5
602
102
{ACAD_REACTORS
330
5FD
102
}
330
5FD
100
DictionaryVariables
280
     0
  1
2
  0
DICTIONARYVAR
  5
603
102
{ACAD_REACTORS
330
5FD
102
}
330
5FD
100
DictionaryVariables
280
     0
  1
1
  0
DICTIONARYVAR
  5
607
102
{ACAD_REACTORS
330
5FD
102
}
330
5FD
100
DictionaryVariables
280
     0
  1
1
  0
DICTIONARY
  5
60A
330
45
100
AcDbDictionary
280
     1
  3
ACAD_XREC_ROUNDTRIP
360
60B
  0
DICTIONARY
  5
608
330
44
100
AcDbDictionary
280
     1
  3
ACAD_XREC_ROUNDTRIP
360
609
  0
DICTIONARY
  5
60C
330
46
100
AcDbDictionary
280
     1
  3
ACAD_XREC_ROUNDTRIP
360
60D
  0
XRECORD
  5
60B
102
{ACAD_REACTORS
330
60A
102
}
330
60A
100
AcDbXrecord
102
MATERIAL
148
0.0
149
0.0
149
0.0
 93
        0
 94
      127
282
     0
 72
     1
 77
     1
171
     1
175
     1
179
     1
273
     0
  0
XRECORD
  5
609
102
{ACAD_REACTORS
330
608
102
}
330
608
100
AcDbXrecord
102
MATERIAL
148
0.0
149
0.0
149
0.0
 93
        0
 94
      127
282
     0
 72
     1
 77
     1
171
     1
175
     1
179
     1
273
     0
  0
XRECORD
  5
60D
102
{ACAD_REACTORS
330
60C
102
}
330
60C
100
AcDbXrecord
102
MATERIAL
148
0.0
149
0.0
149
0.0
 93
        0
 94
      127
282
     0
 72
     1
 77
     1
171
     1
175
     1
179
     1
273
     0
  0
ENDSEC
  0
EOF
