  0
SECTION
  2
HEADER
  9
$ACADVER
  1
AC1009
  9
$INSBASE
 10
0.0
 20
0.0
 30
0.0
  9
$EXTMIN
 10
321.7104247699999746
 20
34.6124431050000112
 30
0.0
  9
$EXTMAX
 10
921.713261472025124
 20
804.9372135949998892
 30
0.0
  9
$LIMMIN
 10
0.0
 20
0.0
  9
$LIMMAX
 10
1189.0
 20
841.0
  9
$ORTHOMODE
 70
     0
  9
$REGENMODE
 70
     1
  9
$FILLMODE
 70
     1
  9
$QTEXTMODE
 70
     0
  9
$MIRRTEXT
 70
     1
  9
$DRAGMODE
 70
     2
  9
$LTSCALE
 40
1.0
  9
$OSMODE
 70
  1079
  9
$ATTMODE
 70
     1
  9
$TEXTSIZE
 40
16.1495495158692393
  9
$TRACEWID
 40
1.0
  9
$TEXTSTYLE
  7
STANDARD
  9
$CLAYER
  8
0
  9
$CELTYPE
  6
BYLAYER
  9
$CECOLOR
 62
   256
  9
$DIMSCALE
 40
1.0
  9
$DIMASZ
 40
4.0
  9
$DIMEXO
 40
1.0
  9
$DIMDLI
 40
3.75
  9
$DIMRND
 40
0.0
  9
$DIMDLE
 40
0.0
  9
$DIMEXE
 40
1.0
  9
$DIMTP
 40
0.0
  9
$DIMTM
 40
0.0
  9
$DIMTXT
 40
3.5
  9
$DIMCEN
 40
2.5
  9
$DIMTSZ
 40
0.0
  9
$DIMTOL
 70
     0
  9
$DIMLIM
 70
     0
  9
$DIMTIH
 70
     1
  9
$DIMTOH
 70
     1
  9
$DIMSE1
 70
     0
  9
$DIMSE2
 70
     0
  9
$DIMTAD
 70
     1
  9
$DIMZIN
 70
     1
  9
$DIMBLK
  1

  9
$DIMASO
 70
     1
  9
$DIMSHO
 70
     1
  9
$DIMPOST
  1

  9
$DIMAPOST
  1

  9
$DIMALT
 70
     0
  9
$DIMALTD
 70
     3
  9
$DIMALTF
 40
0.0393700787
  9
$DIMLFAC
 40
1.0
  9
$DIMTOFL
 70
     1
  9
$DIMTVP
 40
0.0
  9
$DIMTIX
 70
     0
  9
$DIMSOXD
 70
     0
  9
$DIMSAH
 70
     0
  9
$DIMBLK1
  1

  9
$DIMBLK2
  1

  9
$DIMSTYLE
  2
ISO-25
  9
$DIMCLRD
 70
     0
  9
$DIMCLRE
 70
     0
  9
$DIMCLRT
 70
     0
  9
$DIMTFAC
 40
1.0
  9
$DIMGAP
 40
1.524
  9
$LUNITS
 70
     2
  9
$LUPREC
 70
     4
  9
$SKETCHINC
 40
1.0
  9
$FILLETRAD
 40
10.0
  9
$AUNITS
 70
     0
  9
$AUPREC
 70
     0
  9
$MENU
  1
.
  9
$ELEVATION
 40
0.0
  9
$PELEVATION
 40
0.0
  9
$THICKNESS
 40
0.0
  9
$LIMCHECK
 70
     0
  9
$BLIPMODE
 70
     0
  9
$CHAMFERA
 40
10.0
  9
$CHAMFERB
 40
10.0
  9
$SKPOLY
 70
     0
  9
$TDCREATE
 40
2456409.4581597219221294
  9
$TDUPDATE
 40
2459045.4981597219593823
  9
$TDINDWG
 40
0.0126967708
  9
$TDUSRTIMER
 40
0.0126967708
  9
$USRTIMER
 70
     1
  9
$ANGBASE
 50
0.0
  9
$ANGDIR
 70
     0
  9
$PDMODE
 70
     0
  9
$PDSIZE
 40
-1.0
  9
$PLINEWID
 40
0.0
  9
$COORDS
 70
     1
  9
$SPLFRAME
 70
     0
  9
$SPLINETYPE
 70
     6
  9
$SPLINESEGS
 70
     8
  9
$ATTDIA
 70
     1
  9
$ATTREQ
 70
     1
  9
$HANDLING
 70
     1
  9
$HANDSEED
  5
5E2
  9
$SURFTAB1
 70
     6
  9
$SURFTAB2
 70
     6
  9
$SURFTYPE
 70
     6
  9
$SURFU
 70
     6
  9
$SURFV
 70
     6
  9
$UCSNAME
  2

  9
$UCSORG
 10
0.0
 20
0.0
 30
0.0
  9
$UCSXDIR
 10
1.0
 20
0.0
 30
0.0
  9
$UCSYDIR
 10
0.0
 20
1.0
 30
0.0
  9
$PUCSNAME
  2

  9
$PUCSORG
 10
0.0
 20
0.0
 30
0.0
  9
$PUCSXDIR
 10
1.0
 20
0.0
 30
0.0
  9
$PUCSYDIR
 10
0.0
 20
1.0
 30
0.0
  9
$USERI1
 70
     0
  9
$USERI2
 70
     0
  9
$USERI3
 70
     0
  9
$USERI4
 70
     0
  9
$USERI5
 70
     0
  9
$USERR1
 40
0.0
  9
$USERR2
 40
0.0
  9
$USERR3
 40
0.0
  9
$USERR4
 40
0.0
  9
$USERR5
 40
0.0
  9
$WORLDVIEW
 70
     1
  9
$SHADEDGE
 70
     3
  9
$SHADEDIF
 70
    70
  9
$TILEMODE
 70
     1
  9
$MAXACTVP
 70
    64
  9
$PLIMCHECK
 70
     0
  9
$PEXTMIN
 10
1.0000000000000000E+20
 20
1.0000000000000000E+20
 30
1.0000000000000000E+20
  9
$PEXTMAX
 10
-1.0000000000000000E+20
 20
-1.0000000000000000E+20
 30
-1.0000000000000000E+20
  9
$PLIMMIN
 10
0.0
 20
0.0
  9
$PLIMMAX
 10
420.0
 20
297.0
  9
$UNITMODE
 70
     0
  9
$VISRETAIN
 70
     1
  9
$PLINEGEN
 70
     0
  9
$PSLTSCALE
 70
     1
  0
ENDSEC
  0
SECTION
  2
TABLES
  0
TABLE
  2
VPORT
 70
     1
  0
VPORT
  2
*ACTIVE
 70
     0
 10
0.0
 20
0.0
 11
1.0
 21
1.0
 12
761.0899554369582347
 22
374.4754121082114011
 13
0.0
 23
0.0
 14
10.0
 24
10.0
 15
10.0
 25
10.0
 16
0.0
 26
0.0
 36
1.0
 17
0.0
 27
0.0
 37
0.0
 40
987.9270164710026165
 41
2.1052631578947358
 42
50.0
 43
0.0
 44
0.0
 50
0.0
 51
0.0
 71
     0
 72
  2000
 73
     1
 74
     3
 75
     0
 76
     0
 77
     0
 78
     0
  0
ENDTAB
  0
TABLE
  2
LTYPE
 70
     8
  0
LTYPE
  2
CONTINUOUS
 70
     0
  3
Solid line
 72
    65
 73
     0
 40
0.0
  0
LTYPE
  2
HIDDEN
 70
     0
  3
Hidden __ __ __ __ __ __ __ __ __ __ __ __ __ __
 72
    65
 73
     2
 40
1.905
 49
1.27
 49
-0.635
  0
LTYPE
  2
PHANTOM
 70
     0
  3
Phantom ______  __  __  ______  __  __  ______
 72
    65
 73
     6
 40
12.6999999999999993
 49
6.3499999999999979
 49
-1.27
 49
1.27
 49
-1.27
 49
1.27
 49
-1.27
  0
LTYPE
  2
CENTER
 70
     0
  3
Center ____ _ ____ _ ____ _ ____ _ ____ _ ____
 72
    65
 73
     4
 40
10.1600000000000001
 49
6.3499999999999979
 49
-1.27
 49
1.27
 49
-1.27
  0
LTYPE
  2
CENTERX2
 70
     0
  3
Center (2x) ________  __  ________  __  _____
 72
    65
 73
     4
 40
20.3200000000000003
 49
12.6999999999999993
 49
-2.54
 49
2.54
 49
-2.54
  0
LTYPE
  2
DOT2
 70
     0
  3
Dot (.5x) ........................................
 72
    65
 73
     2
 40
0.635
 49
0.0
 49
-0.635
  0
ENDTAB
  0
TABLE
  2
LAYER
 70
     8
  0
LAYER
  2
0
 70
     0
 62
     7
  6
CONTINUOUS
  0
LAYER
  2
SLD-0_5
 70
     0
 62
   179
  6
CONTINUOUS
  0
LAYER
  2
SLD-0_4
 70
     0
 62
   179
  6
CONTINUOUS
  0
LAYER
  2
SLD-0_3
 70
     0
 62
   179
  6
CONTINUOUS
  0
LAYER
  2
SLD-0_1
 70
     0
 62
   179
  6
CONTINUOUS
  0
LAYER
  2
SLD-0_0
 70
     0
 62
   179
  6
CONTINUOUS
  0
LAYER
  2
SLD-0_2
 70
     0
 62
   179
  6
CONTINUOUS
  0
LAYER
  2
SLD-0
 70
     0
 62
   179
  6
CONTINUOUS
  0
ENDTAB
  0
TABLE
  2
STYLE
 70
     4
  0
STYLE
  2
STANDARD
 70
     0
 40
0.0
 41
1.0
 50
0.0
 71
     0
 42
16.1495495158692393
  3
txt
  4
bigfont
  0
STYLE
  2
ANNOTATIVE
 70
     0
 40
0.0
 41
1.0
 50
0.0
 71
     0
 42
0.2
  3
txt
  4

  0
STYLE
  2
SLDTEXTSTYLE0
 70
     0
 40
0.0
 41
1.1815384614999991
 50
0.0
 71
     0
 42
0.2
  3
TXT
  4
bigfont
  0
STYLE
  2
SLDTEXTSTYLE1
 70
     0
 40
0.0
 41
0.9599999999999999
 50
0.0
 71
     0
 42
0.2
  3
TXT
  4
bigfont
  0
ENDTAB
  0
TABLE
  2
VIEW
 70
     0
  0
ENDTAB
  0
TABLE
  2
UCS
 70
     0
  0
ENDTAB
  0
TABLE
  2
APPID
 70
     5
  0
APPID
  2
ACAD
 70
     0
  0
APPID
  2
ACADANNOTATIVE
 70
     0
  0
APPID
  2
ACAD_EXEMPT_FROM_CAD_STANDARDS
 70
     0
  0
APPID
  2
ACAD_NAV_VCDISPLAY
 70
     0
  0
APPID
  2
ACAD_MLEADERVER
 70
     0
  0
ENDTAB
  0
TABLE
  2
DIMSTYLE
 70
     4
  0
DIMSTYLE
  2
STANDARD
 70
     0
  3

  4

  5

  6

  7

 40
1.0
 41
0.18
 42
0.0625
 43
0.38
 44
0.18
 45
0.0
 46
0.0
 47
0.0
 48
0.0
140
0.18
141
0.09
142
0.0
143
25.3999999999999986
144
1.0
145
0.0
146
1.0
147
0.09
 71
     0
 72
     0
 73
     1
 74
     1
 75
     0
 76
     0
 77
     0
 78
     0
170
     0
171
     2
172
     0
173
     0
174
     0
175
     0
176
     0
177
     0
178
     0
  0
DIMSTYLE
  2
ANNOTATIVE
 70
     0
  3

  4

  5

  6

  7

 40
1.0
 41
0.18
 42
0.0625
 43
0.38
 44
0.18
 45
0.0
 46
0.0
 47
0.0
 48
0.0
140
0.18
141
0.09
142
0.0
143
25.3999999999999986
144
1.0
145
0.0
146
1.0
147
0.09
 71
     0
 72
     0
 73
     1
 74
     1
 75
     0
 76
     0
 77
     0
 78
     0
170
     0
171
     2
172
     0
173
     0
174
     0
175
     0
176
     0
177
     0
178
     0
  0
DIMSTYLE
  2
ISO-25
 70
     0
  3

  4

  5

  6

  7

 40
1.0
 41
2.5
 42
0.625
 43
3.75
 44
1.25
 45
0.0
 46
0.0
 47
0.0
 48
0.0
140
2.5
141
2.5
142
0.0
143
0.0393700787
144
1.0
145
0.0
146
1.0
147
0.625
 71
     0
 72
     0
 73
     0
 74
     0
 75
     0
 76
     0
 77
     1
 78
     8
170
     0
171
     3
172
     1
173
     0
174
     0
175
     0
176
     0
177
     0
178
     0
  0
ENDTAB
  0
ENDSEC
  0
SECTION
  2
BLOCKS
  0
BLOCK
  8
0
  2
$MODEL_SPACE
 70
     0
 10
0.0
 20
0.0
 30
0.0
  3
$MODEL_SPACE
  1

  0
ENDBLK
  5
541
  8
0
  0
BLOCK
 67
     1
  8
0
  2
$PAPER_SPACE
 70
     0
 10
0.0
 20
0.0
 30
0.0
  3
$PAPER_SPACE
  1

  0
ENDBLK
  5
53D
 67
     1
  8
0
  0
BLOCK
  8
0
  2
*U2
 70
     1
 10
0.0
 20
0.0
 30
0.0
  3
*U2
  1

  0
TEXT
  5
480
  8
SLD-0
 62
     0
 10
864.1333252700000003
 20
34.6124431050000112
 30
0.0
 40
9.5250000000000004
  1
001
 41
1.1814999999999991
  7
SLDTEXTSTYLE0
  0
ENDBLK
  5
482
  8
0
  0
BLOCK
  8
0
  2
*U3
 70
     1
 10
0.0
 20
0.0
 30
0.0
  3
*U3
  1

  0
TEXT
  5
484
  8
SLD-0
 62
     0
 10
321.7104247699999746
 20
795.4122135950000256
 30
0.0
 40
9.5250000000000004
  1
-M2
 41
0.9599999999999999
  7
SLDTEXTSTYLE1
  0
ENDBLK
  5
486
  8
0
  0
BLOCK
  8
0
  2
*U4
 70
     1
 10
0.0
 20
0.0
 30
0.0
  3
*U4
  1

  0
TEXT
  5
488
  8
SLD-0
 62
     0
 10
351.2226574599999935
 20
373.7476533550000113
 30
0.0
 40
9.5250000000000004
  1
-R
 41
0.9599999999999999
  7
SLDTEXTSTYLE1
  0
ENDBLK
  5
48A
  8
0
  0
ENDSEC
  0
SECTION
  2
ENTITIES
  0
LINE
  5
4B
  8
SLD-0_4
  6
PHANTOM
 62
     0
 10
423.4961367099999165
 20
358.6282504000000131
 30
0.0
 11
422.7667911600000252
 21
358.6282504000000131
 31
0.0
  0
LINE
  5
4C
  8
SLD-0_4
  6
PHANTOM
 62
     0
 10
462.6864960600000245
 20
368.0944283000000041
 30
0.0
 11
462.6864960600000245
 21
367.3727399100000071
 31
0.0
  0
LINE
  5
4D
  8
SLD-0_4
  6
PHANTOM
 62
     0
 10
462.6864960600000245
 20
358.6282504000000131
 30
0.0
 11
462.6864960600000245
 21
357.5945322800000099
 31
0.0
  0
LINE
  5
4E
  8
SLD-0_4
  6
PHANTOM
 62
     0
 10
431.4796948399999224
 20
358.6282504000000131
 30
0.0
 11
430.7503492800000231
 21
358.6282504000000131
 31
0.0
  0
LINE
  5
4F
  8
SLD-0_4
  6
PHANTOM
 62
     0
 10
457.5868200400000205
 20
358.6282504000000131
 30
0.0
 11
456.8651316599999177
 21
358.6282504000000131
 31
0.0
  0
LINE
  5
50
  8
SLD-0_4
  6
PHANTOM
 62
     0
 10
448.8806163900000001
 20
358.6282504000000131
 30
0.0
 11
448.8806163900000001
 21
367.3727399100000071
 31
0.0
  0
LINE
  5
51
  8
SLD-0_4
  6
PHANTOM
 62
     0
 10
441.6187466499999914
 20
357.5945322800000099
 30
0.0
 11
441.6187466499999914
 21
358.6282504000000131
 31
0.0
  0
LINE
  5
52
  8
SLD-0_4
  6
PHANTOM
 62
     0
 10
433.6361456800000269
 20
358.6282504000000131
 30
0.0
 11
432.9144572899998025
 21
358.6282504000000131
 31
0.0
  0
LINE
  5
53
  8
SLD-0_4
  6
PHANTOM
 62
     0
 10
422.9007364700000267
 20
130.9745953999999983
 30
0.0
 11
422.9007364700000267
 21
118.9719795400000066
 31
0.0
  0
LINE
  5
54
  8
SLD-0_4
  6
PHANTOM
 62
     0
 10
469.2324202899999932
 20
118.9719795400000066
 30
0.0
 11
419.2324202899999932
 21
118.9719795400000066
 31
0.0
  0
LINE
  5
55
  8
SLD-0_4
  6
PHANTOM
 62
     0
 10
465.6842234099999018
 20
118.9719795400000066
 30
0.0
 11
465.6842234099999018
 21
130.9745953999999983
 31
0.0
  0
LINE
  5
56
  8
SLD-0_4
  6
PHANTOM
 62
     0
 10
465.6842234099999018
 20
130.9745953999999983
 30
0.0
 11
422.9007364700000267
 21
130.9745953999999983
 31
0.0
  0
LINE
  5
57
  8
SLD-0_4
  6
PHANTOM
 62
     0
 10
422.7667911600000252
 20
367.3727399100000071
 30
0.0
 11
423.4961367099999165
 21
367.3727399100000071
 31
0.0
  0
LINE
  5
58
  8
SLD-0_4
  6
PHANTOM
 62
     0
 10
463.4158416199999238
 20
367.3727399100000071
 30
0.0
 11
463.4158416199999238
 21
358.6282504000000131
 31
0.0
  0
LINE
  5
59
  8
SLD-0_4
  6
PHANTOM
 62
     0
 10
446.7184226699998817
 20
367.3727399100000071
 30
0.0
 11
447.4477682299998946
 21
367.3727399100000071
 31
0.0
  0
LINE
  5
5A
  8
SLD-0_4
  6
PHANTOM
 62
     0
 10
639.0397860999999011
 20
284.0945610900000133
 30
0.0
 11
639.0397860999999011
 21
362.0945610900000133
 31
0.0
  0
LINE
  5
5B
  8
SLD-0_4
  6
PHANTOM
 62
     0
 10
430.7503492800000231
 20
358.6282504000000131
 30
0.0
 11
430.7503492800000231
 21
357.5945322800000099
 31
0.0
  0
LINE
  5
5C
  8
SLD-0_4
  6
PHANTOM
 62
     0
 10
668.4486777700000175
 20
283.0689837299998999
 30
0.0
 11
668.4486777700000175
 21
276.2330441400000041
 31
0.0
  0
LINE
  5
5D
  8
SLD-0_4
  6
PHANTOM
 62
     0
 10
640.0397860999999011
 20
363.0945610900000133
 30
0.0
 11
688.0397860999997874
 21
363.0945610900000133
 31
0.0
  0
LINE
  5
5E
  8
SLD-0_4
  6
PHANTOM
 62
     0
 10
667.9433044700000437
 20
304.8911800600000106
 30
0.0
 11
667.9433044700000437
 21
301.2808238399999823
 31
0.0
  0
LINE
  5
5F
  8
SLD-0_4
  6
PHANTOM
 62
     0
 10
656.4211761100000331
 20
347.9895681599999762
 30
0.0
 11
654.2522823699998753
 21
348.0048825000000079
 31
0.0
  0
LINE
  5
60
  8
SLD-0_4
  6
PHANTOM
 62
     0
 10
672.958751609999922
 20
311.1585746800000152
 30
0.0
 11
672.958751609999922
 21
314.8636884000000009
 31
0.0
  0
LINE
  5
61
  8
SLD-0_4
  6
PHANTOM
 62
     0
 10
422.7667911600000252
 20
357.5945322800000099
 30
0.0
 11
465.5722924600000283
 21
357.5945322800000099
 31
0.0
  0
LINE
  5
62
  8
SLD-0_4
  6
PHANTOM
 62
     0
 10
656.3881852199998548
 20
283.0945610900000133
 30
0.0
 11
659.6276165499998569
 21
276.2330441400000041
 31
0.0
  0
LINE
  5
63
  8
SLD-0_4
  6
PHANTOM
 62
     0
 10
652.0412741799998457
 20
346.0465609699999732
 30
0.0
 11
652.035531299999775
 21
344.3179545699999835
 31
0.0
  0
LINE
  5
64
  8
SLD-0_4
  6
PHANTOM
 62
     0
 10
431.4796948399999224
 20
367.3727399100000071
 30
0.0
 11
431.4796948399999224
 21
358.6282504000000131
 31
0.0
  0
LINE
  5
65
  8
SLD-0_4
  6
PHANTOM
 62
     0
 10
672.958751609999922
 20
309.9238558300000932
 30
0.0
 11
665.5485241799998448
 21
309.9238558300000932
 31
0.0
  0
LINE
  5
66
  8
SLD-0_4
  6
PHANTOM
 62
     0
 10
668.4486777700000175
 20
276.2330441400000041
 30
0.0
 11
672.047873940000045
 21
283.0945610900000133
 31
0.0
  0
LINE
  5
67
  8
SLD-0_4
  6
PHANTOM
 62
     0
 10
665.5485241799998448
 20
300.0422763899999836
 30
0.0
 11
665.5485241799998448
 21
296.3371626800000058
 31
0.0
  0
LINE
  5
68
  8
SLD-0_4
  6
PHANTOM
 62
     0
 10
652.035531299999775
 20
355.0992516099998966
 30
0.0
 11
652.0412741799998457
 21
353.3601166099999773
 31
0.0
  0
LINE
  5
69
  8
SLD-0_4
  6
PHANTOM
 62
     0
 10
422.7667911600000252
 20
368.0944283000000041
 30
0.0
 11
422.7667911600000252
 21
367.3727399100000071
 31
0.0
  0
LINE
  5
6A
  8
SLD-0_4
  6
PHANTOM
 62
     0
 10
422.7667911600000252
 20
358.6282504000000131
 30
0.0
 11
422.7667911600000252
 21
357.5945322800000099
 31
0.0
  0
LINE
  5
6B
  8
SLD-0_4
  6
PHANTOM
 62
     0
 10
462.6864960600000245
 20
367.3727399100000071
 30
0.0
 11
463.4158416199999238
 21
367.3727399100000071
 31
0.0
  0
LINE
  5
6C
  8
SLD-0_4
  6
PHANTOM
 62
     0
 10
433.6361456800000269
 20
357.5945322800000099
 30
0.0
 11
433.6361456800000269
 21
358.6282504000000131
 31
0.0
  0
LINE
  5
6D
  8
SLD-0_4
  6
PHANTOM
 62
     0
 10
686.0397860999999011
 20
286.0945610899998997
 30
0.0
 11
686.0397860999999011
 21
360.0945610900000133
 31
0.0
  0
LINE
  5
6E
  8
SLD-0_4
  6
PHANTOM
 62
     0
 10
672.958751609999922
 20
314.8636884000000009
 30
0.0
 11
665.5485241799998448
 21
314.8636884000000009
 31
0.0
  0
LINE
  5
6F
  8
SLD-0_4
  6
PHANTOM
 62
     0
 10
667.9433044700000437
 20
309.9257701199999815
 30
0.0
 11
667.9433044700000437
 21
306.22065640999989
 31
0.0
  0
LINE
  5
70
  8
SLD-0_4
  6
PHANTOM
 62
     0
 10
465.5722924600000283
 20
358.6282504000000131
 30
0.0
 11
464.8506040699999744
 21
358.6282504000000131
 31
0.0
  0
LINE
  5
71
  8
SLD-0_4
  6
PHANTOM
 62
     0
 10
667.9433044700000437
 20
314.8378454499999748
 30
0.0
 11
667.9433044700000437
 21
311.1585746800000152
 31
0.0
  0
LINE
  5
72
  8
SLD-0_4
  6
PHANTOM
 62
     0
 10
657.2385791399999562
 20
343.5436231300000145
 30
0.0
 11
644.4759890399999449
 21
343.5436231300000145
 31
0.0
  0
LINE
  5
73
  8
SLD-0_4
  6
PHANTOM
 62
     0
 10
439.4642101100000104
 20
367.3727399100000071
 30
0.0
 11
439.4642101100000104
 21
358.6282504000000131
 31
0.0
  0
LINE
  5
74
  8
SLD-0_4
  6
PHANTOM
 62
     0
 10
430.7503492800000231
 20
368.0944283000000041
 30
0.0
 11
430.7503492800000231
 21
367.3727399100000071
 31
0.0
  0
LINE
  5
75
  8
SLD-0_4
  6
PHANTOM
 62
     0
 10
449.6023047799999972
 20
367.3727399100000071
 30
0.0
 11
449.6023047799999972
 21
368.0944283000000041
 31
0.0
  0
LINE
  5
76
  8
SLD-0_4
  6
PHANTOM
 62
     0
 10
432.9144572899998025
 20
358.6282504000000131
 30
0.0
 11
432.9144572899998025
 21
367.3727399100000071
 31
0.0
  0
LINE
  5
77
  8
SLD-0_4
  6
PHANTOM
 62
     0
 10
665.5485241799998448
 20
314.8636884000000009
 30
0.0
 11
665.5485241799998448
 21
311.1585746800000152
 31
0.0
  0
LINE
  5
78
  8
SLD-0_4
  6
PHANTOM
 62
     0
 10
656.3881852199998548
 20
363.0945610900000133
 30
0.0
 11
659.6276165499998569
 21
369.9560780400000226
 31
0.0
  0
LINE
  5
79
  8
SLD-0_4
  6
PHANTOM
 62
     0
 10
668.4486777700000175
 20
363.1201384500000131
 30
0.0
 11
668.4486777700000175
 21
369.9560780400000226
 31
0.0
  0
LINE
  5
7A
  8
SLD-0_4
  6
PHANTOM
 62
     0
 10
463.4158416199999238
 20
358.6282504000000131
 30
0.0
 11
462.6864960600000245
 21
358.6282504000000131
 31
0.0
  0
LINE
  5
7B
  8
SLD-0_4
  6
PHANTOM
 62
     0
 10
455.4322834999999259
 20
367.3727399100000071
 30
0.0
 11
455.4322834999999259
 21
358.6282504000000131
 31
0.0
  0
LINE
  5
7C
  8
SLD-0_4
  6
PHANTOM
 62
     0
 10
448.8806163900000001
 20
367.3727399100000071
 30
0.0
 11
449.6023047799999972
 21
367.3727399100000071
 31
0.0
  0
LINE
  5
7D
  8
SLD-0_4
  6
PHANTOM
 62
     0
 10
672.958751609999922
 20
301.2789095399999724
 30
0.0
 11
672.958751609999922
 21
304.982108970000013
 31
0.0
  0
LINE
  5
7E
  8
SLD-0_4
  6
PHANTOM
 62
     0
 10
662.929771629999891
 20
295.6863031299999989
 30
0.0
 11
678.7437444500000083
 21
295.6863031299999989
 31
0.0
  0
LINE
  5
7F
  8
SLD-0_4
  6
PHANTOM
 62
     0
 10
665.5485241799998448
 20
304.982108970000013
 30
0.0
 11
665.5485241799998448
 21
301.2789095399999724
 31
0.0
  0
LINE
  5
80
  8
SLD-0_4
  6
PHANTOM
 62
     0
 10
654.2522823699998753
 20
351.4553952699999968
 30
0.0
 11
656.4211761100000331
 21
351.4553952699999968
 31
0.0
  0
LINE
  5
81
  8
SLD-0_4
  6
PHANTOM
 62
     0
 10
423.4961367099999165
 20
367.3727399100000071
 30
0.0
 11
423.4961367099999165
 21
358.6282504000000131
 31
0.0
  0
LINE
  5
82
  8
SLD-0_4
  6
PHANTOM
 62
     0
 10
457.5868200400000205
 20
357.5945322800000099
 30
0.0
 11
457.5868200400000205
 21
358.6282504000000131
 31
0.0
  0
LINE
  5
83
  8
SLD-0_4
  6
PHANTOM
 62
     0
 10
424.9308991699999183
 20
367.3727399100000071
 30
0.0
 11
425.6525875500000211
 21
367.3727399100000071
 31
0.0
  0
LINE
  5
84
  8
SLD-0_4
  6
PHANTOM
 62
     0
 10
642.0397860999997874
 20
360.0945610900000133
 30
0.0
 11
686.0397860999999011
 21
360.0945610900000133
 31
0.0
  0
LINE
  5
85
  8
SLD-0_4
  6
PHANTOM
 62
     0
 10
654.24271090000002
 20
346.0465609699999732
 30
0.0
 11
652.0412741799998457
 21
346.0465609699999732
 31
0.0
  0
LINE
  5
86
  8
SLD-0_4
  6
PHANTOM
 62
     0
 10
465.5722924600000283
 20
357.5945322800000099
 30
0.0
 11
465.5722924600000283
 21
358.6282504000000131
 31
0.0
  0
LINE
  5
87
  8
SLD-0_4
  6
PHANTOM
 62
     0
 10
425.6525875500000211
 20
367.3727399100000071
 30
0.0
 11
425.6525875500000211
 21
368.0944283000000041
 31
0.0
  0
LINE
  5
88
  8
SLD-0_4
  6
PHANTOM
 62
     0
 10
642.0397860999997874
 20
286.0945610899998997
 30
0.0
 11
686.0397860999999011
 21
286.0945610899998997
 31
0.0
  0
LINE
  5
89
  8
SLD-0_4
  6
PHANTOM
 62
     0
 10
659.6276165499998569
 20
276.2330441400000041
 30
0.0
 11
668.4486777700000175
 21
276.2330441400000041
 31
0.0
  0
LINE
  5
8A
  8
SLD-0_4
  6
PHANTOM
 62
     0
 10
665.5485241799998448
 20
316.0984072599999877
 30
0.0
 11
672.958751609999922
 21
316.0984072599999877
 31
0.0
  0
LINE
  5
8B
  8
SLD-0_4
  6
PHANTOM
 62
     0
 10
644.5161891899998636
 20
344.3179545699999835
 30
0.0
 11
644.5161891899998636
 21
355.0992516099998966
 31
0.0
  0
LINE
  5
8C
  8
SLD-0_4
  6
PHANTOM
 62
     0
 10
678.7437444500000083
 20
320.4208803999998736
 30
0.0
 11
662.929771629999891
 21
320.4208803999998736
 31
0.0
  0
LINE
  5
8D
  8
SLD-0_4
  6
PHANTOM
 62
     0
 10
454.7029379400000266
 20
368.0944283000000041
 30
0.0
 11
454.7029379400000266
 21
367.3727399100000071
 31
0.0
  0
LINE
  5
8E
  8
SLD-0_4
  6
PHANTOM
 62
     0
 10
446.7184226699998817
 20
368.0944283000000041
 30
0.0
 11
446.7184226699998817
 21
367.3727399100000071
 31
0.0
  0
LINE
  5
8F
  8
SLD-0_4
  6
PHANTOM
 62
     0
 10
430.7503492800000231
 20
367.3727399100000071
 30
0.0
 11
431.4796948399999224
 21
367.3727399100000071
 31
0.0
  0
LINE
  5
90
  8
SLD-0_4
  6
PHANTOM
 62
     0
 10
432.9144572899998025
 20
367.3727399100000071
 30
0.0
 11
433.6361456800000269
 21
367.3727399100000071
 31
0.0
  0
LINE
  5
91
  8
SLD-0_4
  6
PHANTOM
 62
     0
 10
665.5485241799998448
 20
306.2187421099999938
 30
0.0
 11
672.958751609999922
 21
306.2187421099999938
 31
0.0
  0
LINE
  5
92
  8
SLD-0_4
  6
PHANTOM
 62
     0
 10
689.0397860999999011
 20
284.0945610900000133
 30
0.0
 11
689.0397860999999011
 21
362.0945610900000133
 31
0.0
  0
LINE
  5
93
  8
SLD-0_4
  6
PHANTOM
 62
     0
 10
644.5161891899998636
 20
355.0992516099998966
 30
0.0
 11
652.035531299999775
 21
355.0992516099998966
 31
0.0
  0
LINE
  5
94
  8
SLD-0_4
  6
PHANTOM
 62
     0
 10
665.5485241799998448
 20
311.1585746800000152
 30
0.0
 11
672.958751609999922
 21
311.1585746800000152
 31
0.0
  0
LINE
  5
95
  8
SLD-0_4
  6
PHANTOM
 62
     0
 10
667.9433044700000437
 20
300.0422763899999836
 30
0.0
 11
667.9433044700000437
 21
296.3390769700000078
 31
0.0
  0
LINE
  5
96
  8
SLD-0_4
  6
PHANTOM
 62
     0
 10
665.5485241799998448
 20
309.9238558300000932
 30
0.0
 11
665.5485241799998448
 21
306.2187421099999938
 31
0.0
  0
LINE
  5
97
  8
SLD-0_4
  6
PHANTOM
 62
     0
 10
659.6276165499998569
 20
369.9560780400000226
 30
0.0
 11
668.4486777700000175
 21
369.9560780400000226
 31
0.0
  0
LINE
  5
98
  8
SLD-0_4
  6
PHANTOM
 62
     0
 10
672.958751609999922
 20
306.2187421099999938
 30
0.0
 11
672.958751609999922
 21
309.9238558300000932
 31
0.0
  0
LINE
  5
99
  8
SLD-0_4
  6
PHANTOM
 62
     0
 10
656.4211761100000331
 20
351.4553952699999968
 30
0.0
 11
656.4211761100000331
 21
347.9895681599999762
 31
0.0
  0
LINE
  5
9A
  8
SLD-0_4
  6
PHANTOM
 62
     0
 10
455.4322834999999259
 20
358.6282504000000131
 30
0.0
 11
454.7029379400000266
 21
358.6282504000000131
 31
0.0
  0
LINE
  5
9B
  8
SLD-0_4
  6
PHANTOM
 62
     0
 10
447.4477682299998946
 20
367.3727399100000071
 30
0.0
 11
447.4477682299998946
 21
358.6282504000000131
 31
0.0
  0
LINE
  5
9C
  8
SLD-0_4
  6
PHANTOM
 62
     0
 10
456.8651316599999177
 20
367.3727399100000071
 30
0.0
 11
457.5868200400000205
 21
367.3727399100000071
 31
0.0
  0
LINE
  5
9D
  8
SLD-0_4
  6
PHANTOM
 62
     0
 10
433.6361456800000269
 20
367.3727399100000071
 30
0.0
 11
433.6361456800000269
 21
368.0944283000000041
 31
0.0
  0
LINE
  5
9E
  8
SLD-0_4
  6
PHANTOM
 62
     0
 10
424.9308991699999183
 20
358.6282504000000131
 30
0.0
 11
424.9308991699999183
 21
367.3727399100000071
 31
0.0
  0
LINE
  5
9F
  8
SLD-0_4
  6
PHANTOM
 62
     0
 10
672.958751609999922
 20
316.0984072599999877
 30
0.0
 11
672.958751609999922
 21
319.8035209600000144
 31
0.0
  0
LINE
  5
A0
  8
SLD-0_4
  6
PHANTOM
 62
     0
 10
672.958751609999922
 20
300.0422763899999836
 30
0.0
 11
665.5485241799998448
 21
300.0422763899999836
 31
0.0
  0
LINE
  5
A1
  8
SLD-0_4
  6
PHANTOM
 62
     0
 10
668.4486777700000175
 20
369.9560780400000226
 30
0.0
 11
672.047873940000045
 21
363.0945610900000133
 31
0.0
  0
LINE
  5
A2
  8
SLD-0_4
  6
PHANTOM
 62
     0
 10
667.9433044700000437
 20
319.748006480000015
 30
0.0
 11
667.9433044700000437
 21
316.1003215499999897
 31
0.0
  0
LINE
  5
A3
  8
SLD-0_4
  6
PHANTOM
 62
     0
 10
642.0397860999997874
 20
286.0945610899998997
 30
0.0
 11
642.0397860999997874
 21
360.0945610900000133
 31
0.0
  0
LINE
  5
A4
  8
SLD-0_4
  6
PHANTOM
 62
     0
 10
659.6276165499998569
 20
369.9560780400000226
 30
0.0
 11
659.6276165499998569
 21
363.0945610900000133
 31
0.0
  0
LINE
  5
A5
  8
SLD-0_4
  6
PHANTOM
 62
     0
 10
652.035531299999775
 20
344.3179545699999835
 30
0.0
 11
644.5161891899998636
 21
344.3179545699999835
 31
0.0
  0
LINE
  5
A6
  8
SLD-0_4
  6
PHANTOM
 62
     0
 10
662.929771629999891
 20
320.4208803999998736
 30
0.0
 11
662.929771629999891
 21
295.6863031299999989
 31
0.0
  0
LINE
  5
A7
  8
SLD-0_4
  6
PHANTOM
 62
     0
 10
465.5722924600000283
 20
367.3727399100000071
 30
0.0
 11
465.5722924600000283
 21
368.0944283000000041
 31
0.0
  0
LINE
  5
A8
  8
SLD-0_4
  6
PHANTOM
 62
     0
 10
454.7029379400000266
 20
358.6282504000000131
 30
0.0
 11
454.7029379400000266
 21
357.5945322800000099
 31
0.0
  0
LINE
  5
A9
  8
SLD-0_4
  6
PHANTOM
 62
     0
 10
438.7348645499999975
 20
368.0944283000000041
 30
0.0
 11
438.7348645499999975
 21
367.3727399100000071
 31
0.0
  0
LINE
  5
AA
  8
SLD-0_4
  6
PHANTOM
 62
     0
 10
456.8651316599999177
 20
358.6282504000000131
 30
0.0
 11
456.8651316599999177
 21
367.3727399100000071
 31
0.0
  0
LINE
  5
AB
  8
SLD-0_4
  6
PHANTOM
 62
     0
 10
449.6023047799999972
 20
357.5945322800000099
 30
0.0
 11
449.6023047799999972
 21
358.6282504000000131
 31
0.0
  0
LINE
  5
AC
  8
SLD-0_4
  6
PHANTOM
 62
     0
 10
440.8970582700000023
 20
367.3727399100000071
 30
0.0
 11
441.6187466499999914
 21
367.3727399100000071
 31
0.0
  0
LINE
  5
AD
  8
SLD-0_4
  6
PHANTOM
 62
     0
 10
425.6525875500000211
 20
358.6282504000000131
 30
0.0
 11
424.9308991699999183
 21
358.6282504000000131
 31
0.0
  0
LINE
  5
AE
  8
SLD-0_4
  6
PHANTOM
 62
     0
 10
464.8506040699999744
 20
358.6282504000000131
 30
0.0
 11
464.8506040699999744
 21
367.3727399100000071
 31
0.0
  0
LINE
  5
AF
  8
SLD-0_4
  6
PHANTOM
 62
     0
 10
439.4642101100000104
 20
358.6282504000000131
 30
0.0
 11
438.7348645499999975
 21
358.6282504000000131
 31
0.0
  0
LINE
  5
B0
  8
SLD-0_4
  6
PHANTOM
 62
     0
 10
449.6023047799999972
 20
358.6282504000000131
 30
0.0
 11
448.8806163900000001
 21
358.6282504000000131
 31
0.0
  0
LINE
  5
B1
  8
SLD-0_4
  6
PHANTOM
 62
     0
 10
644.4759890399999449
 20
355.8640115800000103
 30
0.0
 11
657.2385791399999562
 21
355.8640115800000103
 31
0.0
  0
LINE
  5
B2
  8
SLD-0_4
  6
PHANTOM
 62
     0
 10
678.7437444500000083
 20
295.6863031299999989
 30
0.0
 11
678.7437444500000083
 21
320.4208803999998736
 31
0.0
  0
LINE
  5
B3
  8
SLD-0_4
  6
PHANTOM
 62
     0
 10
665.5485241799998448
 20
319.8035209600000144
 30
0.0
 11
665.5485241799998448
 21
316.0984072599999877
 31
0.0
  0
LINE
  5
B4
  8
SLD-0_4
  6
PHANTOM
 62
     0
 10
665.5485241799998448
 20
296.3371626800000058
 30
0.0
 11
672.958751609999922
 21
296.3371626800000058
 31
0.0
  0
LINE
  5
B5
  8
SLD-0_4
  6
PHANTOM
 62
     0
 10
652.0412741799998457
 20
353.3601166099999773
 30
0.0
 11
654.24271090000002
 21
353.3601166099999773
 31
0.0
  0
LINE
  5
B6
  8
SLD-0_4
  6
PHANTOM
 62
     0
 10
447.4477682299998946
 20
358.6282504000000131
 30
0.0
 11
446.7184226699998817
 21
358.6282504000000131
 31
0.0
  0
LINE
  5
B7
  8
SLD-0_4
  6
PHANTOM
 62
     0
 10
438.7348645499999975
 20
367.3727399100000071
 30
0.0
 11
439.4642101100000104
 21
367.3727399100000071
 31
0.0
  0
LINE
  5
B8
  8
SLD-0_4
  6
PHANTOM
 62
     0
 10
457.5868200400000205
 20
367.3727399100000071
 30
0.0
 11
457.5868200400000205
 21
368.0944283000000041
 31
0.0
  0
LINE
  5
B9
  8
SLD-0_4
  6
PHANTOM
 62
     0
 10
644.4759890399999449
 20
343.5436231300000145
 30
0.0
 11
644.4759890399999449
 21
355.8640115800000103
 31
0.0
  0
LINE
  5
BA
  8
SLD-0_4
  6
PHANTOM
 62
     0
 10
672.958751609999922
 20
304.982108970000013
 30
0.0
 11
665.5485241799998448
 21
304.982108970000013
 31
0.0
  0
LINE
  5
BB
  8
SLD-0_4
  6
PHANTOM
 62
     0
 10
654.24271090000002
 20
353.3601166099999773
 30
0.0
 11
654.2522823699998753
 21
351.4553952699999968
 31
0.0
  0
LINE
  5
BC
  8
SLD-0_4
  6
PHANTOM
 62
     0
 10
465.5722924600000283
 20
368.0944283000000041
 30
0.0
 11
422.7667911600000252
 21
368.0944283000000041
 31
0.0
  0
LINE
  5
BD
  8
SLD-0_4
  6
PHANTOM
 62
     0
 10
438.7348645499999975
 20
358.6282504000000131
 30
0.0
 11
438.7348645499999975
 21
357.5945322800000099
 31
0.0
  0
LINE
  5
BE
  8
SLD-0_4
  6
PHANTOM
 62
     0
 10
441.6187466499999914
 20
358.6282504000000131
 30
0.0
 11
440.8970582700000023
 21
358.6282504000000131
 31
0.0
  0
LINE
  5
BF
  8
SLD-0_4
  6
PHANTOM
 62
     0
 10
440.8970582700000023
 20
358.6282504000000131
 30
0.0
 11
440.8970582700000023
 21
367.3727399100000071
 31
0.0
  0
LINE
  5
C0
  8
SLD-0_4
  6
PHANTOM
 62
     0
 10
425.6525875500000211
 20
357.5945322800000099
 30
0.0
 11
425.6525875500000211
 21
358.6282504000000131
 31
0.0
  0
LINE
  5
C1
  8
SLD-0_4
  6
PHANTOM
 62
     0
 10
657.2385791399999562
 20
355.8640115800000103
 30
0.0
 11
657.2385791399999562
 21
343.5436231300000145
 31
0.0
  0
LINE
  5
C2
  8
SLD-0_4
  6
PHANTOM
 62
     0
 10
640.0397860999999011
 20
283.0945610900000133
 30
0.0
 11
688.0397860999997874
 21
283.0945610900000133
 31
0.0
  0
LINE
  5
C3
  8
SLD-0_4
  6
PHANTOM
 62
     0
 10
659.6276165499998569
 20
276.2330441400000041
 30
0.0
 11
659.6276165499998569
 21
283.0945610900000133
 31
0.0
  0
LINE
  5
C4
  8
SLD-0_4
  6
PHANTOM
 62
     0
 10
665.5485241799998448
 20
301.2789095399999724
 30
0.0
 11
672.958751609999922
 21
301.2789095399999724
 31
0.0
  0
LINE
  5
C5
  8
SLD-0_4
  6
PHANTOM
 62
     0
 10
672.958751609999922
 20
296.3371626800000058
 30
0.0
 11
672.958751609999922
 21
300.0422763899999836
 31
0.0
  0
LINE
  5
C6
  8
SLD-0_4
  6
PHANTOM
 62
     0
 10
654.2522823699998753
 20
348.0048825000000079
 30
0.0
 11
654.24271090000002
 21
346.0465609699999732
 31
0.0
  0
LINE
  5
C7
  8
SLD-0_4
  6
PHANTOM
 62
     0
 10
672.958751609999922
 20
319.8035209600000144
 30
0.0
 11
665.5485241799998448
 21
319.8035209600000144
 31
0.0
  0
LINE
  5
C8
  8
SLD-0_4
  6
PHANTOM
 62
     0
 10
446.7184226699998817
 20
358.6282504000000131
 30
0.0
 11
446.7184226699998817
 21
357.5945322800000099
 31
0.0
  0
LINE
  5
C9
  8
SLD-0_4
  6
PHANTOM
 62
     0
 10
441.6187466499999914
 20
367.3727399100000071
 30
0.0
 11
441.6187466499999914
 21
368.0944283000000041
 31
0.0
  0
LINE
  5
CA
  8
SLD-0_4
  6
PHANTOM
 62
     0
 10
647.7101341200000206
 20
198.0648815700000114
 30
0.0
 11
644.639152329999888
 21
198.0648815700000114
 31
0.0
  0
LINE
  5
CB
  8
SLD-0_4
  6
PHANTOM
 62
     0
 10
464.8506040699999744
 20
367.3727399100000071
 30
0.0
 11
465.5722924600000283
 21
367.3727399100000071
 31
0.0
  0
LINE
  5
CC
  8
SLD-0_4
  6
PHANTOM
 62
     0
 10
454.7029379400000266
 20
367.3727399100000071
 30
0.0
 11
455.4322834999999259
 21
367.3727399100000071
 31
0.0
  0
LINE
  5
CD
  8
SLD-0_4
  6
PHANTOM
 62
     0
 10
639.3813527399997838
 20
197.6236034300000028
 30
0.0
 11
639.3314268999996557
 21
197.5410574899999858
 31
0.0
  0
LINE
  5
CE
  8
SLD-0_4
  6
PHANTOM
 62
     0
 10
651.343738529999996
 20
198.0648815700000114
 30
0.0
 11
647.7101341200000206
 21
198.0648815700000114
 31
0.0
  0
LINE
  5
CF
  8
SLD-0_4
  6
PHANTOM
 62
     0
 10
686.156013039999948
 20
198.0648815700000114
 30
0.0
 11
683.7883095199998706
 21
198.0648815700000114
 31
0.0
  0
LINE
  5
D0
  8
SLD-0_4
  6
PHANTOM
 62
     0
 10
677.0837233199998764
 20
198.0648815700000114
 30
0.0
 11
673.0281519500000513
 21
198.0648815700000114
 31
0.0
  0
LINE
  5
D1
  8
SLD-0_4
  6
PHANTOM
 62
     0
 10
642.2714488099999244
 20
198.0648815700000114
 30
0.0
 11
640.7476792199997817
 21
198.0648815700000114
 31
0.0
  0
LINE
  5
D2
  8
SLD-0_4
  6
PHANTOM
 62
     0
 10
640.2084992100000136
 20
198.0648815700000114
 30
0.0
 11
640.1064444099998809
 21
198.0597158699999909
 31
0.0
  0
LINE
  5
D3
  8
SLD-0_4
  6
PHANTOM
 62
     0
 10
688.7776482399998486
 20
197.8939748500000064
 30
0.0
 11
688.6954257199998892
 21
197.9441049300000088
 31
0.0
  0
LINE
  5
D4
  8
SLD-0_4
  6
PHANTOM
 62
     0
 10
689.2111864899999318
 20
197.1661196899999879
 30
0.0
 11
689.1961455499998692
 21
197.2655633699999953
 31
0.0
  0
LINE
  5
D5
  8
SLD-0_4
  6
PHANTOM
 62
     0
 10
687.6797826299998633
 20
198.0648815700000114
 30
0.0
 11
686.156013039999948
 21
198.0648815700000114
 31
0.0
  0
LINE
  5
D6
  8
SLD-0_4
  6
PHANTOM
 62
     0
 10
689.1961455499998692
 20
197.2655633699999953
 30
0.0
 11
689.1716771000000108
 21
197.3615355299999976
 31
0.0
  0
LINE
  5
D7
  8
SLD-0_4
  6
PHANTOM
 62
     0
 10
688.9250973999999133
 20
197.7717554799999959
 30
0.0
 11
688.8543690400000514
 21
197.8363577199999952
 31
0.0
  0
LINE
  5
D8
  8
SLD-0_4
  6
PHANTOM
 62
     0
 10
688.6081921999999622
 20
197.9862460100000021
 30
0.0
 11
688.5164384099997505
 21
198.0198961499999939
 31
0.0
  0
LINE
  5
D9
  8
SLD-0_4
  6
PHANTOM
 62
     0
 10
688.8543690400000514
 20
197.8363577199999952
 30
0.0
 11
688.7776482399998486
 21
197.8939748500000064
 31
0.0
  0
LINE
  5
DA
  8
SLD-0_4
  6
PHANTOM
 62
     0
 10
662.9177547000000459
 20
208.0941710900000032
 30
0.0
 11
662.9177547000000459
 21
198.055310100000014
 31
0.0
  0
LINE
  5
DB
  8
SLD-0_4
  6
PHANTOM
 62
     0
 10
644.639152329999888
 20
198.0648815700000114
 30
0.0
 11
642.2714488099999244
 21
198.0648815700000114
 31
0.0
  0
LINE
  5
DC
  8
SLD-0_4
  6
PHANTOM
 62
     0
 10
689.0466138599998658
 20
197.6236034300000028
 30
0.0
 11
688.9893425799998568
 21
197.700670070000001
 31
0.0
  0
LINE
  5
DD
  8
SLD-0_4
  6
PHANTOM
 62
     0
 10
640.0073563900000408
 20
198.0445534199999997
 30
0.0
 11
639.9117342899997993
 21
198.0198961499999939
 31
0.0
  0
LINE
  5
DE
  8
SLD-0_4
  6
PHANTOM
 62
     0
 10
689.0964205299999321
 20
197.5410574899999858
 30
0.0
 11
689.0466138599998658
 21
197.6236034300000028
 31
0.0
  0
LINE
  5
DF
  8
SLD-0_4
  6
PHANTOM
 62
     0
 10
680.7173277299998517
 20
198.0648815700000114
 30
0.0
 11
677.0837233199998764
 21
198.0648815700000114
 31
0.0
  0
LINE
  5
E0
  8
SLD-0_4
  6
PHANTOM
 62
     0
 10
668.6912692599998991
 20
198.0648815700000114
 30
0.0
 11
664.2137309299998833
 21
198.0648815700000114
 31
0.0
  0
LINE
  5
E1
  8
SLD-0_4
  6
PHANTOM
 62
     0
 10
688.4206550699999525
 20
198.0445534199999997
 30
0.0
 11
688.3213328999999021
 21
198.0597158699999909
 31
0.0
  0
LINE
  5
E2
  8
SLD-0_4
  6
PHANTOM
 62
     0
 10
678.7317275200000495
 20
198.055310100000014
 30
0.0
 11
678.7317275200000495
 21
208.0941710900000032
 31
0.0
  0
LINE
  5
E3
  8
SLD-0_4
  6
PHANTOM
 62
     0
 10
639.438737589999846
 20
197.700670070000001
 30
0.0
 11
639.3813527399997838
 21
197.6236034300000028
 31
0.0
  0
LINE
  5
E4
  8
SLD-0_4
  6
PHANTOM
 62
     0
 10
655.39930991000017
 20
198.0648815700000114
 30
0.0
 11
651.343738529999996
 21
198.0648815700000114
 31
0.0
  0
LINE
  5
E5
  8
SLD-0_4
  6
PHANTOM
 62
     0
 10
640.1064444099998809
 20
198.0597158699999909
 30
0.0
 11
640.0073563900000408
 21
198.0445534199999997
 31
0.0
  0
LINE
  5
E6
  8
SLD-0_4
  6
PHANTOM
 62
     0
 10
688.5164384099997505
 20
198.0198961499999939
 30
0.0
 11
688.4206550699999525
 21
198.0445534199999997
 31
0.0
  0
LINE
  5
E7
  8
SLD-0_4
  6
PHANTOM
 62
     0
 10
639.820077240000046
 20
197.9862460100000021
 30
0.0
 11
639.7328843800000868
 21
197.9441049300000088
 31
0.0
  0
LINE
  5
E8
  8
SLD-0_4
  6
PHANTOM
 62
     0
 10
639.2894591999998966
 20
197.4535342099999866
 30
0.0
 11
639.2559488000000556
 21
197.3615355299999976
 31
0.0
  0
LINE
  5
E9
  8
SLD-0_4
  6
PHANTOM
 62
     0
 10
683.7883095199998706
 20
198.0648815700000114
 30
0.0
 11
680.7173277299998517
 21
198.0648815700000114
 31
0.0
  0
LINE
  5
EA
  8
SLD-0_4
  6
PHANTOM
 62
     0
 10
689.1716771000000108
 20
197.3615355299999976
 30
0.0
 11
689.1382718500000237
 21
197.4535342099999866
 31
0.0
  0
LINE
  5
EB
  8
SLD-0_4
  6
PHANTOM
 62
     0
 10
689.1382718500000237
 20
197.4535342099999866
 30
0.0
 11
689.0964205299999321
 21
197.5410574899999858
 31
0.0
  0
LINE
  5
EC
  8
SLD-0_4
  6
PHANTOM
 62
     0
 10
659.7361925899998596
 20
198.0648815700000114
 30
0.0
 11
655.39930991000017
 21
198.0648815700000114
 31
0.0
  0
LINE
  5
ED
  8
SLD-0_4
  6
PHANTOM
 62
     0
 10
639.6506548500000235
 20
197.8939748500000064
 30
0.0
 11
639.57388777999995
 21
197.8363577199999952
 31
0.0
  0
LINE
  5
EE
  8
SLD-0_4
  6
PHANTOM
 62
     0
 10
688.3213328999999021
 20
198.0597158699999909
 30
0.0
 11
688.2189626399998588
 21
198.0648815700000114
 31
0.0
  0
LINE
  5
EF
  8
SLD-0_4
  6
PHANTOM
 62
     0
 10
639.5030823199998622
 20
197.7717554799999959
 30
0.0
 11
639.438737589999846
 21
197.700670070000001
 31
0.0
  0
LINE
  5
F0
  8
SLD-0_4
  6
PHANTOM
 62
     0
 10
640.7476792199997817
 20
198.0648815700000114
 30
0.0
 11
640.2084992100000136
 21
198.0648815700000114
 31
0.0
  0
LINE
  5
F1
  8
SLD-0_4
  6
PHANTOM
 62
     0
 10
639.7328843800000868
 20
197.9441049300000088
 30
0.0
 11
639.6506548500000235
 21
197.8939748500000064
 31
0.0
  0
LINE
  5
F2
  8
SLD-0_4
  6
PHANTOM
 62
     0
 10
639.57388777999995
 20
197.8363577199999952
 30
0.0
 11
639.5030823199998622
 21
197.7717554799999959
 31
0.0
  0
LINE
  5
F3
  8
SLD-0_4
  6
PHANTOM
 62
     0
 10
662.9177547000000459
 20
208.0941710900000032
 30
0.0
 11
678.7317275200000495
 21
208.0941710900000032
 31
0.0
  0
LINE
  5
F4
  8
SLD-0_4
  6
PHANTOM
 62
     0
 10
688.9893425799998568
 20
197.700670070000001
 30
0.0
 11
688.9250973999999133
 21
197.7717554799999959
 31
0.0
  0
LINE
  5
F5
  8
SLD-0_4
  6
PHANTOM
 62
     0
 10
639.3314268999996557
 20
197.5410574899999858
 30
0.0
 11
639.2894591999998966
 21
197.4535342099999866
 31
0.0
  0
LINE
  5
F6
  8
SLD-0_4
  6
PHANTOM
 62
     0
 10
639.2559488000000556
 20
197.3615355299999976
 30
0.0
 11
639.2313948099998697
 21
197.2655633699999953
 31
0.0
  0
LINE
  5
F7
  8
SLD-0_4
  6
PHANTOM
 62
     0
 10
639.9117342899997993
 20
198.0198961499999939
 30
0.0
 11
639.820077240000046
 21
197.9862460100000021
 31
0.0
  0
LINE
  5
F8
  8
SLD-0_4
  6
PHANTOM
 62
     0
 10
688.2189626399998588
 20
198.0648815700000114
 30
0.0
 11
687.6797826299998633
 21
198.0648815700000114
 31
0.0
  0
LINE
  5
F9
  8
SLD-0_4
  6
PHANTOM
 62
     0
 10
664.2137309299998833
 20
198.0648815700000114
 30
0.0
 11
659.7361925899998596
 21
198.0648815700000114
 31
0.0
  0
LINE
  5
FA
  8
SLD-0_4
  6
PHANTOM
 62
     0
 10
673.0281519500000513
 20
198.0648815700000114
 30
0.0
 11
668.6912692599998991
 21
198.0648815700000114
 31
0.0
  0
LINE
  5
FB
  8
SLD-0_4
  6
PHANTOM
 62
     0
 10
639.216296390000025
 20
197.1661196899999879
 30
0.0
 11
639.2111526599999252
 21
197.0637064299999963
 31
0.0
  0
LINE
  5
FC
  8
SLD-0_4
  6
PHANTOM
 62
     0
 10
689.2163091899999472
 20
197.0637064299999963
 30
0.0
 11
689.2111864899999318
 21
197.1661196899999879
 31
0.0
  0
LINE
  5
FD
  8
SLD-0_4
  6
PHANTOM
 62
     0
 10
639.2111526599999252
 20
197.0637064299999963
 30
0.0
 11
639.2111526599999252
 21
92.0945437999999967
 31
0.0
  0
LINE
  5
FE
  8
SLD-0_4
  6
PHANTOM
 62
     0
 10
639.2313948099998697
 20
197.2655633699999953
 30
0.0
 11
639.216296390000025
 21
197.1661196899999879
 31
0.0
  0
LINE
  5
FF
  8
SLD-0_4
  6
PHANTOM
 62
     0
 10
662.9177547000000459
 20
198.055310100000014
 30
0.0
 11
678.7317275200000495
 21
198.055310100000014
 31
0.0
  0
LINE
  5
100
  8
SLD-0_4
  6
PHANTOM
 62
     0
 10
689.2163091899999472
 20
92.0945437999999967
 30
0.0
 11
689.2163091899999472
 21
197.0637064299999963
 31
0.0
  0
LINE
  5
101
  8
SLD-0_4
  6
PHANTOM
 62
     0
 10
688.6954257199998892
 20
197.9441049300000088
 30
0.0
 11
688.6081921999999622
 21
197.9862460100000021
 31
0.0
  0
LINE
  5
102
  8
SLD-0_4
  6
PHANTOM
 62
     0
 10
469.2443385799999191
 20
273.0945610900000133
 30
0.0
 11
469.2443385799999191
 21
373.0945610900000133
 31
0.0
  0
LINE
  5
103
  8
SLD-0_4
  6
PHANTOM
 62
     0
 10
550.23242029000005
 20
303.0945610899998997
 30
0.0
 11
532.23242029000005
 21
303.0945610899998997
 31
0.0
  0
LINE
  5
104
  8
SLD-0_4
  6
PHANTOM
 62
     0
 10
550.23242029000005
 20
351.0945610899998997
 30
0.0
 11
532.23242029000005
 21
351.0945610899998997
 31
0.0
  0
LINE
  5
105
  8
SLD-0_4
  6
PHANTOM
 62
     0
 10
513.23242029000005
 20
303.0945610899998997
 30
0.0
 11
513.23242029000005
 21
351.0945610899998997
 31
0.0
  0
LINE
  5
106
  8
SLD-0_4
  6
PHANTOM
 62
     0
 10
551.23242029000005
 20
303.0945610899998997
 30
0.0
 11
551.23242029000005
 21
351.0945610899998997
 31
0.0
  0
LINE
  5
107
  8
SLD-0_4
  6
PHANTOM
 62
     0
 10
570.23242029000005
 20
303.0945610899998997
 30
0.0
 11
570.23242029000005
 21
351.0945610899998997
 31
0.0
  0
LINE
  5
108
  8
SLD-0_4
  6
PHANTOM
 62
     0
 10
512.23242029000005
 20
303.0945610899998997
 30
0.0
 11
494.2324202899999932
 21
303.0945610899998997
 31
0.0
  0
LINE
  5
109
  8
SLD-0_4
  6
PHANTOM
 62
     0
 10
531.23242029000005
 20
351.0945610899998997
 30
0.0
 11
513.23242029000005
 21
351.0945610899998997
 31
0.0
  0
LINE
  5
10A
  8
SLD-0_4
  6
PHANTOM
 62
     0
 10
550.23242029000005
 20
303.0945610899998997
 30
0.0
 11
550.23242029000005
 21
351.0945610899998997
 31
0.0
  0
LINE
  5
10B
  8
SLD-0_4
  6
PHANTOM
 62
     0
 10
532.23242029000005
 20
303.0945610899998997
 30
0.0
 11
532.23242029000005
 21
351.0945610899998997
 31
0.0
  0
LINE
  5
10C
  8
SLD-0_4
  6
PHANTOM
 62
     0
 10
569.23242029000005
 20
351.0945610899998997
 30
0.0
 11
551.23242029000005
 21
351.0945610899998997
 31
0.0
  0
LINE
  5
10D
  8
SLD-0_4
  6
PHANTOM
 62
     0
 10
493.2324202899999932
 20
351.0945610899998997
 30
0.0
 11
475.2324202899998795
 21
351.0945610899998997
 31
0.0
  0
LINE
  5
10E
  8
SLD-0_4
  6
PHANTOM
 62
     0
 10
531.23242029000005
 20
303.0945610899998997
 30
0.0
 11
531.23242029000005
 21
351.0945610899998997
 31
0.0
  0
LINE
  5
10F
  8
SLD-0_4
  6
PHANTOM
 62
     0
 10
493.2324202899999932
 20
303.0945610899998997
 30
0.0
 11
493.2324202899999932
 21
351.0945610899998997
 31
0.0
  0
LINE
  5
110
  8
SLD-0_4
  6
PHANTOM
 62
     0
 10
588.23242029000005
 20
303.0945610899998997
 30
0.0
 11
570.23242029000005
 21
303.0945610899998997
 31
0.0
  0
LINE
  5
111
  8
SLD-0_4
  6
PHANTOM
 62
     0
 10
494.2324202899999932
 20
303.0945610899998997
 30
0.0
 11
494.2324202899999932
 21
351.0945610899998997
 31
0.0
  0
LINE
  5
112
  8
SLD-0_4
  6
PHANTOM
 62
     0
 10
512.23242029000005
 20
351.0945610899998997
 30
0.0
 11
494.2324202899999932
 21
351.0945610899998997
 31
0.0
  0
LINE
  5
113
  8
SLD-0_4
  6
PHANTOM
 62
     0
 10
607.23242029000005
 20
303.0945610899998997
 30
0.0
 11
607.23242029000005
 21
351.0945610899998997
 31
0.0
  0
LINE
  5
114
  8
SLD-0_4
  6
PHANTOM
 62
     0
 10
493.2324202899999932
 20
303.0945610899998997
 30
0.0
 11
475.2324202899998795
 21
303.0945610899998997
 31
0.0
  0
LINE
  5
115
  8
SLD-0_4
  6
PHANTOM
 62
     0
 10
475.2324202899998795
 20
303.0945610899998997
 30
0.0
 11
475.2324202899998795
 21
351.0945610899998997
 31
0.0
  0
LINE
  5
116
  8
SLD-0_4
  6
PHANTOM
 62
     0
 10
626.2324202900001637
 20
303.0945610899998997
 30
0.0
 11
626.2324202900001637
 21
351.0945610899998997
 31
0.0
  0
LINE
  5
117
  8
SLD-0_4
  6
PHANTOM
 62
     0
 10
626.2324202900001637
 20
351.0945610899998997
 30
0.0
 11
608.23242029000005
 21
351.0945610899998997
 31
0.0
  0
LINE
  5
118
  8
SLD-0_4
  6
PHANTOM
 62
     0
 10
512.23242029000005
 20
303.0945610899998997
 30
0.0
 11
512.23242029000005
 21
351.0945610899998997
 31
0.0
  0
LINE
  5
119
  8
SLD-0_4
  6
PHANTOM
 62
     0
 10
608.23242029000005
 20
303.0945610899998997
 30
0.0
 11
608.23242029000005
 21
351.0945610899998997
 31
0.0
  0
LINE
  5
11A
  8
SLD-0_4
  6
PHANTOM
 62
     0
 10
607.23242029000005
 20
351.0945610899998997
 30
0.0
 11
589.2324202900001637
 21
351.0945610899998997
 31
0.0
  0
LINE
  5
11B
  8
SLD-0_4
  6
PHANTOM
 62
     0
 10
588.23242029000005
 20
303.0945610899998997
 30
0.0
 11
588.23242029000005
 21
351.0945610899998997
 31
0.0
  0
LINE
  5
11C
  8
SLD-0_4
  6
PHANTOM
 62
     0
 10
626.2324202900001637
 20
303.0945610899998997
 30
0.0
 11
608.23242029000005
 21
303.0945610899998997
 31
0.0
  0
LINE
  5
11D
  8
SLD-0_4
  6
PHANTOM
 62
     0
 10
589.2324202900001637
 20
303.0945610899998997
 30
0.0
 11
589.2324202900001637
 21
351.0945610899998997
 31
0.0
  0
LINE
  5
11E
  8
SLD-0_4
  6
PHANTOM
 62
     0
 10
569.23242029000005
 20
303.0945610899998997
 30
0.0
 11
551.23242029000005
 21
303.0945610899998997
 31
0.0
  0
LINE
  5
11F
  8
SLD-0_4
  6
PHANTOM
 62
     0
 10
569.23242029000005
 20
303.0945610899998997
 30
0.0
 11
569.23242029000005
 21
351.0945610899998997
 31
0.0
  0
LINE
  5
120
  8
SLD-0_4
  6
PHANTOM
 62
     0
 10
588.23242029000005
 20
351.0945610899998997
 30
0.0
 11
570.23242029000005
 21
351.0945610899998997
 31
0.0
  0
LINE
  5
121
  8
SLD-0_4
  6
PHANTOM
 62
     0
 10
607.23242029000005
 20
303.0945610899998997
 30
0.0
 11
589.2324202900001637
 21
303.0945610899998997
 31
0.0
  0
LINE
  5
122
  8
SLD-0_4
  6
PHANTOM
 62
     0
 10
531.23242029000005
 20
303.0945610899998997
 30
0.0
 11
513.23242029000005
 21
303.0945610899998997
 31
0.0
  0
LINE
  5
123
  8
SLD-0_4
  6
PHANTOM
 62
     0
 10
475.2324202899998795
 20
161.3941710899999862
 30
0.0
 11
475.2324202899998795
 21
92.0945437999999967
 31
0.0
  0
LINE
  5
124
  8
SLD-0_4
  6
PHANTOM
 62
     0
 10
493.2324202899999932
 20
161.3941710899999862
 30
0.0
 11
493.2324202899999932
 21
116.6757370299999934
 31
0.0
  0
LINE
  5
125
  8
SLD-0_4
  6
PHANTOM
 62
     0
 10
486.6045909699998901
 20
161.3734216299999957
 30
0.0
 11
486.6045909699998901
 21
161.5941710900000032
 31
0.0
  0
LINE
  5
126
  8
SLD-0_4
  6
PHANTOM
 62
     0
 10
491.902244450000012
 20
161.3734216299999957
 30
0.0
 11
491.902244450000012
 21
161.5941710900000032
 31
0.0
  0
LINE
  5
127
  8
SLD-0_4
  6
PHANTOM
 62
     0
 10
493.2324202899999932
 20
161.3941710899999862
 30
0.0
 11
475.2324202899998795
 21
161.3941710899999862
 31
0.0
  0
LINE
  5
128
  8
SLD-0_4
  6
PHANTOM
 62
     0
 10
490.4022444499998983
 20
163.0941710900000032
 30
0.0
 11
488.1045909699998901
 21
163.0941710900000032
 31
0.0
  0
LINE
  5
129
  8
0
  6
CONTINUOUS
 62
     0
 10
544.7804869300000519
 20
273.0945494900000199
 30
0.0
 11
544.7804869300000519
 21
283.8438815800000157
 31
0.0
  0
LINE
  5
12A
  8
0
  6
CONTINUOUS
 62
     0
 10
561.9988740799999505
 20
273.0945494900000199
 30
0.0
 11
561.9988740799999505
 21
283.8438815800000157
 31
0.0
  0
LINE
  5
12B
  8
0
  6
CONTINUOUS
 62
     0
 10
531.8677098999999089
 20
283.8438815800000157
 30
0.0
 11
531.8677098999999089
 21
294.5942269700000224
 31
0.0
  0
LINE
  5
12C
  8
0
  6
CONTINUOUS
 62
     0
 10
617.9576189799997792
 20
294.5942269700000224
 30
0.0
 11
622.2622157600000037
 21
294.5942269700000224
 31
0.0
  0
LINE
  5
12D
  8
0
  6
CONTINUOUS
 62
     0
 10
488.8227553599999737
 20
283.8438815800000157
 30
0.0
 11
488.8227553599999737
 21
294.5942269700000224
 31
0.0
  0
LINE
  5
12E
  8
0
  6
CONTINUOUS
 62
     0
 10
501.7375590400000078
 20
273.0945494900000199
 30
0.0
 11
501.7375590400000078
 21
283.8438815800000157
 31
0.0
  0
LINE
  5
12F
  8
0
  6
CONTINUOUS
 62
     0
 10
549.0850837199999432
 20
283.8438815800000157
 30
0.0
 11
549.0850837199999432
 21
294.5942269700000224
 31
0.0
  0
LINE
  5
130
  8
0
  6
CONTINUOUS
 62
     0
 10
480.2125484700000015
 20
294.5942269700000224
 30
0.0
 11
480.2125484700000015
 21
283.8438815800000157
 31
0.0
  0
LINE
  5
131
  8
SLD-0_4
  6
CONTINUOUS
 62
     0
 10
716.73242029000005
 20
294.5945610899998997
 30
0.0
 11
719.23242029000005
 21
292.0945610900000133
 31
0.0
  0
LINE
  5
132
  8
SLD-0_4
  6
CONTINUOUS
 62
     0
 10
716.73242029000005
 20
273.0945610900000133
 30
0.0
 11
401.7324202899999932
 21
273.0945610900000133
 31
0.0
  0
LINE
  5
133
  8
0
  6
CONTINUOUS
 62
     0
 10
497.4329622600000107
 20
283.8438815800000157
 30
0.0
 11
497.4329622600000107
 21
294.5942269700000224
 31
0.0
  0
LINE
  5
134
  8
0
  6
CONTINUOUS
 62
     0
 10
484.5181585799999198
 20
283.8438815800000157
 30
0.0
 11
484.5181585799999198
 21
273.0945494900000199
 31
0.0
  0
LINE
  5
135
  8
0
  6
CONTINUOUS
 62
     0
 10
514.6493227600000182
 20
283.8438815800000157
 30
0.0
 11
514.6493227600000182
 21
294.5942269700000224
 31
0.0
  0
LINE
  5
136
  8
0
  6
CONTINUOUS
 62
     0
 10
540.4748768299999711
 20
283.8438815800000157
 30
0.0
 11
540.4748768299999711
 21
294.5942269700000224
 31
0.0
  0
LINE
  5
137
  8
0
  6
CONTINUOUS
 62
     0
 10
527.5641264399998818
 20
273.0945494900000199
 30
0.0
 11
527.5641264399998818
 21
283.8438815800000157
 31
0.0
  0
LINE
  5
138
  8
SLD-0_4
  6
CONTINUOUS
 62
     0
 10
719.23242029000005
 20
275.5945610900000133
 30
0.0
 11
719.23242029000005
 21
292.0945610900000133
 31
0.0
  0
LINE
  5
139
  8
0
  6
CONTINUOUS
 62
     0
 10
600.7392318299997669
 20
283.8438815800000157
 30
0.0
 11
600.7392318299997669
 21
294.5942269700000224
 31
0.0
  0
LINE
  5
13A
  8
0
  6
CONTINUOUS
 62
     0
 10
506.0391158599998107
 20
283.8438815800000157
 30
0.0
 11
506.0391158599998107
 21
294.5942269700000224
 31
0.0
  0
LINE
  5
13B
  8
0
  6
CONTINUOUS
 62
     0
 10
480.2125484700000015
 20
273.0945494900000199
 30
0.0
 11
480.2125484700000015
 21
283.8438815800000157
 31
0.0
  0
LINE
  5
13C
  8
0
  6
CONTINUOUS
 62
     0
 10
587.8254414699997596
 20
273.0945494900000199
 30
0.0
 11
587.8254414699997596
 21
283.8438815800000157
 31
0.0
  0
LINE
  5
13D
  8
0
  6
CONTINUOUS
 62
     0
 10
553.390693830000032
 20
273.0945494900000199
 30
0.0
 11
553.390693830000032
 21
283.8438815800000157
 31
0.0
  0
LINE
  5
13E
  8
0
  6
CONTINUOUS
 62
     0
 10
570.6070543299999827
 20
273.0945494900000199
 30
0.0
 11
570.6070543299999827
 21
283.8438815800000157
 31
0.0
  0
LINE
  5
13F
  8
SLD-0_4
  6
CONTINUOUS
 62
     0
 10
719.23242029000005
 20
304.0945610900000133
 30
0.0
 11
719.23242029000005
 21
342.0945610900000133
 31
0.0
  0
LINE
  5
140
  8
SLD-0_4
  6
CONTINUOUS
 62
     0
 10
401.7324202899999932
 20
294.5945610899998997
 30
0.0
 11
399.2324202899999932
 21
292.0945610900000133
 31
0.0
  0
LINE
  5
141
  8
0
  6
CONTINUOUS
 62
     0
 10
579.2182745500000465
 20
273.0945494900000199
 30
0.0
 11
579.2182745500000465
 21
283.8438815800000157
 31
0.0
  0
LINE
  5
142
  8
0
  6
CONTINUOUS
 62
     0
 10
536.1702800399998523
 20
273.0945494900000199
 30
0.0
 11
536.1702800399998523
 21
283.8438815800000157
 31
0.0
  0
LINE
  5
143
  8
SLD-0_4
  6
CONTINUOUS
 62
     0
 10
711.73242029000005
 20
351.5945610900000133
 30
0.0
 11
716.73242029000005
 21
351.5945610900000133
 31
0.0
  0
LINE
  5
144
  8
SLD-0_4
  6
CONTINUOUS
 62
     0
 10
716.73242029000005
 20
344.5945610899998997
 30
0.0
 11
719.23242029000005
 21
342.0945610900000133
 31
0.0
  0
LINE
  5
145
  8
SLD-0_4
  6
CONTINUOUS
 62
     0
 10
622.9516956499999196
 20
360.7799255099999982
 30
0.0
 11
479.195963529999915
 21
360.7799255099999982
 31
0.0
  0
LINE
  5
146
  8
SLD-0_4
  6
CONTINUOUS
 62
     0
 10
604.9841434300000174
 20
373.1003139800000099
 30
0.0
 11
604.9841434300000174
 21
360.7799255099999982
 31
0.0
  0
LINE
  5
147
  8
SLD-0_4
  6
CONTINUOUS
 62
     0
 10
401.7324202899999932
 20
351.5945610900000133
 30
0.0
 11
399.2324202899999932
 21
354.0945610900000133
 31
0.0
  0
LINE
  5
148
  8
SLD-0_4
  6
CONTINUOUS
 62
     0
 10
401.7324202899999932
 20
301.5945610900000133
 30
0.0
 11
399.2324202899999932
 21
304.0945610900000133
 31
0.0
  0
LINE
  5
149
  8
SLD-0_4
  6
CONTINUOUS
 62
     0
 10
401.7324202899999932
 20
273.0945610900000133
 30
0.0
 11
399.2324202899999932
 21
275.5945610900000133
 31
0.0
  0
LINE
  5
14A
  8
0
  6
CONTINUOUS
 62
     0
 10
622.2622157600000037
 20
273.0945494900000199
 30
0.0
 11
622.2622157600000037
 21
283.8438815800000157
 31
0.0
  0
LINE
  5
14B
  8
0
  6
CONTINUOUS
 62
     0
 10
609.3484253999997691
 20
283.8438815800000157
 30
0.0
 11
609.3484253999997691
 21
294.5942269700000224
 31
0.0
  0
LINE
  5
14C
  8
SLD-0_4
  6
CONTINUOUS
 62
     0
 10
711.73242029000005
 20
344.5945610899998997
 30
0.0
 11
716.73242029000005
 21
344.5945610899998997
 31
0.0
  0
LINE
  5
14D
  8
SLD-0_4
  6
CONTINUOUS
 62
     0
 10
622.9516956499999196
 20
373.1003139800000099
 30
0.0
 11
622.9516956499999196
 21
360.7799255099999982
 31
0.0
  0
LINE
  5
14E
  8
0
  6
CONTINUOUS
 62
     0
 10
617.9576189799997792
 20
283.8438815800000157
 30
0.0
 11
617.9576189799997792
 21
294.5942269700000224
 31
0.0
  0
LINE
  5
14F
  8
0
  6
CONTINUOUS
 62
     0
 10
613.6550488399999495
 20
273.0945494900000199
 30
0.0
 11
613.6550488399999495
 21
283.8438815800000157
 31
0.0
  0
LINE
  5
150
  8
0
  6
CONTINUOUS
 62
     0
 10
622.2622157600000037
 20
294.5942269700000224
 30
0.0
 11
622.2622157600000037
 21
283.8438815800000157
 31
0.0
  0
LINE
  5
151
  8
0
  6
CONTINUOUS
 62
     0
 10
510.3457392899999832
 20
273.0945494900000199
 30
0.0
 11
510.3457392899999832
 21
283.8438815800000157
 31
0.0
  0
LINE
  5
152
  8
0
  6
CONTINUOUS
 62
     0
 10
574.9116511099998661
 20
283.8438815800000157
 30
0.0
 11
574.9116511099998661
 21
294.5942269700000224
 31
0.0
  0
LINE
  5
153
  8
0
  6
CONTINUOUS
 62
     0
 10
557.6952906200000371
 20
283.8438815800000157
 30
0.0
 11
557.6952906200000371
 21
294.5942269700000224
 31
0.0
  0
LINE
  5
154
  8
0
  6
CONTINUOUS
 62
     0
 10
523.2575030100000504
 20
283.8438815800000157
 30
0.0
 11
523.2575030100000504
 21
294.5942269700000224
 31
0.0
  0
LINE
  5
155
  8
0
  6
CONTINUOUS
 62
     0
 10
493.1263388300000088
 20
273.0945494900000199
 30
0.0
 11
493.1263388300000088
 21
283.8438815800000157
 31
0.0
  0
LINE
  5
156
  8
SLD-0_4
  6
CONTINUOUS
 62
     0
 10
711.73242029000005
 20
301.5945610900000133
 30
0.0
 11
716.73242029000005
 21
301.5945610900000133
 31
0.0
  0
LINE
  5
157
  8
SLD-0_4
  6
CONTINUOUS
 62
     0
 10
716.73242029000005
 20
301.5945610900000133
 30
0.0
 11
719.23242029000005
 21
304.0945610900000133
 31
0.0
  0
LINE
  5
158
  8
SLD-0_4
  6
CONTINUOUS
 62
     0
 10
497.1654300499999977
 20
373.1003139800000099
 30
0.0
 11
497.1654300499999977
 21
360.7799255099999982
 31
0.0
  0
LINE
  5
159
  8
0
  6
CONTINUOUS
 62
     0
 10
596.4346350499999971
 20
273.0945494900000199
 30
0.0
 11
596.4346350499999971
 21
283.8438815800000157
 31
0.0
  0
LINE
  5
15A
  8
0
  6
CONTINUOUS
 62
     0
 10
566.3014442200000076
 20
283.8438815800000157
 30
0.0
 11
566.3014442200000076
 21
294.5942269700000224
 31
0.0
  0
LINE
  5
15B
  8
0
  6
CONTINUOUS
 62
     0
 10
622.2622157600000037
 20
283.8438815800000157
 30
0.0
 11
484.5181585799999198
 21
283.8438815800000157
 31
0.0
  0
LINE
  5
15C
  8
0
  6
CONTINUOUS
 62
     0
 10
605.0438286199999993
 20
273.0945494900000199
 30
0.0
 11
605.0438286199999993
 21
283.8438815800000157
 31
0.0
  0
LINE
  5
15D
  8
0
  6
CONTINUOUS
 62
     0
 10
617.9576189799997792
 20
294.5942269700000224
 30
0.0
 11
480.2125484700000015
 21
294.5942269700000224
 31
0.0
  0
LINE
  5
15E
  8
0
  6
CONTINUOUS
 62
     0
 10
480.2125484700000015
 20
283.8438815800000157
 30
0.0
 11
617.9576189799997792
 21
283.8438815800000157
 31
0.0
  0
LINE
  5
15F
  8
SLD-0_4
  6
CONTINUOUS
 62
     0
 10
399.2324202899999932
 20
304.0945610900000133
 30
0.0
 11
399.2324202899999932
 21
342.0945610900000133
 31
0.0
  0
LINE
  5
160
  8
0
  6
CONTINUOUS
 62
     0
 10
583.5228713299999299
 20
283.8438815800000157
 30
0.0
 11
583.5228713299999299
 21
294.5942269700000224
 31
0.0
  0
LINE
  5
161
  8
0
  6
CONTINUOUS
 62
     0
 10
518.9539195399999016
 20
273.0945494900000199
 30
0.0
 11
518.9539195399999016
 21
283.8438815800000157
 31
0.0
  0
LINE
  5
162
  8
0
  6
CONTINUOUS
 62
     0
 10
592.1300382599999921
 20
283.8438815800000157
 30
0.0
 11
592.1300382599999921
 21
294.5942269700000224
 31
0.0
  0
LINE
  5
163
  8
SLD-0_4
  6
CONTINUOUS
 62
     0
 10
719.23242029000005
 20
354.0945610900000133
 30
0.0
 11
719.23242029000005
 21
370.5945610900000133
 31
0.0
  0
LINE
  5
164
  8
SLD-0_4
  6
CONTINUOUS
 62
     0
 10
533.1043630799998709
 20
373.1003139800000099
 30
0.0
 11
533.1043630799998709
 21
360.7799255099999982
 31
0.0
  0
LINE
  5
165
  8
SLD-0_4
  6
CONTINUOUS
 62
     0
 10
569.0452103999999736
 20
373.1003139800000099
 30
0.0
 11
569.0452103999999736
 21
360.7799255099999982
 31
0.0
  0
LINE
  5
166
  8
SLD-0_4
  6
CONTINUOUS
 62
     0
 10
488.1797396399999229
 20
373.1003139800000099
 30
0.0
 11
488.1797396399999229
 21
360.7799255099999982
 31
0.0
  0
LINE
  5
167
  8
SLD-0_4
  6
CONTINUOUS
 62
     0
 10
699.23242029000005
 20
273.0945610900000133
 30
0.0
 11
699.23242029000005
 21
373.0945610900000133
 31
0.0
  0
LINE
  5
168
  8
SLD-0_4
  6
CONTINUOUS
 62
     0
 10
711.73242029000005
 20
294.5945610899998997
 30
0.0
 11
716.73242029000005
 21
294.5945610899998997
 31
0.0
  0
LINE
  5
169
  8
SLD-0_4
  6
CONTINUOUS
 62
     0
 10
613.9660052499999665
 20
373.1003139800000099
 30
0.0
 11
613.9660052499999665
 21
360.7799255099999982
 31
0.0
  0
LINE
  5
16A
  8
SLD-0_4
  6
CONTINUOUS
 62
     0
 10
578.0289865099999815
 20
373.1003139800000099
 30
0.0
 11
578.0289865099999815
 21
360.7799255099999982
 31
0.0
  0
LINE
  5
16B
  8
SLD-0_4
  6
CONTINUOUS
 62
     0
 10
587.0127626200001032
 20
373.1003139800000099
 30
0.0
 11
587.0127626200001032
 21
360.7799255099999982
 31
0.0
  0
LINE
  5
16C
  8
SLD-0_4
  6
CONTINUOUS
 62
     0
 10
551.0738295899999457
 20
373.1003139800000099
 30
0.0
 11
551.0738295899999457
 21
360.7799255099999982
 31
0.0
  0
LINE
  5
16D
  8
SLD-0_4
  6
CONTINUOUS
 62
     0
 10
524.1186726700000236
 20
373.1003139800000099
 30
0.0
 11
524.1186726700000236
 21
360.7799255099999982
 31
0.0
  0
LINE
  5
16E
  8
SLD-0_4
  6
CONTINUOUS
 62
     0
 10
595.9984530200000563
 20
373.1003139800000099
 30
0.0
 11
595.9984530200000563
 21
360.7799255099999982
 31
0.0
  0
LINE
  5
16F
  8
SLD-0_4
  6
CONTINUOUS
 62
     0
 10
506.1511204499998939
 20
373.1003139800000099
 30
0.0
 11
506.1511204499998939
 21
360.7799255099999982
 31
0.0
  0
LINE
  5
170
  8
SLD-0_4
  6
CONTINUOUS
 62
     0
 10
406.7324202899999932
 20
344.5945610899998997
 30
0.0
 11
401.7324202899999932
 21
344.5945610899998997
 31
0.0
  0
LINE
  5
171
  8
SLD-0_4
  6
CONTINUOUS
 62
     0
 10
406.7324202899999932
 20
301.5945610900000133
 30
0.0
 11
401.7324202899999932
 21
301.5945610900000133
 31
0.0
  0
LINE
  5
172
  8
SLD-0_4
  6
CONTINUOUS
 62
     0
 10
399.2324202899999932
 20
370.5945610900000133
 30
0.0
 11
401.7324202899999932
 21
373.0945610900000133
 31
0.0
  0
LINE
  5
173
  8
SLD-0_4
  6
CONTINUOUS
 62
     0
 10
399.2324202899999932
 20
275.5945610900000133
 30
0.0
 11
399.2324202899999932
 21
292.0945610900000133
 31
0.0
  0
LINE
  5
174
  8
SLD-0_4
  6
CONTINUOUS
 62
     0
 10
515.1348965600000156
 20
373.1003139800000099
 30
0.0
 11
515.1348965600000156
 21
360.7799255099999982
 31
0.0
  0
LINE
  5
175
  8
SLD-0_4
  6
CONTINUOUS
 62
     0
 10
716.73242029000005
 20
273.0945610900000133
 30
0.0
 11
719.23242029000005
 21
275.5945610900000133
 31
0.0
  0
LINE
  5
176
  8
SLD-0_4
  6
CONTINUOUS
 62
     0
 10
406.7324202899999932
 20
351.5945610900000133
 30
0.0
 11
401.7324202899999932
 21
351.5945610900000133
 31
0.0
  0
LINE
  5
177
  8
SLD-0_4
  6
CONTINUOUS
 62
     0
 10
401.7324202899999932
 20
344.5945610899998997
 30
0.0
 11
399.2324202899999932
 21
342.0945610900000133
 31
0.0
  0
LINE
  5
178
  8
SLD-0_4
  6
CONTINUOUS
 62
     0
 10
716.73242029000005
 20
373.0945610900000133
 30
0.0
 11
401.7324202899999932
 21
373.0945610900000133
 31
0.0
  0
LINE
  5
179
  8
SLD-0_4
  6
CONTINUOUS
 62
     0
 10
560.0576056999999537
 20
373.1003139800000099
 30
0.0
 11
560.0576056999999537
 21
360.7799255099999982
 31
0.0
  0
LINE
  5
17A
  8
SLD-0_4
  6
CONTINUOUS
 62
     0
 10
719.23242029000005
 20
370.5945610900000133
 30
0.0
 11
716.73242029000005
 21
373.0945610900000133
 31
0.0
  0
LINE
  5
17B
  8
SLD-0_4
  6
CONTINUOUS
 62
     0
 10
406.7324202899999932
 20
294.5945610899998997
 30
0.0
 11
401.7324202899999932
 21
294.5945610899998997
 31
0.0
  0
LINE
  5
17C
  8
SLD-0_4
  6
CONTINUOUS
 62
     0
 10
542.0900534800000514
 20
373.1003139800000099
 30
0.0
 11
542.0900534800000514
 21
360.7799255099999982
 31
0.0
  0
LINE
  5
17D
  8
SLD-0_4
  6
CONTINUOUS
 62
     0
 10
716.73242029000005
 20
351.5945610900000133
 30
0.0
 11
719.23242029000005
 21
354.0945610900000133
 31
0.0
  0
LINE
  5
17E
  8
SLD-0_4
  6
CONTINUOUS
 62
     0
 10
479.195963529999915
 20
360.7799255099999982
 30
0.0
 11
479.195963529999915
 21
373.1003139800000099
 31
0.0
  0
LINE
  5
17F
  8
SLD-0_4
  6
CONTINUOUS
 62
     0
 10
399.2324202899999932
 20
354.0945610900000133
 30
0.0
 11
399.2324202899999932
 21
370.5945610900000133
 31
0.0
  0
LINE
  5
180
  8
SLD-0_4
  6
CONTINUOUS
 62
     0
 10
524.1938136099998928
 20
116.6757370299999934
 30
0.0
 11
524.1938136099998928
 21
104.4246600099999966
 31
0.0
  0
LINE
  5
181
  8
SLD-0_4
  6
CONTINUOUS
 62
     0
 10
469.1713793099999066
 20
89.0930805899999996
 30
0.0
 11
699.23242029000005
 21
89.0930805899999996
 31
0.0
  0
LINE
  5
182
  8
SLD-0_4
  6
CONTINUOUS
 62
     0
 10
573.9915536899999324
 20
104.4246600099999966
 30
0.0
 11
573.9915536899999324
 21
116.6757370299999934
 31
0.0
  0
LINE
  5
183
  8
SLD-0_4
  6
CONTINUOUS
 62
     0
 10
541.1943362699997806
 20
116.6757370299999934
 30
0.0
 11
541.1943362699997806
 21
104.4246600099999966
 31
0.0
  0
LINE
  5
184
  8
SLD-0_4
  6
CONTINUOUS
 62
     0
 10
480.1953219699998954
 20
116.6757370299999934
 30
0.0
 11
480.1953219699998954
 21
104.4246600099999966
 31
0.0
  0
LINE
  5
185
  8
SLD-0_4
  6
CONTINUOUS
 62
     0
 10
570.9434776199999533
 20
104.4246600099999966
 30
0.0
 11
570.9434776199999533
 21
92.1756096400000047
 31
0.0
  0
LINE
  5
186
  8
SLD-0_4
  6
CONTINUOUS
 62
     0
 10
599.4928443399999196
 20
104.4246600099999966
 30
0.0
 11
599.4928443399999196
 21
116.6757370299999934
 31
0.0
  0
LINE
  5
187
  8
SLD-0_4
  6
CONTINUOUS
 62
     0
 10
485.9439042600000107
 20
92.1756096400000047
 30
0.0
 11
622.2419492999999875
 21
92.1756096400000047
 31
0.0
  0
LINE
  5
188
  8
SLD-0_4
  6
CONTINUOUS
 62
     0
 10
481.6920002799997746
 20
108.4414730200000037
 30
0.0
 11
616.4518207600000324
 21
108.4414730200000037
 31
0.0
  0
LINE
  5
189
  8
SLD-0_4
  6
CONTINUOUS
 62
     0
 10
603.7447483299999931
 20
92.1756096400000047
 30
0.0
 11
603.7447483299999931
 21
104.4246600099999966
 31
0.0
  0
LINE
  5
18A
  8
SLD-0_4
  6
CONTINUOUS
 62
     0
 10
471.1706659100000252
 20
89.0930805899999996
 30
0.0
 11
471.1706659100000252
 21
92.0945437999999967
 31
0.0
  0
LINE
  5
18B
  8
SLD-0_4
  6
CONTINUOUS
 62
     0
 10
535.7446843099999114
 20
92.1756096400000047
 30
0.0
 11
535.7446843099999114
 21
104.4246600099999966
 31
0.0
  0
LINE
  5
18C
  8
SLD-0_4
  6
CONTINUOUS
 62
     0
 10
539.9925349999999753
 20
104.4246600099999966
 30
0.0
 11
539.9925349999999753
 21
116.6757370299999934
 31
0.0
  0
LINE
  5
18D
  8
SLD-0_4
  6
CONTINUOUS
 62
     0
 10
582.4933350000000019
 20
104.4246600099999966
 30
0.0
 11
582.4933350000000019
 21
116.6757370299999934
 31
0.0
  0
LINE
  5
18E
  8
SLD-0_4
  6
CONTINUOUS
 62
     0
 10
697.2174852699996563
 20
92.0945437999999967
 30
0.0
 11
697.2174852699996563
 21
89.0930805899999996
 31
0.0
  0
LINE
  5
18F
  8
SLD-0_4
  6
CONTINUOUS
 62
     0
 10
511.4451949200000058
 20
104.4246600099999966
 30
0.0
 11
511.4451949200000058
 21
92.1756096400000047
 31
0.0
  0
LINE
  5
190
  8
SLD-0_4
  6
CONTINUOUS
 62
     0
 10
498.6925229500000114
 20
116.6757370299999934
 30
0.0
 11
498.6925229500000114
 21
104.4246600099999966
 31
0.0
  0
LINE
  5
191
  8
SLD-0_4
  6
CONTINUOUS
 62
     0
 10
620.7442576700000245
 20
104.4246600099999966
 30
0.0
 11
620.7442576700000245
 21
92.1756096400000047
 31
0.0
  0
LINE
  5
192
  8
SLD-0_4
  6
CONTINUOUS
 62
     0
 10
595.2449936499998557
 20
92.1756096400000047
 30
0.0
 11
595.2449936499998557
 21
104.4246600099999966
 31
0.0
  0
LINE
  5
193
  8
SLD-0_4
  6
CONTINUOUS
 62
     0
 10
561.2439483299999665
 20
92.1756096400000047
 30
0.0
 11
561.2439483299999665
 21
104.4246600099999966
 31
0.0
  0
LINE
  5
194
  8
SLD-0_4
  6
CONTINUOUS
 62
     0
 10
522.9940389799999139
 20
104.4246600099999966
 30
0.0
 11
522.9940389799999139
 21
116.6757370299999934
 31
0.0
  0
LINE
  5
195
  8
SLD-0_4
  6
CONTINUOUS
 62
     0
 10
514.4942843099998981
 20
104.4246600099999966
 30
0.0
 11
514.4942843099998981
 21
116.6757370299999934
 31
0.0
  0
LINE
  5
196
  8
SLD-0_4
  6
CONTINUOUS
 62
     0
 10
505.9935163200000261
 20
104.4246600099999966
 30
0.0
 11
505.9935163200000261
 21
116.6757370299999934
 31
0.0
  0
LINE
  5
197
  8
SLD-0_4
  6
CONTINUOUS
 62
     0
 10
528.4436909400000104
 20
104.4246600099999966
 30
0.0
 11
528.4436909400000104
 21
92.1756096400000047
 31
0.0
  0
LINE
  5
198
  8
SLD-0_4
  6
CONTINUOUS
 62
     0
 10
578.2454843100000517
 20
92.1756096400000047
 30
0.0
 11
578.2454843100000517
 21
104.4246600099999966
 31
0.0
  0
LINE
  5
199
  8
SLD-0_4
  6
CONTINUOUS
 62
     0
 10
488.992993649999903
 20
104.4246600099999966
 30
0.0
 11
488.992993649999903
 21
116.6757370299999934
 31
0.0
  0
LINE
  5
19A
  8
SLD-0_4
  6
CONTINUOUS
 62
     0
 10
613.4442776199999798
 20
92.1756096400000047
 30
0.0
 11
613.4442776199999798
 21
104.4246600099999966
 31
0.0
  0
LINE
  5
19B
  8
SLD-0_4
  6
CONTINUOUS
 62
     0
 10
532.6945816000001059
 20
116.6757370299999934
 30
0.0
 11
532.6945816000001059
 21
104.4246600099999966
 31
0.0
  0
LINE
  5
19C
  8
SLD-0_4
  6
CONTINUOUS
 62
     0
 10
485.9439042600000107
 20
104.4246600099999966
 30
0.0
 11
485.9439042600000107
 21
92.1756096400000047
 31
0.0
  0
LINE
  5
19D
  8
SLD-0_4
  6
CONTINUOUS
 62
     0
 10
471.1706659100000252
 20
92.0945437999999967
 30
0.0
 11
697.2174852699996563
 21
92.0945437999999967
 31
0.0
  0
LINE
  5
19E
  8
SLD-0_4
  6
CONTINUOUS
 62
     0
 10
536.9444589400000041
 20
104.4246600099999966
 30
0.0
 11
536.9444589400000041
 21
92.1756096400000047
 31
0.0
  0
LINE
  5
19F
  8
SLD-0_4
  6
CONTINUOUS
 62
     0
 10
565.4917990100000225
 20
104.4246600099999966
 30
0.0
 11
565.4917990100000225
 21
116.6757370299999934
 31
0.0
  0
LINE
  5
1A0
  8
SLD-0_4
  6
CONTINUOUS
 62
     0
 10
590.9930896700000176
 20
104.4246600099999966
 30
0.0
 11
590.9930896700000176
 21
116.6757370299999934
 31
0.0
  0
LINE
  5
1A1
  8
SLD-0_4
  6
CONTINUOUS
 62
     0
 10
493.2448976399999196
 20
92.1756096400000047
 30
0.0
 11
493.2448976399999196
 21
104.4246600099999966
 31
0.0
  0
LINE
  5
1A2
  8
SLD-0_4
  6
CONTINUOUS
 62
     0
 10
558.1928322899999557
 20
116.6757370299999934
 30
0.0
 11
558.1928322899999557
 21
104.4246600099999966
 31
0.0
  0
LINE
  5
1A3
  8
SLD-0_4
  6
CONTINUOUS
 62
     0
 10
622.2419492999999875
 20
116.6757370299999934
 30
0.0
 11
622.2419492999999875
 21
104.4246600099999966
 31
0.0
  0
LINE
  5
1A4
  8
SLD-0_4
  6
CONTINUOUS
 62
     0
 10
519.9459629200000563
 20
104.4246600099999966
 30
0.0
 11
519.9459629200000563
 21
92.1756096400000047
 31
0.0
  0
LINE
  5
1A5
  8
SLD-0_4
  6
CONTINUOUS
 62
     0
 10
583.6951362700000345
 20
116.6757370299999934
 30
0.0
 11
583.6951362700000345
 21
104.4246600099999966
 31
0.0
  0
LINE
  5
1A6
  8
SLD-0_4
  6
CONTINUOUS
 62
     0
 10
552.7431803299998592
 20
92.1756096400000047
 30
0.0
 11
552.7431803299998592
 21
104.4246600099999966
 31
0.0
  0
LINE
  5
1A7
  8
SLD-0_4
  6
CONTINUOUS
 62
     0
 10
502.9454402499998764
 20
104.4246600099999966
 30
0.0
 11
502.9454402499998764
 21
92.1756096400000047
 31
0.0
  0
LINE
  5
1A8
  8
SLD-0_4
  6
CONTINUOUS
 62
     0
 10
548.4933029999998553
 20
104.4246600099999966
 30
0.0
 11
548.4933029999998553
 21
116.6757370299999934
 31
0.0
  0
LINE
  5
1A9
  8
SLD-0_4
  6
CONTINUOUS
 62
     0
 10
481.6920002799997746
 20
110.3688136699999944
 30
0.0
 11
616.4518207600000324
 21
110.3688136699999944
 31
0.0
  0
LINE
  5
1AA
  8
SLD-0_4
  6
CONTINUOUS
 62
     0
 10
485.9439042600000107
 20
98.1177366600000056
 30
0.0
 11
620.7057513900000458
 21
98.1177366600000056
 31
0.0
  0
LINE
  5
1AB
  8
SLD-0_4
  6
CONTINUOUS
 62
     0
 10
616.494380329999899
 20
104.4246600099999966
 30
0.0
 11
616.494380329999899
 21
116.6757370299999934
 31
0.0
  0
LINE
  5
1AC
  8
SLD-0_4
  6
CONTINUOUS
 62
     0
 10
699.23242029000005
 20
89.0930805899999996
 30
0.0
 11
699.23242029000005
 21
76.0941710900000032
 31
0.0
  0
LINE
  5
1AD
  8
SLD-0_4
  6
CONTINUOUS
 62
     0
 10
587.9450136099999327
 20
104.4246600099999966
 30
0.0
 11
587.9450136099999327
 21
92.1756096400000047
 31
0.0
  0
LINE
  5
1AE
  8
SLD-0_4
  6
CONTINUOUS
 62
     0
 10
518.7441616500000237
 20
92.1756096400000047
 30
0.0
 11
518.7441616500000237
 21
104.4246600099999966
 31
0.0
  0
LINE
  5
1AF
  8
SLD-0_4
  6
CONTINUOUS
 62
     0
 10
600.6926189700000123
 20
116.6757370299999934
 30
0.0
 11
600.6926189700000123
 21
104.4246600099999966
 31
0.0
  0
LINE
  5
1B0
  8
SLD-0_4
  6
CONTINUOUS
 62
     0
 10
609.192373640000028
 20
116.6757370299999934
 30
0.0
 11
609.192373640000028
 21
104.4246600099999966
 31
0.0
  0
LINE
  5
1B1
  8
SLD-0_4
  6
CONTINUOUS
 62
     0
 10
497.4927483299999835
 20
104.4246600099999966
 30
0.0
 11
497.4927483299999835
 21
116.6757370299999934
 31
0.0
  0
LINE
  5
1B2
  8
SLD-0_4
  6
CONTINUOUS
 62
     0
 10
562.4437229500000512
 20
104.4246600099999966
 30
0.0
 11
562.4437229500000512
 21
92.1756096400000047
 31
0.0
  0
LINE
  5
1B3
  8
SLD-0_4
  6
CONTINUOUS
 62
     0
 10
510.2433936499999163
 20
92.1756096400000047
 30
0.0
 11
510.2433936499999163
 21
104.4246600099999966
 31
0.0
  0
LINE
  5
1B4
  8
SLD-0_4
  6
CONTINUOUS
 62
     0
 10
480.1953219699998954
 20
92.1756096400000047
 30
0.0
 11
480.1953219699998954
 21
104.4246600099999966
 31
0.0
  0
LINE
  5
1B5
  8
SLD-0_4
  6
CONTINUOUS
 62
     0
 10
545.4442136099999061
 20
104.4246600099999966
 30
0.0
 11
545.4442136099999061
 21
92.1756096400000047
 31
0.0
  0
LINE
  5
1B6
  8
SLD-0_4
  6
CONTINUOUS
 62
     0
 10
719.23242029000005
 20
78.0941710900000032
 30
0.0
 11
719.23242029000005
 21
76.0941710900000032
 31
0.0
  0
LINE
  5
1B7
  8
SLD-0_4
  6
CONTINUOUS
 62
     0
 10
607.994625659999997
 20
104.4246600099999966
 30
0.0
 11
607.994625659999997
 21
116.6757370299999934
 31
0.0
  0
LINE
  5
1B8
  8
SLD-0_4
  6
CONTINUOUS
 62
     0
 10
604.9424962999997888
 20
92.1756096400000047
 30
0.0
 11
604.9424962999997888
 21
104.4246600099999966
 31
0.0
  0
LINE
  5
1B9
  8
SLD-0_4
  6
CONTINUOUS
 62
     0
 10
531.4948069799997938
 20
104.4246600099999966
 30
0.0
 11
531.4948069799997938
 21
116.6757370299999934
 31
0.0
  0
LINE
  5
1BA
  8
SLD-0_4
  6
CONTINUOUS
 62
     0
 10
549.6930776200000537
 20
116.6757370299999934
 30
0.0
 11
549.6930776200000537
 21
104.4246600099999966
 31
0.0
  0
LINE
  5
1BB
  8
SLD-0_4
  6
CONTINUOUS
 62
     0
 10
507.1932909399999971
 20
116.6757370299999934
 30
0.0
 11
507.1932909399999971
 21
104.4246600099999966
 31
0.0
  0
LINE
  5
1BC
  8
SLD-0_4
  6
CONTINUOUS
 62
     0
 10
569.7437029999997549
 20
92.1756096400000047
 30
0.0
 11
569.7437029999997549
 21
104.4246600099999966
 31
0.0
  0
LINE
  5
1BD
  8
SLD-0_4
  6
CONTINUOUS
 62
     0
 10
490.1927682799999957
 20
116.6757370299999934
 30
0.0
 11
490.1927682799999957
 21
104.4246600099999966
 31
0.0
  0
LINE
  5
1BE
  8
SLD-0_4
  6
CONTINUOUS
 62
     0
 10
566.6936002800000551
 20
116.6757370299999934
 30
0.0
 11
566.6936002800000551
 21
104.4246600099999966
 31
0.0
  0
LINE
  5
1BF
  8
SLD-0_4
  6
CONTINUOUS
 62
     0
 10
613.4463042599999199
 20
104.4246600099999966
 30
0.0
 11
613.4463042599999199
 21
92.1756096400000047
 31
0.0
  0
LINE
  5
1C0
  8
SLD-0_4
  6
CONTINUOUS
 62
     0
 10
481.6940269299998931
 20
116.6757370299999934
 30
0.0
 11
481.6940269299998931
 21
104.4246600099999966
 31
0.0
  0
LINE
  5
1C1
  8
SLD-0_4
  6
CONTINUOUS
 62
     0
 10
596.4447682799999484
 20
104.4246600099999966
 30
0.0
 11
596.4447682799999484
 21
92.1756096400000047
 31
0.0
  0
LINE
  5
1C2
  8
SLD-0_4
  6
CONTINUOUS
 62
     0
 10
579.4432322899998553
 20
104.4246600099999966
 30
0.0
 11
579.4432322899998553
 21
92.1756096400000047
 31
0.0
  0
LINE
  5
1C3
  8
SLD-0_4
  6
CONTINUOUS
 62
     0
 10
616.494380329999899
 20
116.6757370299999934
 30
0.0
 11
480.1953219699998954
 21
116.6757370299999934
 31
0.0
  0
LINE
  5
1C4
  8
SLD-0_4
  6
CONTINUOUS
 62
     0
 10
544.2454523100000188
 20
92.1756096400000047
 30
0.0
 11
544.2454523100000188
 21
104.4246600099999966
 31
0.0
  0
LINE
  5
1C5
  8
SLD-0_4
  6
CONTINUOUS
 62
     0
 10
592.1948909400000503
 20
116.6757370299999934
 30
0.0
 11
592.1948909400000503
 21
104.4246600099999966
 31
0.0
  0
LINE
  5
1C6
  8
SLD-0_4
  6
CONTINUOUS
 62
     0
 10
494.4446722599998907
 20
104.4246600099999966
 30
0.0
 11
494.4446722599998907
 21
92.1756096400000047
 31
0.0
  0
LINE
  5
1C7
  8
SLD-0_4
  6
CONTINUOUS
 62
     0
 10
616.494380329999899
 20
116.6757370299999934
 30
0.0
 11
622.2419492999999875
 21
116.6757370299999934
 31
0.0
  0
LINE
  5
1C8
  8
SLD-0_4
  6
CONTINUOUS
 62
     0
 10
622.2419492999999875
 20
92.1756096400000047
 30
0.0
 11
622.2419492999999875
 21
104.4246600099999966
 31
0.0
  0
LINE
  5
1C9
  8
SLD-0_4
  6
CONTINUOUS
 62
     0
 10
622.2419492999999875
 20
104.4246600099999966
 30
0.0
 11
485.9439042600000107
 21
104.4246600099999966
 31
0.0
  0
LINE
  5
1CA
  8
SLD-0_4
  6
CONTINUOUS
 62
     0
 10
527.2449296400000094
 20
92.1756096400000047
 30
0.0
 11
527.2449296400000094
 21
104.4246600099999966
 31
0.0
  0
LINE
  5
1CB
  8
SLD-0_4
  6
CONTINUOUS
 62
     0
 10
556.9940709899999547
 20
104.4246600099999966
 30
0.0
 11
556.9940709899999547
 21
116.6757370299999934
 31
0.0
  0
LINE
  5
1CC
  8
SLD-0_4
  6
CONTINUOUS
 62
     0
 10
480.1953219699998954
 20
104.4246600099999966
 30
0.0
 11
616.494380329999899
 21
104.4246600099999966
 31
0.0
  0
LINE
  5
1CD
  8
SLD-0_4
  6
CONTINUOUS
 62
     0
 10
501.7436389799999006
 20
92.1756096400000047
 30
0.0
 11
501.7436389799999006
 21
104.4246600099999966
 31
0.0
  0
LINE
  5
1CE
  8
SLD-0_4
  6
CONTINUOUS
 62
     0
 10
719.23242029000005
 20
78.0941710900000032
 30
0.0
 11
699.23242029000005
 21
78.0941710900000032
 31
0.0
  0
LINE
  5
1CF
  8
SLD-0_4
  6
CONTINUOUS
 62
     0
 10
604.9445229499998504
 20
104.4246600099999966
 30
0.0
 11
604.9445229499998504
 21
92.1756096400000047
 31
0.0
  0
LINE
  5
1D0
  8
SLD-0_4
  6
CONTINUOUS
 62
     0
 10
553.9449816000000055
 20
104.4246600099999966
 30
0.0
 11
553.9449816000000055
 21
92.1756096400000047
 31
0.0
  0
LINE
  5
1D1
  8
SLD-0_4
  6
CONTINUOUS
 62
     0
 10
586.7452389799999537
 20
92.1756096400000047
 30
0.0
 11
586.7452389799999537
 21
104.4246600099999966
 31
0.0
  0
LINE
  5
1D2
  8
SLD-0_4
  6
CONTINUOUS
 62
     0
 10
469.1713793099999066
 20
89.0930805899999996
 30
0.0
 11
469.1713793099999066
 21
76.0941710900000032
 31
0.0
  0
LINE
  5
1D3
  8
SLD-0_4
  6
CONTINUOUS
 62
     0
 10
575.1933549499998435
 20
116.6757370299999934
 30
0.0
 11
575.1933549499998435
 21
104.4246600099999966
 31
0.0
  0
LINE
  5
1D4
  8
SLD-0_4
  6
CONTINUOUS
 62
     0
 10
515.6930456100000129
 20
116.6757370299999934
 30
0.0
 11
515.6930456100000129
 21
104.4246600099999966
 31
0.0
  0
LINE
  5
1D5
  8
SLD-0_4
  6
CONTINUOUS
 62
     0
 10
485.9439042600000107
 20
96.4417001500000026
 30
0.0
 11
620.7057513900000458
 21
96.4417001500000026
 31
0.0
  0
LINE
  5
1D6
  8
SLD-0_4
  6
CONTINUOUS
 62
     0
 10
485.9439042600000107
 20
92.1756096400000047
 30
0.0
 11
480.1953219699998954
 21
92.1756096400000047
 31
0.0
  0
LINE
  5
1D7
  8
SLD-0_4
  6
CONTINUOUS
 62
     0
 10
612.2445030000000088
 20
92.1756096400000047
 30
0.0
 11
612.2445030000000088
 21
104.4246600099999966
 31
0.0
  0
LINE
  5
1D8
  8
SLD-0_5
  6
PHANTOM
 62
     0
 10
624.902244450000012
 20
161.3734216400000037
 30
0.0
 11
624.902244450000012
 21
161.5941710799999953
 31
0.0
  0
LINE
  5
1D9
  8
SLD-0_5
  6
PHANTOM
 62
     0
 10
623.4022444499997846
 20
163.0941710799999953
 30
0.0
 11
621.1045909700000038
 21
163.0941710799999953
 31
0.0
  0
LINE
  5
1DA
  8
SLD-0_5
  6
PHANTOM
 62
     0
 10
608.23242029000005
 20
161.3941710899999862
 30
0.0
 11
608.23242029000005
 21
116.6757370199999997
 31
0.0
  0
LINE
  5
1DB
  8
SLD-0_5
  6
PHANTOM
 62
     0
 10
619.6045909700000038
 20
161.3734216400000037
 30
0.0
 11
619.6045909700000038
 21
161.5941710799999953
 31
0.0
  0
LINE
  5
1DC
  8
SLD-0_5
  6
PHANTOM
 62
     0
 10
626.2324202900001637
 20
161.3941710899999862
 30
0.0
 11
608.23242029000005
 21
161.3941710899999862
 31
0.0
  0
LINE
  5
1DD
  8
SLD-0_5
  6
PHANTOM
 62
     0
 10
626.2324202900001637
 20
161.3941710899999862
 30
0.0
 11
626.2324202900001637
 21
92.0945437999999967
 31
0.0
  0
LINE
  5
1DE
  8
SLD-0_2
  6
CONTINUOUS
 62
     0
 10
399.2324202899999932
 20
78.0941710900000032
 30
0.0
 11
399.2324202899999932
 21
76.0941710900000032
 31
0.0
  0
LINE
  5
1DF
  8
SLD-0_2
  6
CONTINUOUS
 62
     0
 10
719.23242029000005
 20
76.0941710900000032
 30
0.0
 11
399.2324202899999932
 21
76.0941710900000032
 31
0.0
  0
LINE
  5
1E0
  8
SLD-0_2
  6
CONTINUOUS
 62
     0
 10
469.1713793099999066
 20
78.0941710900000032
 30
0.0
 11
399.2324202899999932
 21
78.0941710900000032
 31
0.0
  0
LINE
  5
1E1
  8
SLD-0_2
  6
PHANTOM
 62
     0
 10
419.2324202899999932
 20
273.0945610900000133
 30
0.0
 11
419.2324202899999932
 21
373.0945610900000133
 31
0.0
  0
LINE
  5
1E2
  8
SLD-0
  6
PHANTOM
 62
     0
 10
419.2324202899999932
 20
118.9719795400000066
 30
0.0
 11
419.2324202899999932
 21
78.0941710900000032
 31
0.0
  0
LINE
  5
1E3
  8
SLD-0
  6
PHANTOM
 62
     0
 10
469.2324202899999932
 20
118.9719795400000066
 30
0.0
 11
469.2324202899999932
 21
89.0930805899999996
 31
0.0
  0
LINE
  5
1E4
  8
SLD-0
  6
PHANTOM
 62
     0
 10
642.0397860999997874
 20
787.7920267299997477
 30
0.0
 11
686.0397860999999011
 21
787.7920267299997477
 31
0.0
  0
LINE
  5
1E5
  8
SLD-0
  6
PHANTOM
 62
     0
 10
640.0397860999999011
 20
710.7920267299998613
 30
0.0
 11
688.0397860999997874
 21
710.7920267299998613
 31
0.0
  0
LINE
  5
1E6
  8
SLD-0
  6
PHANTOM
 62
     0
 10
640.0397860999999011
 20
790.7920267299997477
 30
0.0
 11
688.0397860999997874
 21
790.7920267299997477
 31
0.0
  0
LINE
  5
1E7
  8
SLD-0
  6
PHANTOM
 62
     0
 10
686.0397860999999011
 20
713.792026729999975
 30
0.0
 11
686.0397860999999011
 21
787.7920267299997477
 31
0.0
  0
LINE
  5
1E8
  8
SLD-0
  6
PHANTOM
 62
     0
 10
689.0397860999999011
 20
711.7920267299997477
 30
0.0
 11
689.0397860999999011
 21
789.7920267299998613
 31
0.0
  0
LINE
  5
1E9
  8
SLD-0
  6
PHANTOM
 62
     0
 10
639.0397860999999011
 20
711.7920267299997477
 30
0.0
 11
639.0397860999999011
 21
789.7920267299998613
 31
0.0
  0
LINE
  5
1EA
  8
SLD-0
  6
PHANTOM
 62
     0
 10
642.0397860999997874
 20
713.792026729999975
 30
0.0
 11
686.0397860999999011
 21
713.792026729999975
 31
0.0
  0
LINE
  5
1EB
  8
SLD-0
  6
PHANTOM
 62
     0
 10
642.0397860999997874
 20
713.792026729999975
 30
0.0
 11
642.0397860999997874
 21
787.7920267299997477
 31
0.0
  0
LINE
  5
1EC
  8
SLD-0
  6
PHANTOM
 62
     0
 10
662.9177547000000459
 20
633.2916367200000423
 30
0.0
 11
678.7317275200000495
 21
633.2916367200000423
 31
0.0
  0
LINE
  5
1ED
  8
SLD-0
  6
PHANTOM
 62
     0
 10
659.6276165499998569
 20
703.9305097799998521
 30
0.0
 11
668.4486777700000175
 21
703.9305097799998521
 31
0.0
  0
LINE
  5
1EE
  8
SLD-0
  6
PHANTOM
 62
     0
 10
668.4486777700000175
 20
710.7664493699999184
 30
0.0
 11
668.4486777700000175
 21
703.9305097799998521
 31
0.0
  0
LINE
  5
1EF
  8
SLD-0
  6
PHANTOM
 62
     0
 10
668.4486777700000175
 20
703.9305097799998521
 30
0.0
 11
672.047873940000045
 21
710.7920267299998613
 31
0.0
  0
LINE
  5
1F0
  8
SLD-0
  6
PHANTOM
 62
     0
 10
659.6276165499998569
 20
703.9305097799998521
 30
0.0
 11
659.6276165499998569
 21
710.7920267299998613
 31
0.0
  0
LINE
  5
1F1
  8
SLD-0
  6
PHANTOM
 62
     0
 10
656.3881852199998548
 20
710.7920267299998613
 30
0.0
 11
659.6276165499998569
 21
703.9305097799998521
 31
0.0
  0
LINE
  5
1F3
  8
SLD-0
  6
PHANTOM
 62
     0
 10
454.7264560899999992
 20
762.5921889799998326
 30
0.0
 11
454.7264560899999992
 21
720.1172061699999176
 31
0.0
  0
LINE
  5
1F4
  8
SLD-0
  6
PHANTOM
 62
     0
 10
442.1281132699999148
 20
762.5921889799998326
 30
0.0
 11
442.1281132699999148
 21
720.1172061699999176
 31
0.0
  0
LINE
  5
1F5
  8
SLD-0
  6
PHANTOM
 62
     0
 10
451.0202078499997924
 20
762.5921889799998326
 30
0.0
 11
451.0202078499997924
 21
720.1172061699999176
 31
0.0
  0
LINE
  5
1F6
  8
SLD-0
  6
CONTINUOUS
 62
     0
 10
399.2324202899999932
 20
501.2916367299998797
 30
0.0
 11
719.23242029000005
 21
501.2916367299998797
 31
0.0
  0
LINE
  5
1F7
  8
SLD-0
  6
CONTINUOUS
 62
     0
 10
719.23242029000005
 20
798.2920267299998613
 30
0.0
 11
716.73242029000005
 21
800.7920267299998613
 31
0.0
  0
LINE
  5
1F8
  8
SLD-0
  6
CONTINUOUS
 62
     0
 10
399.2324202899999932
 20
798.2920267299998613
 30
0.0
 11
401.7324202899999932
 21
800.7920267299998613
 31
0.0
  0
LINE
  5
1F9
  8
SLD-0
  6
CONTINUOUS
 62
     0
 10
716.73242029000005
 20
700.792026729999975
 30
0.0
 11
719.23242029000005
 21
703.2920267299997477
 31
0.0
  0
LINE
  5
1FA
  8
SLD-0
  6
CONTINUOUS
 62
     0
 10
401.7324202899999932
 20
700.792026729999975
 30
0.0
 11
399.2324202899999932
 21
703.2920267299997477
 31
0.0
  0
LINE
  5
1FB
  8
0
  6
CONTINUOUS
 62
     0
 10
544.7804869300000519
 20
700.7920151299997542
 30
0.0
 11
544.7804869300000519
 21
711.5413472199999205
 31
0.0
  0
LINE
  5
1FC
  8
0
  6
CONTINUOUS
 62
     0
 10
536.1702800399998523
 20
700.7920151299997542
 30
0.0
 11
536.1702800399998523
 21
711.5413472199999205
 31
0.0
  0
LINE
  5
1FD
  8
SLD-0_0
  6
CONTINUOUS
 62
     0
 10
493.2448976399999196
 20
517.3730752899999743
 30
0.0
 11
493.2448976399999196
 21
529.6221256499999299
 31
0.0
  0
LINE
  5
1FE
  8
SLD-0_0
  6
CONTINUOUS
 62
     0
 10
622.2622157600000037
 20
700.7920151299997542
 30
0.0
 11
622.2622157600000037
 21
711.5413472199999205
 31
0.0
  0
LINE
  5
1FF
  8
SLD-0_0
  6
CONTINUOUS
 62
     0
 10
485.9439042600000107
 20
517.3730752899999743
 30
0.0
 11
480.1953219699998954
 21
517.3730752899999743
 31
0.0
  0
LINE
  5
200
  8
SLD-0_0
  6
CONTINUOUS
 62
     0
 10
552.7431803299998592
 20
517.3730752899999743
 30
0.0
 11
552.7431803299998592
 21
529.6221256499999299
 31
0.0
  0
LINE
  5
201
  8
SLD-0_0
  6
CONTINUOUS
 62
     0
 10
502.9454402499998764
 20
529.6221256499999299
 30
0.0
 11
502.9454402499998764
 21
517.3730752899999743
 31
0.0
  0
LINE
  5
202
  8
SLD-0_0
  6
CONTINUOUS
 62
     0
 10
719.23242029000005
 20
503.2916367299999933
 30
0.0
 11
719.23242029000005
 21
501.2916367299998797
 31
0.0
  0
LINE
  5
203
  8
SLD-0_0
  6
CONTINUOUS
 62
     0
 10
488.992993649999903
 20
529.6221256499999299
 30
0.0
 11
488.992993649999903
 21
541.8732026599999472
 31
0.0
  0
LINE
  5
204
  8
SLD-0_0
  6
CONTINUOUS
 62
     0
 10
539.9925349999999753
 20
529.6221256499999299
 30
0.0
 11
539.9925349999999753
 21
541.8732026599999472
 31
0.0
  0
LINE
  5
205
  8
SLD-0_0
  6
CONTINUOUS
 62
     0
 10
561.9988740799999505
 20
700.7920151299997542
 30
0.0
 11
561.9988740799999505
 21
711.5413472199999205
 31
0.0
  0
LINE
  5
206
  8
SLD-0_0
  6
CONTINUOUS
 62
     0
 10
609.3484253999997691
 20
711.5413472199999205
 30
0.0
 11
609.3484253999997691
 21
722.291692610000041
 31
0.0
  0
LINE
  5
207
  8
SLD-0_0
  6
CONTINUOUS
 62
     0
 10
507.1932909399999971
 20
541.8732026599999472
 30
0.0
 11
507.1932909399999971
 21
529.6221256499999299
 31
0.0
  0
LINE
  5
208
  8
SLD-0_0
  6
CONTINUOUS
 62
     0
 10
573.9915536899999324
 20
529.6221256499999299
 30
0.0
 11
573.9915536899999324
 21
541.8732026599999472
 31
0.0
  0
LINE
  5
209
  8
SLD-0_0
  6
CONTINUOUS
 62
     0
 10
531.8677098999999089
 20
711.5413472199999205
 30
0.0
 11
531.8677098999999089
 21
722.291692610000041
 31
0.0
  0
LINE
  5
20A
  8
SLD-0_0
  6
CONTINUOUS
 62
     0
 10
561.2439483299999665
 20
517.3730752899999743
 30
0.0
 11
561.2439483299999665
 21
529.6221256499999299
 31
0.0
  0
LINE
  5
20B
  8
SLD-0_0
  6
CONTINUOUS
 62
     0
 10
617.9576189799997792
 20
711.5413472199999205
 30
0.0
 11
617.9576189799997792
 21
722.291692610000041
 31
0.0
  0
LINE
  5
20C
  8
SLD-0_0
  6
CONTINUOUS
 62
     0
 10
501.7436389799999006
 20
517.3730752899999743
 30
0.0
 11
501.7436389799999006
 21
529.6221256499999299
 31
0.0
  0
LINE
  5
20D
  8
SLD-0_0
  6
CONTINUOUS
 62
     0
 10
541.1943362699997806
 20
541.8732026599999472
 30
0.0
 11
541.1943362699997806
 21
529.6221256499999299
 31
0.0
  0
LINE
  5
20E
  8
SLD-0_0
  6
CONTINUOUS
 62
     0
 10
617.9576189799997792
 20
722.291692610000041
 30
0.0
 11
622.2622157600000037
 21
722.291692610000041
 31
0.0
  0
LINE
  5
20F
  8
SLD-0_0
  6
CONTINUOUS
 62
     0
 10
469.1713793099999066
 20
503.2916367299999933
 30
0.0
 11
399.2324202899999932
 21
503.2916367299999933
 31
0.0
  0
LINE
  5
210
  8
SLD-0_0
  6
CONTINUOUS
 62
     0
 10
613.6550488399999495
 20
700.7920151299997542
 30
0.0
 11
613.6550488399999495
 21
711.5413472199999205
 31
0.0
  0
LINE
  5
211
  8
SLD-0_0
  6
CONTINUOUS
 62
     0
 10
488.8227553599999737
 20
711.5413472199999205
 30
0.0
 11
488.8227553599999737
 21
722.291692610000041
 31
0.0
  0
LINE
  5
212
  8
SLD-0_0
  6
CONTINUOUS
 62
     0
 10
622.2622157600000037
 20
722.291692610000041
 30
0.0
 11
622.2622157600000037
 21
711.5413472199999205
 31
0.0
  0
LINE
  5
213
  8
SLD-0_0
  6
CONTINUOUS
 62
     0
 10
481.6920002799997746
 20
533.638938660000008
 30
0.0
 11
616.4518207600000324
 21
533.638938660000008
 31
0.0
  0
LINE
  5
214
  8
SLD-0_0
  6
CONTINUOUS
 62
     0
 10
501.7375590400000078
 20
700.7920151299997542
 30
0.0
 11
501.7375590400000078
 21
711.5413472199999205
 31
0.0
  0
LINE
  5
215
  8
SLD-0_0
  6
CONTINUOUS
 62
     0
 10
481.6920002799997746
 20
535.5662793100000272
 30
0.0
 11
616.4518207600000324
 21
535.5662793100000272
 31
0.0
  0
LINE
  5
216
  8
SLD-0_0
  6
CONTINUOUS
 62
     0
 10
510.3457392899999832
 20
700.7920151299997542
 30
0.0
 11
510.3457392899999832
 21
711.5413472199999205
 31
0.0
  0
LINE
  5
217
  8
SLD-0_0
  6
CONTINUOUS
 62
     0
 10
522.9940389799999139
 20
529.6221256499999299
 30
0.0
 11
522.9940389799999139
 21
541.8732026599999472
 31
0.0
  0
LINE
  5
218
  8
SLD-0_0
  6
CONTINUOUS
 62
     0
 10
514.4942843099998981
 20
529.6221256499999299
 30
0.0
 11
514.4942843099998981
 21
541.8732026599999472
 31
0.0
  0
LINE
  5
219
  8
SLD-0_0
  6
CONTINUOUS
 62
     0
 10
592.1948909400000503
 20
541.8732026599999472
 30
0.0
 11
592.1948909400000503
 21
529.6221256499999299
 31
0.0
  0
LINE
  5
21A
  8
SLD-0_0
  6
CONTINUOUS
 62
     0
 10
549.0850837199999432
 20
711.5413472199999205
 30
0.0
 11
549.0850837199999432
 21
722.291692610000041
 31
0.0
  0
LINE
  5
21B
  8
SLD-0_0
  6
CONTINUOUS
 62
     0
 10
574.9116511099998661
 20
711.5413472199999205
 30
0.0
 11
574.9116511099998661
 21
722.291692610000041
 31
0.0
  0
LINE
  5
21C
  8
SLD-0_0
  6
CONTINUOUS
 62
     0
 10
587.9450136099999327
 20
529.6221256499999299
 30
0.0
 11
587.9450136099999327
 21
517.3730752899999743
 31
0.0
  0
LINE
  5
21D
  8
SLD-0_0
  6
CONTINUOUS
 62
     0
 10
518.7441616500000237
 20
517.3730752899999743
 30
0.0
 11
518.7441616500000237
 21
529.6221256499999299
 31
0.0
  0
LINE
  5
21E
  8
SLD-0_0
  6
CONTINUOUS
 62
     0
 10
613.4463042599999199
 20
529.6221256499999299
 30
0.0
 11
613.4463042599999199
 21
517.3730752899999743
 31
0.0
  0
LINE
  5
21F
  8
SLD-0_0
  6
CONTINUOUS
 62
     0
 10
603.7447483299999931
 20
517.3730752899999743
 30
0.0
 11
603.7447483299999931
 21
529.6221256499999299
 31
0.0
  0
LINE
  5
220
  8
SLD-0_0
  6
CONTINUOUS
 62
     0
 10
481.6940269299998931
 20
541.8732026599999472
 30
0.0
 11
481.6940269299998931
 21
529.6221256499999299
 31
0.0
  0
LINE
  5
221
  8
SLD-0_0
  6
CONTINUOUS
 62
     0
 10
613.4442776199999798
 20
517.3730752899999743
 30
0.0
 11
613.4442776199999798
 21
529.6221256499999299
 31
0.0
  0
LINE
  5
222
  8
SLD-0_0
  6
CONTINUOUS
 62
     0
 10
480.2125484700000015
 20
722.291692610000041
 30
0.0
 11
480.2125484700000015
 21
711.5413472199999205
 31
0.0
  0
LINE
  5
223
  8
SLD-0_0
  6
CONTINUOUS
 62
     0
 10
557.6952906200000371
 20
711.5413472199999205
 30
0.0
 11
557.6952906200000371
 21
722.291692610000041
 31
0.0
  0
LINE
  5
224
  8
SLD-0_0
  6
CONTINUOUS
 62
     0
 10
497.4329622600000107
 20
711.5413472199999205
 30
0.0
 11
497.4329622600000107
 21
722.291692610000041
 31
0.0
  0
LINE
  5
225
  8
SLD-0_0
  6
CONTINUOUS
 62
     0
 10
607.994625659999997
 20
529.6221256499999299
 30
0.0
 11
607.994625659999997
 21
541.8732026599999472
 31
0.0
  0
LINE
  5
226
  8
SLD-0_0
  6
CONTINUOUS
 62
     0
 10
399.2324202899999932
 20
503.2916367299999933
 30
0.0
 11
399.2324202899999932
 21
501.2916367299998797
 31
0.0
  0
LINE
  5
227
  8
SLD-0_0
  6
CONTINUOUS
 62
     0
 10
719.23242029000005
 20
503.2916367299999933
 30
0.0
 11
699.23242029000005
 21
503.2916367299999933
 31
0.0
  0
LINE
  5
228
  8
SLD-0_0
  6
CONTINUOUS
 62
     0
 10
494.4446722599998907
 20
529.6221256499999299
 30
0.0
 11
494.4446722599998907
 21
517.3730752899999743
 31
0.0
  0
LINE
  5
229
  8
SLD-0_0
  6
CONTINUOUS
 62
     0
 10
484.5181585799999198
 20
711.5413472199999205
 30
0.0
 11
484.5181585799999198
 21
700.7920151299997542
 31
0.0
  0
LINE
  5
22A
  8
SLD-0_0
  6
CONTINUOUS
 62
     0
 10
582.4933350000000019
 20
529.6221256499999299
 30
0.0
 11
582.4933350000000019
 21
541.8732026599999472
 31
0.0
  0
LINE
  5
22B
  8
SLD-0_0
  6
CONTINUOUS
 62
     0
 10
697.2174852699996563
 20
517.2920094400000153
 30
0.0
 11
697.2174852699996563
 21
514.2905462299999044
 31
0.0
  0
LINE
  5
22C
  8
SLD-0_0
  6
CONTINUOUS
 62
     0
 10
523.2575030100000504
 20
711.5413472199999205
 30
0.0
 11
523.2575030100000504
 21
722.291692610000041
 31
0.0
  0
LINE
  5
22D
  8
SLD-0_0
  6
CONTINUOUS
 62
     0
 10
527.2449296400000094
 20
517.3730752899999743
 30
0.0
 11
527.2449296400000094
 21
529.6221256499999299
 31
0.0
  0
LINE
  5
22E
  8
SLD-0_0
  6
CONTINUOUS
 62
     0
 10
505.9935163200000261
 20
529.6221256499999299
 30
0.0
 11
505.9935163200000261
 21
541.8732026599999472
 31
0.0
  0
LINE
  5
22F
  8
SLD-0_0
  6
CONTINUOUS
 62
     0
 10
600.6926189700000123
 20
541.8732026599999472
 30
0.0
 11
600.6926189700000123
 21
529.6221256499999299
 31
0.0
  0
LINE
  5
230
  8
SLD-0_0
  6
CONTINUOUS
 62
     0
 10
556.9940709899999547
 20
529.6221256499999299
 30
0.0
 11
556.9940709899999547
 21
541.8732026599999472
 31
0.0
  0
LINE
  5
231
  8
SLD-0_0
  6
CONTINUOUS
 62
     0
 10
604.9424962999997888
 20
517.3730752899999743
 30
0.0
 11
604.9424962999997888
 21
529.6221256499999299
 31
0.0
  0
LINE
  5
232
  8
SLD-0_0
  6
CONTINUOUS
 62
     0
 10
604.9445229499998504
 20
529.6221256499999299
 30
0.0
 11
604.9445229499998504
 21
517.3730752899999743
 31
0.0
  0
LINE
  5
233
  8
SLD-0_0
  6
CONTINUOUS
 62
     0
 10
511.4451949200000058
 20
529.6221256499999299
 30
0.0
 11
511.4451949200000058
 21
517.3730752899999743
 31
0.0
  0
LINE
  5
234
  8
SLD-0_0
  6
CONTINUOUS
 62
     0
 10
553.9449816000000055
 20
529.6221256499999299
 30
0.0
 11
553.9449816000000055
 21
517.3730752899999743
 31
0.0
  0
LINE
  5
235
  8
SLD-0_0
  6
CONTINUOUS
 62
     0
 10
532.6945816000001059
 20
541.8732026599999472
 30
0.0
 11
532.6945816000001059
 21
529.6221256499999299
 31
0.0
  0
LINE
  5
236
  8
SLD-0_0
  6
CONTINUOUS
 62
     0
 10
498.6925229500000114
 20
541.8732026599999472
 30
0.0
 11
498.6925229500000114
 21
529.6221256499999299
 31
0.0
  0
LINE
  5
237
  8
SLD-0_0
  6
CONTINUOUS
 62
     0
 10
514.6493227600000182
 20
711.5413472199999205
 30
0.0
 11
514.6493227600000182
 21
722.291692610000041
 31
0.0
  0
LINE
  5
238
  8
SLD-0_0
  6
CONTINUOUS
 62
     0
 10
558.1928322899999557
 20
541.8732026599999472
 30
0.0
 11
558.1928322899999557
 21
529.6221256499999299
 31
0.0
  0
LINE
  5
239
  8
SLD-0_0
  6
CONTINUOUS
 62
     0
 10
716.73242029000005
 20
800.7920267299998613
 30
0.0
 11
401.7324202899999932
 21
800.7920267299998613
 31
0.0
  0
LINE
  5
23A
  8
SLD-0_0
  6
CONTINUOUS
 62
     0
 10
493.1263388300000088
 20
700.7920151299997542
 30
0.0
 11
493.1263388300000088
 21
711.5413472199999205
 31
0.0
  0
LINE
  5
23B
  8
SLD-0_0
  6
CONTINUOUS
 62
     0
 10
485.9439042600000107
 20
523.3152023000000099
 30
0.0
 11
620.7057513900000458
 21
523.3152023000000099
 31
0.0
  0
LINE
  5
23C
  8
SLD-0_0
  6
CONTINUOUS
 62
     0
 10
699.23242029000005
 20
700.792026729999975
 30
0.0
 11
699.23242029000005
 21
800.7920267299998613
 31
0.0
  0
LINE
  5
23D
  8
SLD-0_0
  6
CONTINUOUS
 62
     0
 10
485.9439042600000107
 20
529.6221256499999299
 30
0.0
 11
485.9439042600000107
 21
517.3730752899999743
 31
0.0
  0
LINE
  5
23E
  8
SLD-0_0
  6
CONTINUOUS
 62
     0
 10
609.192373640000028
 20
541.8732026599999472
 30
0.0
 11
609.192373640000028
 21
529.6221256499999299
 31
0.0
  0
LINE
  5
23F
  8
SLD-0_0
  6
CONTINUOUS
 62
     0
 10
620.7442576700000245
 20
529.6221256499999299
 30
0.0
 11
620.7442576700000245
 21
517.3730752899999743
 31
0.0
  0
LINE
  5
240
  8
SLD-0_0
  6
CONTINUOUS
 62
     0
 10
471.1706659100000252
 20
517.2920094400000153
 30
0.0
 11
697.2174852699996563
 21
517.2920094400000153
 31
0.0
  0
LINE
  5
241
  8
SLD-0_0
  6
CONTINUOUS
 62
     0
 10
524.1938136099998928
 20
541.8732026599999472
 30
0.0
 11
524.1938136099998928
 21
529.6221256499999299
 31
0.0
  0
LINE
  5
242
  8
SLD-0_0
  6
CONTINUOUS
 62
     0
 10
471.1706659100000252
 20
514.2905462299999044
 30
0.0
 11
471.1706659100000252
 21
517.2920094400000153
 31
0.0
  0
LINE
  5
243
  8
SLD-0_0
  6
CONTINUOUS
 62
     0
 10
616.494380329999899
 20
541.8732026599999472
 30
0.0
 11
622.2419492999999875
 21
541.8732026599999472
 31
0.0
  0
LINE
  5
244
  8
SLD-0_0
  6
CONTINUOUS
 62
     0
 10
536.9444589400000041
 20
529.6221256499999299
 30
0.0
 11
536.9444589400000041
 21
517.3730752899999743
 31
0.0
  0
LINE
  5
245
  8
SLD-0_0
  6
CONTINUOUS
 62
     0
 10
540.4748768299999711
 20
711.5413472199999205
 30
0.0
 11
540.4748768299999711
 21
722.291692610000041
 31
0.0
  0
LINE
  5
246
  8
SLD-0_0
  6
CONTINUOUS
 62
     0
 10
469.1713793099999066
 20
514.2905462299999044
 30
0.0
 11
699.23242029000005
 21
514.2905462299999044
 31
0.0
  0
LINE
  5
247
  8
SLD-0_0
  6
CONTINUOUS
 62
     0
 10
596.4346350499999971
 20
700.7920151299997542
 30
0.0
 11
596.4346350499999971
 21
711.5413472199999205
 31
0.0
  0
LINE
  5
248
  8
SLD-0_0
  6
CONTINUOUS
 62
     0
 10
527.5641264399998818
 20
700.7920151299997542
 30
0.0
 11
527.5641264399998818
 21
711.5413472199999205
 31
0.0
  0
LINE
  5
249
  8
SLD-0_0
  6
CONTINUOUS
 62
     0
 10
622.2419492999999875
 20
541.8732026599999472
 30
0.0
 11
622.2419492999999875
 21
529.6221256499999299
 31
0.0
  0
LINE
  5
24A
  8
SLD-0_0
  6
CONTINUOUS
 62
     0
 10
399.2324202899999932
 20
703.2920267299997477
 30
0.0
 11
399.2324202899999932
 21
719.7920267299997477
 31
0.0
  0
LINE
  5
24B
  8
SLD-0_0
  6
CONTINUOUS
 62
     0
 10
569.7437029999997549
 20
517.3730752899999743
 30
0.0
 11
569.7437029999997549
 21
529.6221256499999299
 31
0.0
  0
LINE
  5
24C
  8
SLD-0_0
  6
CONTINUOUS
 62
     0
 10
566.3014442200000076
 20
711.5413472199999205
 30
0.0
 11
566.3014442200000076
 21
722.291692610000041
 31
0.0
  0
LINE
  5
24D
  8
SLD-0_0
  6
CONTINUOUS
 62
     0
 10
586.7452389799999537
 20
517.3730752899999743
 30
0.0
 11
586.7452389799999537
 21
529.6221256499999299
 31
0.0
  0
LINE
  5
24E
  8
SLD-0_0
  6
CONTINUOUS
 62
     0
 10
600.7392318299997669
 20
711.5413472199999205
 30
0.0
 11
600.7392318299997669
 21
722.291692610000041
 31
0.0
  0
LINE
  5
24F
  8
SLD-0_0
  6
CONTINUOUS
 62
     0
 10
596.4447682799999484
 20
529.6221256499999299
 30
0.0
 11
596.4447682799999484
 21
517.3730752899999743
 31
0.0
  0
LINE
  5
250
  8
SLD-0_0
  6
CONTINUOUS
 62
     0
 10
480.1953219699998954
 20
541.8732026599999472
 30
0.0
 11
480.1953219699998954
 21
529.6221256499999299
 31
0.0
  0
LINE
  5
251
  8
SLD-0_0
  6
CONTINUOUS
 62
     0
 10
497.4927483299999835
 20
529.6221256499999299
 30
0.0
 11
497.4927483299999835
 21
541.8732026599999472
 31
0.0
  0
LINE
  5
252
  8
SLD-0_0
  6
CONTINUOUS
 62
     0
 10
528.4436909400000104
 20
529.6221256499999299
 30
0.0
 11
528.4436909400000104
 21
517.3730752899999743
 31
0.0
  0
LINE
  5
253
  8
SLD-0_0
  6
CONTINUOUS
 62
     0
 10
622.2419492999999875
 20
517.3730752899999743
 30
0.0
 11
622.2419492999999875
 21
529.6221256499999299
 31
0.0
  0
LINE
  5
254
  8
SLD-0_0
  6
CONTINUOUS
 62
     0
 10
490.1927682799999957
 20
541.8732026599999472
 30
0.0
 11
490.1927682799999957
 21
529.6221256499999299
 31
0.0
  0
LINE
  5
255
  8
SLD-0_0
  6
CONTINUOUS
 62
     0
 10
519.9459629200000563
 20
529.6221256499999299
 30
0.0
 11
519.9459629200000563
 21
517.3730752899999743
 31
0.0
  0
LINE
  5
256
  8
SLD-0_0
  6
CONTINUOUS
 62
     0
 10
622.2622157600000037
 20
711.5413472199999205
 30
0.0
 11
484.5181585799999198
 21
711.5413472199999205
 31
0.0
  0
LINE
  5
257
  8
SLD-0_0
  6
CONTINUOUS
 62
     0
 10
506.0391158599998107
 20
711.5413472199999205
 30
0.0
 11
506.0391158599998107
 21
722.291692610000041
 31
0.0
  0
LINE
  5
258
  8
SLD-0_0
  6
CONTINUOUS
 62
     0
 10
535.7446843099999114
 20
517.3730752899999743
 30
0.0
 11
535.7446843099999114
 21
529.6221256499999299
 31
0.0
  0
LINE
  5
259
  8
SLD-0_0
  6
CONTINUOUS
 62
     0
 10
562.4437229500000512
 20
529.6221256499999299
 30
0.0
 11
562.4437229500000512
 21
517.3730752899999743
 31
0.0
  0
LINE
  5
25A
  8
SLD-0_0
  6
CONTINUOUS
 62
     0
 10
570.9434776199999533
 20
529.6221256499999299
 30
0.0
 11
570.9434776199999533
 21
517.3730752899999743
 31
0.0
  0
LINE
  5
25B
  8
SLD-0_0
  6
CONTINUOUS
 62
     0
 10
605.0438286199999993
 20
700.7920151299997542
 30
0.0
 11
605.0438286199999993
 21
711.5413472199999205
 31
0.0
  0
LINE
  5
25C
  8
SLD-0_0
  6
CONTINUOUS
 62
     0
 10
599.4928443399999196
 20
529.6221256499999299
 30
0.0
 11
599.4928443399999196
 21
541.8732026599999472
 31
0.0
  0
LINE
  5
25D
  8
SLD-0_0
  6
CONTINUOUS
 62
     0
 10
719.23242029000005
 20
703.2920267299997477
 30
0.0
 11
719.23242029000005
 21
719.7920267299997477
 31
0.0
  0
LINE
  5
25E
  8
SLD-0_0
  6
CONTINUOUS
 62
     0
 10
469.1713793099999066
 20
514.2905462299999044
 30
0.0
 11
469.1713793099999066
 21
501.2916367299998797
 31
0.0
  0
LINE
  5
25F
  8
SLD-0_0
  6
CONTINUOUS
 62
     0
 10
480.2125484700000015
 20
700.7920151299997542
 30
0.0
 11
480.2125484700000015
 21
711.5413472199999205
 31
0.0
  0
LINE
  5
260
  8
SLD-0_0
  6
CONTINUOUS
 62
     0
 10
575.1933549499998435
 20
541.8732026599999472
 30
0.0
 11
575.1933549499998435
 21
529.6221256499999299
 31
0.0
  0
LINE
  5
261
  8
SLD-0_0
  6
CONTINUOUS
 62
     0
 10
531.4948069799997938
 20
529.6221256499999299
 30
0.0
 11
531.4948069799997938
 21
541.8732026599999472
 31
0.0
  0
LINE
  5
262
  8
SLD-0_0
  6
CONTINUOUS
 62
     0
 10
616.494380329999899
 20
529.6221256499999299
 30
0.0
 11
616.494380329999899
 21
541.8732026599999472
 31
0.0
  0
LINE
  5
263
  8
SLD-0_0
  6
CONTINUOUS
 62
     0
 10
617.9576189799997792
 20
722.291692610000041
 30
0.0
 11
480.2125484700000015
 21
722.291692610000041
 31
0.0
  0
LINE
  5
264
  8
SLD-0_0
  6
CONTINUOUS
 62
     0
 10
510.2433936499999163
 20
517.3730752899999743
 30
0.0
 11
510.2433936499999163
 21
529.6221256499999299
 31
0.0
  0
LINE
  5
265
  8
SLD-0_0
  6
CONTINUOUS
 62
     0
 10
480.1953219699998954
 20
517.3730752899999743
 30
0.0
 11
480.1953219699998954
 21
529.6221256499999299
 31
0.0
  0
LINE
  5
266
  8
SLD-0_0
  6
CONTINUOUS
 62
     0
 10
565.4917990100000225
 20
529.6221256499999299
 30
0.0
 11
565.4917990100000225
 21
541.8732026599999472
 31
0.0
  0
LINE
  5
267
  8
SLD-0_0
  6
CONTINUOUS
 62
     0
 10
699.23242029000005
 20
514.2905462299999044
 30
0.0
 11
699.23242029000005
 21
501.2916367299998797
 31
0.0
  0
LINE
  5
268
  8
SLD-0_0
  6
CONTINUOUS
 62
     0
 10
579.4432322899998553
 20
529.6221256499999299
 30
0.0
 11
579.4432322899998553
 21
517.3730752899999743
 31
0.0
  0
LINE
  5
269
  8
SLD-0_0
  6
CONTINUOUS
 62
     0
 10
622.2419492999999875
 20
529.6221256499999299
 30
0.0
 11
485.9439042600000107
 21
529.6221256499999299
 31
0.0
  0
LINE
  5
26A
  8
SLD-0_0
  6
CONTINUOUS
 62
     0
 10
578.2454843100000517
 20
517.3730752899999743
 30
0.0
 11
578.2454843100000517
 21
529.6221256499999299
 31
0.0
  0
LINE
  5
26B
  8
SLD-0_0
  6
CONTINUOUS
 62
     0
 10
616.494380329999899
 20
541.8732026599999472
 30
0.0
 11
480.1953219699998954
 21
541.8732026599999472
 31
0.0
  0
LINE
  5
26C
  8
SLD-0_0
  6
CONTINUOUS
 62
     0
 10
549.6930776200000537
 20
541.8732026599999472
 30
0.0
 11
549.6930776200000537
 21
529.6221256499999299
 31
0.0
  0
LINE
  5
26D
  8
SLD-0_0
  6
CONTINUOUS
 62
     0
 10
544.2454523100000188
 20
517.3730752899999743
 30
0.0
 11
544.2454523100000188
 21
529.6221256499999299
 31
0.0
  0
LINE
  5
26E
  8
SLD-0_0
  6
CONTINUOUS
 62
     0
 10
587.8254414699997596
 20
700.7920151299997542
 30
0.0
 11
587.8254414699997596
 21
711.5413472199999205
 31
0.0
  0
LINE
  5
26F
  8
SLD-0_0
  6
CONTINUOUS
 62
     0
 10
548.4933029999998553
 20
529.6221256499999299
 30
0.0
 11
548.4933029999998553
 21
541.8732026599999472
 31
0.0
  0
LINE
  5
270
  8
SLD-0_0
  6
CONTINUOUS
 62
     0
 10
485.9439042600000107
 20
517.3730752899999743
 30
0.0
 11
622.2419492999999875
 21
517.3730752899999743
 31
0.0
  0
LINE
  5
271
  8
SLD-0_0
  6
CONTINUOUS
 62
     0
 10
480.2125484700000015
 20
711.5413472199999205
 30
0.0
 11
617.9576189799997792
 21
711.5413472199999205
 31
0.0
  0
LINE
  5
272
  8
SLD-0_0
  6
CONTINUOUS
 62
     0
 10
480.1953219699998954
 20
529.6221256499999299
 30
0.0
 11
616.494380329999899
 21
529.6221256499999299
 31
0.0
  0
LINE
  5
273
  8
SLD-0_0
  6
CONTINUOUS
 62
     0
 10
553.390693830000032
 20
700.7920151299997542
 30
0.0
 11
553.390693830000032
 21
711.5413472199999205
 31
0.0
  0
LINE
  5
274
  8
SLD-0_0
  6
CONTINUOUS
 62
     0
 10
583.5228713299999299
 20
711.5413472199999205
 30
0.0
 11
583.5228713299999299
 21
722.291692610000041
 31
0.0
  0
LINE
  5
275
  8
SLD-0_0
  6
CONTINUOUS
 62
     0
 10
595.2449936499998557
 20
517.3730752899999743
 30
0.0
 11
595.2449936499998557
 21
529.6221256499999299
 31
0.0
  0
LINE
  5
276
  8
SLD-0_0
  6
CONTINUOUS
 62
     0
 10
612.2445030000000088
 20
517.3730752899999743
 30
0.0
 11
612.2445030000000088
 21
529.6221256499999299
 31
0.0
  0
LINE
  5
277
  8
SLD-0_0
  6
CONTINUOUS
 62
     0
 10
583.6951362700000345
 20
541.8732026599999472
 30
0.0
 11
583.6951362700000345
 21
529.6221256499999299
 31
0.0
  0
LINE
  5
278
  8
SLD-0_0
  6
CONTINUOUS
 62
     0
 10
566.6936002800000551
 20
541.8732026599999472
 30
0.0
 11
566.6936002800000551
 21
529.6221256499999299
 31
0.0
  0
LINE
  5
279
  8
SLD-0_0
  6
CONTINUOUS
 62
     0
 10
570.6070543299999827
 20
700.7920151299997542
 30
0.0
 11
570.6070543299999827
 21
711.5413472199999205
 31
0.0
  0
LINE
  5
27A
  8
SLD-0_0
  6
CONTINUOUS
 62
     0
 10
518.9539195399999016
 20
700.7920151299997542
 30
0.0
 11
518.9539195399999016
 21
711.5413472199999205
 31
0.0
  0
LINE
  5
27B
  8
SLD-0_0
  6
CONTINUOUS
 62
     0
 10
515.6930456100000129
 20
541.8732026599999472
 30
0.0
 11
515.6930456100000129
 21
529.6221256499999299
 31
0.0
  0
LINE
  5
27C
  8
SLD-0_0
  6
CONTINUOUS
 62
     0
 10
545.4442136099999061
 20
529.6221256499999299
 30
0.0
 11
545.4442136099999061
 21
517.3730752899999743
 31
0.0
  0
LINE
  5
27D
  8
SLD-0_0
  6
CONTINUOUS
 62
     0
 10
590.9930896700000176
 20
529.6221256499999299
 30
0.0
 11
590.9930896700000176
 21
541.8732026599999472
 31
0.0
  0
LINE
  5
27E
  8
SLD-0_0
  6
CONTINUOUS
 62
     0
 10
485.9439042600000107
 20
521.6391657899999927
 30
0.0
 11
620.7057513900000458
 21
521.6391657899999927
 31
0.0
  0
LINE
  5
27F
  8
SLD-0_0
  6
CONTINUOUS
 62
     0
 10
579.2182745500000465
 20
700.7920151299997542
 30
0.0
 11
579.2182745500000465
 21
711.5413472199999205
 31
0.0
  0
LINE
  5
280
  8
SLD-0_0
  6
CONTINUOUS
 62
     0
 10
592.1300382599999921
 20
711.5413472199999205
 30
0.0
 11
592.1300382599999921
 21
722.291692610000041
 31
0.0
  0
LINE
  5
281
  8
SLD-0_0
  6
CONTINUOUS
 62
     0
 10
719.23242029000005
 20
731.7920267299998613
 30
0.0
 11
719.23242029000005
 21
769.7920267299997477
 31
0.0
  0
LINE
  5
282
  8
SLD-0_0
  6
CONTINUOUS
 62
     0
 10
401.7324202899999932
 20
779.2920267299997477
 30
0.0
 11
399.2324202899999932
 21
781.7920267299998613
 31
0.0
  0
LINE
  5
283
  8
SLD-0_0
  6
CONTINUOUS
 62
     0
 10
711.73242029000005
 20
729.2920267299997477
 30
0.0
 11
716.73242029000005
 21
729.2920267299997477
 31
0.0
  0
LINE
  5
284
  8
SLD-0_0
  6
CONTINUOUS
 62
     0
 10
711.73242029000005
 20
779.2920267299997477
 30
0.0
 11
716.73242029000005
 21
779.2920267299997477
 31
0.0
  0
LINE
  5
285
  8
SLD-0_0
  6
CONTINUOUS
 62
     0
 10
399.2324202899999932
 20
731.7920267299998613
 30
0.0
 11
399.2324202899999932
 21
769.7920267299997477
 31
0.0
  0
LINE
  5
286
  8
SLD-0_0
  6
CONTINUOUS
 62
     0
 10
716.73242029000005
 20
722.2920267299997477
 30
0.0
 11
719.23242029000005
 21
719.7920267299997477
 31
0.0
  0
LINE
  5
287
  8
SLD-0_0
  6
CONTINUOUS
 62
     0
 10
716.73242029000005
 20
700.792026729999975
 30
0.0
 11
401.7324202899999932
 21
700.792026729999975
 31
0.0
  0
LINE
  5
288
  8
SLD-0_0
  6
CONTINUOUS
 62
     0
 10
716.73242029000005
 20
729.2920267299997477
 30
0.0
 11
719.23242029000005
 21
731.7920267299998613
 31
0.0
  0
LINE
  5
289
  8
SLD-0_0
  6
CONTINUOUS
 62
     0
 10
711.73242029000005
 20
722.2920267299997477
 30
0.0
 11
716.73242029000005
 21
722.2920267299997477
 31
0.0
  0
LINE
  5
28A
  8
SLD-0_0
  6
CONTINUOUS
 62
     0
 10
711.73242029000005
 20
772.2920267299997477
 30
0.0
 11
716.73242029000005
 21
772.2920267299997477
 31
0.0
  0
LINE
  5
28B
  8
SLD-0_0
  6
CONTINUOUS
 62
     0
 10
401.7324202899999932
 20
729.2920267299997477
 30
0.0
 11
399.2324202899999932
 21
731.7920267299998613
 31
0.0
  0
LINE
  5
28C
  8
SLD-0_0
  6
CONTINUOUS
 62
     0
 10
716.73242029000005
 20
779.2920267299997477
 30
0.0
 11
719.23242029000005
 21
781.7920267299998613
 31
0.0
  0
LINE
  5
28D
  8
SLD-0_0
  6
CONTINUOUS
 62
     0
 10
406.7324202899999932
 20
772.2920267299997477
 30
0.0
 11
401.7324202899999932
 21
772.2920267299997477
 31
0.0
  0
LINE
  5
28E
  8
SLD-0_0
  6
CONTINUOUS
 62
     0
 10
406.7324202899999932
 20
779.2920267299997477
 30
0.0
 11
401.7324202899999932
 21
779.2920267299997477
 31
0.0
  0
LINE
  5
28F
  8
SLD-0_0
  6
CONTINUOUS
 62
     0
 10
401.7324202899999932
 20
772.2920267299997477
 30
0.0
 11
399.2324202899999932
 21
769.7920267299997477
 31
0.0
  0
LINE
  5
290
  8
SLD-0_0
  6
CONTINUOUS
 62
     0
 10
716.73242029000005
 20
772.2920267299997477
 30
0.0
 11
719.23242029000005
 21
769.7920267299997477
 31
0.0
  0
LINE
  5
291
  8
SLD-0_0
  6
CONTINUOUS
 62
     0
 10
406.7324202899999932
 20
729.2920267299997477
 30
0.0
 11
401.7324202899999932
 21
729.2920267299997477
 31
0.0
  0
LINE
  5
292
  8
SLD-0_0
  6
CONTINUOUS
 62
     0
 10
401.7324202899999932
 20
722.2920267299997477
 30
0.0
 11
399.2324202899999932
 21
719.7920267299997477
 31
0.0
  0
LINE
  5
293
  8
SLD-0_0
  6
CONTINUOUS
 62
     0
 10
719.23242029000005
 20
781.7920267299998613
 30
0.0
 11
719.23242029000005
 21
798.2920267299998613
 31
0.0
  0
LINE
  5
294
  8
SLD-0_0
  6
CONTINUOUS
 62
     0
 10
406.7324202899999932
 20
722.2920267299997477
 30
0.0
 11
401.7324202899999932
 21
722.2920267299997477
 31
0.0
  0
LINE
  5
295
  8
SLD-0_0
  6
CONTINUOUS
 62
     0
 10
399.2324202899999932
 20
781.7920267299998613
 30
0.0
 11
399.2324202899999932
 21
798.2920267299998613
 31
0.0
  0
LINE
  5
296
  8
SLD-0_0
  6
PHANTOM
 62
     0
 10
419.2324202899999932
 20
700.792026729999975
 30
0.0
 11
419.2324202899999932
 21
800.7920267299998613
 31
0.0
  0
LINE
  5
297
  8
SLD-0_0
  6
PHANTOM
 62
     0
 10
469.2443385799999191
 20
700.792026729999975
 30
0.0
 11
469.2443385799999191
 21
800.7920267299998613
 31
0.0
  0
LINE
  5
298
  8
SLD-0_0
  6
PHANTOM
 62
     0
 10
550.23242029000005
 20
730.7920267299997477
 30
0.0
 11
532.23242029000005
 21
730.7920267299997477
 31
0.0
  0
LINE
  5
299
  8
SLD-0_0
  6
PHANTOM
 62
     0
 10
588.23242029000005
 20
778.7920267299997477
 30
0.0
 11
570.23242029000005
 21
778.7920267299997477
 31
0.0
  0
LINE
  5
29A
  8
SLD-0_0
  6
PHANTOM
 62
     0
 10
550.23242029000005
 20
730.7920267299997477
 30
0.0
 11
550.23242029000005
 21
778.7920267299997477
 31
0.0
  0
LINE
  5
29B
  8
SLD-0_0
  6
PHANTOM
 62
     0
 10
589.2324202900001637
 20
730.7920267299997477
 30
0.0
 11
589.2324202900001637
 21
778.7920267299997477
 31
0.0
  0
LINE
  5
29C
  8
SLD-0_0
  6
PHANTOM
 62
     0
 10
569.23242029000005
 20
778.7920267299997477
 30
0.0
 11
551.23242029000005
 21
778.7920267299997477
 31
0.0
  0
LINE
  5
29D
  8
SLD-0_0
  6
PHANTOM
 62
     0
 10
619.6045909700000038
 20
586.5708872799998517
 30
0.0
 11
619.6045909700000038
 21
586.7916367200000423
 31
0.0
  0
LINE
  5
29E
  8
SLD-0_0
  6
PHANTOM
 62
     0
 10
491.902244450000012
 20
586.5708872799998517
 30
0.0
 11
491.902244450000012
 21
586.7916367200000423
 31
0.0
  0
LINE
  5
29F
  8
SLD-0_0
  6
PHANTOM
 62
     0
 10
569.23242029000005
 20
730.7920267299997477
 30
0.0
 11
551.23242029000005
 21
730.7920267299997477
 31
0.0
  0
LINE
  5
2A0
  8
SLD-0_0
  6
PHANTOM
 62
     0
 10
608.23242029000005
 20
730.7920267299997477
 30
0.0
 11
608.23242029000005
 21
778.7920267299997477
 31
0.0
  0
LINE
  5
2A1
  8
SLD-0_0
  6
PHANTOM
 62
     0
 10
490.4022444499998983
 20
588.2916367200000423
 30
0.0
 11
488.1045909699998901
 21
588.2916367200000423
 31
0.0
  0
LINE
  5
2A2
  8
SLD-0_0
  6
PHANTOM
 62
     0
 10
475.2324202899998795
 20
586.5916367300000047
 30
0.0
 11
475.2324202899998795
 21
517.2920094400000153
 31
0.0
  0
LINE
  5
2A3
  8
SLD-0_0
  6
PHANTOM
 62
     0
 10
607.23242029000005
 20
778.7920267299997477
 30
0.0
 11
589.2324202900001637
 21
778.7920267299997477
 31
0.0
  0
LINE
  5
2A4
  8
SLD-0_0
  6
PHANTOM
 62
     0
 10
607.23242029000005
 20
730.7920267299997477
 30
0.0
 11
589.2324202900001637
 21
730.7920267299997477
 31
0.0
  0
LINE
  5
2A5
  8
SLD-0_0
  6
PHANTOM
 62
     0
 10
551.23242029000005
 20
730.7920267299997477
 30
0.0
 11
551.23242029000005
 21
778.7920267299997477
 31
0.0
  0
LINE
  5
2A6
  8
SLD-0_0
  6
PHANTOM
 62
     0
 10
493.2324202899999932
 20
778.7920267299997477
 30
0.0
 11
475.2324202899998795
 21
778.7920267299997477
 31
0.0
  0
LINE
  5
2A7
  8
SLD-0_0
  6
PHANTOM
 62
     0
 10
570.23242029000005
 20
730.7920267299997477
 30
0.0
 11
570.23242029000005
 21
778.7920267299997477
 31
0.0
  0
LINE
  5
2A8
  8
SLD-0_0
  6
PHANTOM
 62
     0
 10
588.23242029000005
 20
730.7920267299997477
 30
0.0
 11
588.23242029000005
 21
778.7920267299997477
 31
0.0
  0
LINE
  5
2A9
  8
SLD-0_0
  6
PHANTOM
 62
     0
 10
624.902244450000012
 20
586.5708872799998517
 30
0.0
 11
624.902244450000012
 21
586.7916367200000423
 31
0.0
  0
LINE
  5
2AA
  8
SLD-0_0
  6
PHANTOM
 62
     0
 10
608.23242029000005
 20
586.5916367300000047
 30
0.0
 11
608.23242029000005
 21
541.8732026599999472
 31
0.0
  0
LINE
  5
2AB
  8
SLD-0_0
  6
PHANTOM
 62
     0
 10
493.2324202899999932
 20
730.7920267299997477
 30
0.0
 11
493.2324202899999932
 21
778.7920267299997477
 31
0.0
  0
LINE
  5
2AC
  8
SLD-0_0
  6
PHANTOM
 62
     0
 10
493.2324202899999932
 20
586.5916367300000047
 30
0.0
 11
475.2324202899998795
 21
586.5916367300000047
 31
0.0
  0
LINE
  5
2AD
  8
SLD-0_0
  6
PHANTOM
 62
     0
 10
626.2324202900001637
 20
586.5916367300000047
 30
0.0
 11
608.23242029000005
 21
586.5916367300000047
 31
0.0
  0
LINE
  5
2AE
  8
SLD-0_0
  6
PHANTOM
 62
     0
 10
512.23242029000005
 20
730.7920267299997477
 30
0.0
 11
512.23242029000005
 21
778.7920267299997477
 31
0.0
  0
LINE
  5
2AF
  8
SLD-0_0
  6
PHANTOM
 62
     0
 10
512.23242029000005
 20
778.7920267299997477
 30
0.0
 11
494.2324202899999932
 21
778.7920267299997477
 31
0.0
  0
LINE
  5
2B0
  8
SLD-0_0
  6
PHANTOM
 62
     0
 10
531.23242029000005
 20
730.7920267299997477
 30
0.0
 11
513.23242029000005
 21
730.7920267299997477
 31
0.0
  0
LINE
  5
2B1
  8
SLD-0_0
  6
PHANTOM
 62
     0
 10
626.2324202900001637
 20
730.7920267299997477
 30
0.0
 11
626.2324202900001637
 21
778.7920267299997477
 31
0.0
  0
LINE
  5
2B2
  8
SLD-0_0
  6
PHANTOM
 62
     0
 10
512.23242029000005
 20
730.7920267299997477
 30
0.0
 11
494.2324202899999932
 21
730.7920267299997477
 31
0.0
  0
LINE
  5
2B3
  8
SLD-0_0
  6
PHANTOM
 62
     0
 10
588.23242029000005
 20
730.7920267299997477
 30
0.0
 11
570.23242029000005
 21
730.7920267299997477
 31
0.0
  0
LINE
  5
2B4
  8
SLD-0_0
  6
PHANTOM
 62
     0
 10
550.23242029000005
 20
778.7920267299997477
 30
0.0
 11
532.23242029000005
 21
778.7920267299997477
 31
0.0
  0
LINE
  5
2B5
  8
SLD-0_0
  6
PHANTOM
 62
     0
 10
626.2324202900001637
 20
730.7920267299997477
 30
0.0
 11
608.23242029000005
 21
730.7920267299997477
 31
0.0
  0
LINE
  5
2B6
  8
SLD-0_0
  6
PHANTOM
 62
     0
 10
493.2324202899999932
 20
586.5916367300000047
 30
0.0
 11
493.2324202899999932
 21
541.8732026599999472
 31
0.0
  0
LINE
  5
2B7
  8
SLD-0_0
  6
PHANTOM
 62
     0
 10
493.2324202899999932
 20
730.7920267299997477
 30
0.0
 11
475.2324202899998795
 21
730.7920267299997477
 31
0.0
  0
LINE
  5
2B8
  8
SLD-0_0
  6
PHANTOM
 62
     0
 10
531.23242029000005
 20
730.7920267299997477
 30
0.0
 11
531.23242029000005
 21
778.7920267299997477
 31
0.0
  0
LINE
  5
2B9
  8
SLD-0_0
  6
PHANTOM
 62
     0
 10
626.2324202900001637
 20
586.5916367300000047
 30
0.0
 11
626.2324202900001637
 21
517.2920094400000153
 31
0.0
  0
LINE
  5
2BA
  8
SLD-0_0
  6
PHANTOM
 62
     0
 10
569.23242029000005
 20
730.7920267299997477
 30
0.0
 11
569.23242029000005
 21
778.7920267299997477
 31
0.0
  0
LINE
  5
2BB
  8
SLD-0_0
  6
PHANTOM
 62
     0
 10
486.6045909699998901
 20
586.5708872799998517
 30
0.0
 11
486.6045909699998901
 21
586.7916367200000423
 31
0.0
  0
LINE
  5
2BC
  8
SLD-0_0
  6
PHANTOM
 62
     0
 10
475.2324202899998795
 20
730.7920267299997477
 30
0.0
 11
475.2324202899998795
 21
778.7920267299997477
 31
0.0
  0
LINE
  5
2BD
  8
SLD-0_0
  6
PHANTOM
 62
     0
 10
532.23242029000005
 20
730.7920267299997477
 30
0.0
 11
532.23242029000005
 21
778.7920267299997477
 31
0.0
  0
LINE
  5
2BE
  8
SLD-0_0
  6
PHANTOM
 62
     0
 10
531.23242029000005
 20
778.7920267299997477
 30
0.0
 11
513.23242029000005
 21
778.7920267299997477
 31
0.0
  0
LINE
  5
2BF
  8
SLD-0_0
  6
PHANTOM
 62
     0
 10
513.23242029000005
 20
730.7920267299997477
 30
0.0
 11
513.23242029000005
 21
778.7920267299997477
 31
0.0
  0
LINE
  5
2C0
  8
SLD-0_0
  6
PHANTOM
 62
     0
 10
626.2324202900001637
 20
778.7920267299997477
 30
0.0
 11
608.23242029000005
 21
778.7920267299997477
 31
0.0
  0
LINE
  5
2C1
  8
SLD-0_0
  6
PHANTOM
 62
     0
 10
623.4022444499997846
 20
588.2916367200000423
 30
0.0
 11
621.1045909700000038
 21
588.2916367200000423
 31
0.0
  0
LINE
  5
2C2
  8
SLD-0_0
  6
PHANTOM
 62
     0
 10
494.2324202899999932
 20
730.7920267299997477
 30
0.0
 11
494.2324202899999932
 21
778.7920267299997477
 31
0.0
  0
LINE
  5
2C3
  8
SLD-0_0
  6
PHANTOM
 62
     0
 10
607.23242029000005
 20
730.7920267299997477
 30
0.0
 11
607.23242029000005
 21
778.7920267299997477
 31
0.0
  0
LINE
  5
2C4
  8
SLD-0_3
  6
CONTINUOUS
 62
     0
 10
613.9660052499999665
 20
800.7977796199998011
 30
0.0
 11
613.9660052499999665
 21
788.4773911499999031
 31
0.0
  0
LINE
  5
2C5
  8
SLD-0_3
  6
CONTINUOUS
 62
     0
 10
578.0289865099999815
 20
800.7977796199998011
 30
0.0
 11
578.0289865099999815
 21
788.4773911499999031
 31
0.0
  0
LINE
  5
2C6
  8
SLD-0_3
  6
CONTINUOUS
 62
     0
 10
497.1654300499999977
 20
800.7977796199998011
 30
0.0
 11
497.1654300499999977
 21
788.4773911499999031
 31
0.0
  0
LINE
  5
2C7
  8
SLD-0_3
  6
CONTINUOUS
 62
     0
 10
551.0738295899999457
 20
800.7977796199998011
 30
0.0
 11
551.0738295899999457
 21
788.4773911499999031
 31
0.0
  0
LINE
  5
2C8
  8
SLD-0_3
  6
CONTINUOUS
 62
     0
 10
542.0900534800000514
 20
800.7977796199998011
 30
0.0
 11
542.0900534800000514
 21
788.4773911499999031
 31
0.0
  0
LINE
  5
2C9
  8
SLD-0_3
  6
CONTINUOUS
 62
     0
 10
622.9516956499999196
 20
788.4773911499999031
 30
0.0
 11
479.195963529999915
 21
788.4773911499999031
 31
0.0
  0
LINE
  5
2CA
  8
SLD-0_3
  6
CONTINUOUS
 62
     0
 10
533.1043630799998709
 20
800.7977796199998011
 30
0.0
 11
533.1043630799998709
 21
788.4773911499999031
 31
0.0
  0
LINE
  5
2CB
  8
SLD-0_3
  6
CONTINUOUS
 62
     0
 10
587.0127626200001032
 20
800.7977796199998011
 30
0.0
 11
587.0127626200001032
 21
788.4773911499999031
 31
0.0
  0
LINE
  5
2CC
  8
SLD-0_3
  6
CONTINUOUS
 62
     0
 10
524.1186726700000236
 20
800.7977796199998011
 30
0.0
 11
524.1186726700000236
 21
788.4773911499999031
 31
0.0
  0
LINE
  5
2CD
  8
SLD-0_3
  6
CONTINUOUS
 62
     0
 10
569.0452103999999736
 20
800.7977796199998011
 30
0.0
 11
569.0452103999999736
 21
788.4773911499999031
 31
0.0
  0
LINE
  5
2CE
  8
SLD-0_3
  6
CONTINUOUS
 62
     0
 10
595.9984530200000563
 20
800.7977796199998011
 30
0.0
 11
595.9984530200000563
 21
788.4773911499999031
 31
0.0
  0
LINE
  5
2CF
  8
SLD-0_3
  6
CONTINUOUS
 62
     0
 10
488.1797396399999229
 20
800.7977796199998011
 30
0.0
 11
488.1797396399999229
 21
788.4773911499999031
 31
0.0
  0
LINE
  5
2D0
  8
SLD-0_3
  6
CONTINUOUS
 62
     0
 10
479.195963529999915
 20
788.4773911499999031
 30
0.0
 11
479.195963529999915
 21
800.7977796199998011
 31
0.0
  0
LINE
  5
2D1
  8
SLD-0_3
  6
CONTINUOUS
 62
     0
 10
622.9516956499999196
 20
800.7977796199998011
 30
0.0
 11
622.9516956499999196
 21
788.4773911499999031
 31
0.0
  0
LINE
  5
2D2
  8
SLD-0_3
  6
CONTINUOUS
 62
     0
 10
515.1348965600000156
 20
800.7977796199998011
 30
0.0
 11
515.1348965600000156
 21
788.4773911499999031
 31
0.0
  0
LINE
  5
2D3
  8
SLD-0_3
  6
CONTINUOUS
 62
     0
 10
560.0576056999999537
 20
800.7977796199998011
 30
0.0
 11
560.0576056999999537
 21
788.4773911499999031
 31
0.0
  0
LINE
  5
2D4
  8
SLD-0_3
  6
CONTINUOUS
 62
     0
 10
506.1511204499998939
 20
800.7977796199998011
 30
0.0
 11
506.1511204499998939
 21
788.4773911499999031
 31
0.0
  0
LINE
  5
2D5
  8
SLD-0_3
  6
CONTINUOUS
 62
     0
 10
604.9841434300000174
 20
800.7977796199998011
 30
0.0
 11
604.9841434300000174
 21
788.4773911499999031
 31
0.0
  0
LINE
  5
2D6
  8
SLD-0_3
  6
PHANTOM
 62
     0
 10
644.4759890399999449
 20
783.5614772300000368
 30
0.0
 11
657.2385791399999562
 21
783.5614772300000368
 31
0.0
  0
LINE
  5
2D7
  8
SLD-0_3
  6
PHANTOM
 62
     0
 10
657.2385791399999562
 20
783.5614772300000368
 30
0.0
 11
657.2385791399999562
 21
771.241088770000033
 31
0.0
  0
LINE
  5
2D8
  8
SLD-0_3
  6
PHANTOM
 62
     0
 10
672.958751609999922
 20
737.6213214699998844
 30
0.0
 11
665.5485241799998448
 21
737.6213214699998844
 31
0.0
  0
LINE
  5
2D9
  8
SLD-0_3
  6
PHANTOM
 62
     0
 10
672.958751609999922
 20
743.7958728899999414
 30
0.0
 11
672.958751609999922
 21
747.5009866099999272
 31
0.0
  0
LINE
  5
2DA
  8
SLD-0_3
  6
PHANTOM
 62
     0
 10
665.5485241799998448
 20
728.9763751799997635
 30
0.0
 11
672.958751609999922
 21
728.9763751799997635
 31
0.0
  0
LINE
  5
2DB
  8
SLD-0_3
  6
PHANTOM
 62
     0
 10
672.958751609999922
 20
742.5611540400000194
 30
0.0
 11
665.5485241799998448
 21
742.5611540400000194
 31
0.0
  0
LINE
  5
2DC
  8
SLD-0_3
  6
PHANTOM
 62
     0
 10
662.9177547000000459
 20
633.2916367200000423
 30
0.0
 11
662.9177547000000459
 21
623.252775730000053
 31
0.0
  0
LINE
  5
2DD
  8
SLD-0_3
  6
PHANTOM
 62
     0
 10
655.39930991000017
 20
623.2623472100000299
 30
0.0
 11
651.343738529999996
 21
623.2623472100000299
 31
0.0
  0
LINE
  5
2DE
  8
SLD-0_3
  6
PHANTOM
 62
     0
 10
639.216296390000025
 20
622.3635853299999781
 30
0.0
 11
639.2111526599999252
 21
622.2611720700000433
 31
0.0
  0
LINE
  5
2DF
  8
SLD-0_3
  6
PHANTOM
 62
     0
 10
688.7776482399998486
 20
623.0914404899999681
 30
0.0
 11
688.6954257199998892
 21
623.1415705699998853
 31
0.0
  0
LINE
  5
2E0
  8
SLD-0_3
  6
PHANTOM
 62
     0
 10
644.639152329999888
 20
623.2623472100000299
 30
0.0
 11
642.2714488099999244
 21
623.2623472100000299
 31
0.0
  0
LINE
  5
2E1
  8
SLD-0_3
  6
PHANTOM
 62
     0
 10
639.2559488000000556
 20
622.5590011699997604
 30
0.0
 11
639.2313948099998697
 21
622.4630290100000138
 31
0.0
  0
LINE
  5
2E2
  8
SLD-0_3
  6
PHANTOM
 62
     0
 10
662.9177547000000459
 20
623.252775730000053
 30
0.0
 11
678.7317275200000495
 21
623.252775730000053
 31
0.0
  0
LINE
  5
2E3
  8
SLD-0_3
  6
PHANTOM
 62
     0
 10
689.2111864899999318
 20
622.3635853299999781
 30
0.0
 11
689.1961455499998692
 21
622.4630290100000138
 31
0.0
  0
LINE
  5
2E4
  8
SLD-0_3
  6
PHANTOM
 62
     0
 10
677.0837233199998764
 20
623.2623472100000299
 30
0.0
 11
673.0281519500000513
 21
623.2623472100000299
 31
0.0
  0
LINE
  5
2E5
  8
SLD-0_3
  6
PHANTOM
 62
     0
 10
668.6912692599998991
 20
623.2623472100000299
 30
0.0
 11
664.2137309299998833
 21
623.2623472100000299
 31
0.0
  0
LINE
  5
2E6
  8
SLD-0_3
  6
PHANTOM
 62
     0
 10
647.7101341200000206
 20
623.2623472100000299
 30
0.0
 11
644.639152329999888
 21
623.2623472100000299
 31
0.0
  0
LINE
  5
2E7
  8
SLD-0_3
  6
PHANTOM
 62
     0
 10
639.820077240000046
 20
623.1837116499998501
 30
0.0
 11
639.7328843800000868
 21
623.1415705699998853
 31
0.0
  0
LINE
  5
2E8
  8
SLD-0_3
  6
PHANTOM
 62
     0
 10
639.2894591999998966
 20
622.6509998400000541
 30
0.0
 11
639.2559488000000556
 21
622.5590011699997604
 31
0.0
  0
LINE
  5
2E9
  8
SLD-0_3
  6
PHANTOM
 62
     0
 10
678.7317275200000495
 20
623.252775730000053
 30
0.0
 11
678.7317275200000495
 21
633.2916367200000423
 31
0.0
  0
LINE
  5
2EA
  8
SLD-0_3
  6
PHANTOM
 62
     0
 10
689.2163091899999472
 20
622.2611720700000433
 30
0.0
 11
689.2111864899999318
 21
622.3635853299999781
 31
0.0
  0
LINE
  5
2EB
  8
SLD-0_3
  6
PHANTOM
 62
     0
 10
689.0466138599998658
 20
622.8210690700000214
 30
0.0
 11
688.9893425799998568
 21
622.8981357100000196
 31
0.0
  0
LINE
  5
2EC
  8
SLD-0_3
  6
PHANTOM
 62
     0
 10
688.9893425799998568
 20
622.8981357100000196
 30
0.0
 11
688.9250973999999133
 21
622.9692211200000429
 31
0.0
  0
LINE
  5
2ED
  8
SLD-0_3
  6
PHANTOM
 62
     0
 10
639.2111526599999252
 20
622.2611720700000433
 30
0.0
 11
639.2111526599999252
 21
517.2920094400000153
 31
0.0
  0
LINE
  5
2EE
  8
SLD-0_3
  6
PHANTOM
 62
     0
 10
687.6797826299998633
 20
623.2623472100000299
 30
0.0
 11
686.156013039999948
 21
623.2623472100000299
 31
0.0
  0
LINE
  5
2EF
  8
SLD-0_3
  6
PHANTOM
 62
     0
 10
642.2714488099999244
 20
623.2623472100000299
 30
0.0
 11
640.7476792199997817
 21
623.2623472100000299
 31
0.0
  0
LINE
  5
2F0
  8
SLD-0_3
  6
PHANTOM
 62
     0
 10
640.1064444099998809
 20
623.2571815100000094
 30
0.0
 11
640.0073563900000408
 21
623.2420190599999614
 31
0.0
  0
LINE
  5
2F1
  8
SLD-0_3
  6
PHANTOM
 62
     0
 10
639.5030823199998622
 20
622.9692211200000429
 30
0.0
 11
639.438737589999846
 21
622.8981357100000196
 31
0.0
  0
LINE
  5
2F2
  8
SLD-0_3
  6
PHANTOM
 62
     0
 10
689.1961455499998692
 20
622.4630290100000138
 30
0.0
 11
689.1716771000000108
 21
622.5590011699997604
 31
0.0
  0
LINE
  5
2F3
  8
SLD-0_3
  6
PHANTOM
 62
     0
 10
640.7476792199997817
 20
623.2623472100000299
 30
0.0
 11
640.2084992100000136
 21
623.2623472100000299
 31
0.0
  0
LINE
  5
2F4
  8
SLD-0_3
  6
PHANTOM
 62
     0
 10
689.1382718500000237
 20
622.6509998400000541
 30
0.0
 11
689.0964205299999321
 21
622.7385231299997486
 31
0.0
  0
LINE
  5
2F5
  8
SLD-0_3
  6
PHANTOM
 62
     0
 10
664.2137309299998833
 20
623.2623472100000299
 30
0.0
 11
659.7361925899998596
 21
623.2623472100000299
 31
0.0
  0
LINE
  5
2F6
  8
SLD-0_3
  6
PHANTOM
 62
     0
 10
659.7361925899998596
 20
623.2623472100000299
 30
0.0
 11
655.39930991000017
 21
623.2623472100000299
 31
0.0
  0
LINE
  5
2F7
  8
SLD-0_3
  6
PHANTOM
 62
     0
 10
639.7328843800000868
 20
623.1415705699998853
 30
0.0
 11
639.6506548500000235
 21
623.0914404899999681
 31
0.0
  0
LINE
  5
2F8
  8
SLD-0_3
  6
PHANTOM
 62
     0
 10
639.6506548500000235
 20
623.0914404899999681
 30
0.0
 11
639.57388777999995
 21
623.0338233600000422
 31
0.0
  0
LINE
  5
2F9
  8
SLD-0_3
  6
PHANTOM
 62
     0
 10
683.7883095199998706
 20
623.2623472100000299
 30
0.0
 11
680.7173277299998517
 21
623.2623472100000299
 31
0.0
  0
LINE
  5
2FA
  8
SLD-0_3
  6
PHANTOM
 62
     0
 10
640.0073563900000408
 20
623.2420190599999614
 30
0.0
 11
639.9117342899997993
 21
623.2173617900000409
 31
0.0
  0
LINE
  5
2FB
  8
SLD-0_3
  6
PHANTOM
 62
     0
 10
639.57388777999995
 20
623.0338233600000422
 30
0.0
 11
639.5030823199998622
 21
622.9692211200000429
 31
0.0
  0
LINE
  5
2FC
  8
SLD-0_3
  6
PHANTOM
 62
     0
 10
656.3881852199998548
 20
790.7920267299997477
 30
0.0
 11
659.6276165499998569
 21
797.6535436799997569
 31
0.0
  0
LINE
  5
2FD
  8
SLD-0_3
  6
PHANTOM
 62
     0
 10
652.0412741799998457
 20
773.7440266099999917
 30
0.0
 11
652.035531299999775
 21
772.0154202099998884
 31
0.0
  0
LINE
  5
2FE
  8
SLD-0_3
  6
PHANTOM
 62
     0
 10
644.5161891899998636
 20
782.7967172600000367
 30
0.0
 11
652.035531299999775
 21
782.7967172600000367
 31
0.0
  0
LINE
  5
2FF
  8
SLD-0_3
  6
PHANTOM
 62
     0
 10
678.7437444500000083
 20
723.3837687699998469
 30
0.0
 11
678.7437444500000083
 21
748.1183460400000058
 31
0.0
  0
LINE
  5
300
  8
SLD-0_3
  6
PHANTOM
 62
     0
 10
667.9433044700000437
 20
732.5886456999999155
 30
0.0
 11
667.9433044700000437
 21
728.9782894700000497
 31
0.0
  0
LINE
  5
301
  8
SLD-0_3
  6
PHANTOM
 62
     0
 10
672.958751609999922
 20
728.9763751799997635
 30
0.0
 11
672.958751609999922
 21
732.6795746099999178
 31
0.0
  0
LINE
  5
302
  8
SLD-0_3
  6
PHANTOM
 62
     0
 10
665.5485241799998448
 20
738.856040329999928
 30
0.0
 11
672.958751609999922
 21
738.856040329999928
 31
0.0
  0
LINE
  5
303
  8
SLD-0_3
  6
PHANTOM
 62
     0
 10
672.958751609999922
 20
724.0346283200000244
 30
0.0
 11
672.958751609999922
 21
727.7397420299998885
 31
0.0
  0
LINE
  5
304
  8
SLD-0_3
  6
PHANTOM
 62
     0
 10
662.929771629999891
 20
723.3837687699998469
 30
0.0
 11
678.7437444500000083
 21
723.3837687699998469
 31
0.0
  0
LINE
  5
305
  8
SLD-0_3
  6
PHANTOM
 62
     0
 10
665.5485241799998448
 20
747.5009866099999272
 30
0.0
 11
665.5485241799998448
 21
743.7958728899999414
 31
0.0
  0
LINE
  5
306
  8
SLD-0_3
  6
PHANTOM
 62
     0
 10
656.4211761100000331
 20
775.687033799999881
 30
0.0
 11
654.2522823699998753
 21
775.7023481400000264
 31
0.0
  0
LINE
  5
307
  8
SLD-0_3
  6
PHANTOM
 62
     0
 10
665.5485241799998448
 20
724.0346283200000244
 30
0.0
 11
672.958751609999922
 21
724.0346283200000244
 31
0.0
  0
LINE
  5
308
  8
SLD-0_3
  6
PHANTOM
 62
     0
 10
667.9433044700000437
 20
737.6232357500000489
 30
0.0
 11
667.9433044700000437
 21
733.9181220499998517
 31
0.0
  0
LINE
  5
309
  8
SLD-0_3
  6
PHANTOM
 62
     0
 10
665.5485241799998448
 20
743.7958728899999414
 30
0.0
 11
672.958751609999922
 21
743.7958728899999414
 31
0.0
  0
LINE
  5
30A
  8
SLD-0_3
  6
PHANTOM
 62
     0
 10
672.958751609999922
 20
727.7397420299998885
 30
0.0
 11
665.5485241799998448
 21
727.7397420299998885
 31
0.0
  0
LINE
  5
30B
  8
SLD-0_3
  6
PHANTOM
 62
     0
 10
665.5485241799998448
 20
733.9162077500000123
 30
0.0
 11
672.958751609999922
 21
733.9162077500000123
 31
0.0
  0
LINE
  5
30C
  8
SLD-0_3
  6
PHANTOM
 62
     0
 10
659.6276165499998569
 20
797.6535436799997569
 30
0.0
 11
659.6276165499998569
 21
790.7920267299997477
 31
0.0
  0
LINE
  5
30D
  8
SLD-0_3
  6
PHANTOM
 62
     0
 10
652.035531299999775
 20
772.0154202099998884
 30
0.0
 11
644.5161891899998636
 21
772.0154202099998884
 31
0.0
  0
LINE
  5
30E
  8
SLD-0_3
  6
PHANTOM
 62
     0
 10
644.4759890399999449
 20
771.241088770000033
 30
0.0
 11
644.4759890399999449
 21
783.5614772300000368
 31
0.0
  0
LINE
  5
30F
  8
SLD-0_3
  6
PHANTOM
 62
     0
 10
667.9433044700000437
 20
727.7397420299998885
 30
0.0
 11
667.9433044700000437
 21
724.0365426099998558
 31
0.0
  0
LINE
  5
310
  8
SLD-0_3
  6
PHANTOM
 62
     0
 10
667.9433044700000437
 20
742.5353110800000422
 30
0.0
 11
667.9433044700000437
 21
738.856040329999928
 31
0.0
  0
LINE
  5
311
  8
SLD-0_3
  6
PHANTOM
 62
     0
 10
668.4486777700000175
 20
797.6535436799997569
 30
0.0
 11
672.047873940000045
 21
790.7920267299997477
 31
0.0
  0
LINE
  5
312
  8
SLD-0_3
  6
PHANTOM
 62
     0
 10
654.2522823699998753
 20
775.7023481400000264
 30
0.0
 11
654.24271090000002
 21
773.7440266099999917
 31
0.0
  0
LINE
  5
313
  8
SLD-0_3
  6
PHANTOM
 62
     0
 10
672.958751609999922
 20
732.6795746099999178
 30
0.0
 11
665.5485241799998448
 21
732.6795746099999178
 31
0.0
  0
LINE
  5
314
  8
SLD-0_3
  6
PHANTOM
 62
     0
 10
668.4486777700000175
 20
790.817604089999918
 30
0.0
 11
668.4486777700000175
 21
797.6535436799997569
 31
0.0
  0
LINE
  5
315
  8
SLD-0_3
  6
PHANTOM
 62
     0
 10
665.5485241799998448
 20
737.6213214699998844
 30
0.0
 11
665.5485241799998448
 21
733.9162077500000123
 31
0.0
  0
LINE
  5
316
  8
SLD-0_3
  6
PHANTOM
 62
     0
 10
672.958751609999922
 20
738.856040329999928
 30
0.0
 11
672.958751609999922
 21
742.5611540400000194
 31
0.0
  0
LINE
  5
317
  8
SLD-0_3
  6
PHANTOM
 62
     0
 10
657.2385791399999562
 20
771.241088770000033
 30
0.0
 11
644.4759890399999449
 21
771.241088770000033
 31
0.0
  0
LINE
  5
318
  8
SLD-0_3
  6
PHANTOM
 62
     0
 10
665.5485241799998448
 20
727.7397420299998885
 30
0.0
 11
665.5485241799998448
 21
724.0346283200000244
 31
0.0
  0
LINE
  5
319
  8
SLD-0_3
  6
PHANTOM
 62
     0
 10
665.5485241799998448
 20
732.6795746099999178
 30
0.0
 11
665.5485241799998448
 21
728.9763751799997635
 31
0.0
  0
LINE
  5
31A
  8
SLD-0_3
  6
PHANTOM
 62
     0
 10
665.5485241799998448
 20
742.5611540400000194
 30
0.0
 11
665.5485241799998448
 21
738.856040329999928
 31
0.0
  0
LINE
  5
31B
  8
SLD-0_3
  6
PHANTOM
 62
     0
 10
654.2522823699998753
 20
779.1528609099998448
 30
0.0
 11
656.4211761100000331
 21
779.1528609099998448
 31
0.0
  0
LINE
  5
31C
  8
SLD-0_3
  6
PHANTOM
 62
     0
 10
662.929771629999891
 20
748.1183460400000058
 30
0.0
 11
662.929771629999891
 21
723.3837687699998469
 31
0.0
  0
LINE
  5
31D
  8
SLD-0_3
  6
PHANTOM
 62
     0
 10
667.9433044700000437
 20
747.4454721199997493
 30
0.0
 11
667.9433044700000437
 21
743.7977871900000082
 31
0.0
  0
LINE
  5
31E
  8
SLD-0_3
  6
PHANTOM
 62
     0
 10
659.6276165499998569
 20
797.6535436799997569
 30
0.0
 11
668.4486777700000175
 21
797.6535436799997569
 31
0.0
  0
LINE
  5
31F
  8
SLD-0_3
  6
PHANTOM
 62
     0
 10
652.0412741799998457
 20
781.0575822499998822
 30
0.0
 11
654.24271090000002
 21
781.0575822499998822
 31
0.0
  0
LINE
  5
320
  8
SLD-0_3
  6
PHANTOM
 62
     0
 10
654.24271090000002
 20
781.0575822499998822
 30
0.0
 11
654.2522823699998753
 21
779.1528609099998448
 31
0.0
  0
LINE
  5
321
  8
SLD-0_3
  6
PHANTOM
 62
     0
 10
654.24271090000002
 20
773.7440266099999917
 30
0.0
 11
652.0412741799998457
 21
773.7440266099999917
 31
0.0
  0
LINE
  5
322
  8
SLD-0_3
  6
PHANTOM
 62
     0
 10
672.958751609999922
 20
733.9162077500000123
 30
0.0
 11
672.958751609999922
 21
737.6213214699998844
 31
0.0
  0
LINE
  5
323
  8
SLD-0_3
  6
PHANTOM
 62
     0
 10
652.035531299999775
 20
782.7967172600000367
 30
0.0
 11
652.0412741799998457
 21
781.0575822499998822
 31
0.0
  0
LINE
  5
324
  8
SLD-0_3
  6
PHANTOM
 62
     0
 10
656.4211761100000331
 20
779.1528609099998448
 30
0.0
 11
656.4211761100000331
 21
775.687033799999881
 31
0.0
  0
LINE
  5
325
  8
SLD-0_3
  6
PHANTOM
 62
     0
 10
644.5161891899998636
 20
772.0154202099998884
 30
0.0
 11
644.5161891899998636
 21
782.7967172600000367
 31
0.0
  0
LINE
  5
326
  8
SLD-0_3
  6
PHANTOM
 62
     0
 10
678.7437444500000083
 20
748.1183460400000058
 30
0.0
 11
662.929771629999891
 21
748.1183460400000058
 31
0.0
  0
LINE
  5
327
  8
SLD-0_3
  6
PHANTOM
 62
     0
 10
672.958751609999922
 20
747.5009866099999272
 30
0.0
 11
665.5485241799998448
 21
747.5009866099999272
 31
0.0
  0
LINE
  5
328
  8
SLD-0_3
  6
PHANTOM
 62
     0
 10
639.3314268999996557
 20
622.7385231299997486
 30
0.0
 11
639.2894591999998966
 21
622.6509998400000541
 31
0.0
  0
LINE
  5
329
  8
SLD-0_3
  6
PHANTOM
 62
     0
 10
688.9250973999999133
 20
622.9692211200000429
 30
0.0
 11
688.8543690400000514
 21
623.0338233600000422
 31
0.0
  0
LINE
  5
32A
  8
SLD-0_3
  6
PHANTOM
 62
     0
 10
688.6081921999999622
 20
623.1837116499998501
 30
0.0
 11
688.5164384099997505
 21
623.2173617900000409
 31
0.0
  0
LINE
  5
32B
  8
SLD-0_3
  6
PHANTOM
 62
     0
 10
673.0281519500000513
 20
623.2623472100000299
 30
0.0
 11
668.6912692599998991
 21
623.2623472100000299
 31
0.0
  0
LINE
  5
32C
  8
SLD-0_3
  6
PHANTOM
 62
     0
 10
689.2163091899999472
 20
517.2920094400000153
 30
0.0
 11
689.2163091899999472
 21
622.2611720700000433
 31
0.0
  0
LINE
  5
32D
  8
SLD-0_3
  6
PHANTOM
 62
     0
 10
688.3213328999999021
 20
623.2571815100000094
 30
0.0
 11
688.2189626399998588
 21
623.2623472100000299
 31
0.0
  0
LINE
  5
32E
  8
SLD-0_3
  6
PHANTOM
 62
     0
 10
639.438737589999846
 20
622.8981357100000196
 30
0.0
 11
639.3813527399997838
 21
622.8210690700000214
 31
0.0
  0
LINE
  5
32F
  8
SLD-0_3
  6
PHANTOM
 62
     0
 10
639.3813527399997838
 20
622.8210690700000214
 30
0.0
 11
639.3314268999996557
 21
622.7385231299997486
 31
0.0
  0
LINE
  5
330
  8
SLD-0_3
  6
PHANTOM
 62
     0
 10
689.0964205299999321
 20
622.7385231299997486
 30
0.0
 11
689.0466138599998658
 21
622.8210690700000214
 31
0.0
  0
LINE
  5
331
  8
SLD-0_3
  6
PHANTOM
 62
     0
 10
688.5164384099997505
 20
623.2173617900000409
 30
0.0
 11
688.4206550699999525
 21
623.2420190599999614
 31
0.0
  0
LINE
  5
332
  8
SLD-0_3
  6
PHANTOM
 62
     0
 10
688.4206550699999525
 20
623.2420190599999614
 30
0.0
 11
688.3213328999999021
 21
623.2571815100000094
 31
0.0
  0
LINE
  5
333
  8
SLD-0_3
  6
PHANTOM
 62
     0
 10
639.2313948099998697
 20
622.4630290100000138
 30
0.0
 11
639.216296390000025
 21
622.3635853299999781
 31
0.0
  0
LINE
  5
334
  8
SLD-0_3
  6
PHANTOM
 62
     0
 10
680.7173277299998517
 20
623.2623472100000299
 30
0.0
 11
677.0837233199998764
 21
623.2623472100000299
 31
0.0
  0
LINE
  5
335
  8
SLD-0_3
  6
PHANTOM
 62
     0
 10
639.9117342899997993
 20
623.2173617900000409
 30
0.0
 11
639.820077240000046
 21
623.1837116499998501
 31
0.0
  0
LINE
  5
336
  8
SLD-0_3
  6
PHANTOM
 62
     0
 10
688.8543690400000514
 20
623.0338233600000422
 30
0.0
 11
688.7776482399998486
 21
623.0914404899999681
 31
0.0
  0
LINE
  5
337
  8
SLD-0_3
  6
PHANTOM
 62
     0
 10
640.2084992100000136
 20
623.2623472100000299
 30
0.0
 11
640.1064444099998809
 21
623.2571815100000094
 31
0.0
  0
LINE
  5
338
  8
SLD-0_3
  6
PHANTOM
 62
     0
 10
689.1716771000000108
 20
622.5590011699997604
 30
0.0
 11
689.1382718500000237
 21
622.6509998400000541
 31
0.0
  0
LINE
  5
339
  8
SLD-0_3
  6
PHANTOM
 62
     0
 10
688.6954257199998892
 20
623.1415705699998853
 30
0.0
 11
688.6081921999999622
 21
623.1837116499998501
 31
0.0
  0
LINE
  5
33A
  8
SLD-0_3
  6
PHANTOM
 62
     0
 10
688.2189626399998588
 20
623.2623472100000299
 30
0.0
 11
687.6797826299998633
 21
623.2623472100000299
 31
0.0
  0
LINE
  5
33B
  8
SLD-0_3
  6
PHANTOM
 62
     0
 10
651.343738529999996
 20
623.2623472100000299
 30
0.0
 11
647.7101341200000206
 21
623.2623472100000299
 31
0.0
  0
LINE
  5
33C
  8
SLD-0_3
  6
PHANTOM
 62
     0
 10
686.156013039999948
 20
623.2623472100000299
 30
0.0
 11
683.7883095199998706
 21
623.2623472100000299
 31
0.0
  0
LINE
  5
33D
  8
SLD-0_1
  6
PHANTOM
 62
     0
 10
454.7264560899999992
 20
745.0092686699997557
 30
0.0
 11
451.0202078499997924
 21
745.0092686699997557
 31
0.0
  0
LINE
  5
33E
  8
SLD-0_1
  6
PHANTOM
 62
     0
 10
454.7264560899999992
 20
736.7091946599997527
 30
0.0
 11
451.0202078499997924
 21
736.7091946599997527
 31
0.0
  0
LINE
  5
33F
  8
SLD-0_1
  6
PHANTOM
 62
     0
 10
451.0202078499997924
 20
737.7010331000000178
 30
0.0
 11
454.7264560899999992
 21
737.7010331000000178
 31
0.0
  0
LINE
  5
340
  8
SLD-0_1
  6
PHANTOM
 62
     0
 10
442.1281132699999148
 20
745.9983872799997471
 30
0.0
 11
438.4236782699999253
 21
745.9983872799997471
 31
0.0
  0
LINE
  5
341
  8
SLD-0_1
  6
PHANTOM
 62
     0
 10
438.4236782699999253
 20
753.3066228300000375
 30
0.0
 11
442.1281132699999148
 21
753.3066228300000375
 31
0.0
  0
LINE
  5
342
  8
SLD-0_1
  6
PHANTOM
 62
     0
 10
454.7264560899999992
 20
753.3066228300000375
 30
0.0
 11
451.0202078499997924
 21
753.3066228300000375
 31
0.0
  0
LINE
  5
343
  8
SLD-0_1
  6
PHANTOM
 62
     0
 10
442.1281132699999148
 20
737.7010331000000178
 30
0.0
 11
438.4236782699999253
 21
737.7010331000000178
 31
0.0
  0
LINE
  5
344
  8
SLD-0_1
  6
PHANTOM
 62
     0
 10
442.1281132699999148
 20
721.105418149999764
 30
0.0
 11
438.4236782699999253
 21
721.105418149999764
 31
0.0
  0
LINE
  5
345
  8
SLD-0_1
  6
PHANTOM
 62
     0
 10
438.4236782699999253
 20
761.6066968499999348
 30
0.0
 11
442.1281132699999148
 21
761.6066968499999348
 31
0.0
  0
LINE
  5
346
  8
SLD-0_1
  6
PHANTOM
 62
     0
 10
438.4236782699999253
 20
736.7091946599997527
 30
0.0
 11
442.1281132699999148
 21
736.7091946599997527
 31
0.0
  0
LINE
  5
347
  8
SLD-0_1
  6
PHANTOM
 62
     0
 10
442.1281132699999148
 20
729.4027723100000458
 30
0.0
 11
438.4236782699999253
 21
729.4027723100000458
 31
0.0
  0
LINE
  5
348
  8
SLD-0_1
  6
PHANTOM
 62
     0
 10
438.4236782699999253
 20
762.5921889799998326
 30
0.0
 11
438.4236782699999253
 21
720.1172061699999176
 31
0.0
  0
LINE
  5
349
  8
SLD-0_1
  6
PHANTOM
 62
     0
 10
451.0202078499997924
 20
729.4027723100000458
 30
0.0
 11
454.7264560899999992
 21
729.4027723100000458
 31
0.0
  0
LINE
  5
34A
  8
SLD-0_1
  6
PHANTOM
 62
     0
 10
438.4236782699999253
 20
745.0092686699997557
 30
0.0
 11
442.1281132699999148
 21
745.0092686699997557
 31
0.0
  0
LINE
  5
34B
  8
SLD-0_1
  6
PHANTOM
 62
     0
 10
431.0157148800000186
 20
792.2312954499998341
 30
0.0
 11
431.0157148800000186
 21
709.247781009999926
 31
0.0
  0
LINE
  5
34C
  8
SLD-0_1
  6
PHANTOM
 62
     0
 10
438.4236782699999253
 20
728.4127471000000469
 30
0.0
 11
442.1281132699999148
 21
728.4127471000000469
 31
0.0
  0
LINE
  5
34D
  8
SLD-0_1
  6
PHANTOM
 62
     0
 10
464.6040428100000099
 20
792.2312954499998341
 30
0.0
 11
431.0157148800000186
 21
792.2312954499998341
 31
0.0
  0
LINE
  5
34F
  8
SLD-0_1
  6
PHANTOM
 62
     0
 10
431.0157148800000186
 20
709.247781009999926
 30
0.0
 11
464.6040428100000099
 21
709.247781009999926
 31
0.0
  0
LINE
  5
351
  8
SLD-0_1
  6
PHANTOM
 62
     0
 10
451.0202078499997924
 20
745.9983872799997471
 30
0.0
 11
454.7264560899999992
 21
745.9983872799997471
 31
0.0
  0
LINE
  5
352
  8
SLD-0_1
  6
PHANTOM
 62
     0
 10
451.0202078499997924
 20
754.2948348200000055
 30
0.0
 11
454.7264560899999992
 21
754.2948348200000055
 31
0.0
  0
LINE
  5
353
  8
SLD-0_1
  6
PHANTOM
 62
     0
 10
454.7264560899999992
 20
761.6066968499999348
 30
0.0
 11
451.0202078499997924
 21
761.6066968499999348
 31
0.0
  0
LINE
  5
354
  8
SLD-0_1
  6
PHANTOM
 62
     0
 10
464.6040428100000099
 20
709.247781009999926
 30
0.0
 11
464.6040428100000099
 21
792.2312954499998341
 31
0.0
  0
LINE
  5
355
  8
SLD-0_1
  6
PHANTOM
 62
     0
 10
442.1281132699999148
 20
754.2948348200000055
 30
0.0
 11
438.4236782699999253
 21
754.2948348200000055
 31
0.0
  0
LINE
  5
356
  8
SLD-0_1
  6
PHANTOM
 62
     0
 10
451.0202078499997924
 20
721.105418149999764
 30
0.0
 11
454.7264560899999992
 21
721.105418149999764
 31
0.0
  0
LINE
  5
357
  8
SLD-0_1
  6
PHANTOM
 62
     0
 10
454.7264560899999992
 20
728.4127471000000469
 30
0.0
 11
451.0202078499997924
 21
728.4127471000000469
 31
0.0
  0
LINE
  5
358
  8
SLD-0_1
  6
PHANTOM
 62
     0
 10
454.7264560899999992
 20
762.5921889799998326
 30
0.0
 11
438.4236782699999253
 21
762.5921889799998326
 31
0.0
  0
CIRCLE
  5
35E
  8
SLD-0_4
  6
PHANTOM
 62
     0
 10
436.1914528099998734
 20
362.9426431900000125
 30
0.0
 40
2.6164181400000071
  0
CIRCLE
  5
35F
  8
SLD-0_4
  6
PHANTOM
 62
     0
 10
444.1750109299999849
 20
362.9426431900000125
 30
0.0
 40
2.616418140000063
  0
CIRCLE
  5
360
  8
SLD-0_4
  6
PHANTOM
 62
     0
 10
452.1595261999999025
 20
362.9426431900000125
 30
0.0
 40
2.6164181400000071
  0
CIRCLE
  5
361
  8
SLD-0_4
  6
PHANTOM
 62
     0
 10
460.143084320000014
 20
362.9426431900000125
 30
0.0
 40
2.6164181400000071
  0
ARC
  5
362
  8
SLD-0_4
  6
PHANTOM
 62
     0
 10
688.0397860999997874
 20
284.0945610900000133
 30
0.0
 40
1.0
 50
270.0
 51
0.0
  0
CIRCLE
  5
363
  8
SLD-0_4
  6
PHANTOM
 62
     0
 10
664.0397860999999011
 20
279.6519966999999838
 30
0.0
 40
2.500177559999996
  0
ARC
  5
364
  8
SLD-0_4
  6
PHANTOM
 62
     0
 10
688.0397860999997874
 20
362.0945610900000133
 30
0.0
 40
1.0
 50
0.0
 51
90.0
  0
ARC
  5
365
  8
SLD-0_4
  6
PHANTOM
 62
     0
 10
640.0397860999999011
 20
284.0945610900000133
 30
0.0
 40
1.0
 50
180.0
 51
270.0
  0
CIRCLE
  5
366
  8
SLD-0_4
  6
PHANTOM
 62
     0
 10
664.0397860999999011
 20
366.5371254700000918
 30
0.0
 40
2.500177559999996
  0
ARC
  5
367
  8
SLD-0_4
  6
PHANTOM
 62
     0
 10
640.0397860999999011
 20
362.0945610900000133
 30
0.0
 40
1.0
 50
90.0
 51
180.0
  0
ARC
  5
368
  8
SLD-0_4
  6
PHANTOM
 62
     0
 10
490.4022444499998983
 20
161.5941710900000032
 30
0.0
 40
1.5000000000000271
 50
0.0
 51
90.0
  0
ARC
  5
369
  8
SLD-0_4
  6
PHANTOM
 62
     0
 10
488.1045909699998901
 20
161.5941710900000032
 30
0.0
 40
1.5000000000000271
 50
90.0
 51
180.0
  0
ARC
  5
36A
  8
SLD-0_4
  6
CONTINUOUS
 62
     0
 10
711.73242029000005
 20
348.0945610900000133
 30
0.0
 40
3.5
 50
90.0
 51
270.0
  0
ARC
  5
36B
  8
SLD-0_4
  6
CONTINUOUS
 62
     0
 10
406.7324202899999932
 20
348.0945610900000133
 30
0.0
 40
3.5
 50
270.0
 51
90.0
  0
ARC
  5
36C
  8
SLD-0_4
  6
CONTINUOUS
 62
     0
 10
711.73242029000005
 20
298.0945610900000133
 30
0.0
 40
3.5000000000000551
 50
90.0
 51
270.0
  0
ARC
  5
36D
  8
SLD-0_4
  6
CONTINUOUS
 62
     0
 10
406.7324202899999932
 20
298.0945610900000133
 30
0.0
 40
3.5000000000000551
 50
270.0
 51
90.0
  0
ARC
  5
36E
  8
SLD-0_5
  6
PHANTOM
 62
     0
 10
621.1045909700000038
 20
161.5941710799999953
 30
0.0
 40
1.5
 50
90.0
 51
180.0
  0
ARC
  5
36F
  8
SLD-0_5
  6
PHANTOM
 62
     0
 10
623.4022444499997846
 20
161.5941710799999953
 30
0.0
 40
1.5
 50
0.0
 51
90.0
  0
CIRCLE
  5
370
  8
SLD-0
  6
PHANTOM
 62
     0
 10
428.2069375399998989
 20
362.9426431900000125
 30
0.0
 40
2.6164181400000071
  0
CIRCLE
  5
371
  8
SLD-0
  6
PHANTOM
 62
     0
 10
664.0397860999999011
 20
794.2345911099999967
 30
0.0
 40
2.500177559999996
  0
ARC
  5
372
  8
SLD-0
  6
PHANTOM
 62
     0
 10
688.0397860999997874
 20
789.7920267299998613
 30
0.0
 40
1.0
 50
0.0
 51
90.0
  0
ARC
  5
373
  8
SLD-0
  6
PHANTOM
 62
     0
 10
688.0397860999997874
 20
711.7920267299997477
 30
0.0
 40
1.0
 50
270.0
 51
0.0
  0
ARC
  5
374
  8
SLD-0
  6
PHANTOM
 62
     0
 10
640.0397860999999011
 20
711.7920267299997477
 30
0.0
 40
1.0
 50
180.0
 51
270.0
  0
ARC
  5
375
  8
SLD-0
  6
PHANTOM
 62
     0
 10
640.0397860999999011
 20
789.7920267299998613
 30
0.0
 40
1.0
 50
90.0
 51
180.0
  0
CIRCLE
  5
376
  8
SLD-0
  6
PHANTOM
 62
     0
 10
664.0397860999999011
 20
707.3494623399999455
 30
0.0
 40
2.500177559999996
  0
CIRCLE
  5
377
  8
SLD-0
  6
PHANTOM
 62
     0
 10
446.5775277600000095
 20
757.9441332000000102
 30
0.0
 40
3.3605157400000381
  0
ARC
  5
378
  8
SLD-0_0
  6
CONTINUOUS
 62
     0
 10
406.7324202899999932
 20
725.7920267299997477
 30
0.0
 40
3.5000000000001119
 50
270.0
 51
90.0
  0
ARC
  5
379
  8
SLD-0_0
  6
CONTINUOUS
 62
     0
 10
711.73242029000005
 20
725.7920267299997477
 30
0.0
 40
3.5000000000001119
 50
90.0
 51
270.0
  0
ARC
  5
37A
  8
SLD-0_0
  6
CONTINUOUS
 62
     0
 10
406.7324202899999932
 20
775.7920267299997477
 30
0.0
 40
3.5
 50
270.0
 51
90.0
  0
ARC
  5
37B
  8
SLD-0_0
  6
CONTINUOUS
 62
     0
 10
711.73242029000005
 20
775.7920267299997477
 30
0.0
 40
3.5
 50
90.0
 51
270.0
  0
ARC
  5
37C
  8
SLD-0_0
  6
PHANTOM
 62
     0
 10
623.4022444499997846
 20
586.7916367200000423
 30
0.0
 40
1.5
 50
0.0
 51
90.0
  0
ARC
  5
37D
  8
SLD-0_0
  6
PHANTOM
 62
     0
 10
621.1045909700000038
 20
586.7916367200000423
 30
0.0
 40
1.5
 50
90.0
 51
180.0
  0
ARC
  5
37E
  8
SLD-0_0
  6
PHANTOM
 62
     0
 10
490.4022444499998983
 20
586.7916367200000423
 30
0.0
 40
1.5
 50
0.0
 51
90.0
  0
ARC
  5
37F
  8
SLD-0_0
  6
PHANTOM
 62
     0
 10
488.1045909699998901
 20
586.7916367200000423
 30
0.0
 40
1.5
 50
90.0
 51
180.0
  0
CIRCLE
  5
380
  8
SLD-0_1
  6
PHANTOM
 62
     0
 10
446.5775277600000095
 20
749.6476856599997518
 30
0.0
 40
3.3605157400000381
  0
CIRCLE
  5
381
  8
SLD-0_1
  6
PHANTOM
 62
     0
 10
446.5775277600000095
 20
741.3503314900000305
 30
0.0
 40
3.3605157400000381
  0
CIRCLE
  5
382
  8
SLD-0_1
  6
PHANTOM
 62
     0
 10
446.5775277600000095
 20
733.0520706899999368
 30
0.0
 40
3.3605157400000381
  0
CIRCLE
  5
383
  8
SLD-0_1
  6
PHANTOM
 62
     0
 10
446.5775277600000095
 20
724.7547165299999961
 30
0.0
 40
3.3605157400000381
  0
INSERT
  5
387
  8
0
  2
*U3
 10
0.0
 20
0.0
 30
0.0
  0
INSERT
  5
388
  8
0
  2
*U4
 10
0.0
 20
0.0
 30
0.0
  0
LINE
  5
3EA
  8
0
 10
438.4236782699999253
 20
720.1172061699999176
 30
0.0
 11
454.7264560899999992
 21
720.1172061699999176
 31
0.0
  0
LINE
  5
3F8
  8
SLD-0
  6
PHANTOM
 62
     7
 10
454.8016663278111196
 20
655.2916358443601439
 30
0.0
 11
438.5052348278111936
 21
655.2916358443601439
 31
0.0
  0
LINE
  5
3F9
  8
SLD-0_1
  6
PHANTOM
 62
     7
 10
464.6738133478111195
 20
503.2916363802744968
 30
0.0
 11
464.6738133478111195
 21
639.7781376323952145
 31
0.0
  0
LINE
  5
3FA
  8
SLD-0_1
  6
PHANTOM
 62
     7
 10
431.1208434678110848
 20
639.7781376323952145
 30
0.0
 11
431.1208434678110848
 21
503.2916363802744968
 31
0.0
  0
LINE
  5
3FB
  8
SLD-0_1
  6
PHANTOM
 62
     7
 10
454.8016663278111196
 20
639.7781376323952145
 30
0.0
 11
454.8016663278111196
 21
655.2916358443601439
 31
0.0
  0
LINE
  5
3FC
  8
SLD-0_1
  6
PHANTOM
 62
     7
 10
464.6738133478111195
 20
639.7781376323952145
 30
0.0
 11
431.1208434678110848
 21
639.7781376323952145
 31
0.0
  0
LINE
  5
3FD
  8
SLD-0_1
  6
PHANTOM
 62
     7
 10
438.5052348278111936
 20
655.2916358443601439
 30
0.0
 11
438.5052348278111936
 21
639.7781376323952145
 31
0.0
  0
TEXT
  5
580
  8
0
 10
837.7128517393484799
 20
43.3948934859519966
 30
0.0
 40
10.0090446563048197
  1
002
  0
ENDSEC
  0
EOF
