  0
SECTION
  2
HEADER
  9
$ACADVER
  1
AC1009
  9
$INSBASE
 10
0.0
 20
0.0
 30
0.0
  9
$EXTMIN
 10
-277.1645752300000254
 20
-389.9248852399999805
 30
0.0
  9
$EXTMAX
 10
293.8333252700001026
 20
380.3998852499998975
 30
0.0
  9
$LIMMIN
 10
-305.7992775000000165
 20
-430.3669356999999991
  9
$LIMMAX
 10
296.8930275499999993
 20
420.8419356999999081
  9
$ORTHOMODE
 70
     0
  9
$REGENMODE
 70
     1
  9
$FILLMODE
 70
     1
  9
$QTEXTMODE
 70
     0
  9
$MIRRTEXT
 70
     1
  9
$DRAGMODE
 70
     2
  9
$LTSCALE
 40
0.2
  9
$OSMODE
 70
  1079
  9
$ATTMODE
 70
     1
  9
$TEXTSIZE
 40
9.5250000000000004
  9
$TRACEWID
 40
0.05
  9
$TEXTSTYLE
  7
STANDARD
  9
$CLAYER
  8
0
  9
$CELTYPE
  6
CONTINUOUS
  9
$CECOLOR
 62
   256
  9
$DIMSCALE
 40
1.0
  9
$DIMASZ
 40
0.18
  9
$DIMEXO
 40
0.0625
  9
$DIMDLI
 40
0.38
  9
$DIMRND
 40
0.0
  9
$DIMDLE
 40
0.0
  9
$DIMEXE
 40
0.18
  9
$DIMTP
 40
0.0
  9
$DIMTM
 40
0.0
  9
$DIMTXT
 40
0.18
  9
$DIMCEN
 40
0.09
  9
$DIMTSZ
 40
0.0
  9
$DIMTOL
 70
     0
  9
$DIMLIM
 70
     0
  9
$DIMTIH
 70
     1
  9
$DIMTOH
 70
     1
  9
$DIMSE1
 70
     0
  9
$DIMSE2
 70
     0
  9
$DIMTAD
 70
     0
  9
$DIMZIN
 70
     0
  9
$DIMBLK
  1

  9
$DIMASO
 70
     1
  9
$DIMSHO
 70
     1
  9
$DIMPOST
  1

  9
$DIMAPOST
  1

  9
$DIMALT
 70
     0
  9
$DIMALTD
 70
     2
  9
$DIMALTF
 40
25.3999999999999986
  9
$DIMLFAC
 40
1.0
  9
$DIMTOFL
 70
     0
  9
$DIMTVP
 40
0.0
  9
$DIMTIX
 70
     0
  9
$DIMSOXD
 70
     0
  9
$DIMSAH
 70
     0
  9
$DIMBLK1
  1

  9
$DIMBLK2
  1

  9
$DIMSTYLE
  2
STANDARD
  9
$DIMCLRD
 70
     0
  9
$DIMCLRE
 70
     0
  9
$DIMCLRT
 70
     0
  9
$DIMTFAC
 40
1.0
  9
$DIMGAP
 40
0.09
  9
$LUNITS
 70
     2
  9
$LUPREC
 70
     4
  9
$SKETCHINC
 40
0.1
  9
$FILLETRAD
 40
0.0
  9
$AUNITS
 70
     0
  9
$AUPREC
 70
     0
  9
$MENU
  1
acad
  9
$ELEVATION
 40
0.0
  9
$PELEVATION
 40
0.0
  9
$THICKNESS
 40
0.0
  9
$LIMCHECK
 70
     0
  9
$BLIPMODE
 70
     0
  9
$CHAMFERA
 40
0.0
  9
$CHAMFERB
 40
0.0
  9
$SKPOLY
 70
     0
  9
$TDCREATE
 40
2440588.749988425988704
  9
$TDUPDATE
 40
2459045.4836458340287209
  9
$TDINDWG
 40
0.0037152778
  9
$TDUSRTIMER
 40
0.0037152778
  9
$USRTIMER
 70
     1
  9
$ANGBASE
 50
0.0
  9
$ANGDIR
 70
     0
  9
$PDMODE
 70
     0
  9
$PDSIZE
 40
1.0
  9
$PLINEWID
 40
0.0
  9
$COORDS
 70
     1
  9
$SPLFRAME
 70
     0
  9
$SPLINETYPE
 70
     6
  9
$SPLINESEGS
 70
     8
  9
$ATTDIA
 70
     1
  9
$ATTREQ
 70
     1
  9
$HANDLING
 70
     1
  9
$HANDSEED
  5
5BE
  9
$SURFTAB1
 70
     6
  9
$SURFTAB2
 70
     6
  9
$SURFTYPE
 70
     6
  9
$SURFU
 70
     6
  9
$SURFV
 70
     6
  9
$UCSNAME
  2

  9
$UCSORG
 10
0.0
 20
0.0
 30
0.0
  9
$UCSXDIR
 10
1.0
 20
0.0
 30
0.0
  9
$UCSYDIR
 10
0.0
 20
1.0
 30
0.0
  9
$PUCSNAME
  2

  9
$PUCSORG
 10
0.0
 20
0.0
 30
0.0
  9
$PUCSXDIR
 10
1.0
 20
0.0
 30
0.0
  9
$PUCSYDIR
 10
0.0
 20
1.0
 30
0.0
  9
$USERI1
 70
     0
  9
$USERI2
 70
     0
  9
$USERI3
 70
     0
  9
$USERI4
 70
     0
  9
$USERI5
 70
     0
  9
$USERR1
 40
0.0
  9
$USERR2
 40
0.0
  9
$USERR3
 40
0.0
  9
$USERR4
 40
0.0
  9
$USERR5
 40
0.0
  9
$WORLDVIEW
 70
     1
  9
$SHADEDGE
 70
     3
  9
$SHADEDIF
 70
    70
  9
$TILEMODE
 70
     1
  9
$MAXACTVP
 70
    16
  9
$PLIMCHECK
 70
     0
  9
$PEXTMIN
 10
1.0000000000000000E+20
 20
1.0000000000000000E+20
 30
1.0000000000000000E+20
  9
$PEXTMAX
 10
-1.0000000000000000E+20
 20
-1.0000000000000000E+20
 30
-1.0000000000000000E+20
  9
$PLIMMIN
 10
0.0
 20
0.0
  9
$PLIMMAX
 10
12.0
 20
9.0
  9
$UNITMODE
 70
     0
  9
$VISRETAIN
 70
     0
  9
$PLINEGEN
 70
     1
  9
$PSLTSCALE
 70
     0
  0
ENDSEC
  0
SECTION
  2
TABLES
  0
TABLE
  2
VPORT
 70
     1
  0
VPORT
  2
*ACTIVE
 70
     0
 10
0.0
 20
0.0
 11
1.0
 21
1.0
 12
30.9243805328419512
 22
-12.6074017134805008
 13
0.0
 23
0.0
 14
1.0
 24
1.0
 15
0.0
 25
0.0
 16
0.0
 26
0.0
 36
1.0
 17
0.0
 27
0.0
 37
0.0
 40
925.7616685556369021
 41
2.1052631578947358
 42
50.0
 43
0.0
 44
0.0
 50
0.0
 51
0.0
 71
     0
 72
   100
 73
     1
 74
     1
 75
     0
 76
     0
 77
     0
 78
     0
  0
ENDTAB
  0
TABLE
  2
LTYPE
 70
    30
  0
LTYPE
  2
CONTINUOUS
 70
     0
  3
Solid line
 72
    65
 73
     0
 40
0.0
  0
LTYPE
  2
HIDDENX2
 70
     0
  3
CADPAC LINETYPE
 72
    65
 73
     2
 40
45.3057216699999898
 49
33.9792912599999966
 49
-11.3264304199999994
  0
LTYPE
  2
HIDDEN
 70
     0
  3
CADPAC LINETYPE
 72
    65
 73
     2
 40
33.9792912599999966
 49
22.6528608399999989
 49
-11.3264304199999994
  0
LTYPE
  2
HIDDEN2
 70
     0
  3
CADPAC LINETYPE
 72
    65
 73
     2
 40
28.3160760499999995
 49
16.9896456299999983
 49
-11.3264304199999994
  0
LTYPE
  2
DASHED
 70
     0
  3
CADPAC LINETYPE
 72
    65
 73
     2
 40
33.9792912599999966
 49
22.6528608399999989
 49
-11.3264304199999994
  0
LTYPE
  2
DASHED2
 70
     0
  3
CADPAC LINETYPE
 72
    65
 73
     2
 40
25.4844684400000006
 49
16.9896456299999983
 49
-8.4948228100000005
  0
LTYPE
  2
DASHEDX2
 70
     0
  3
CADPAC LINETYPE
 72
    65
 73
     2
 40
50.9689368800000011
 49
33.9792912599999966
 49
-16.9896456299999983
  0
LTYPE
  2
DOTX2
 70
     0
  3
CADPAC LINETYPE
 72
    65
 73
     2
 40
14.1580380199999993
 49
0.0
 49
-14.1580380199999993
  0
LTYPE
  2
DOT
 70
     0
  3
CADPAC LINETYPE
 72
    65
 73
     2
 40
11.3264304199999994
 49
0.0
 49
-11.3264304199999994
  0
LTYPE
  2
DOT2
 70
     0
  3
CADPAC LINETYPE
 72
    65
 73
     2
 40
8.4948228100000005
 49
0.0
 49
-8.4948228100000005
  0
LTYPE
  2
CENTERX2
 70
     0
  3
CADPAC LINETYPE
 72
    65
 73
     4
 40
67.9585825099999994
 49
28.3160760499999995
 49
-14.1580380199999993
 49
11.3264304199999994
 49
-14.1580380199999993
  0
LTYPE
  2
CENTER
 70
     0
  3
CADPAC LINETYPE
 72
    65
 73
     4
 40
52.1015799299999998
 49
22.6528608399999989
 49
-11.3264304199999994
 49
6.7958582500000002
 49
-11.3264304199999994
  0
LTYPE
  2
CENTER2
 70
     0
  3
CADPAC LINETYPE
 72
    65
 73
     4
 40
36.2445773399999993
 49
16.9896456299999983
 49
-8.4948228100000005
 49
2.2652860800000001
 49
-8.4948228100000005
  0
LTYPE
  2
DASHDOTX2
 70
     0
  3
CADPAC LINETYPE
 72
    65
 73
     4
 40
56.6321520899999982
 49
28.3160760499999995
 49
-14.1580380199999993
 49
0.0
 49
-14.1580380199999993
  0
LTYPE
  2
DASHDOT
 70
     0
  3
CADPAC LINETYPE
 72
    65
 73
     4
 40
45.3057216699999898
 49
22.6528608399999989
 49
-11.3264304199999994
 49
0.0
 49
-11.3264304199999994
  0
LTYPE
  2
DASHDOT2
 70
     0
  3
CADPAC LINETYPE
 72
    65
 73
     4
 40
33.9792912599999966
 49
16.9896456299999983
 49
-8.4948228100000005
 49
0.0
 49
-8.4948228100000005
  0
LTYPE
  2
DIVIDEX2
 70
     0
  3
CADPAC LINETYPE
 72
    65
 73
     6
 40
70.7901901200000196
 49
28.3160760499999995
 49
-14.1580380199999993
 49
0.0
 49
-14.1580380199999993
 49
0.0
 49
-14.1580380199999993
  0
LTYPE
  2
DIVIDE
 70
     0
  3
CADPAC LINETYPE
 72
    65
 73
     6
 40
56.6321520899999982
 49
22.6528608399999989
 49
-11.3264304199999994
 49
0.0
 49
-11.3264304199999994
 49
0.0
 49
-11.3264304199999994
  0
LTYPE
  2
DIVIDE2
 70
     0
  3
CADPAC LINETYPE
 72
    65
 73
     6
 40
42.4741140699999988
 49
16.9896456299999983
 49
-8.4948228100000005
 49
0.0
 49
-8.4948228100000005
 49
0.0
 49
-8.4948228100000005
  0
LTYPE
  2
BORDERX2
 70
     0
  3
CADPAC LINETYPE
 72
    65
 73
     6
 40
99.1062661600000041
 49
28.3160760499999995
 49
-14.1580380199999993
 49
28.3160760499999995
 49
-14.1580380199999993
 49
0.0
 49
-14.1580380199999993
  0
LTYPE
  2
BORDER
 70
     0
  3
CADPAC LINETYPE
 72
    65
 73
     6
 40
79.2850129299999935
 49
22.6528608399999989
 49
-11.3264304199999994
 49
22.6528608399999989
 49
-11.3264304199999994
 49
0.0
 49
-11.3264304199999994
  0
LTYPE
  2
BORDER2
 70
     0
  3
CADPAC LINETYPE
 72
    65
 73
     6
 40
59.4637596999999971
 49
16.9896456299999983
 49
-8.4948228100000005
 49
16.9896456299999983
 49
-8.4948228100000005
 49
0.0
 49
-8.4948228100000005
  0
LTYPE
  2
PHANTOMX2
 70
     0
  3
CADPAC LINETYPE
 72
    65
 73
     6
 40
84.9482281399999835
 49
28.3160760499999995
 49
-11.3264304199999994
 49
11.3264304199999994
 49
-11.3264304199999994
 49
11.3264304199999994
 49
-11.3264304199999994
  0
LTYPE
  2
PHANTOM
 70
     0
  3
CADPAC LINETYPE
 72
    65
 73
     6
 40
70.223868589999995
 49
22.6528608399999989
 49
-11.3264304199999994
 49
6.7958582500000002
 49
-11.3264304199999994
 49
6.7958582500000002
 49
-11.3264304199999994
  0
LTYPE
  2
PHANTOM2
 70
     0
  3
CADPAC LINETYPE
 72
    65
 73
     6
 40
60.0300812199999996
 49
16.9896456299999983
 49
-11.3264304199999994
 49
4.5305721700000001
 49
-11.3264304199999994
 49
4.5305721700000001
 49
-11.3264304199999994
  0
LTYPE
  2
ACAD_ISO06W100
 70
     0
  3
CADPAC LINETYPE
 72
    65
 73
     8
 40
76.4534053200000017
 49
28.3160760499999995
 49
-14.1580380199999993
 49
0.0
 49
-11.3264304199999994
 49
0.0
 49
-11.3264304199999994
 49
0.0
 49
-11.3264304199999994
  0
LTYPE
  2
ACAD_ISO13W100
 70
     0
  3
CADPAC LINETYPE
 72
    65
 73
     8
 40
90.6114433499999876
 49
22.6528608399999989
 49
-11.3264304199999994
 49
22.6528608399999989
 49
-11.3264304199999994
 49
0.0
 49
-11.3264304199999994
 49
0.0
 49
-11.3264304199999994
  0
LTYPE
  2
ACAD_ISO14W100
 70
     0
  3
CADPAC LINETYPE
 72
    65
 73
     8
 40
67.9585825099999994
 49
22.6528608399999989
 49
-11.3264304199999994
 49
0.0
 49
-11.3264304199999994
 49
0.0
 49
-11.3264304199999994
 49
0.0
 49
-11.3264304199999994
  0
ENDTAB
  0
TABLE
  2
LAYER
 70
     8
  0
LAYER
  2
0
 70
     0
 62
     7
  6
CONTINUOUS
  0
LAYER
  2
SLD-0_5
 70
     0
 62
     7
  6
CONTINUOUS
  0
LAYER
  2
SLD-0_4
 70
     0
 62
     7
  6
CONTINUOUS
  0
LAYER
  2
SLD-0_3
 70
     0
 62
     7
  6
CONTINUOUS
  0
LAYER
  2
SLD-0_1
 70
     0
 62
     7
  6
CONTINUOUS
  0
LAYER
  2
SLD-0_0
 70
     0
 62
     7
  6
CONTINUOUS
  0
LAYER
  2
SLD-0_2
 70
     0
 62
     7
  6
CONTINUOUS
  0
LAYER
  2
SLD-0
 70
     0
 62
     7
  6
CONTINUOUS
  0
ENDTAB
  0
TABLE
  2
STYLE
 70
     3
  0
STYLE
  2
STANDARD
 70
     0
 40
0.0
 41
1.0
 50
0.0
 71
     0
 42
9.5250000000000004
  3
txt.shx
  4
bigfont.shx
  0
STYLE
  2
ANNOTATIVE
 70
     0
 40
0.0
 41
1.0
 50
0.0
 71
     0
 42
0.2
  3
txt
  4

  0
STYLE
  2

 70
     1
 40
0.0
 41
1.0
 50
0.0
 71
     0
 42
0.2
  3
ltypeshp.shx
  4

  0
ENDTAB
  0
TABLE
  2
VIEW
 70
     1
  0
VIEW
  2
QQQQ
 70
     0
 40
851.208871390000013
 10
-4.4531249800000001
 20
-4.7625000000000002
 41
602.6923050499998453
 11
0.0
 21
0.0
 31
1.0
 12
100.0
 22
100.0
 32
0.0
 42
50.0
 43
0.0
 44
0.0
 50
0.0
 71
     0
  0
ENDTAB
  0
TABLE
  2
UCS
 70
     0
  0
ENDTAB
  0
TABLE
  2
APPID
 70
     5
  0
APPID
  2
ACAD
 70
     0
  0
APPID
  2
ACADANNOTATIVE
 70
     0
  0
APPID
  2
ACAD_EXEMPT_FROM_CAD_STANDARDS
 70
     0
  0
APPID
  2
ACAD_NAV_VCDISPLAY
 70
     0
  0
APPID
  2
ACAD_MLEADERVER
 70
     0
  0
ENDTAB
  0
TABLE
  2
DIMSTYLE
 70
     4
  0
DIMSTYLE
  2
STANDARD
 70
     0
  3

  4

  5

  6

  7

 40
1.0
 41
0.18
 42
0.0625
 43
0.38
 44
0.18
 45
0.0
 46
0.0
 47
0.0
 48
0.0
140
0.18
141
0.09
142
0.0
143
25.3999999999999986
144
1.0
145
0.0
146
1.0
147
0.09
 71
     0
 72
     0
 73
     1
 74
     1
 75
     0
 76
     0
 77
     0
 78
     0
170
     0
171
     2
172
     0
173
     0
174
     0
175
     0
176
     0
177
     0
178
     0
  0
DIMSTYLE
  2
ANNOTATIVE
 70
     0
  3

  4

  5

  6

  7

 40
1.0
 41
0.18
 42
0.0625
 43
0.38
 44
0.18
 45
0.0
 46
0.0
 47
0.0
 48
0.0
140
0.18
141
0.09
142
0.0
143
25.3999999999999986
144
1.0
145
0.0
146
1.0
147
0.09
 71
     0
 72
     0
 73
     1
 74
     1
 75
     0
 76
     0
 77
     0
 78
     0
170
     0
171
     2
172
     0
173
     0
174
     0
175
     0
176
     0
177
     0
178
     0
  0
DIMSTYLE
  2
ISO-25
 70
     0
  3

  4

  5

  6

  7

 40
1.0
 41
2.5
 42
0.625
 43
3.75
 44
1.25
 45
0.0
 46
0.0
 47
0.0
 48
0.0
140
2.5
141
2.5
142
0.0
143
0.0393700787
144
1.0
145
0.0
146
1.0
147
0.625
 71
     0
 72
     0
 73
     0
 74
     0
 75
     0
 76
     0
 77
     1
 78
     8
170
     0
171
     3
172
     1
173
     0
174
     0
175
     0
176
     0
177
     0
178
     0
  0
ENDTAB
  0
ENDSEC
  0
SECTION
  2
BLOCKS
  0
BLOCK
  8
0
  2
$MODEL_SPACE
 70
     0
 10
0.0
 20
0.0
 30
0.0
  3
$MODEL_SPACE
  1

  0
ENDBLK
  5
522
  8
0
  0
BLOCK
 67
     1
  8
0
  2
$PAPER_SPACE
 70
     0
 10
0.0
 20
0.0
 30
0.0
  3
$PAPER_SPACE
  1

  0
ENDBLK
  5
51E
 67
     1
  8
0
  0
ENDSEC
  0
SECTION
  2
ENTITIES
  0
LINE
  5
40
  8
SLD-0_4
  6
PHANTOM
 62
     7
 10
-175.3788632899999982
 20
-70.6715779499999854
 30
0.0
 11
-176.1082088400000032
 21
-70.6715779499999854
 31
0.0
  0
LINE
  5
41
  8
SLD-0_4
  6
PHANTOM
 62
     7
 10
-136.1885039400000039
 20
-61.2054000500000015
 30
0.0
 11
-136.1885039400000039
 21
-61.9270884399999986
 31
0.0
  0
LINE
  5
42
  8
SLD-0_4
  6
PHANTOM
 62
     7
 10
-136.1885039400000039
 20
-70.6715779499999854
 30
0.0
 11
-136.1885039400000039
 21
-71.7052960700000028
 31
0.0
  0
LINE
  5
43
  8
SLD-0_4
  6
PHANTOM
 62
     7
 10
-167.3953051599999924
 20
-70.6715779499999854
 30
0.0
 11
-168.1246507200000053
 21
-70.6715779499999854
 31
0.0
  0
LINE
  5
44
  8
SLD-0_4
  6
PHANTOM
 62
     7
 10
-141.2881799600000079
 20
-70.6715779499999854
 30
0.0
 11
-142.009868339999997
 21
-70.6715779499999854
 31
0.0
  0
LINE
  5
45
  8
SLD-0_4
  6
PHANTOM
 62
     7
 10
-149.9943836099999999
 20
-70.6715779499999854
 30
0.0
 11
-149.9943836099999999
 21
-61.9270884399999986
 31
0.0
  0
LINE
  5
46
  8
SLD-0_4
  6
PHANTOM
 62
     7
 10
-157.2562533500000086
 20
-71.7052960700000028
 30
0.0
 11
-157.2562533500000086
 21
-70.6715779499999854
 31
0.0
  0
LINE
  5
47
  8
SLD-0_4
  6
PHANTOM
 62
     7
 10
-165.2388543200000015
 20
-70.6715779499999854
 30
0.0
 11
-165.9605427099999986
 21
-70.6715779499999854
 31
0.0
  0
LINE
  5
48
  8
SLD-0_4
  6
PHANTOM
 62
     7
 10
-175.9742635300000018
 20
-298.325232949999986
 30
0.0
 11
-175.9742635300000018
 21
-310.3278488099999777
 31
0.0
  0
LINE
  5
49
  8
SLD-0_4
  6
PHANTOM
 62
     7
 10
-129.6425797100000068
 20
-310.3278488099999777
 30
0.0
 11
-179.6425797100000068
 21
-310.3278488099999777
 31
0.0
  0
LINE
  5
4A
  8
SLD-0_4
  6
PHANTOM
 62
     7
 10
-133.1907765900000129
 20
-310.3278488099999777
 30
0.0
 11
-133.1907765900000129
 21
-298.325232949999986
 31
0.0
  0
LINE
  5
4B
  8
SLD-0_4
  6
PHANTOM
 62
     7
 10
-133.1907765900000129
 20
-298.325232949999986
 30
0.0
 11
-175.9742635300000018
 21
-298.325232949999986
 31
0.0
  0
LINE
  5
4C
  8
SLD-0_4
  6
PHANTOM
 62
     7
 10
-176.1082088400000032
 20
-61.9270884399999986
 30
0.0
 11
-175.3788632899999982
 21
-61.9270884399999986
 31
0.0
  0
LINE
  5
4D
  8
SLD-0_4
  6
PHANTOM
 62
     7
 10
-135.459158379999991
 20
-61.9270884399999986
 30
0.0
 11
-135.459158379999991
 21
-70.6715779499999854
 31
0.0
  0
LINE
  5
4E
  8
SLD-0_4
  6
PHANTOM
 62
     7
 10
-152.1565773300000046
 20
-61.9270884399999986
 30
0.0
 11
-151.4272317699999917
 21
-61.9270884399999986
 31
0.0
  0
LINE
  5
4F
  8
SLD-0_4
  6
PHANTOM
 62
     7
 10
40.1647861000000006
 20
-145.2052672599999994
 30
0.0
 11
40.1647861000000006
 21
-67.2052672599999994
 31
0.0
  0
LINE
  5
50
  8
SLD-0_4
  6
PHANTOM
 62
     7
 10
-168.1246507200000053
 20
-70.6715779499999854
 30
0.0
 11
-168.1246507200000053
 21
-71.7052960700000028
 31
0.0
  0
LINE
  5
51
  8
SLD-0_4
  6
PHANTOM
 62
     7
 10
69.5736777700000033
 20
-146.2308446199999992
 30
0.0
 11
69.5736777700000033
 21
-153.0667842100000087
 31
0.0
  0
LINE
  5
52
  8
SLD-0_4
  6
PHANTOM
 62
     7
 10
41.1647861000000006
 20
-66.2052672599999994
 30
0.0
 11
89.1647860999999864
 21
-66.2052672599999994
 31
0.0
  0
LINE
  5
53
  8
SLD-0_4
  6
PHANTOM
 62
     7
 10
69.0683044700000011
 20
-124.4086482900000021
 30
0.0
 11
69.0683044700000011
 21
-128.019004510000002
 31
0.0
  0
LINE
  5
54
  8
SLD-0_4
  6
PHANTOM
 62
     7
 10
57.5461761099999975
 20
-81.3102601899999939
 30
0.0
 11
55.3772823700000032
 21
-81.2949458500000048
 31
0.0
  0
LINE
  5
55
  8
SLD-0_4
  6
PHANTOM
 62
     7
 10
74.0837516099999931
 20
-118.1412536699999976
 30
0.0
 11
74.0837516099999931
 21
-114.4361399499999976
 31
0.0
  0
LINE
  5
56
  8
SLD-0_4
  6
PHANTOM
 62
     7
 10
-176.1082088400000032
 20
-71.7052960700000028
 30
0.0
 11
-133.3027075400000001
 21
-71.7052960700000028
 31
0.0
  0
LINE
  5
57
  8
SLD-0_4
  6
PHANTOM
 62
     7
 10
57.5131852199999969
 20
-146.2052672599999994
 30
0.0
 11
60.7526165499999991
 21
-153.0667842100000087
 31
0.0
  0
LINE
  5
58
  8
SLD-0_4
  6
PHANTOM
 62
     7
 10
53.166274180000002
 20
-83.2532673799999969
 30
0.0
 11
53.1605313000000024
 21
-84.9818737800000008
 31
0.0
  0
LINE
  5
59
  8
SLD-0_4
  6
PHANTOM
 62
     7
 10
-167.3953051599999924
 20
-61.9270884399999986
 30
0.0
 11
-167.3953051599999924
 21
-70.6715779499999854
 31
0.0
  0
LINE
  5
5A
  8
SLD-0_4
  6
PHANTOM
 62
     7
 10
74.0837516099999931
 20
-119.3759725200000048
 30
0.0
 11
66.6735241800000011
 21
-119.3759725200000048
 31
0.0
  0
LINE
  5
5B
  8
SLD-0_4
  6
PHANTOM
 62
     7
 10
69.5736777700000033
 20
-153.0667842100000087
 30
0.0
 11
73.1728739400000023
 21
-146.2052672599999994
 31
0.0
  0
LINE
  5
5C
  8
SLD-0_4
  6
PHANTOM
 62
     7
 10
66.6735241800000011
 20
-129.2575519600000007
 30
0.0
 11
66.6735241800000011
 21
-132.9626656700000069
 31
0.0
  0
LINE
  5
5D
  8
SLD-0_4
  6
PHANTOM
 62
     7
 10
53.1605313000000024
 20
-74.2005767400000025
 30
0.0
 11
53.166274180000002
 21
-75.939711740000007
 31
0.0
  0
LINE
  5
5E
  8
SLD-0_4
  6
PHANTOM
 62
     7
 10
-176.1082088400000032
 20
-61.2054000500000015
 30
0.0
 11
-176.1082088400000032
 21
-61.9270884399999986
 31
0.0
  0
LINE
  5
5F
  8
SLD-0_4
  6
PHANTOM
 62
     7
 10
-176.1082088400000032
 20
-70.6715779499999854
 30
0.0
 11
-176.1082088400000032
 21
-71.7052960700000028
 31
0.0
  0
LINE
  5
60
  8
SLD-0_4
  6
PHANTOM
 62
     7
 10
-136.1885039400000039
 20
-61.9270884399999986
 30
0.0
 11
-135.459158379999991
 21
-61.9270884399999986
 31
0.0
  0
LINE
  5
61
  8
SLD-0_4
  6
PHANTOM
 62
     7
 10
-165.2388543200000015
 20
-71.7052960700000028
 30
0.0
 11
-165.2388543200000015
 21
-70.6715779499999854
 31
0.0
  0
LINE
  5
62
  8
SLD-0_4
  6
PHANTOM
 62
     7
 10
87.1647860999999864
 20
-143.2052672599999994
 30
0.0
 11
87.1647860999999864
 21
-69.2052672599999994
 31
0.0
  0
LINE
  5
63
  8
SLD-0_4
  6
PHANTOM
 62
     7
 10
74.0837516099999931
 20
-114.4361399499999976
 30
0.0
 11
66.6735241800000011
 21
-114.4361399499999976
 31
0.0
  0
LINE
  5
64
  8
SLD-0_4
  6
PHANTOM
 62
     7
 10
69.0683044700000011
 20
-119.3740582300000028
 30
0.0
 11
69.0683044700000011
 21
-123.0791719399999948
 31
0.0
  0
LINE
  5
65
  8
SLD-0_4
  6
PHANTOM
 62
     7
 10
-133.3027075400000001
 20
-70.6715779499999854
 30
0.0
 11
-134.0243959299999972
 21
-70.6715779499999854
 31
0.0
  0
LINE
  5
66
  8
SLD-0_4
  6
PHANTOM
 62
     7
 10
69.0683044700000011
 20
-114.4619828999999953
 30
0.0
 11
69.0683044700000011
 21
-118.1412536699999976
 31
0.0
  0
LINE
  5
67
  8
SLD-0_4
  6
PHANTOM
 62
     7
 10
58.3635791399999988
 20
-85.756205219999984
 30
0.0
 11
45.6009890400000018
 21
-85.756205219999984
 31
0.0
  0
LINE
  5
68
  8
SLD-0_4
  6
PHANTOM
 62
     7
 10
-159.4107898899999043
 20
-61.9270884399999986
 30
0.0
 11
-159.4107898899999043
 21
-70.6715779499999854
 31
0.0
  0
LINE
  5
69
  8
SLD-0_4
  6
PHANTOM
 62
     7
 10
-168.1246507200000053
 20
-61.2054000500000015
 30
0.0
 11
-168.1246507200000053
 21
-61.9270884399999986
 31
0.0
  0
LINE
  5
6A
  8
SLD-0_4
  6
PHANTOM
 62
     7
 10
-149.2726952200000028
 20
-61.9270884399999986
 30
0.0
 11
-149.2726952200000028
 21
-61.2054000500000015
 31
0.0
  0
LINE
  5
6B
  8
SLD-0_4
  6
PHANTOM
 62
     7
 10
-165.9605427099999986
 20
-70.6715779499999854
 30
0.0
 11
-165.9605427099999986
 21
-61.9270884399999986
 31
0.0
  0
LINE
  5
6C
  8
SLD-0_4
  6
PHANTOM
 62
     7
 10
66.6735241800000011
 20
-114.4361399499999976
 30
0.0
 11
66.6735241800000011
 21
-118.1412536699999976
 31
0.0
  0
LINE
  5
6D
  8
SLD-0_4
  6
PHANTOM
 62
     7
 10
57.5131852199999969
 20
-66.2052672599999994
 30
0.0
 11
60.7526165499999991
 21
-59.3437503099999972
 31
0.0
  0
LINE
  5
6E
  8
SLD-0_4
  6
PHANTOM
 62
     7
 10
69.5736777700000033
 20
-66.1796898999999996
 30
0.0
 11
69.5736777700000033
 21
-59.3437503099999972
 31
0.0
  0
LINE
  5
6F
  8
SLD-0_4
  6
PHANTOM
 62
     7
 10
-135.459158379999991
 20
-70.6715779499999854
 30
0.0
 11
-136.1885039400000039
 21
-70.6715779499999854
 31
0.0
  0
LINE
  5
70
  8
SLD-0_4
  6
PHANTOM
 62
     7
 10
-143.4427164999999889
 20
-61.9270884399999986
 30
0.0
 11
-143.4427164999999889
 21
-70.6715779499999854
 31
0.0
  0
LINE
  5
71
  8
SLD-0_4
  6
PHANTOM
 62
     7
 10
-149.9943836099999999
 20
-61.9270884399999986
 30
0.0
 11
-149.2726952200000028
 21
-61.9270884399999986
 31
0.0
  0
LINE
  5
72
  8
SLD-0_4
  6
PHANTOM
 62
     7
 10
74.0837516099999931
 20
-128.0209188100000119
 30
0.0
 11
74.0837516099999931
 21
-124.3177193799999998
 31
0.0
  0
LINE
  5
73
  8
SLD-0_4
  6
PHANTOM
 62
     7
 10
64.0547716300000047
 20
-133.6135252200000139
 30
0.0
 11
79.8687444499999941
 21
-133.6135252200000139
 31
0.0
  0
LINE
  5
74
  8
SLD-0_4
  6
PHANTOM
 62
     7
 10
66.6735241800000011
 20
-124.3177193799999998
 30
0.0
 11
66.6735241800000011
 21
-128.0209188100000119
 31
0.0
  0
LINE
  5
75
  8
SLD-0_4
  6
PHANTOM
 62
     7
 10
55.3772823700000032
 20
-77.8444330800000017
 30
0.0
 11
57.5461761099999975
 21
-77.8444330800000017
 31
0.0
  0
LINE
  5
76
  8
SLD-0_4
  6
PHANTOM
 62
     7
 10
-175.3788632899999982
 20
-61.9270884399999986
 30
0.0
 11
-175.3788632899999982
 21
-70.6715779499999854
 31
0.0
  0
LINE
  5
77
  8
SLD-0_4
  6
PHANTOM
 62
     7
 10
-141.2881799600000079
 20
-71.7052960700000028
 30
0.0
 11
-141.2881799600000079
 21
-70.6715779499999854
 31
0.0
  0
LINE
  5
78
  8
SLD-0_4
  6
PHANTOM
 62
     7
 10
-173.9441008299999964
 20
-61.9270884399999986
 30
0.0
 11
-173.2224124500000073
 21
-61.9270884399999986
 31
0.0
  0
LINE
  5
79
  8
SLD-0_4
  6
PHANTOM
 62
     7
 10
43.1647860999999935
 20
-69.2052672599999994
 30
0.0
 11
87.1647860999999864
 21
-69.2052672599999994
 31
0.0
  0
LINE
  5
7A
  8
SLD-0_4
  6
PHANTOM
 62
     7
 10
55.3677108999999916
 20
-83.2532673799999969
 30
0.0
 11
53.166274180000002
 21
-83.2532673799999969
 31
0.0
  0
LINE
  5
7B
  8
SLD-0_4
  6
PHANTOM
 62
     7
 10
-133.3027075400000001
 20
-71.7052960700000028
 30
0.0
 11
-133.3027075400000001
 21
-70.6715779499999854
 31
0.0
  0
LINE
  5
7C
  8
SLD-0_4
  6
PHANTOM
 62
     7
 10
-173.2224124500000073
 20
-61.9270884399999986
 30
0.0
 11
-173.2224124500000073
 21
-61.2054000500000015
 31
0.0
  0
LINE
  5
7D
  8
SLD-0_4
  6
PHANTOM
 62
     7
 10
43.1647860999999935
 20
-143.2052672599999994
 30
0.0
 11
87.1647860999999864
 21
-143.2052672599999994
 31
0.0
  0
LINE
  5
7E
  8
SLD-0_4
  6
PHANTOM
 62
     7
 10
60.7526165499999991
 20
-153.0667842100000087
 30
0.0
 11
69.5736777700000033
 21
-153.0667842100000087
 31
0.0
  0
LINE
  5
7F
  8
SLD-0_4
  6
PHANTOM
 62
     7
 10
66.6735241800000011
 20
-113.2014210899999966
 30
0.0
 11
74.0837516099999931
 21
-113.2014210899999966
 31
0.0
  0
LINE
  5
80
  8
SLD-0_4
  6
PHANTOM
 62
     7
 10
45.6411891899999986
 20
-84.9818737800000008
 30
0.0
 11
45.6411891899999986
 21
-74.2005767400000025
 31
0.0
  0
LINE
  5
81
  8
SLD-0_4
  6
PHANTOM
 62
     7
 10
79.8687444499999941
 20
-108.878947949999997
 30
0.0
 11
64.0547716300000047
 21
-108.878947949999997
 31
0.0
  0
LINE
  5
82
  8
SLD-0_4
  6
PHANTOM
 62
     7
 10
-144.1720620600000018
 20
-61.2054000500000015
 30
0.0
 11
-144.1720620600000018
 21
-61.9270884399999986
 31
0.0
  0
LINE
  5
83
  8
SLD-0_4
  6
PHANTOM
 62
     7
 10
-152.1565773300000046
 20
-61.2054000500000015
 30
0.0
 11
-152.1565773300000046
 21
-61.9270884399999986
 31
0.0
  0
LINE
  5
84
  8
SLD-0_4
  6
PHANTOM
 62
     7
 10
-168.1246507200000053
 20
-61.9270884399999986
 30
0.0
 11
-167.3953051599999924
 21
-61.9270884399999986
 31
0.0
  0
LINE
  5
85
  8
SLD-0_4
  6
PHANTOM
 62
     7
 10
-165.9605427099999986
 20
-61.9270884399999986
 30
0.0
 11
-165.2388543200000015
 21
-61.9270884399999986
 31
0.0
  0
LINE
  5
86
  8
SLD-0_4
  6
PHANTOM
 62
     7
 10
66.6735241800000011
 20
-123.0810862400000048
 30
0.0
 11
74.0837516099999931
 21
-123.0810862400000048
 31
0.0
  0
LINE
  5
87
  8
SLD-0_4
  6
PHANTOM
 62
     7
 10
90.1647861000000006
 20
-145.2052672599999994
 30
0.0
 11
90.1647861000000006
 21
-67.2052672599999994
 31
0.0
  0
LINE
  5
88
  8
SLD-0_4
  6
PHANTOM
 62
     7
 10
45.6411891899999986
 20
-74.2005767400000025
 30
0.0
 11
53.1605313000000024
 21
-74.2005767400000025
 31
0.0
  0
LINE
  5
89
  8
SLD-0_4
  6
PHANTOM
 62
     7
 10
66.6735241800000011
 20
-118.1412536699999976
 30
0.0
 11
74.0837516099999931
 21
-118.1412536699999976
 31
0.0
  0
LINE
  5
8A
  8
SLD-0_4
  6
PHANTOM
 62
     7
 10
69.0683044700000011
 20
-129.2575519600000007
 30
0.0
 11
69.0683044700000011
 21
-132.9607513800000049
 31
0.0
  0
LINE
  5
8B
  8
SLD-0_4
  6
PHANTOM
 62
     7
 10
66.6735241800000011
 20
-119.3759725200000048
 30
0.0
 11
66.6735241800000011
 21
-123.0810862400000048
 31
0.0
  0
LINE
  5
8C
  8
SLD-0_4
  6
PHANTOM
 62
     7
 10
60.7526165499999991
 20
-59.3437503099999972
 30
0.0
 11
69.5736777700000033
 21
-59.3437503099999972
 31
0.0
  0
LINE
  5
8D
  8
SLD-0_4
  6
PHANTOM
 62
     7
 10
74.0837516099999931
 20
-123.0810862400000048
 30
0.0
 11
74.0837516099999931
 21
-119.3759725200000048
 31
0.0
  0
LINE
  5
8E
  8
SLD-0_4
  6
PHANTOM
 62
     7
 10
57.5461761099999975
 20
-77.8444330800000017
 30
0.0
 11
57.5461761099999975
 21
-81.3102601899999939
 31
0.0
  0
LINE
  5
8F
  8
SLD-0_4
  6
PHANTOM
 62
     7
 10
-143.4427164999999889
 20
-70.6715779499999854
 30
0.0
 11
-144.1720620600000018
 21
-70.6715779499999854
 31
0.0
  0
LINE
  5
90
  8
SLD-0_4
  6
PHANTOM
 62
     7
 10
-151.4272317699999917
 20
-61.9270884399999986
 30
0.0
 11
-151.4272317699999917
 21
-70.6715779499999854
 31
0.0
  0
LINE
  5
91
  8
SLD-0_4
  6
PHANTOM
 62
     7
 10
-142.009868339999997
 20
-61.9270884399999986
 30
0.0
 11
-141.2881799600000079
 21
-61.9270884399999986
 31
0.0
  0
LINE
  5
92
  8
SLD-0_4
  6
PHANTOM
 62
     7
 10
-165.2388543200000015
 20
-61.9270884399999986
 30
0.0
 11
-165.2388543200000015
 21
-61.2054000500000015
 31
0.0
  0
LINE
  5
93
  8
SLD-0_4
  6
PHANTOM
 62
     7
 10
-173.9441008299999964
 20
-70.6715779499999854
 30
0.0
 11
-173.9441008299999964
 21
-61.9270884399999986
 31
0.0
  0
LINE
  5
94
  8
SLD-0_4
  6
PHANTOM
 62
     7
 10
74.0837516099999931
 20
-113.2014210899999966
 30
0.0
 11
74.0837516099999931
 21
-109.4963073899999983
 31
0.0
  0
LINE
  5
95
  8
SLD-0_4
  6
PHANTOM
 62
     7
 10
74.0837516099999931
 20
-129.2575519600000007
 30
0.0
 11
66.6735241800000011
 21
-129.2575519600000007
 31
0.0
  0
LINE
  5
96
  8
SLD-0_4
  6
PHANTOM
 62
     7
 10
69.5736777700000033
 20
-59.3437503099999972
 30
0.0
 11
73.1728739400000023
 21
-66.2052672599999994
 31
0.0
  0
LINE
  5
97
  8
SLD-0_4
  6
PHANTOM
 62
     7
 10
69.0683044700000011
 20
-109.5518218699999977
 30
0.0
 11
69.0683044700000011
 21
-113.1995067999999947
 31
0.0
  0
LINE
  5
98
  8
SLD-0_4
  6
PHANTOM
 62
     7
 10
43.1647860999999935
 20
-143.2052672599999994
 30
0.0
 11
43.1647860999999935
 21
-69.2052672599999994
 31
0.0
  0
LINE
  5
99
  8
SLD-0_4
  6
PHANTOM
 62
     7
 10
60.7526165499999991
 20
-59.3437503099999972
 30
0.0
 11
60.7526165499999991
 21
-66.2052672599999994
 31
0.0
  0
LINE
  5
9A
  8
SLD-0_4
  6
PHANTOM
 62
     7
 10
53.1605313000000024
 20
-84.9818737800000008
 30
0.0
 11
45.6411891899999986
 21
-84.9818737800000008
 31
0.0
  0
LINE
  5
9B
  8
SLD-0_4
  6
PHANTOM
 62
     7
 10
64.0547716300000047
 20
-108.878947949999997
 30
0.0
 11
64.0547716300000047
 21
-133.6135252200000139
 31
0.0
  0
LINE
  5
9C
  8
SLD-0_4
  6
PHANTOM
 62
     7
 10
-133.3027075400000001
 20
-61.9270884399999986
 30
0.0
 11
-133.3027075400000001
 21
-61.2054000500000015
 31
0.0
  0
LINE
  5
9D
  8
SLD-0_4
  6
PHANTOM
 62
     7
 10
-144.1720620600000018
 20
-70.6715779499999854
 30
0.0
 11
-144.1720620600000018
 21
-71.7052960700000028
 31
0.0
  0
LINE
  5
9E
  8
SLD-0_4
  6
PHANTOM
 62
     7
 10
-160.1401354500000025
 20
-61.2054000500000015
 30
0.0
 11
-160.1401354500000025
 21
-61.9270884399999986
 31
0.0
  0
LINE
  5
9F
  8
SLD-0_4
  6
PHANTOM
 62
     7
 10
-142.009868339999997
 20
-70.6715779499999854
 30
0.0
 11
-142.009868339999997
 21
-61.9270884399999986
 31
0.0
  0
LINE
  5
A0
  8
SLD-0_4
  6
PHANTOM
 62
     7
 10
-149.2726952200000028
 20
-71.7052960700000028
 30
0.0
 11
-149.2726952200000028
 21
-70.6715779499999854
 31
0.0
  0
LINE
  5
A1
  8
SLD-0_4
  6
PHANTOM
 62
     7
 10
-157.9779417299999977
 20
-61.9270884399999986
 30
0.0
 11
-157.2562533500000086
 21
-61.9270884399999986
 31
0.0
  0
LINE
  5
A2
  8
SLD-0_4
  6
PHANTOM
 62
     7
 10
-173.2224124500000073
 20
-70.6715779499999854
 30
0.0
 11
-173.9441008299999964
 21
-70.6715779499999854
 31
0.0
  0
LINE
  5
A3
  8
SLD-0_4
  6
PHANTOM
 62
     7
 10
-134.0243959299999972
 20
-70.6715779499999854
 30
0.0
 11
-134.0243959299999972
 21
-61.9270884399999986
 31
0.0
  0
LINE
  5
A4
  8
SLD-0_4
  6
PHANTOM
 62
     7
 10
-159.4107898899999043
 20
-70.6715779499999854
 30
0.0
 11
-160.1401354500000025
 21
-70.6715779499999854
 31
0.0
  0
LINE
  5
A5
  8
SLD-0_4
  6
PHANTOM
 62
     7
 10
-149.2726952200000028
 20
-70.6715779499999854
 30
0.0
 11
-149.9943836099999999
 21
-70.6715779499999854
 31
0.0
  0
LINE
  5
A6
  8
SLD-0_4
  6
PHANTOM
 62
     7
 10
45.6009890400000018
 20
-73.4358167700000024
 30
0.0
 11
58.3635791399999988
 21
-73.4358167700000024
 31
0.0
  0
LINE
  5
A7
  8
SLD-0_4
  6
PHANTOM
 62
     7
 10
79.8687444499999941
 20
-133.6135252200000139
 30
0.0
 11
79.8687444499999941
 21
-108.878947949999997
 31
0.0
  0
LINE
  5
A8
  8
SLD-0_4
  6
PHANTOM
 62
     7
 10
66.6735241800000011
 20
-109.4963073899999983
 30
0.0
 11
66.6735241800000011
 21
-113.2014210899999966
 31
0.0
  0
LINE
  5
A9
  8
SLD-0_4
  6
PHANTOM
 62
     7
 10
66.6735241800000011
 20
-132.9626656700000069
 30
0.0
 11
74.0837516099999931
 21
-132.9626656700000069
 31
0.0
  0
LINE
  5
AA
  8
SLD-0_4
  6
PHANTOM
 62
     7
 10
53.166274180000002
 20
-75.939711740000007
 30
0.0
 11
55.3677108999999916
 21
-75.939711740000007
 31
0.0
  0
LINE
  5
AB
  8
SLD-0_4
  6
PHANTOM
 62
     7
 10
-151.4272317699999917
 20
-70.6715779499999854
 30
0.0
 11
-152.1565773300000046
 21
-70.6715779499999854
 31
0.0
  0
LINE
  5
AC
  8
SLD-0_4
  6
PHANTOM
 62
     7
 10
-160.1401354500000025
 20
-61.9270884399999986
 30
0.0
 11
-159.4107898899999043
 21
-61.9270884399999986
 31
0.0
  0
LINE
  5
AD
  8
SLD-0_4
  6
PHANTOM
 62
     7
 10
-141.2881799600000079
 20
-61.9270884399999986
 30
0.0
 11
-141.2881799600000079
 21
-61.2054000500000015
 31
0.0
  0
LINE
  5
AE
  8
SLD-0_4
  6
PHANTOM
 62
     7
 10
45.6009890400000018
 20
-85.756205219999984
 30
0.0
 11
45.6009890400000018
 21
-73.4358167700000024
 31
0.0
  0
LINE
  5
AF
  8
SLD-0_4
  6
PHANTOM
 62
     7
 10
74.0837516099999931
 20
-124.3177193799999998
 30
0.0
 11
66.6735241800000011
 21
-124.3177193799999998
 31
0.0
  0
LINE
  5
B0
  8
SLD-0_4
  6
PHANTOM
 62
     7
 10
55.3677108999999916
 20
-75.939711740000007
 30
0.0
 11
55.3772823700000032
 21
-77.8444330800000017
 31
0.0
  0
LINE
  5
B1
  8
SLD-0_4
  6
PHANTOM
 62
     7
 10
-133.3027075400000001
 20
-61.2054000500000015
 30
0.0
 11
-176.1082088400000032
 21
-61.2054000500000015
 31
0.0
  0
LINE
  5
B2
  8
SLD-0_4
  6
PHANTOM
 62
     7
 10
-160.1401354500000025
 20
-70.6715779499999854
 30
0.0
 11
-160.1401354500000025
 21
-71.7052960700000028
 31
0.0
  0
LINE
  5
B3
  8
SLD-0_4
  6
PHANTOM
 62
     7
 10
-157.2562533500000086
 20
-70.6715779499999854
 30
0.0
 11
-157.9779417299999977
 21
-70.6715779499999854
 31
0.0
  0
LINE
  5
B4
  8
SLD-0_4
  6
PHANTOM
 62
     7
 10
-157.9779417299999977
 20
-70.6715779499999854
 30
0.0
 11
-157.9779417299999977
 21
-61.9270884399999986
 31
0.0
  0
LINE
  5
B5
  8
SLD-0_4
  6
PHANTOM
 62
     7
 10
-173.2224124500000073
 20
-71.7052960700000028
 30
0.0
 11
-173.2224124500000073
 21
-70.6715779499999854
 31
0.0
  0
LINE
  5
B6
  8
SLD-0_4
  6
PHANTOM
 62
     7
 10
58.3635791399999988
 20
-73.4358167700000024
 30
0.0
 11
58.3635791399999988
 21
-85.756205219999984
 31
0.0
  0
LINE
  5
B7
  8
SLD-0_4
  6
PHANTOM
 62
     7
 10
41.1647861000000006
 20
-146.2052672599999994
 30
0.0
 11
89.1647860999999864
 21
-146.2052672599999994
 31
0.0
  0
LINE
  5
B8
  8
SLD-0_4
  6
PHANTOM
 62
     7
 10
60.7526165499999991
 20
-153.0667842100000087
 30
0.0
 11
60.7526165499999991
 21
-146.2052672599999994
 31
0.0
  0
LINE
  5
B9
  8
SLD-0_4
  6
PHANTOM
 62
     7
 10
66.6735241800000011
 20
-128.0209188100000119
 30
0.0
 11
74.0837516099999931
 21
-128.0209188100000119
 31
0.0
  0
LINE
  5
BA
  8
SLD-0_4
  6
PHANTOM
 62
     7
 10
74.0837516099999931
 20
-132.9626656700000069
 30
0.0
 11
74.0837516099999931
 21
-129.2575519600000007
 31
0.0
  0
LINE
  5
BB
  8
SLD-0_4
  6
PHANTOM
 62
     7
 10
55.3772823700000032
 20
-81.2949458500000048
 30
0.0
 11
55.3677108999999916
 21
-83.2532673799999969
 31
0.0
  0
LINE
  5
BC
  8
SLD-0_4
  6
PHANTOM
 62
     7
 10
74.0837516099999931
 20
-109.4963073899999983
 30
0.0
 11
66.6735241800000011
 21
-109.4963073899999983
 31
0.0
  0
LINE
  5
BD
  8
SLD-0_4
  6
PHANTOM
 62
     7
 10
-152.1565773300000046
 20
-70.6715779499999854
 30
0.0
 11
-152.1565773300000046
 21
-71.7052960700000028
 31
0.0
  0
LINE
  5
BE
  8
SLD-0_4
  6
PHANTOM
 62
     7
 10
-157.2562533500000086
 20
-61.9270884399999986
 30
0.0
 11
-157.2562533500000086
 21
-61.2054000500000015
 31
0.0
  0
LINE
  5
BF
  8
SLD-0_4
  6
PHANTOM
 62
     7
 10
48.8351341199999993
 20
-231.2349467800000014
 30
0.0
 11
45.7641523300000017
 21
-231.2349467800000014
 31
0.0
  0
LINE
  5
C0
  8
SLD-0_4
  6
PHANTOM
 62
     7
 10
-134.0243959299999972
 20
-61.9270884399999986
 30
0.0
 11
-133.3027075400000001
 21
-61.9270884399999986
 31
0.0
  0
LINE
  5
C1
  8
SLD-0_4
  6
PHANTOM
 62
     7
 10
-144.1720620600000018
 20
-61.9270884399999986
 30
0.0
 11
-143.4427164999999889
 21
-61.9270884399999986
 31
0.0
  0
LINE
  5
C2
  8
SLD-0_4
  6
PHANTOM
 62
     7
 10
40.506352739999997
 20
-231.6762249200000099
 30
0.0
 11
40.4564268999999967
 21
-231.7587708599999985
 31
0.0
  0
LINE
  5
C3
  8
SLD-0_4
  6
PHANTOM
 62
     7
 10
52.4687385300000031
 20
-231.2349467800000014
 30
0.0
 11
48.8351341199999993
 21
-231.2349467800000014
 31
0.0
  0
LINE
  5
C4
  8
SLD-0_4
  6
PHANTOM
 62
     7
 10
87.2810130400000048
 20
-231.2349467800000014
 30
0.0
 11
84.9133095199999985
 21
-231.2349467800000014
 31
0.0
  0
LINE
  5
C5
  8
SLD-0_4
  6
PHANTOM
 62
     7
 10
78.2087233200000043
 20
-231.2349467800000014
 30
0.0
 11
74.1531519499999803
 21
-231.2349467800000014
 31
0.0
  0
LINE
  5
C6
  8
SLD-0_4
  6
PHANTOM
 62
     7
 10
43.3964488100000025
 20
-231.2349467800000014
 30
0.0
 11
41.872679220000002
 21
-231.2349467800000014
 31
0.0
  0
LINE
  5
C7
  8
SLD-0_4
  6
PHANTOM
 62
     7
 10
41.3334992099999923
 20
-231.2349467800000014
 30
0.0
 11
41.2314444099999875
 21
-231.2401124799999934
 31
0.0
  0
LINE
  5
C8
  8
SLD-0_4
  6
PHANTOM
 62
     7
 10
89.9026482400000049
 20
-231.4058535000000063
 30
0.0
 11
89.8204257200000029
 21
-231.3557234200000039
 31
0.0
  0
LINE
  5
C9
  8
SLD-0_4
  6
PHANTOM
 62
     7
 10
90.3361864900000029
 20
-232.1337086599999964
 30
0.0
 11
90.3211455499999829
 21
-232.034264979999989
 31
0.0
  0
LINE
  5
CA
  8
SLD-0_4
  6
PHANTOM
 62
     7
 10
88.8047826300000054
 20
-231.2349467800000014
 30
0.0
 11
87.2810130400000048
 21
-231.2349467800000014
 31
0.0
  0
LINE
  5
CB
  8
SLD-0_4
  6
PHANTOM
 62
     7
 10
90.3211455499999829
 20
-232.034264979999989
 30
0.0
 11
90.2966770999999966
 21
-231.9382928199999867
 31
0.0
  0
LINE
  5
CC
  8
SLD-0_4
  6
PHANTOM
 62
     7
 10
90.0500973999999985
 20
-231.5280728699999884
 30
0.0
 11
89.9793690399999946
 21
-231.4634706299999891
 31
0.0
  0
LINE
  5
CD
  8
SLD-0_4
  6
PHANTOM
 62
     7
 10
89.7331922000000048
 20
-231.3135823400000106
 30
0.0
 11
89.6414384100000063
 21
-231.2799321999999904
 31
0.0
  0
LINE
  5
CE
  8
SLD-0_4
  6
PHANTOM
 62
     7
 10
89.9793690399999946
 20
-231.4634706299999891
 30
0.0
 11
89.9026482400000049
 21
-231.4058535000000063
 31
0.0
  0
LINE
  5
CF
  8
SLD-0_4
  6
PHANTOM
 62
     7
 10
64.0427547000000033
 20
-221.2056572600000095
 30
0.0
 11
64.0427547000000033
 21
-231.2445182499999987
 31
0.0
  0
LINE
  5
D0
  8
SLD-0_4
  6
PHANTOM
 62
     7
 10
45.7641523300000017
 20
-231.2349467800000014
 30
0.0
 11
43.3964488100000025
 21
-231.2349467800000014
 31
0.0
  0
LINE
  5
D1
  8
SLD-0_4
  6
PHANTOM
 62
     7
 10
90.1716138599999937
 20
-231.6762249200000099
 30
0.0
 11
90.1143425799999847
 21
-231.5991582800000117
 31
0.0
  0
LINE
  5
D2
  8
SLD-0_4
  6
PHANTOM
 62
     7
 10
41.1323563899999911
 20
-231.255274930000013
 30
0.0
 11
41.0367342899999912
 21
-231.2799321999999904
 31
0.0
  0
LINE
  5
D3
  8
SLD-0_4
  6
PHANTOM
 62
     7
 10
90.2214205300000032
 20
-231.7587708599999985
 30
0.0
 11
90.1716138599999937
 21
-231.6762249200000099
 31
0.0
  0
LINE
  5
D4
  8
SLD-0_4
  6
PHANTOM
 62
     7
 10
81.8423277299999938
 20
-231.2349467800000014
 30
0.0
 11
78.2087233200000043
 21
-231.2349467800000014
 31
0.0
  0
LINE
  5
D5
  8
SLD-0_4
  6
PHANTOM
 62
     7
 10
69.8162692599999986
 20
-231.2349467800000014
 30
0.0
 11
65.3387309299999828
 21
-231.2349467800000014
 31
0.0
  0
LINE
  5
D6
  8
SLD-0_4
  6
PHANTOM
 62
     7
 10
89.5456550699999951
 20
-231.255274930000013
 30
0.0
 11
89.4463329000000016
 21
-231.2401124799999934
 31
0.0
  0
LINE
  5
D7
  8
SLD-0_4
  6
PHANTOM
 62
     7
 10
79.8567275200000068
 20
-231.2445182499999987
 30
0.0
 11
79.8567275200000068
 21
-221.2056572600000095
 31
0.0
  0
LINE
  5
D8
  8
SLD-0_4
  6
PHANTOM
 62
     7
 10
40.5637375900000023
 20
-231.5991582800000117
 30
0.0
 11
40.506352739999997
 21
-231.6762249200000099
 31
0.0
  0
LINE
  5
D9
  8
SLD-0_4
  6
PHANTOM
 62
     7
 10
56.5243099099999995
 20
-231.2349467800000014
 30
0.0
 11
52.4687385300000031
 21
-231.2349467800000014
 31
0.0
  0
LINE
  5
DA
  8
SLD-0_4
  6
PHANTOM
 62
     7
 10
41.2314444099999875
 20
-231.2401124799999934
 30
0.0
 11
41.1323563899999911
 21
-231.255274930000013
 31
0.0
  0
LINE
  5
DB
  8
SLD-0_4
  6
PHANTOM
 62
     7
 10
89.6414384100000063
 20
-231.2799321999999904
 30
0.0
 11
89.5456550699999951
 21
-231.255274930000013
 31
0.0
  0
LINE
  5
DC
  8
SLD-0_4
  6
PHANTOM
 62
     7
 10
40.9450772400000034
 20
-231.3135823400000106
 30
0.0
 11
40.8578843800000016
 21
-231.3557234200000039
 31
0.0
  0
LINE
  5
DD
  8
SLD-0_4
  6
PHANTOM
 62
     7
 10
40.4144592000000031
 20
-231.8462941399999977
 30
0.0
 11
40.3809487999999988
 21
-231.9382928199999867
 31
0.0
  0
LINE
  5
DE
  8
SLD-0_4
  6
PHANTOM
 62
     7
 10
84.9133095199999985
 20
-231.2349467800000014
 30
0.0
 11
81.8423277299999938
 21
-231.2349467800000014
 31
0.0
  0
LINE
  5
DF
  8
SLD-0_4
  6
PHANTOM
 62
     7
 10
90.2966770999999966
 20
-231.9382928199999867
 30
0.0
 11
90.2632718499999953
 21
-231.8462941399999977
 31
0.0
  0
LINE
  5
E0
  8
SLD-0_4
  6
PHANTOM
 62
     7
 10
90.2632718499999953
 20
-231.8462941399999977
 30
0.0
 11
90.2214205300000032
 21
-231.7587708599999985
 31
0.0
  0
LINE
  5
E1
  8
SLD-0_4
  6
PHANTOM
 62
     7
 10
60.8611925900000017
 20
-231.2349467800000014
 30
0.0
 11
56.5243099099999995
 21
-231.2349467800000014
 31
0.0
  0
LINE
  5
E2
  8
SLD-0_4
  6
PHANTOM
 62
     7
 10
40.7756548500000022
 20
-231.4058535000000063
 30
0.0
 11
40.6988877799999997
 21
-231.4634706299999891
 31
0.0
  0
LINE
  5
E3
  8
SLD-0_4
  6
PHANTOM
 62
     7
 10
89.4463329000000016
 20
-231.2401124799999934
 30
0.0
 11
89.3439626400000009
 21
-231.2349467800000014
 31
0.0
  0
LINE
  5
E4
  8
SLD-0_4
  6
PHANTOM
 62
     7
 10
40.6280823199999972
 20
-231.5280728699999884
 30
0.0
 11
40.5637375900000023
 21
-231.5991582800000117
 31
0.0
  0
LINE
  5
E5
  8
SLD-0_4
  6
PHANTOM
 62
     7
 10
41.872679220000002
 20
-231.2349467800000014
 30
0.0
 11
41.3334992099999923
 21
-231.2349467800000014
 31
0.0
  0
LINE
  5
E6
  8
SLD-0_4
  6
PHANTOM
 62
     7
 10
40.8578843800000016
 20
-231.3557234200000039
 30
0.0
 11
40.7756548500000022
 21
-231.4058535000000063
 31
0.0
  0
LINE
  5
E7
  8
SLD-0_4
  6
PHANTOM
 62
     7
 10
40.6988877799999997
 20
-231.4634706299999891
 30
0.0
 11
40.6280823199999972
 21
-231.5280728699999884
 31
0.0
  0
LINE
  5
E8
  8
SLD-0_4
  6
PHANTOM
 62
     7
 10
64.0427547000000033
 20
-221.2056572600000095
 30
0.0
 11
79.8567275200000068
 21
-221.2056572600000095
 31
0.0
  0
LINE
  5
E9
  8
SLD-0_4
  6
PHANTOM
 62
     7
 10
90.1143425799999847
 20
-231.5991582800000117
 30
0.0
 11
90.0500973999999985
 21
-231.5280728699999884
 31
0.0
  0
LINE
  5
EA
  8
SLD-0_4
  6
PHANTOM
 62
     7
 10
40.4564268999999967
 20
-231.7587708599999985
 30
0.0
 11
40.4144592000000031
 21
-231.8462941399999977
 31
0.0
  0
LINE
  5
EB
  8
SLD-0_4
  6
PHANTOM
 62
     7
 10
40.3809487999999988
 20
-231.9382928199999867
 30
0.0
 11
40.3563948099999905
 21
-232.034264979999989
 31
0.0
  0
LINE
  5
EC
  8
SLD-0_4
  6
PHANTOM
 62
     7
 10
41.0367342899999912
 20
-231.2799321999999904
 30
0.0
 11
40.9450772400000034
 21
-231.3135823400000106
 31
0.0
  0
LINE
  5
ED
  8
SLD-0_4
  6
PHANTOM
 62
     7
 10
89.3439626400000009
 20
-231.2349467800000014
 30
0.0
 11
88.8047826300000054
 21
-231.2349467800000014
 31
0.0
  0
LINE
  5
EE
  8
SLD-0_4
  6
PHANTOM
 62
     7
 10
65.3387309299999828
 20
-231.2349467800000014
 30
0.0
 11
60.8611925900000017
 21
-231.2349467800000014
 31
0.0
  0
LINE
  5
EF
  8
SLD-0_4
  6
PHANTOM
 62
     7
 10
74.1531519499999803
 20
-231.2349467800000014
 30
0.0
 11
69.8162692599999986
 21
-231.2349467800000014
 31
0.0
  0
LINE
  5
F0
  8
SLD-0_4
  6
PHANTOM
 62
     7
 10
40.3412963899999895
 20
-232.1337086599999964
 30
0.0
 11
40.3361526600000033
 21
-232.236121919999988
 31
0.0
  0
LINE
  5
F1
  8
SLD-0_4
  6
PHANTOM
 62
     7
 10
90.341309190000004
 20
-232.236121919999988
 30
0.0
 11
90.3361864900000029
 21
-232.1337086599999964
 31
0.0
  0
LINE
  5
F2
  8
SLD-0_4
  6
PHANTOM
 62
     7
 10
40.3361526600000033
 20
-232.236121919999988
 30
0.0
 11
40.3361526600000033
 21
-337.2052845500001013
 31
0.0
  0
LINE
  5
F3
  8
SLD-0_4
  6
PHANTOM
 62
     7
 10
40.3563948099999905
 20
-232.034264979999989
 30
0.0
 11
40.3412963899999895
 21
-232.1337086599999964
 31
0.0
  0
LINE
  5
F4
  8
SLD-0_4
  6
PHANTOM
 62
     7
 10
64.0427547000000033
 20
-231.2445182499999987
 30
0.0
 11
79.8567275200000068
 21
-231.2445182499999987
 31
0.0
  0
LINE
  5
F5
  8
SLD-0_4
  6
PHANTOM
 62
     7
 10
90.341309190000004
 20
-337.2052845500001013
 30
0.0
 11
90.341309190000004
 21
-232.236121919999988
 31
0.0
  0
LINE
  5
F6
  8
SLD-0_4
  6
PHANTOM
 62
     7
 10
89.8204257200000029
 20
-231.3557234200000039
 30
0.0
 11
89.7331922000000048
 21
-231.3135823400000106
 31
0.0
  0
LINE
  5
F7
  8
SLD-0_4
  6
PHANTOM
 62
     7
 10
-129.6306614199999956
 20
-156.2052672599999994
 30
0.0
 11
-129.6306614199999956
 21
-56.2052672599999994
 31
0.0
  0
LINE
  5
F8
  8
SLD-0_4
  6
PHANTOM
 62
     7
 10
-48.6425797099999997
 20
-126.2052672599999994
 30
0.0
 11
-66.6425797100000068
 21
-126.2052672599999994
 31
0.0
  0
LINE
  5
F9
  8
SLD-0_4
  6
PHANTOM
 62
     7
 10
-48.6425797099999997
 20
-78.2052672599999994
 30
0.0
 11
-66.6425797100000068
 21
-78.2052672599999994
 31
0.0
  0
LINE
  5
FA
  8
SLD-0_4
  6
PHANTOM
 62
     7
 10
-85.6425797100000068
 20
-126.2052672599999994
 30
0.0
 11
-85.6425797100000068
 21
-78.2052672599999994
 31
0.0
  0
LINE
  5
FB
  8
SLD-0_4
  6
PHANTOM
 62
     7
 10
-47.6425797099999997
 20
-126.2052672599999994
 30
0.0
 11
-47.6425797099999997
 21
-78.2052672599999994
 31
0.0
  0
LINE
  5
FC
  8
SLD-0_4
  6
PHANTOM
 62
     7
 10
-28.6425797099999997
 20
-126.2052672599999994
 30
0.0
 11
-28.6425797099999997
 21
-78.2052672599999994
 31
0.0
  0
LINE
  5
FD
  8
SLD-0_4
  6
PHANTOM
 62
     7
 10
-86.6425797100000068
 20
-126.2052672599999994
 30
0.0
 11
-104.6425797100000068
 21
-126.2052672599999994
 31
0.0
  0
LINE
  5
FE
  8
SLD-0_4
  6
PHANTOM
 62
     7
 10
-67.6425797100000068
 20
-78.2052672599999994
 30
0.0
 11
-85.6425797100000068
 21
-78.2052672599999994
 31
0.0
  0
LINE
  5
FF
  8
SLD-0_4
  6
PHANTOM
 62
     7
 10
-48.6425797099999997
 20
-126.2052672599999994
 30
0.0
 11
-48.6425797099999997
 21
-78.2052672599999994
 31
0.0
  0
LINE
  5
100
  8
SLD-0_4
  6
PHANTOM
 62
     7
 10
-66.6425797100000068
 20
-126.2052672599999994
 30
0.0
 11
-66.6425797100000068
 21
-78.2052672599999994
 31
0.0
  0
LINE
  5
101
  8
SLD-0_4
  6
PHANTOM
 62
     7
 10
-29.6425797099999997
 20
-78.2052672599999994
 30
0.0
 11
-47.6425797099999997
 21
-78.2052672599999994
 31
0.0
  0
LINE
  5
102
  8
SLD-0_4
  6
PHANTOM
 62
     7
 10
-105.6425797100000068
 20
-78.2052672599999994
 30
0.0
 11
-123.6425797100000068
 21
-78.2052672599999994
 31
0.0
  0
LINE
  5
103
  8
SLD-0_4
  6
PHANTOM
 62
     7
 10
-67.6425797100000068
 20
-126.2052672599999994
 30
0.0
 11
-67.6425797100000068
 21
-78.2052672599999994
 31
0.0
  0
LINE
  5
104
  8
SLD-0_4
  6
PHANTOM
 62
     7
 10
-105.6425797100000068
 20
-126.2052672599999994
 30
0.0
 11
-105.6425797100000068
 21
-78.2052672599999994
 31
0.0
  0
LINE
  5
105
  8
SLD-0_4
  6
PHANTOM
 62
     7
 10
-10.6425797099999997
 20
-126.2052672599999994
 30
0.0
 11
-28.6425797099999997
 21
-126.2052672599999994
 31
0.0
  0
LINE
  5
106
  8
SLD-0_4
  6
PHANTOM
 62
     7
 10
-104.6425797100000068
 20
-126.2052672599999994
 30
0.0
 11
-104.6425797100000068
 21
-78.2052672599999994
 31
0.0
  0
LINE
  5
107
  8
SLD-0_4
  6
PHANTOM
 62
     7
 10
-86.6425797100000068
 20
-78.2052672599999994
 30
0.0
 11
-104.6425797100000068
 21
-78.2052672599999994
 31
0.0
  0
LINE
  5
108
  8
SLD-0_4
  6
PHANTOM
 62
     7
 10
8.3574202900000003
 20
-126.2052672599999994
 30
0.0
 11
8.3574202900000003
 21
-78.2052672599999994
 31
0.0
  0
LINE
  5
109
  8
SLD-0_4
  6
PHANTOM
 62
     7
 10
-105.6425797100000068
 20
-126.2052672599999994
 30
0.0
 11
-123.6425797100000068
 21
-126.2052672599999994
 31
0.0
  0
LINE
  5
10A
  8
SLD-0_4
  6
PHANTOM
 62
     7
 10
-123.6425797100000068
 20
-126.2052672599999994
 30
0.0
 11
-123.6425797100000068
 21
-78.2052672599999994
 31
0.0
  0
LINE
  5
10B
  8
SLD-0_4
  6
PHANTOM
 62
     7
 10
27.3574202900000003
 20
-126.2052672599999994
 30
0.0
 11
27.3574202900000003
 21
-78.2052672599999994
 31
0.0
  0
LINE
  5
10C
  8
SLD-0_4
  6
PHANTOM
 62
     7
 10
27.3574202900000003
 20
-78.2052672599999994
 30
0.0
 11
9.3574202900000003
 21
-78.2052672599999994
 31
0.0
  0
LINE
  5
10D
  8
SLD-0_4
  6
PHANTOM
 62
     7
 10
-86.6425797100000068
 20
-126.2052672599999994
 30
0.0
 11
-86.6425797100000068
 21
-78.2052672599999994
 31
0.0
  0
LINE
  5
10E
  8
SLD-0_4
  6
PHANTOM
 62
     7
 10
9.3574202900000003
 20
-126.2052672599999994
 30
0.0
 11
9.3574202900000003
 21
-78.2052672599999994
 31
0.0
  0
LINE
  5
10F
  8
SLD-0_4
  6
PHANTOM
 62
     7
 10
8.3574202900000003
 20
-78.2052672599999994
 30
0.0
 11
-9.6425797099999997
 21
-78.2052672599999994
 31
0.0
  0
LINE
  5
110
  8
SLD-0_4
  6
PHANTOM
 62
     7
 10
-10.6425797099999997
 20
-126.2052672599999994
 30
0.0
 11
-10.6425797099999997
 21
-78.2052672599999994
 31
0.0
  0
LINE
  5
111
  8
SLD-0_4
  6
PHANTOM
 62
     7
 10
27.3574202900000003
 20
-126.2052672599999994
 30
0.0
 11
9.3574202900000003
 21
-126.2052672599999994
 31
0.0
  0
LINE
  5
112
  8
SLD-0_4
  6
PHANTOM
 62
     7
 10
-9.6425797099999997
 20
-126.2052672599999994
 30
0.0
 11
-9.6425797099999997
 21
-78.2052672599999994
 31
0.0
  0
LINE
  5
113
  8
SLD-0_4
  6
PHANTOM
 62
     7
 10
-29.6425797099999997
 20
-126.2052672599999994
 30
0.0
 11
-47.6425797099999997
 21
-126.2052672599999994
 31
0.0
  0
LINE
  5
114
  8
SLD-0_4
  6
PHANTOM
 62
     7
 10
-29.6425797099999997
 20
-126.2052672599999994
 30
0.0
 11
-29.6425797099999997
 21
-78.2052672599999994
 31
0.0
  0
LINE
  5
115
  8
SLD-0_4
  6
PHANTOM
 62
     7
 10
-10.6425797099999997
 20
-78.2052672599999994
 30
0.0
 11
-28.6425797099999997
 21
-78.2052672599999994
 31
0.0
  0
LINE
  5
116
  8
SLD-0_4
  6
PHANTOM
 62
     7
 10
8.3574202900000003
 20
-126.2052672599999994
 30
0.0
 11
-9.6425797099999997
 21
-126.2052672599999994
 31
0.0
  0
LINE
  5
117
  8
SLD-0_4
  6
PHANTOM
 62
     7
 10
-67.6425797100000068
 20
-126.2052672599999994
 30
0.0
 11
-85.6425797100000068
 21
-126.2052672599999994
 31
0.0
  0
LINE
  5
118
  8
SLD-0_4
  6
PHANTOM
 62
     7
 10
-123.6425797100000068
 20
-267.9056572599999981
 30
0.0
 11
-123.6425797100000068
 21
-337.2052845500001013
 31
0.0
  0
LINE
  5
119
  8
SLD-0_4
  6
PHANTOM
 62
     7
 10
-105.6425797100000068
 20
-267.9056572599999981
 30
0.0
 11
-105.6425797100000068
 21
-312.6240913199999909
 31
0.0
  0
LINE
  5
11A
  8
SLD-0_4
  6
PHANTOM
 62
     7
 10
-112.2704090299999962
 20
-267.9264067199999886
 30
0.0
 11
-112.2704090299999962
 21
-267.7056572600000095
 31
0.0
  0
LINE
  5
11B
  8
SLD-0_4
  6
PHANTOM
 62
     7
 10
-106.9727555500000022
 20
-267.9264067199999886
 30
0.0
 11
-106.9727555500000022
 21
-267.7056572600000095
 31
0.0
  0
LINE
  5
11C
  8
SLD-0_4
  6
PHANTOM
 62
     7
 10
-105.6425797100000068
 20
-267.9056572599999981
 30
0.0
 11
-123.6425797100000068
 21
-267.9056572599999981
 31
0.0
  0
LINE
  5
11D
  8
SLD-0_4
  6
PHANTOM
 62
     7
 10
-108.4727555500000022
 20
-266.2056572600000095
 30
0.0
 11
-110.7704090299999962
 21
-266.2056572600000095
 31
0.0
  0
CIRCLE
  5
11E
  8
SLD-0_4
  6
PHANTOM
 62
     7
 10
-162.683547190000013
 20
-66.3571851600000002
 30
0.0
 40
2.6164181399999991
  0
CIRCLE
  5
11F
  8
SLD-0_4
  6
PHANTOM
 62
     7
 10
-154.6999890699999867
 20
-66.3571851600000002
 30
0.0
 40
2.6164181399999991
  0
CIRCLE
  5
120
  8
SLD-0_4
  6
PHANTOM
 62
     7
 10
-146.7154738000000123
 20
-66.3571851600000002
 30
0.0
 40
2.6164181399999991
  0
CIRCLE
  5
121
  8
SLD-0_4
  6
PHANTOM
 62
     7
 10
-138.731915679999986
 20
-66.3571851600000002
 30
0.0
 40
2.6164181399999991
  0
ARC
  5
122
  8
SLD-0_4
  6
PHANTOM
 62
     7
 10
89.1647860999999864
 20
-145.2052672599999994
 30
0.0
 40
1.0
 50
270.0
 51
0.0
  0
CIRCLE
  5
123
  8
SLD-0_4
  6
PHANTOM
 62
     7
 10
65.1647860999999864
 20
-149.6478316500000005
 30
0.0
 40
2.50017756
  0
ARC
  5
124
  8
SLD-0_4
  6
PHANTOM
 62
     7
 10
89.1647860999999864
 20
-67.2052672599999994
 30
0.0
 40
1.0
 50
0.0
 51
90.0
  0
ARC
  5
125
  8
SLD-0_4
  6
PHANTOM
 62
     7
 10
41.1647861000000006
 20
-145.2052672599999994
 30
0.0
 40
1.0
 50
180.0
 51
270.0
  0
CIRCLE
  5
126
  8
SLD-0_4
  6
PHANTOM
 62
     7
 10
65.1647860999999864
 20
-62.7627028799999991
 30
0.0
 40
2.50017756
  0
ARC
  5
127
  8
SLD-0_4
  6
PHANTOM
 62
     7
 10
41.1647861000000006
 20
-67.2052672599999994
 30
0.0
 40
1.0
 50
90.0
 51
180.0
  0
ARC
  5
128
  8
SLD-0_4
  6
PHANTOM
 62
     7
 10
-108.4727555500000022
 20
-267.7056572600000095
 30
0.0
 40
1.5
 50
0.0
 51
90.0
  0
ARC
  5
129
  8
SLD-0_4
  6
PHANTOM
 62
     7
 10
-110.7704090299999962
 20
-267.7056572600000095
 30
0.0
 40
1.5
 50
90.0
 51
180.0
  0
LINE
  5
12A
  8
SLD-0_4
  6
CONTINUOUS
 62
     7
 10
-50.3781078700000009
 20
-172.6531945199999996
 30
0.0
 11
-50.4279701299999985
 21
-172.6534015699999998
 31
0.0
  0
LINE
  5
12B
  8
SLD-0_4
  6
CONTINUOUS
 62
     7
 10
-50.5068854399999907
 20
-172.6210924499999919
 30
0.0
 11
-50.536930009999999
 21
-172.5935111400000039
 31
0.0
  0
LINE
  5
12C
  8
SLD-0_4
  6
CONTINUOUS
 62
     7
 10
-67.0072901000000059
 20
-145.455946780000005
 30
0.0
 11
-67.0072901000000059
 21
-134.7056013700000108
 31
0.0
  0
LINE
  5
12D
  8
SLD-0_4
  6
CONTINUOUS
 62
     7
 10
-49.6117311000000001
 20
-166.9584403599999973
 30
0.0
 11
-49.5955310699999998
 21
-167.150923210000002
 31
0.0
  0
LINE
  5
12E
  8
SLD-0_4
  6
CONTINUOUS
 62
     7
 10
-58.4001231700000005
 20
-145.455946780000005
 30
0.0
 11
-58.4001231700000005
 21
-134.7056013700000108
 31
0.0
  0
LINE
  5
12F
  8
SLD-0_4
  6
CONTINUOUS
 62
     7
 10
1.864231829999998
 20
-145.455946780000005
 30
0.0
 11
1.864231829999998
 21
-134.7056013700000108
 31
0.0
  0
LINE
  5
130
  8
SLD-0_4
  6
CONTINUOUS
 62
     7
 10
-49.9020373700000022
 20
-172.2674420699999871
 30
0.0
 11
-50.0049203900000023
 21
-172.3898463099999958
 31
0.0
  0
LINE
  5
131
  8
SLD-0_4
  6
CONTINUOUS
 62
     7
 10
-49.5955310699999998
 20
-167.150923210000002
 30
0.0
 11
-49.5758556500000012
 21
-167.4045659299999045
 31
0.0
  0
LINE
  5
132
  8
SLD-0_4
  6
CONTINUOUS
 62
     7
 10
117.8574202899999932
 20
-134.7052672599999994
 30
0.0
 11
120.3574202899999932
 21
-137.2052672599999994
 31
0.0
  0
LINE
  5
133
  8
SLD-0_4
  6
CONTINUOUS
 62
     7
 10
117.8574202899999932
 20
-156.2052672599999994
 30
0.0
 11
-47.862575630000002
 21
-156.2052672599999994
 31
0.0
  0
LINE
  5
134
  8
SLD-0_4
  6
CONTINUOUS
 62
     7
 10
-65.8987145600000019
 20
-150.7059740800000043
 30
0.0
 11
-50.9005184600000007
 21
-150.7059740800000043
 31
0.0
  0
LINE
  5
135
  8
SLD-0_4
  6
CONTINUOUS
 62
     7
 10
-50.1809536299999976
 20
-172.5575179100000014
 30
0.0
 11
-50.2550953699999994
 21
-172.6077201200000104
 31
0.0
  0
LINE
  5
136
  8
SLD-0_4
  6
CONTINUOUS
 62
     7
 10
-49.5330124199999986
 20
-168.0587926100000118
 30
0.0
 11
-49.5133114799999987
 21
-168.4411073900000133
 31
0.0
  0
LINE
  5
137
  8
SLD-0_4
  6
CONTINUOUS
 62
     7
 10
-65.8987145600000019
 20
-156.2052672599999994
 30
0.0
 11
-197.1425797100000068
 21
-156.2052672599999994
 31
0.0
  0
LINE
  5
138
  8
SLD-0_4
  6
CONTINUOUS
 62
     7
 10
-71.3108735600000045
 20
-156.2052788700000008
 30
0.0
 11
-71.3108735600000045
 21
-145.455946780000005
 31
0.0
  0
LINE
  5
139
  8
SLD-0_4
  6
CONTINUOUS
 62
     7
 10
120.3574202899999932
 20
-153.7052672599999994
 30
0.0
 11
120.3574202899999932
 21
-137.2052672599999994
 31
0.0
  0
LINE
  5
13A
  8
SLD-0_4
  6
CONTINUOUS
 62
     7
 10
-50.9005184600000007
 20
-173.1875617299999988
 30
0.0
 11
-65.8987145600000019
 21
-173.1875617299999988
 31
0.0
  0
LINE
  5
13B
  8
SLD-0_4
  6
CONTINUOUS
 62
     7
 10
-23.9633488899999989
 20
-145.455946780000005
 30
0.0
 11
-23.9633488899999989
 21
-134.7056013700000108
 31
0.0
  0
LINE
  5
13C
  8
SLD-0_4
  6
CONTINUOUS
 62
     7
 10
-84.2256772399999818
 20
-145.455946780000005
 30
0.0
 11
-84.2256772399999818
 21
-134.7056013700000108
 31
0.0
  0
LINE
  5
13D
  8
SLD-0_4
  6
CONTINUOUS
 62
     7
 10
-50.4279701299999985
 20
-172.6534015699999998
 30
0.0
 11
-50.4707307299999925
 21
-172.6418783899999028
 31
0.0
  0
LINE
  5
13E
  8
SLD-0_4
  6
CONTINUOUS
 62
     7
 10
-15.3521286700000008
 20
-145.455946780000005
 30
0.0
 11
-15.3521286700000008
 21
-134.7056013700000108
 31
0.0
  0
LINE
  5
13F
  8
SLD-0_4
  6
CONTINUOUS
 62
     7
 10
-79.9210804599999989
 20
-156.2052788700000008
 30
0.0
 11
-79.9210804599999989
 21
-145.455946780000005
 31
0.0
  0
LINE
  5
140
  8
SLD-0_4
  6
CONTINUOUS
 62
     7
 10
120.3574202899999932
 20
-125.2052672599999994
 30
0.0
 11
120.3574202899999932
 21
-87.2052672600000136
 31
0.0
  0
LINE
  5
141
  8
SLD-0_4
  6
CONTINUOUS
 62
     7
 10
-197.1425797100000068
 20
-134.7052672599999994
 30
0.0
 11
-199.6425797100000068
 21
-137.2052672599999994
 31
0.0
  0
LINE
  5
142
  8
SLD-0_4
  6
CONTINUOUS
 62
     7
 10
-49.6227223100000003
 20
-166.8362519599999985
 30
0.0
 11
-49.6117311000000001
 21
-166.9584403599999973
 31
0.0
  0
LINE
  5
143
  8
SLD-0_4
  6
CONTINUOUS
 62
     7
 10
-11.0495585300000005
 20
-156.2052788700000008
 30
0.0
 11
-11.0495585300000005
 21
-145.455946780000005
 31
0.0
  0
LINE
  5
144
  8
SLD-0_4
  6
CONTINUOUS
 62
     7
 10
110.3574202899999932
 20
-77.7052672599999852
 30
0.0
 11
117.8574202899999932
 21
-77.7052672599999852
 31
0.0
  0
LINE
  5
145
  8
SLD-0_4
  6
CONTINUOUS
 62
     7
 10
117.8574202899999932
 20
-84.7052672600000136
 30
0.0
 11
120.3574202899999932
 21
-87.2052672600000136
 31
0.0
  0
LINE
  5
146
  8
SLD-0_4
  6
CONTINUOUS
 62
     7
 10
24.0766956500000013
 20
-68.5199028400000003
 30
0.0
 11
-119.6790364699999998
 21
-68.5199028400000003
 31
0.0
  0
LINE
  5
147
  8
SLD-0_4
  6
CONTINUOUS
 62
     7
 10
6.1091434299999987
 20
-56.1995143700000028
 30
0.0
 11
6.1091434299999987
 21
-68.5199028400000003
 31
0.0
  0
LINE
  5
148
  8
SLD-0_4
  6
CONTINUOUS
 62
     7
 10
-197.1425797100000068
 20
-77.7052672599999852
 30
0.0
 11
-199.6425797100000068
 21
-75.2052672599999852
 31
0.0
  0
LINE
  5
149
  8
SLD-0_4
  6
CONTINUOUS
 62
     7
 10
-197.1425797100000068
 20
-127.7052672599999994
 30
0.0
 11
-199.6425797100000068
 21
-125.2052672599999994
 31
0.0
  0
LINE
  5
14A
  8
SLD-0_4
  6
CONTINUOUS
 62
     7
 10
-197.1425797100000068
 20
-156.2052672599999994
 30
0.0
 11
-199.6425797100000068
 21
-153.7052672599999994
 31
0.0
  0
LINE
  5
14B
  8
SLD-0_4
  6
CONTINUOUS
 62
     7
 10
6.1688286200000002
 20
-156.2052788700000008
 30
0.0
 11
6.1688286200000002
 21
-145.455946780000005
 31
0.0
  0
LINE
  5
14C
  8
SLD-0_4
  6
CONTINUOUS
 62
     7
 10
-19.6567254499999997
 20
-156.2052788700000008
 30
0.0
 11
-19.6567254499999997
 21
-145.455946780000005
 31
0.0
  0
LINE
  5
14D
  8
SLD-0_4
  6
CONTINUOUS
 62
     7
 10
110.3574202899999932
 20
-84.7052672600000136
 30
0.0
 11
117.8574202899999932
 21
-84.7052672600000136
 31
0.0
  0
LINE
  5
14E
  8
SLD-0_4
  6
CONTINUOUS
 62
     7
 10
24.0766956500000013
 20
-56.1995143700000028
 30
0.0
 11
24.0766956500000013
 21
-68.5199028400000003
 31
0.0
  0
LINE
  5
14F
  8
SLD-0_4
  6
CONTINUOUS
 62
     7
 10
-47.862575630000002
 20
-156.0998932599999875
 30
0.0
 11
-47.862575630000002
 21
-166.5573882799999978
 31
0.0
  0
LINE
  5
150
  8
SLD-0_4
  6
CONTINUOUS
 62
     7
 10
-50.6128520800000103
 20
-172.4400343400000111
 30
0.0
 11
-50.6166466199999974
 21
-172.4234969000000035
 31
0.0
  0
LINE
  5
151
  8
SLD-0_4
  6
CONTINUOUS
 62
     7
 10
-50.6059219200000001
 20
-172.4645809900000017
 30
0.0
 11
-50.6128520800000103
 21
-172.4400343400000111
 31
0.0
  0
LINE
  5
152
  8
SLD-0_4
  6
CONTINUOUS
 62
     7
 10
-118.6624515299999985
 20
-134.7056013700000108
 30
0.0
 11
-118.6624515299999985
 21
-145.455946780000005
 31
0.0
  0
LINE
  5
153
  8
SLD-0_4
  6
CONTINUOUS
 62
     7
 10
-47.862575630000002
 20
-166.5573882799999978
 30
0.0
 11
-50.9005184600000007
 21
-166.5573882799999978
 31
0.0
  0
LINE
  5
154
  8
SLD-0_4
  6
CONTINUOUS
 62
     7
 10
23.3872157600000001
 20
-145.455946780000005
 30
0.0
 11
-114.356841419999995
 21
-145.455946780000005
 31
0.0
  0
LINE
  5
155
  8
SLD-0_4
  6
CONTINUOUS
 62
     7
 10
-118.6624515299999985
 20
-156.2052788700000008
 30
0.0
 11
-118.6624515299999985
 21
-145.455946780000005
 31
0.0
  0
LINE
  5
156
  8
SLD-0_4
  6
CONTINUOUS
 62
     7
 10
-49.5693117699999988
 20
-171.2951766500000019
 30
0.0
 11
-49.6258140600000033
 21
-171.6186952099999985
 31
0.0
  0
LINE
  5
157
  8
SLD-0_4
  6
CONTINUOUS
 62
     7
 10
110.3574202899999932
 20
-127.7052672599999994
 30
0.0
 11
117.8574202899999932
 21
-127.7052672599999994
 31
0.0
  0
LINE
  5
158
  8
SLD-0_4
  6
CONTINUOUS
 62
     7
 10
117.8574202899999932
 20
-127.7052672599999994
 30
0.0
 11
120.3574202899999932
 21
-125.2052672599999994
 31
0.0
  0
LINE
  5
159
  8
SLD-0_4
  6
CONTINUOUS
 62
     7
 10
-101.7095699500000023
 20
-56.1995143700000028
 30
0.0
 11
-101.7095699500000023
 21
-68.5199028400000003
 31
0.0
  0
LINE
  5
15A
  8
SLD-0_4
  6
CONTINUOUS
 62
     7
 10
-110.0522446399999978
 20
-145.455946780000005
 30
0.0
 11
-110.0522446399999978
 21
-134.7056013700000108
 31
0.0
  0
LINE
  5
15B
  8
SLD-0_4
  6
CONTINUOUS
 62
     7
 10
23.3872157600000001
 20
-134.7056013700000108
 30
0.0
 11
23.3872157600000001
 21
-145.455946780000005
 31
0.0
  0
LINE
  5
15C
  8
SLD-0_4
  6
CONTINUOUS
 62
     7
 10
-49.7899162799999999
 20
-145.455946780000005
 30
0.0
 11
-49.7899162799999999
 21
-134.7056013700000108
 31
0.0
  0
LINE
  5
15D
  8
SLD-0_4
  6
CONTINUOUS
 62
     7
 10
-28.2679456699999996
 20
-156.2052788700000008
 30
0.0
 11
-28.2679456699999996
 21
-145.455946780000005
 31
0.0
  0
LINE
  5
15E
  8
SLD-0_4
  6
CONTINUOUS
 62
     7
 10
-50.9005184600000007
 20
-156.0998932599999875
 30
0.0
 11
-47.862575630000002
 21
-156.0998932599999875
 31
0.0
  0
LINE
  5
15F
  8
SLD-0_4
  6
CONTINUOUS
 62
     7
 10
-60.1501322700000003
 20
-145.7376506200000108
 30
0.0
 11
-60.1501322700000003
 21
-150.7059740800000043
 31
0.0
  0
LINE
  5
160
  8
SLD-0_4
  6
CONTINUOUS
 62
     7
 10
-199.6425797100000068
 20
-125.2052672599999994
 30
0.0
 11
-199.6425797100000068
 21
-87.2052672600000136
 31
0.0
  0
LINE
  5
161
  8
SLD-0_4
  6
CONTINUOUS
 62
     7
 10
19.0826189799999995
 20
-145.455946780000005
 30
0.0
 11
19.0826189799999995
 21
-134.7056013700000108
 31
0.0
  0
LINE
  5
162
  8
SLD-0_4
  6
CONTINUOUS
 62
     7
 10
-97.1374409600000064
 20
-156.2052788700000008
 30
0.0
 11
-97.1374409600000064
 21
-145.455946780000005
 31
0.0
  0
LINE
  5
163
  8
SLD-0_4
  6
CONTINUOUS
 62
     7
 10
-88.5292607100000026
 20
-156.2052788700000008
 30
0.0
 11
-88.5292607100000026
 21
-145.455946780000005
 31
0.0
  0
LINE
  5
164
  8
SLD-0_4
  6
CONTINUOUS
 62
     7
 10
-2.4403649500000002
 20
-156.2052788700000008
 30
0.0
 11
-2.4403649500000002
 21
-145.455946780000005
 31
0.0
  0
LINE
  5
165
  8
SLD-0_4
  6
CONTINUOUS
 62
     7
 10
-32.5735557799999995
 20
-145.455946780000005
 30
0.0
 11
-32.5735557799999995
 21
-134.7056013700000108
 31
0.0
  0
LINE
  5
166
  8
SLD-0_4
  6
CONTINUOUS
 62
     7
 10
-49.6258140600000033
 20
-171.6186952099999985
 30
0.0
 11
-49.6996422200000012
 21
-171.8937586000000124
 31
0.0
  0
LINE
  5
167
  8
SLD-0_4
  6
CONTINUOUS
 62
     7
 10
120.3574202899999932
 20
-75.2052672599999852
 30
0.0
 11
120.3574202899999932
 21
-58.7052672599999994
 31
0.0
  0
LINE
  5
168
  8
SLD-0_4
  6
CONTINUOUS
 62
     7
 10
-101.4420377400000035
 20
-145.455946780000005
 30
0.0
 11
-101.4420377400000035
 21
-134.7056013700000108
 31
0.0
  0
LINE
  5
169
  8
SLD-0_4
  6
CONTINUOUS
 62
     7
 10
-50.6166466199999974
 20
-172.4234969000000035
 30
0.0
 11
-50.6178012999999893
 21
-172.4174361199999908
 31
0.0
  0
LINE
  5
16A
  8
SLD-0_4
  6
CONTINUOUS
 62
     7
 10
-50.580671719999998
 20
-172.5278322100000139
 30
0.0
 11
-50.5953603800000025
 21
-172.4946694100000002
 31
0.0
  0
LINE
  5
16B
  8
SLD-0_4
  6
CONTINUOUS
 62
     7
 10
-49.4860181499999925
 20
-169.2704669400000057
 30
0.0
 11
-49.4818926299999902
 21
-169.6992425299999923
 31
0.0
  0
LINE
  5
16C
  8
SLD-0_4
  6
CONTINUOUS
 62
     7
 10
-49.5284019300000011
 20
-170.9323375300000123
 30
0.0
 11
-49.5693117699999988
 21
-171.2951766500000019
 31
0.0
  0
LINE
  5
16D
  8
SLD-0_4
  6
CONTINUOUS
 62
     7
 10
-65.7706369200000012
 20
-56.1995143700000028
 30
0.0
 11
-65.7706369200000012
 21
-68.5199028400000003
 31
0.0
  0
LINE
  5
16E
  8
SLD-0_4
  6
CONTINUOUS
 62
     7
 10
-29.8297896000000016
 20
-56.1995143700000028
 30
0.0
 11
-29.8297896000000016
 21
-68.5199028400000003
 31
0.0
  0
LINE
  5
16F
  8
SLD-0_4
  6
CONTINUOUS
 62
     7
 10
-110.695260360000006
 20
-56.1995143700000028
 30
0.0
 11
-110.695260360000006
 21
-68.5199028400000003
 31
0.0
  0
LINE
  5
170
  8
SLD-0_4
  6
CONTINUOUS
 62
     7
 10
19.0826189799999995
 20
-134.7056013700000108
 30
0.0
 11
23.3872157600000001
 21
-134.7056013700000108
 31
0.0
  0
LINE
  5
171
  8
SLD-0_4
  6
CONTINUOUS
 62
     7
 10
-50.2550953699999994
 20
-172.6077201200000104
 30
0.0
 11
-50.3206482000000008
 21
-172.6387898600000028
 31
0.0
  0
LINE
  5
172
  8
SLD-0_4
  6
CONTINUOUS
 62
     7
 10
100.3574202899999932
 20
-156.2052672599999994
 30
0.0
 11
100.3574202899999932
 21
-56.2052672599999994
 31
0.0
  0
LINE
  5
173
  8
SLD-0_4
  6
CONTINUOUS
 62
     7
 10
-92.8358841400000045
 20
-145.455946780000005
 30
0.0
 11
-92.8358841400000045
 21
-134.7056013700000108
 31
0.0
  0
LINE
  5
174
  8
SLD-0_4
  6
CONTINUOUS
 62
     7
 10
110.3574202899999932
 20
-134.7052672599999994
 30
0.0
 11
117.8574202899999932
 21
-134.7052672599999994
 31
0.0
  0
LINE
  5
175
  8
SLD-0_4
  6
CONTINUOUS
 62
     7
 10
15.0910052500000003
 20
-56.1995143700000028
 30
0.0
 11
15.0910052500000003
 21
-68.5199028400000003
 31
0.0
  0
LINE
  5
176
  8
SLD-0_4
  6
CONTINUOUS
 62
     7
 10
-20.8460134900000007
 20
-56.1995143700000028
 30
0.0
 11
-20.8460134900000007
 21
-68.5199028400000003
 31
0.0
  0
LINE
  5
177
  8
SLD-0_4
  6
CONTINUOUS
 62
     7
 10
-11.8622373799999998
 20
-56.1995143700000028
 30
0.0
 11
-11.8622373799999998
 21
-68.5199028400000003
 31
0.0
  0
LINE
  5
178
  8
SLD-0_4
  6
CONTINUOUS
 62
     7
 10
-49.497068910000003
 20
-168.8480437000000052
 30
0.0
 11
-49.4860181499999925
 21
-169.2704669400000057
 31
0.0
  0
LINE
  5
179
  8
SLD-0_4
  6
CONTINUOUS
 62
     7
 10
-56.6491007500000023
 20
-145.7376506200000108
 30
0.0
 11
-56.6491007500000023
 21
-150.7059740800000043
 31
0.0
  0
LINE
  5
17A
  8
SLD-0_4
  6
CONTINUOUS
 62
     7
 10
-50.0049203900000023
 20
-172.3898463099999958
 30
0.0
 11
-50.0977272200000101
 21
-172.4857157900000004
 31
0.0
  0
LINE
  5
17B
  8
SLD-0_4
  6
CONTINUOUS
 62
     7
 10
-118.6624515299999985
 20
-145.455946780000005
 30
0.0
 11
19.0826189799999995
 21
-145.455946780000005
 31
0.0
  0
LINE
  5
17C
  8
SLD-0_4
  6
CONTINUOUS
 62
     7
 10
-47.8011704099999903
 20
-56.1995143700000028
 30
0.0
 11
-47.8011704099999903
 21
-68.5199028400000003
 31
0.0
  0
LINE
  5
17D
  8
SLD-0_4
  6
CONTINUOUS
 62
     7
 10
-74.7563273300000048
 20
-56.1995143700000028
 30
0.0
 11
-74.7563273300000048
 21
-68.5199028400000003
 31
0.0
  0
LINE
  5
17E
  8
SLD-0_4
  6
CONTINUOUS
 62
     7
 10
-2.8765469800000001
 20
-56.1995143700000028
 30
0.0
 11
-2.8765469800000001
 21
-68.5199028400000003
 31
0.0
  0
LINE
  5
17F
  8
SLD-0_4
  6
CONTINUOUS
 62
     7
 10
-92.7238795500000066
 20
-56.1995143700000028
 30
0.0
 11
-92.7238795500000066
 21
-68.5199028400000003
 31
0.0
  0
LINE
  5
180
  8
SLD-0_4
  6
CONTINUOUS
 62
     7
 10
-189.6425797100000068
 20
-84.7052672600000136
 30
0.0
 11
-197.1425797100000068
 21
-84.7052672600000136
 31
0.0
  0
LINE
  5
181
  8
SLD-0_4
  6
CONTINUOUS
 62
     7
 10
-189.6425797100000068
 20
-127.7052672599999994
 30
0.0
 11
-197.1425797100000068
 21
-127.7052672599999994
 31
0.0
  0
LINE
  5
182
  8
SLD-0_4
  6
CONTINUOUS
 62
     7
 10
-199.6425797100000068
 20
-58.7052672599999994
 30
0.0
 11
-197.1425797100000068
 21
-56.2052672599999994
 31
0.0
  0
LINE
  5
183
  8
SLD-0_4
  6
CONTINUOUS
 62
     7
 10
-75.6174969900000065
 20
-145.455946780000005
 30
0.0
 11
-75.6174969900000065
 21
-134.7056013700000108
 31
0.0
  0
LINE
  5
184
  8
SLD-0_4
  6
CONTINUOUS
 62
     7
 10
-49.5133114799999987
 20
-168.4411073900000133
 30
0.0
 11
-49.497068910000003
 21
-168.8480437000000052
 31
0.0
  0
LINE
  5
185
  8
SLD-0_4
  6
CONTINUOUS
 62
     7
 10
-49.5013510799999992
 20
-170.5393124
 30
0.0
 11
-49.5284019300000011
 21
-170.9323375300000123
 31
0.0
  0
LINE
  5
186
  8
SLD-0_4
  6
CONTINUOUS
 62
     7
 10
-49.4864257899999984
 20
-170.1252358799999911
 30
0.0
 11
-49.5013510799999992
 21
-170.5393124
 31
0.0
  0
LINE
  5
187
  8
SLD-0_4
  6
CONTINUOUS
 62
     7
 10
-45.4843061700000035
 20
-156.2052788700000008
 30
0.0
 11
-45.4843061700000035
 21
-145.455946780000005
 31
0.0
  0
LINE
  5
188
  8
SLD-0_4
  6
CONTINUOUS
 62
     7
 10
-50.9005184600000007
 20
-150.7059740800000043
 30
0.0
 11
-50.9005184600000007
 21
-173.1875617299999988
 31
0.0
  0
LINE
  5
189
  8
SLD-0_4
  6
CONTINUOUS
 62
     7
 10
-199.6425797100000068
 20
-153.7052672599999994
 30
0.0
 11
-199.6425797100000068
 21
-137.2052672599999994
 31
0.0
  0
LINE
  5
18A
  8
SLD-0_4
  6
CONTINUOUS
 62
     7
 10
-50.5613601800000012
 20
-172.5616019299999948
 30
0.0
 11
-50.580671719999998
 21
-172.5278322100000139
 31
0.0
  0
LINE
  5
18B
  8
SLD-0_4
  6
CONTINUOUS
 62
     7
 10
-49.6996422200000012
 20
-171.8937586000000124
 30
0.0
 11
-49.7925296900000021
 21
-172.1112322399999925
 31
0.0
  0
LINE
  5
18C
  8
SLD-0_4
  6
CONTINUOUS
 62
     7
 10
19.0826189799999995
 20
-134.7056013700000108
 30
0.0
 11
-118.6624515299999985
 21
-134.7056013700000108
 31
0.0
  0
LINE
  5
18D
  8
SLD-0_4
  6
CONTINUOUS
 62
     7
 10
-49.6267712499999902
 20
-166.7934925700000122
 30
0.0
 11
-49.6227223100000003
 21
-166.8362519599999985
 31
0.0
  0
LINE
  5
18E
  8
SLD-0_4
  6
CONTINUOUS
 62
     7
 10
-83.7401034399999986
 20
-56.1995143700000028
 30
0.0
 11
-83.7401034399999986
 21
-68.5199028400000003
 31
0.0
  0
LINE
  5
18F
  8
SLD-0_4
  6
CONTINUOUS
 62
     7
 10
117.8574202899999932
 20
-156.2052672599999994
 30
0.0
 11
120.3574202899999932
 21
-153.7052672599999994
 31
0.0
  0
LINE
  5
190
  8
SLD-0_4
  6
CONTINUOUS
 62
     7
 10
-189.6425797100000068
 20
-77.7052672599999852
 30
0.0
 11
-197.1425797100000068
 21
-77.7052672599999852
 31
0.0
  0
LINE
  5
191
  8
SLD-0_4
  6
CONTINUOUS
 62
     7
 10
-197.1425797100000068
 20
-84.7052672600000136
 30
0.0
 11
-199.6425797100000068
 21
-87.2052672600000136
 31
0.0
  0
LINE
  5
192
  8
SLD-0_4
  6
CONTINUOUS
 62
     7
 10
10.4734254
 20
-145.455946780000005
 30
0.0
 11
10.4734254
 21
-134.7056013700000108
 31
0.0
  0
LINE
  5
193
  8
SLD-0_4
  6
CONTINUOUS
 62
     7
 10
-50.5953603800000025
 20
-172.4946694100000002
 30
0.0
 11
-50.6059219200000001
 21
-172.4645809900000017
 31
0.0
  0
LINE
  5
194
  8
SLD-0_4
  6
CONTINUOUS
 62
     7
 10
117.8574202899999932
 20
-56.2052672599999994
 30
0.0
 11
-197.1425797100000068
 21
-56.2052672599999994
 31
0.0
  0
LINE
  5
195
  8
SLD-0_4
  6
CONTINUOUS
 62
     7
 10
-49.5758556500000012
 20
-167.4045659299999045
 30
0.0
 11
-49.5544382900000002
 21
-167.7102339200000074
 31
0.0
  0
LINE
  5
196
  8
SLD-0_4
  6
CONTINUOUS
 62
     7
 10
-50.4707307299999925
 20
-172.6418783899999028
 30
0.0
 11
-50.5068854399999907
 21
-172.6210924499999919
 31
0.0
  0
LINE
  5
197
  8
SLD-0_4
  6
CONTINUOUS
 62
     7
 10
-64.3979829599999931
 20
-150.7059740800000043
 30
0.0
 11
-66.3992962000000091
 21
-145.7376506200000108
 31
0.0
  0
LINE
  5
198
  8
SLD-0_4
  6
CONTINUOUS
 62
     7
 10
-49.7925296900000021
 20
-172.1112322399999925
 30
0.0
 11
-49.9020373700000022
 21
-172.2674420699999871
 31
0.0
  0
LINE
  5
199
  8
SLD-0_4
  6
CONTINUOUS
 62
     7
 10
-38.8173942999999966
 20
-56.1995143700000028
 30
0.0
 11
-38.8173942999999966
 21
-68.5199028400000003
 31
0.0
  0
LINE
  5
19A
  8
SLD-0_4
  6
CONTINUOUS
 62
     7
 10
120.3574202899999932
 20
-58.7052672599999994
 30
0.0
 11
117.8574202899999932
 21
-56.2052672599999994
 31
0.0
  0
LINE
  5
19B
  8
SLD-0_4
  6
CONTINUOUS
 62
     7
 10
-189.6425797100000068
 20
-134.7052672599999994
 30
0.0
 11
-197.1425797100000068
 21
-134.7052672599999994
 31
0.0
  0
LINE
  5
19C
  8
SLD-0_4
  6
CONTINUOUS
 62
     7
 10
-65.8987145600000019
 20
-173.1875617299999988
 30
0.0
 11
-65.8987145600000019
 21
-150.7059740800000043
 31
0.0
  0
LINE
  5
19D
  8
SLD-0_4
  6
CONTINUOUS
 62
     7
 10
-49.4818926299999902
 20
-169.6992425299999923
 30
0.0
 11
-49.4864257899999984
 21
-170.1252358799999911
 31
0.0
  0
LINE
  5
19E
  8
SLD-0_4
  6
CONTINUOUS
 62
     7
 10
-41.1797093799999985
 20
-145.455946780000005
 30
0.0
 11
-41.1797093799999985
 21
-134.7056013700000108
 31
0.0
  0
LINE
  5
19F
  8
SLD-0_4
  6
CONTINUOUS
 62
     7
 10
-50.3979101700000029
 20
-145.7376506200000108
 30
0.0
 11
-56.6491007500000023
 21
-145.7376506200000108
 31
0.0
  0
LINE
  5
1A0
  8
SLD-0_4
  6
CONTINUOUS
 62
     7
 10
-50.3206482000000008
 20
-172.6387898600000028
 30
0.0
 11
-50.3781078700000009
 21
-172.6531945199999996
 31
0.0
  0
LINE
  5
1A1
  8
SLD-0_4
  6
CONTINUOUS
 62
     7
 10
-66.3992962000000091
 20
-145.7376506200000108
 30
0.0
 11
-60.1501322700000003
 21
-145.7376506200000108
 31
0.0
  0
LINE
  5
1A2
  8
SLD-0_4
  6
CONTINUOUS
 62
     7
 10
-6.744961739999999
 20
-145.455946780000005
 30
0.0
 11
-6.744961739999999
 21
-134.7056013700000108
 31
0.0
  0
LINE
  5
1A3
  8
SLD-0_4
  6
CONTINUOUS
 62
     7
 10
-56.7849465199999983
 20
-56.1995143700000028
 30
0.0
 11
-56.7849465199999983
 21
-68.5199028400000003
 31
0.0
  0
LINE
  5
1A4
  8
SLD-0_4
  6
CONTINUOUS
 62
     7
 10
-50.536930009999999
 20
-172.5935111400000039
 30
0.0
 11
-50.5613601800000012
 21
-172.5616019299999948
 31
0.0
  0
LINE
  5
1A5
  8
SLD-0_4
  6
CONTINUOUS
 62
     7
 10
23.3872157600000001
 20
-156.2052788700000008
 30
0.0
 11
23.3872157600000001
 21
-145.455946780000005
 31
0.0
  0
LINE
  5
1A6
  8
SLD-0_4
  6
CONTINUOUS
 62
     7
 10
-36.8761259199999998
 20
-156.2052788700000008
 30
0.0
 11
-36.8761259199999998
 21
-145.455946780000005
 31
0.0
  0
LINE
  5
1A7
  8
SLD-0_4
  6
CONTINUOUS
 62
     7
 10
14.7800488399999992
 20
-156.2052788700000008
 30
0.0
 11
14.7800488399999992
 21
-145.455946780000005
 31
0.0
  0
LINE
  5
1A8
  8
SLD-0_4
  6
CONTINUOUS
 62
     7
 10
-50.0977272200000101
 20
-172.4857157900000004
 30
0.0
 11
-50.1809536299999976
 21
-172.5575179100000014
 31
0.0
  0
LINE
  5
1A9
  8
SLD-0_4
  6
CONTINUOUS
 62
     7
 10
-114.356841419999995
 20
-145.455946780000005
 30
0.0
 11
-114.356841419999995
 21
-156.2052788700000008
 31
0.0
  0
LINE
  5
1AA
  8
SLD-0_4
  6
CONTINUOUS
 62
     7
 10
-52.3992234199999913
 20
-150.7059740800000043
 30
0.0
 11
-50.3979101700000029
 21
-145.7376506200000108
 31
0.0
  0
LINE
  5
1AB
  8
SLD-0_4
  6
CONTINUOUS
 62
     7
 10
-105.7486611700000054
 20
-156.2052788700000008
 30
0.0
 11
-105.7486611700000054
 21
-145.455946780000005
 31
0.0
  0
LINE
  5
1AC
  8
SLD-0_4
  6
CONTINUOUS
 62
     7
 10
-49.5544382900000002
 20
-167.7102339200000074
 30
0.0
 11
-49.5330124199999986
 21
-168.0587926100000118
 31
0.0
  0
LINE
  5
1AD
  8
SLD-0_4
  6
CONTINUOUS
 62
     7
 10
117.8574202899999932
 20
-77.7052672599999852
 30
0.0
 11
120.3574202899999932
 21
-75.2052672599999852
 31
0.0
  0
LINE
  5
1AE
  8
SLD-0_4
  6
CONTINUOUS
 62
     7
 10
-119.6790364699999998
 20
-68.5199028400000003
 30
0.0
 11
-119.6790364699999998
 21
-56.1995143700000028
 31
0.0
  0
LINE
  5
1AF
  8
SLD-0_4
  6
CONTINUOUS
 62
     7
 10
-199.6425797100000068
 20
-75.2052672599999852
 30
0.0
 11
-199.6425797100000068
 21
-58.7052672599999994
 31
0.0
  0
LINE
  5
1B0
  8
SLD-0_4
  6
CONTINUOUS
 62
     7
 10
-74.6811863899999935
 20
-312.6240913199999909
 30
0.0
 11
-74.6811863899999935
 21
-324.8751683400000161
 31
0.0
  0
LINE
  5
1B1
  8
SLD-0_4
  6
CONTINUOUS
 62
     7
 10
-129.7036206900000082
 20
-340.2067477599999847
 30
0.0
 11
100.3574202899999932
 21
-340.2067477599999847
 31
0.0
  0
LINE
  5
1B2
  8
SLD-0_4
  6
CONTINUOUS
 62
     7
 10
-24.8834463100000001
 20
-324.8751683400000161
 30
0.0
 11
-24.8834463100000001
 21
-312.6240913199999909
 31
0.0
  0
LINE
  5
1B3
  8
SLD-0_4
  6
CONTINUOUS
 62
     7
 10
-57.680663729999992
 20
-312.6240913199999909
 30
0.0
 11
-57.680663729999992
 21
-324.8751683400000161
 31
0.0
  0
LINE
  5
1B4
  8
SLD-0_4
  6
CONTINUOUS
 62
     7
 10
-118.6796780300000052
 20
-312.6240913199999909
 30
0.0
 11
-118.6796780300000052
 21
-324.8751683400000161
 31
0.0
  0
LINE
  5
1B5
  8
SLD-0_4
  6
CONTINUOUS
 62
     7
 10
-27.9315223800000005
 20
-324.8751683400000161
 30
0.0
 11
-27.9315223800000005
 21
-337.1242187099999796
 31
0.0
  0
LINE
  5
1B6
  8
SLD-0_4
  6
CONTINUOUS
 62
     7
 10
0.61784434
 20
-324.8751683400000161
 30
0.0
 11
0.61784434
 21
-312.6240913199999909
 31
0.0
  0
LINE
  5
1B7
  8
SLD-0_4
  6
CONTINUOUS
 62
     7
 10
-112.9310957400000035
 20
-337.1242187099999796
 30
0.0
 11
23.3669493000000017
 21
-337.1242187099999796
 31
0.0
  0
LINE
  5
1B8
  8
SLD-0_4
  6
CONTINUOUS
 62
     7
 10
-117.182999719999998
 20
-320.8583553299999949
 30
0.0
 11
17.5768207600000004
 21
-320.8583553299999949
 31
0.0
  0
LINE
  5
1B9
  8
SLD-0_4
  6
CONTINUOUS
 62
     7
 10
4.8697483300000002
 20
-337.1242187099999796
 30
0.0
 11
4.8697483300000002
 21
-324.8751683400000161
 31
0.0
  0
LINE
  5
1BA
  8
SLD-0_4
  6
CONTINUOUS
 62
     7
 10
-127.7043340900000032
 20
-340.2067477599999847
 30
0.0
 11
-127.7043340900000032
 21
-337.2052845500001013
 31
0.0
  0
LINE
  5
1BB
  8
SLD-0_4
  6
CONTINUOUS
 62
     7
 10
-63.1303156900000033
 20
-337.1242187099999796
 30
0.0
 11
-63.1303156900000033
 21
-324.8751683400000161
 31
0.0
  0
LINE
  5
1BC
  8
SLD-0_4
  6
CONTINUOUS
 62
     7
 10
-58.8824650000000105
 20
-324.8751683400000161
 30
0.0
 11
-58.8824650000000105
 21
-312.6240913199999909
 31
0.0
  0
LINE
  5
1BD
  8
SLD-0_4
  6
CONTINUOUS
 62
     7
 10
-16.3816650000000017
 20
-324.8751683400000161
 30
0.0
 11
-16.3816650000000017
 21
-312.6240913199999909
 31
0.0
  0
LINE
  5
1BE
  8
SLD-0_4
  6
CONTINUOUS
 62
     7
 10
98.3424852699999832
 20
-337.2052845500001013
 30
0.0
 11
98.3424852699999832
 21
-340.2067477599999847
 31
0.0
  0
LINE
  5
1BF
  8
SLD-0_4
  6
CONTINUOUS
 62
     7
 10
-87.4298050799999942
 20
-324.8751683400000161
 30
0.0
 11
-87.4298050799999942
 21
-337.1242187099999796
 31
0.0
  0
LINE
  5
1C0
  8
SLD-0_4
  6
CONTINUOUS
 62
     7
 10
-100.1824770500000028
 20
-312.6240913199999909
 30
0.0
 11
-100.1824770500000028
 21
-324.8751683400000161
 31
0.0
  0
LINE
  5
1C1
  8
SLD-0_4
  6
CONTINUOUS
 62
     7
 10
21.8692576699999996
 20
-324.8751683400000161
 30
0.0
 11
21.8692576699999996
 21
-337.1242187099999796
 31
0.0
  0
LINE
  5
1C2
  8
SLD-0_4
  6
CONTINUOUS
 62
     7
 10
-3.6300063499999982
 20
-337.1242187099999796
 30
0.0
 11
-3.6300063499999982
 21
-324.8751683400000161
 31
0.0
  0
LINE
  5
1C3
  8
SLD-0_4
  6
CONTINUOUS
 62
     7
 10
-37.631051669999998
 20
-337.1242187099999796
 30
0.0
 11
-37.631051669999998
 21
-324.8751683400000161
 31
0.0
  0
LINE
  5
1C4
  8
SLD-0_4
  6
CONTINUOUS
 62
     7
 10
-75.8809610200000009
 20
-324.8751683400000161
 30
0.0
 11
-75.8809610200000009
 21
-312.6240913199999909
 31
0.0
  0
LINE
  5
1C5
  8
SLD-0_4
  6
CONTINUOUS
 62
     7
 10
-84.3807156899999882
 20
-324.8751683400000161
 30
0.0
 11
-84.3807156899999882
 21
-312.6240913199999909
 31
0.0
  0
LINE
  5
1C6
  8
SLD-0_4
  6
CONTINUOUS
 62
     7
 10
-92.8814836799999881
 20
-324.8751683400000161
 30
0.0
 11
-92.8814836799999881
 21
-312.6240913199999909
 31
0.0
  0
LINE
  5
1C7
  8
SLD-0_4
  6
CONTINUOUS
 62
     7
 10
-70.4313090600000038
 20
-324.8751683400000161
 30
0.0
 11
-70.4313090600000038
 21
-337.1242187099999796
 31
0.0
  0
LINE
  5
1C8
  8
SLD-0_4
  6
CONTINUOUS
 62
     7
 10
-20.6295156900000016
 20
-337.1242187099999796
 30
0.0
 11
-20.6295156900000016
 21
-324.8751683400000161
 31
0.0
  0
LINE
  5
1C9
  8
SLD-0_4
  6
CONTINUOUS
 62
     7
 10
-109.8820063499999975
 20
-324.8751683400000161
 30
0.0
 11
-109.8820063499999975
 21
-312.6240913199999909
 31
0.0
  0
LINE
  5
1CA
  8
SLD-0_4
  6
CONTINUOUS
 62
     7
 10
14.5692776199999994
 20
-337.1242187099999796
 30
0.0
 11
14.5692776199999994
 21
-324.8751683400000161
 31
0.0
  0
LINE
  5
1CB
  8
SLD-0_4
  6
CONTINUOUS
 62
     7
 10
-66.1804183999999935
 20
-312.6240913199999909
 30
0.0
 11
-66.1804183999999935
 21
-324.8751683400000161
 31
0.0
  0
LINE
  5
1CC
  8
SLD-0_4
  6
CONTINUOUS
 62
     7
 10
-112.9310957400000035
 20
-324.8751683400000161
 30
0.0
 11
-112.9310957400000035
 21
-337.1242187099999796
 31
0.0
  0
LINE
  5
1CD
  8
SLD-0_4
  6
CONTINUOUS
 62
     7
 10
-127.7043340900000032
 20
-337.2052845500001013
 30
0.0
 11
98.3424852699999832
 21
-337.2052845500001013
 31
0.0
  0
LINE
  5
1CE
  8
SLD-0_4
  6
CONTINUOUS
 62
     7
 10
-61.930541060000003
 20
-324.8751683400000161
 30
0.0
 11
-61.930541060000003
 21
-337.1242187099999796
 31
0.0
  0
LINE
  5
1CF
  8
SLD-0_4
  6
CONTINUOUS
 62
     7
 10
-33.3832009899999989
 20
-324.8751683400000161
 30
0.0
 11
-33.3832009899999989
 21
-312.6240913199999909
 31
0.0
  0
LINE
  5
1D0
  8
SLD-0_4
  6
CONTINUOUS
 62
     7
 10
-7.8819103300000002
 20
-324.8751683400000161
 30
0.0
 11
-7.8819103300000002
 21
-312.6240913199999909
 31
0.0
  0
LINE
  5
1D1
  8
SLD-0_4
  6
CONTINUOUS
 62
     7
 10
-105.6301023599999951
 20
-337.1242187099999796
 30
0.0
 11
-105.6301023599999951
 21
-324.8751683400000161
 31
0.0
  0
LINE
  5
1D2
  8
SLD-0_4
  6
CONTINUOUS
 62
     7
 10
-40.6821677100000016
 20
-312.6240913199999909
 30
0.0
 11
-40.6821677100000016
 21
-324.8751683400000161
 31
0.0
  0
LINE
  5
1D3
  8
SLD-0_4
  6
CONTINUOUS
 62
     7
 10
23.3669493000000017
 20
-312.6240913199999909
 30
0.0
 11
23.3669493000000017
 21
-324.8751683400000161
 31
0.0
  0
LINE
  5
1D4
  8
SLD-0_4
  6
CONTINUOUS
 62
     7
 10
-78.9290370800000005
 20
-324.8751683400000161
 30
0.0
 11
-78.9290370800000005
 21
-337.1242187099999796
 31
0.0
  0
LINE
  5
1D5
  8
SLD-0_4
  6
CONTINUOUS
 62
     7
 10
-15.1798637299999992
 20
-312.6240913199999909
 30
0.0
 11
-15.1798637299999992
 21
-324.8751683400000161
 31
0.0
  0
LINE
  5
1D6
  8
SLD-0_4
  6
CONTINUOUS
 62
     7
 10
-46.1318196699999987
 20
-337.1242187099999796
 30
0.0
 11
-46.1318196699999987
 21
-324.8751683400000161
 31
0.0
  0
LINE
  5
1D7
  8
SLD-0_4
  6
CONTINUOUS
 62
     7
 10
-95.9295597499999957
 20
-324.8751683400000161
 30
0.0
 11
-95.9295597499999957
 21
-337.1242187099999796
 31
0.0
  0
LINE
  5
1D8
  8
SLD-0_4
  6
CONTINUOUS
 62
     7
 10
-50.3816970000000026
 20
-324.8751683400000161
 30
0.0
 11
-50.3816970000000026
 21
-312.6240913199999909
 31
0.0
  0
LINE
  5
1D9
  8
SLD-0_4
  6
CONTINUOUS
 62
     7
 10
-117.182999719999998
 20
-318.9310146799999757
 30
0.0
 11
17.5768207600000004
 21
-318.9310146799999757
 31
0.0
  0
LINE
  5
1DA
  8
SLD-0_4
  6
CONTINUOUS
 62
     7
 10
-112.9310957400000035
 20
-331.1820916899999929
 30
0.0
 11
21.8307513899999996
 21
-331.1820916899999929
 31
0.0
  0
LINE
  5
1DB
  8
SLD-0_4
  6
CONTINUOUS
 62
     7
 10
17.6193803299999985
 20
-324.8751683400000161
 30
0.0
 11
17.6193803299999985
 21
-312.6240913199999909
 31
0.0
  0
LINE
  5
1DC
  8
SLD-0_4
  6
CONTINUOUS
 62
     7
 10
100.3574202899999932
 20
-340.2067477599999847
 30
0.0
 11
110.3574202899999932
 21
-353.2056572600000095
 31
0.0
  0
LINE
  5
1DD
  8
SLD-0_4
  6
CONTINUOUS
 62
     7
 10
-10.9299863899999998
 20
-324.8751683400000161
 30
0.0
 11
-10.9299863899999998
 21
-337.1242187099999796
 31
0.0
  0
LINE
  5
1DE
  8
SLD-0_4
  6
CONTINUOUS
 62
     7
 10
-80.1308383500000048
 20
-337.1242187099999796
 30
0.0
 11
-80.1308383500000048
 21
-324.8751683400000161
 31
0.0
  0
LINE
  5
1DF
  8
SLD-0_4
  6
CONTINUOUS
 62
     7
 10
1.8176189700000001
 20
-312.6240913199999909
 30
0.0
 11
1.8176189700000001
 21
-324.8751683400000161
 31
0.0
  0
LINE
  5
1E0
  8
SLD-0_4
  6
CONTINUOUS
 62
     7
 10
10.3173736399999996
 20
-312.6240913199999909
 30
0.0
 11
10.3173736399999996
 21
-324.8751683400000161
 31
0.0
  0
LINE
  5
1E1
  8
SLD-0_4
  6
CONTINUOUS
 62
     7
 10
-101.3822516700000023
 20
-324.8751683400000161
 30
0.0
 11
-101.3822516700000023
 21
-312.6240913199999909
 31
0.0
  0
LINE
  5
1E2
  8
SLD-0_4
  6
CONTINUOUS
 62
     7
 10
-36.4312770499999985
 20
-324.8751683400000161
 30
0.0
 11
-36.4312770499999985
 21
-337.1242187099999796
 31
0.0
  0
LINE
  5
1E3
  8
SLD-0_4
  6
CONTINUOUS
 62
     7
 10
-88.6316063499999842
 20
-337.1242187099999796
 30
0.0
 11
-88.6316063499999842
 21
-324.8751683400000161
 31
0.0
  0
LINE
  5
1E4
  8
SLD-0_4
  6
CONTINUOUS
 62
     7
 10
-118.6796780300000052
 20
-337.1242187099999796
 30
0.0
 11
-118.6796780300000052
 21
-324.8751683400000161
 31
0.0
  0
LINE
  5
1E5
  8
SLD-0_4
  6
CONTINUOUS
 62
     7
 10
-53.4307863900000015
 20
-324.8751683400000161
 30
0.0
 11
-53.4307863900000015
 21
-337.1242187099999796
 31
0.0
  0
LINE
  5
1E6
  8
SLD-0_4
  6
CONTINUOUS
 62
     7
 10
130.3574202899999932
 20
-351.2056572600000095
 30
0.0
 11
130.3574202899999932
 21
-353.2056572600000095
 31
0.0
  0
LINE
  5
1E7
  8
SLD-0_4
  6
CONTINUOUS
 62
     7
 10
9.1196256600000005
 20
-324.8751683400000161
 30
0.0
 11
9.1196256600000005
 21
-312.6240913199999909
 31
0.0
  0
LINE
  5
1E8
  8
SLD-0_4
  6
CONTINUOUS
 62
     7
 10
6.0674962999999993
 20
-337.1242187099999796
 30
0.0
 11
6.0674962999999993
 21
-324.8751683400000161
 31
0.0
  0
LINE
  5
1E9
  8
SLD-0_4
  6
CONTINUOUS
 62
     7
 10
-67.380193019999993
 20
-324.8751683400000161
 30
0.0
 11
-67.380193019999993
 21
-312.6240913199999909
 31
0.0
  0
LINE
  5
1EA
  8
SLD-0_4
  6
CONTINUOUS
 62
     7
 10
-49.1819223800000032
 20
-312.6240913199999909
 30
0.0
 11
-49.1819223800000032
 21
-324.8751683400000161
 31
0.0
  0
LINE
  5
1EB
  8
SLD-0_4
  6
CONTINUOUS
 62
     7
 10
-91.6817090600000029
 20
-312.6240913199999909
 30
0.0
 11
-91.6817090600000029
 21
-324.8751683400000161
 31
0.0
  0
LINE
  5
1EC
  8
SLD-0_4
  6
CONTINUOUS
 62
     7
 10
-29.131297
 20
-337.1242187099999796
 30
0.0
 11
-29.131297
 21
-324.8751683400000161
 31
0.0
  0
LINE
  5
1ED
  8
SLD-0_4
  6
CONTINUOUS
 62
     7
 10
-108.6822317200000043
 20
-312.6240913199999909
 30
0.0
 11
-108.6822317200000043
 21
-324.8751683400000161
 31
0.0
  0
LINE
  5
1EE
  8
SLD-0_4
  6
CONTINUOUS
 62
     7
 10
-32.1813997200000017
 20
-312.6240913199999909
 30
0.0
 11
-32.1813997200000017
 21
-324.8751683400000161
 31
0.0
  0
LINE
  5
1EF
  8
SLD-0_4
  6
CONTINUOUS
 62
     7
 10
14.5713042599999998
 20
-324.8751683400000161
 30
0.0
 11
14.5713042599999998
 21
-337.1242187099999796
 31
0.0
  0
LINE
  5
1F0
  8
SLD-0_4
  6
CONTINUOUS
 62
     7
 10
-117.1809730699999932
 20
-312.6240913199999909
 30
0.0
 11
-117.1809730699999932
 21
-324.8751683400000161
 31
0.0
  0
LINE
  5
1F1
  8
SLD-0_4
  6
CONTINUOUS
 62
     7
 10
-2.4302317200000001
 20
-324.8751683400000161
 30
0.0
 11
-2.4302317200000001
 21
-337.1242187099999796
 31
0.0
  0
LINE
  5
1F2
  8
SLD-0_4
  6
CONTINUOUS
 62
     7
 10
-19.431767709999999
 20
-324.8751683400000161
 30
0.0
 11
-19.431767709999999
 21
-337.1242187099999796
 31
0.0
  0
LINE
  5
1F3
  8
SLD-0_4
  6
CONTINUOUS
 62
     7
 10
17.6193803299999985
 20
-312.6240913199999909
 30
0.0
 11
-118.6796780300000052
 21
-312.6240913199999909
 31
0.0
  0
LINE
  5
1F4
  8
SLD-0_4
  6
CONTINUOUS
 62
     7
 10
-54.6295476900000025
 20
-337.1242187099999796
 30
0.0
 11
-54.6295476900000025
 21
-324.8751683400000161
 31
0.0
  0
LINE
  5
1F5
  8
SLD-0_4
  6
CONTINUOUS
 62
     7
 10
-6.6801090600000004
 20
-312.6240913199999909
 30
0.0
 11
-6.6801090600000004
 21
-324.8751683400000161
 31
0.0
  0
LINE
  5
1F6
  8
SLD-0_4
  6
CONTINUOUS
 62
     7
 10
-104.4303277399999956
 20
-324.8751683400000161
 30
0.0
 11
-104.4303277399999956
 21
-337.1242187099999796
 31
0.0
  0
LINE
  5
1F7
  8
SLD-0_4
  6
CONTINUOUS
 62
     7
 10
17.6193803299999985
 20
-312.6240913199999909
 30
0.0
 11
23.3669493000000017
 21
-312.6240913199999909
 31
0.0
  0
LINE
  5
1F8
  8
SLD-0_4
  6
CONTINUOUS
 62
     7
 10
23.3669493000000017
 20
-337.1242187099999796
 30
0.0
 11
23.3669493000000017
 21
-324.8751683400000161
 31
0.0
  0
LINE
  5
1F9
  8
SLD-0_4
  6
CONTINUOUS
 62
     7
 10
23.3669493000000017
 20
-324.8751683400000161
 30
0.0
 11
-112.9310957400000035
 21
-324.8751683400000161
 31
0.0
  0
LINE
  5
1FA
  8
SLD-0_4
  6
CONTINUOUS
 62
     7
 10
-71.6300703600000048
 20
-337.1242187099999796
 30
0.0
 11
-71.6300703600000048
 21
-324.8751683400000161
 31
0.0
  0
LINE
  5
1FB
  8
SLD-0_4
  6
CONTINUOUS
 62
     7
 10
-41.8809290100000027
 20
-324.8751683400000161
 30
0.0
 11
-41.8809290100000027
 21
-312.6240913199999909
 31
0.0
  0
LINE
  5
1FC
  8
SLD-0_4
  6
CONTINUOUS
 62
     7
 10
-118.6796780300000052
 20
-324.8751683400000161
 30
0.0
 11
17.6193803299999985
 21
-324.8751683400000161
 31
0.0
  0
LINE
  5
1FD
  8
SLD-0_4
  6
CONTINUOUS
 62
     7
 10
-97.1313610199999857
 20
-337.1242187099999796
 30
0.0
 11
-97.1313610199999857
 21
-324.8751683400000161
 31
0.0
  0
LINE
  5
1FE
  8
SLD-0_4
  6
CONTINUOUS
 62
     7
 10
130.3574202899999932
 20
-351.2056572600000095
 30
0.0
 11
110.3574202899999932
 21
-351.2056572600000095
 31
0.0
  0
LINE
  5
1FF
  8
SLD-0_4
  6
CONTINUOUS
 62
     7
 10
6.0695229499999988
 20
-324.8751683400000161
 30
0.0
 11
6.0695229499999988
 21
-337.1242187099999796
 31
0.0
  0
LINE
  5
200
  8
SLD-0_4
  6
CONTINUOUS
 62
     7
 10
-44.9300184000000016
 20
-324.8751683400000161
 30
0.0
 11
-44.9300184000000016
 21
-337.1242187099999796
 31
0.0
  0
LINE
  5
201
  8
SLD-0_4
  6
CONTINUOUS
 62
     7
 10
-12.1297610200000001
 20
-337.1242187099999796
 30
0.0
 11
-12.1297610200000001
 21
-324.8751683400000161
 31
0.0
  0
LINE
  5
202
  8
SLD-0_4
  6
CONTINUOUS
 62
     7
 10
-129.7036206900000082
 20
-340.2067477599999847
 30
0.0
 11
-129.7036206900000082
 21
-353.2056572600000095
 31
0.0
  0
LINE
  5
203
  8
SLD-0_4
  6
CONTINUOUS
 62
     7
 10
-23.6816450500000002
 20
-312.6240913199999909
 30
0.0
 11
-23.6816450500000002
 21
-324.8751683400000161
 31
0.0
  0
LINE
  5
204
  8
SLD-0_4
  6
CONTINUOUS
 62
     7
 10
-83.1819543900000014
 20
-312.6240913199999909
 30
0.0
 11
-83.1819543900000014
 21
-324.8751683400000161
 31
0.0
  0
LINE
  5
205
  8
SLD-0_4
  6
CONTINUOUS
 62
     7
 10
-112.9310957400000035
 20
-332.8581282000000101
 30
0.0
 11
21.8307513899999996
 21
-332.8581282000000101
 31
0.0
  0
LINE
  5
206
  8
SLD-0_4
  6
CONTINUOUS
 62
     7
 10
-112.9310957400000035
 20
-337.1242187099999796
 30
0.0
 11
-118.6796780300000052
 21
-337.1242187099999796
 31
0.0
  0
LINE
  5
207
  8
SLD-0_4
  6
CONTINUOUS
 62
     7
 10
13.3695029999999999
 20
-337.1242187099999796
 30
0.0
 11
13.3695029999999999
 21
-324.8751683400000161
 31
0.0
  0
ARC
  5
208
  8
SLD-0_4
  6
CONTINUOUS
 62
     7
 10
110.3574202899999932
 20
-81.2052672599999852
 30
0.0
 40
3.5
 50
90.0
 51
270.0
  0
ARC
  5
209
  8
SLD-0_4
  6
CONTINUOUS
 62
     7
 10
-189.6425797100000068
 20
-81.2052672599999852
 30
0.0
 40
3.5
 50
270.0
 51
90.0
  0
ARC
  5
20A
  8
SLD-0_4
  6
CONTINUOUS
 62
     7
 10
110.3574202899999932
 20
-131.2052672599999994
 30
0.0
 40
3.5
 50
90.0
 51
270.0
  0
ARC
  5
20B
  8
SLD-0_4
  6
CONTINUOUS
 62
     7
 10
-189.6425797100000068
 20
-131.2052672599999994
 30
0.0
 40
3.5
 50
270.0
 51
90.0
  0
LINE
  5
20C
  8
SLD-0_5
  6
PHANTOM
 62
     7
 10
26.0272444500000013
 20
-267.9264067099999806
 30
0.0
 11
26.0272444500000013
 21
-267.7056572700000174
 31
0.0
  0
LINE
  5
20D
  8
SLD-0_5
  6
PHANTOM
 62
     7
 10
24.5272444500000013
 20
-266.2056572700000174
 30
0.0
 11
22.2295909700000003
 21
-266.2056572700000174
 31
0.0
  0
LINE
  5
20E
  8
SLD-0_5
  6
PHANTOM
 62
     7
 10
9.3574202900000003
 20
-267.9056572599999981
 30
0.0
 11
9.3574202900000003
 21
-312.6240913299999988
 31
0.0
  0
LINE
  5
20F
  8
SLD-0_5
  6
PHANTOM
 62
     7
 10
20.7295909700000003
 20
-267.9264067099999806
 30
0.0
 11
20.7295909700000003
 21
-267.7056572700000174
 31
0.0
  0
LINE
  5
210
  8
SLD-0_5
  6
PHANTOM
 62
     7
 10
27.3574202900000003
 20
-267.9056572599999981
 30
0.0
 11
9.3574202900000003
 21
-267.9056572599999981
 31
0.0
  0
LINE
  5
211
  8
SLD-0_5
  6
PHANTOM
 62
     7
 10
27.3574202900000003
 20
-267.9056572599999981
 30
0.0
 11
27.3574202900000003
 21
-337.2052845500001013
 31
0.0
  0
ARC
  5
212
  8
SLD-0_5
  6
PHANTOM
 62
     7
 10
22.2295909700000003
 20
-267.7056572700000174
 30
0.0
 40
1.5
 50
90.0
 51
180.0
  0
ARC
  5
213
  8
SLD-0_5
  6
PHANTOM
 62
     7
 10
24.5272444500000013
 20
-267.7056572700000174
 30
0.0
 40
1.5
 50
0.0
 51
90.0
  0
LINE
  5
214
  8
SLD-0_2
  6
CONTINUOUS
 62
     7
 10
-199.6425797100000068
 20
-351.2056572600000095
 30
0.0
 11
-199.6425797100000068
 21
-353.2056572600000095
 31
0.0
  0
LINE
  5
215
  8
SLD-0_2
  6
CONTINUOUS
 62
     7
 10
130.3574202899999932
 20
-353.2056572600000095
 30
0.0
 11
-199.6425797100000068
 21
-353.2056572600000095
 31
0.0
  0
LINE
  5
216
  8
SLD-0_2
  6
CONTINUOUS
 62
     7
 10
-129.7036206900000082
 20
-351.2056572600000095
 30
0.0
 11
-199.6425797100000068
 21
-351.2056572600000095
 31
0.0
  0
LINE
  5
217
  8
SLD-0_2
  6
PHANTOM
 62
     7
 10
-179.6425797100000068
 20
-156.2052672599999994
 30
0.0
 11
-179.6425797100000068
 21
-56.2052672599999994
 31
0.0
  0
LINE
  5
218
  8
SLD-0
  6
PHANTOM
 62
     7
 10
-179.6425797100000068
 20
-310.3278488099999777
 30
0.0
 11
-179.6425797100000068
 21
-351.2056572600000095
 31
0.0
  0
LINE
  5
219
  8
SLD-0
  6
PHANTOM
 62
     7
 10
-129.6425797100000068
 20
-310.3278488099999777
 30
0.0
 11
-129.6425797100000068
 21
-340.2067477599999847
 31
0.0
  0
LINE
  5
21A
  8
SLD-0
  6
PHANTOM
 62
     7
 10
43.1647860999999935
 20
358.4921983799999907
 30
0.0
 11
87.1647860999999864
 21
358.4921983799999907
 31
0.0
  0
LINE
  5
21B
  8
SLD-0
  6
PHANTOM
 62
     7
 10
41.1647861000000006
 20
281.4921983799999907
 30
0.0
 11
89.1647860999999864
 21
281.4921983799999907
 31
0.0
  0
LINE
  5
21C
  8
SLD-0
  6
PHANTOM
 62
     7
 10
41.1647861000000006
 20
361.4921983799999907
 30
0.0
 11
89.1647860999999864
 21
361.4921983799999907
 31
0.0
  0
LINE
  5
21D
  8
SLD-0
  6
PHANTOM
 62
     7
 10
87.1647860999999864
 20
284.4921983799999907
 30
0.0
 11
87.1647860999999864
 21
358.4921983799999907
 31
0.0
  0
LINE
  5
21E
  8
SLD-0
  6
PHANTOM
 62
     7
 10
90.1647861000000006
 20
282.4921983799999907
 30
0.0
 11
90.1647861000000006
 21
360.4921983799999907
 31
0.0
  0
LINE
  5
21F
  8
SLD-0
  6
PHANTOM
 62
     7
 10
40.1647861000000006
 20
282.4921983799999907
 30
0.0
 11
40.1647861000000006
 21
360.4921983799999907
 31
0.0
  0
LINE
  5
220
  8
SLD-0
  6
PHANTOM
 62
     7
 10
43.1647860999999935
 20
284.4921983799999907
 30
0.0
 11
87.1647860999999864
 21
284.4921983799999907
 31
0.0
  0
LINE
  5
221
  8
SLD-0
  6
PHANTOM
 62
     7
 10
43.1647860999999935
 20
284.4921983799999907
 30
0.0
 11
43.1647860999999935
 21
358.4921983799999907
 31
0.0
  0
LINE
  5
222
  8
SLD-0
  6
PHANTOM
 62
     7
 10
64.0427547000000033
 20
203.9918083700000011
 30
0.0
 11
79.8567275200000068
 21
203.9918083700000011
 31
0.0
  0
LINE
  5
223
  8
SLD-0
  6
PHANTOM
 62
     7
 10
60.7526165499999991
 20
274.6306814299999814
 30
0.0
 11
69.5736777700000033
 21
274.6306814299999814
 31
0.0
  0
LINE
  5
224
  8
SLD-0
  6
PHANTOM
 62
     7
 10
69.5736777700000033
 20
281.4666210199999909
 30
0.0
 11
69.5736777700000033
 21
274.6306814299999814
 31
0.0
  0
LINE
  5
225
  8
SLD-0
  6
PHANTOM
 62
     7
 10
69.5736777700000033
 20
274.6306814299999814
 30
0.0
 11
73.1728739400000023
 21
281.4921983799999907
 31
0.0
  0
LINE
  5
226
  8
SLD-0
  6
PHANTOM
 62
     7
 10
60.7526165499999991
 20
274.6306814299999814
 30
0.0
 11
60.7526165499999991
 21
281.4921983799999907
 31
0.0
  0
LINE
  5
227
  8
SLD-0
  6
PHANTOM
 62
     7
 10
57.5131852199999969
 20
281.4921983799999907
 30
0.0
 11
60.7526165499999991
 21
274.6306814299999814
 31
0.0
  0
LINE
  5
229
  8
SLD-0
  6
PHANTOM
 62
     7
 10
-144.1485439100000008
 20
333.2923606300000188
 30
0.0
 11
-144.1485439100000008
 21
290.8173778199999902
 31
0.0
  0
LINE
  5
22A
  8
SLD-0
  6
PHANTOM
 62
     7
 10
-156.7468867299999999
 20
333.2923606300000188
 30
0.0
 11
-156.7468867299999999
 21
290.8173778199999902
 31
0.0
  0
LINE
  5
22B
  8
SLD-0
  6
PHANTOM
 62
     7
 10
-147.8547921500000086
 20
333.2923606300000188
 30
0.0
 11
-147.8547921500000086
 21
290.8173778199999902
 31
0.0
  0
CIRCLE
  5
22C
  8
SLD-0
  6
PHANTOM
 62
     7
 10
-170.6680624599999874
 20
-66.3571851600000002
 30
0.0
 40
2.6164181399999991
  0
CIRCLE
  5
22D
  8
SLD-0
  6
PHANTOM
 62
     7
 10
65.1647860999999864
 20
364.9347627600000123
 30
0.0
 40
2.50017756
  0
ARC
  5
22E
  8
SLD-0
  6
PHANTOM
 62
     7
 10
89.1647860999999864
 20
360.4921983799999907
 30
0.0
 40
1.0
 50
0.0
 51
90.0
  0
ARC
  5
22F
  8
SLD-0
  6
PHANTOM
 62
     7
 10
89.1647860999999864
 20
282.4921983799999907
 30
0.0
 40
1.0
 50
270.0
 51
0.0
  0
ARC
  5
230
  8
SLD-0
  6
PHANTOM
 62
     7
 10
41.1647861000000006
 20
282.4921983799999907
 30
0.0
 40
1.0
 50
180.0
 51
270.0
  0
ARC
  5
231
  8
SLD-0
  6
PHANTOM
 62
     7
 10
41.1647861000000006
 20
360.4921983799999907
 30
0.0
 40
1.0
 50
90.0
 51
180.0
  0
CIRCLE
  5
232
  8
SLD-0
  6
PHANTOM
 62
     7
 10
65.1647860999999864
 20
278.049633990000018
 30
0.0
 40
2.50017756
  0
CIRCLE
  5
233
  8
SLD-0
  6
PHANTOM
 62
     7
 10
-152.2974722399999905
 20
328.6443048500000259
 30
0.0
 40
3.3605157399999981
  0
LINE
  5
234
  8
SLD-0
  6
CONTINUOUS
 62
     7
 10
-199.6425797100000068
 20
71.9918083799999948
 30
0.0
 11
120.3574202899999932
 21
71.9918083799999948
 31
0.0
  0
LINE
  5
235
  8
SLD-0
  6
CONTINUOUS
 62
     7
 10
120.3574202899999932
 20
368.9921983799999907
 30
0.0
 11
117.8574202899999932
 21
371.4921983799999907
 31
0.0
  0
LINE
  5
236
  8
SLD-0
  6
CONTINUOUS
 62
     7
 10
-199.6425797100000068
 20
368.9921983799999907
 30
0.0
 11
-197.1425797100000068
 21
371.4921983799999907
 31
0.0
  0
LINE
  5
237
  8
SLD-0
  6
CONTINUOUS
 62
     7
 10
117.8574202899999932
 20
271.4921983799999907
 30
0.0
 11
120.3574202899999932
 21
273.9921983799999907
 31
0.0
  0
LINE
  5
238
  8
SLD-0
  6
CONTINUOUS
 62
     7
 10
-197.1425797100000068
 20
271.4921983799999907
 30
0.0
 11
-199.6425797100000068
 21
273.9921983799999907
 31
0.0
  0
LINE
  5
239
  8
SLD-0_0
  6
CONTINUOUS
 62
     7
 10
-50.9005184600000007
 20
254.5099039199999993
 30
0.0
 11
-65.8987145600000019
 21
254.5099039199999993
 31
0.0
  0
LINE
  5
23A
  8
SLD-0_0
  6
CONTINUOUS
 62
     7
 10
-50.3781078700000009
 20
255.044271110000011
 30
0.0
 11
-50.4279701299999985
 21
255.0440640799999983
 31
0.0
  0
LINE
  5
23B
  8
SLD-0_0
  6
CONTINUOUS
 62
     7
 10
-105.6301023599999951
 20
88.0732469400000042
 30
0.0
 11
-105.6301023599999951
 21
100.3222973000000025
 31
0.0
  0
LINE
  5
23C
  8
SLD-0_0
  6
CONTINUOUS
 62
     7
 10
-50.536930009999999
 20
255.1039544999999862
 30
0.0
 11
-50.5613601800000012
 21
255.1358636999999874
 31
0.0
  0
LINE
  5
23D
  8
SLD-0_0
  6
CONTINUOUS
 62
     7
 10
23.3872157600000001
 20
271.4921867799999973
 30
0.0
 11
23.3872157600000001
 21
282.2415188699999931
 31
0.0
  0
LINE
  5
23E
  8
SLD-0_0
  6
CONTINUOUS
 62
     7
 10
-112.9310957400000035
 20
88.0732469400000042
 30
0.0
 11
-118.6796780300000052
 21
88.0732469400000042
 31
0.0
  0
LINE
  5
23F
  8
SLD-0_0
  6
CONTINUOUS
 62
     7
 10
-50.5068854399999907
 20
255.0763731899999982
 30
0.0
 11
-50.536930009999999
 21
255.1039544999999862
 31
0.0
  0
LINE
  5
240
  8
SLD-0_0
  6
CONTINUOUS
 62
     7
 10
-50.5613601800000012
 20
255.1358636999999874
 30
0.0
 11
-50.580671719999998
 21
255.1696334300000046
 31
0.0
  0
LINE
  5
241
  8
SLD-0_0
  6
CONTINUOUS
 62
     7
 10
-47.862575630000002
 20
271.5975723799999741
 30
0.0
 11
-47.862575630000002
 21
261.1400773500000128
 31
0.0
  0
LINE
  5
242
  8
SLD-0_0
  6
CONTINUOUS
 62
     7
 10
-46.1318196699999987
 20
88.0732469400000042
 30
0.0
 11
-46.1318196699999987
 21
100.3222973000000025
 31
0.0
  0
LINE
  5
243
  8
SLD-0_0
  6
CONTINUOUS
 62
     7
 10
-95.9295597499999957
 20
100.3222973000000025
 30
0.0
 11
-95.9295597499999957
 21
88.0732469400000042
 31
0.0
  0
LINE
  5
244
  8
SLD-0_0
  6
CONTINUOUS
 62
     7
 10
120.3574202899999932
 20
73.9918083799999806
 30
0.0
 11
120.3574202899999932
 21
71.9918083799999948
 31
0.0
  0
LINE
  5
245
  8
SLD-0_0
  6
CONTINUOUS
 62
     7
 10
-109.8820063499999975
 20
100.3222973000000025
 30
0.0
 11
-109.8820063499999975
 21
112.5733743100000055
 31
0.0
  0
LINE
  5
246
  8
SLD-0_0
  6
CONTINUOUS
 62
     7
 10
-58.8824650000000105
 20
100.3222973000000025
 30
0.0
 11
-58.8824650000000105
 21
112.5733743100000055
 31
0.0
  0
LINE
  5
247
  8
SLD-0_0
  6
CONTINUOUS
 62
     7
 10
-65.8987145600000019
 20
254.5099039199999993
 30
0.0
 11
-65.8987145600000019
 21
276.9914915699999938
 31
0.0
  0
LINE
  5
248
  8
SLD-0_0
  6
CONTINUOUS
 62
     7
 10
-36.8761259199999998
 20
271.4921867799999973
 30
0.0
 11
-36.8761259199999998
 21
282.2415188699999931
 31
0.0
  0
LINE
  5
249
  8
SLD-0_0
  6
CONTINUOUS
 62
     7
 10
10.4734254
 20
282.2415188699999931
 30
0.0
 11
10.4734254
 21
292.9918642599999998
 31
0.0
  0
LINE
  5
24A
  8
SLD-0_0
  6
CONTINUOUS
 62
     7
 10
-91.6817090600000029
 20
112.5733743100000055
 30
0.0
 11
-91.6817090600000029
 21
100.3222973000000025
 31
0.0
  0
LINE
  5
24B
  8
SLD-0_0
  6
CONTINUOUS
 62
     7
 10
-24.8834463100000001
 20
100.3222973000000025
 30
0.0
 11
-24.8834463100000001
 21
112.5733743100000055
 31
0.0
  0
LINE
  5
24C
  8
SLD-0_0
  6
CONTINUOUS
 62
     7
 10
-67.0072901000000059
 20
282.2415188699999931
 30
0.0
 11
-67.0072901000000059
 21
292.9918642599999998
 31
0.0
  0
LINE
  5
24D
  8
SLD-0_0
  6
CONTINUOUS
 62
     7
 10
-50.580671719999998
 20
255.1696334300000046
 30
0.0
 11
-50.5953603800000025
 21
255.2027962299999899
 31
0.0
  0
LINE
  5
24E
  8
SLD-0_0
  6
CONTINUOUS
 62
     7
 10
-49.497068910000003
 20
258.8494219299998917
 30
0.0
 11
-49.4860181499999925
 21
258.4269986999997855
 31
0.0
  0
LINE
  5
24F
  8
SLD-0_0
  6
CONTINUOUS
 62
     7
 10
-49.4818926299999902
 20
257.9982231100000263
 30
0.0
 11
-49.4864257899999984
 21
257.5722297600000275
 31
0.0
  0
LINE
  5
250
  8
SLD-0_0
  6
CONTINUOUS
 62
     7
 10
-37.631051669999998
 20
88.0732469400000042
 30
0.0
 11
-37.631051669999998
 21
100.3222973000000025
 31
0.0
  0
LINE
  5
251
  8
SLD-0_0
  6
CONTINUOUS
 62
     7
 10
-50.5953603800000025
 20
255.2027962299999899
 30
0.0
 11
-50.6059219200000001
 21
255.2328846400000089
 31
0.0
  0
LINE
  5
252
  8
SLD-0_0
  6
CONTINUOUS
 62
     7
 10
19.0826189799999995
 20
282.2415188699999931
 30
0.0
 11
19.0826189799999995
 21
292.9918642599999998
 31
0.0
  0
LINE
  5
253
  8
SLD-0_0
  6
CONTINUOUS
 62
     7
 10
-97.1313610199999857
 20
88.0732469400000042
 30
0.0
 11
-97.1313610199999857
 21
100.3222973000000025
 31
0.0
  0
LINE
  5
254
  8
SLD-0_0
  6
CONTINUOUS
 62
     7
 10
-57.680663729999992
 20
112.5733743100000055
 30
0.0
 11
-57.680663729999992
 21
100.3222973000000025
 31
0.0
  0
LINE
  5
255
  8
SLD-0_0
  6
CONTINUOUS
 62
     7
 10
-56.6491007500000023
 20
281.9598150099999998
 30
0.0
 11
-56.6491007500000023
 21
276.9914915699999938
 31
0.0
  0
LINE
  5
256
  8
SLD-0_0
  6
CONTINUOUS
 62
     7
 10
19.0826189799999995
 20
292.9918642599999998
 30
0.0
 11
23.3872157600000001
 21
292.9918642599999998
 31
0.0
  0
LINE
  5
257
  8
SLD-0_0
  6
CONTINUOUS
 62
     7
 10
-129.7036206900000082
 20
73.9918083799999806
 30
0.0
 11
-199.6425797100000068
 21
73.9918083799999806
 31
0.0
  0
LINE
  5
258
  8
SLD-0_0
  6
CONTINUOUS
 62
     7
 10
14.7800488399999992
 20
271.4921867799999973
 30
0.0
 11
14.7800488399999992
 21
282.2415188699999931
 31
0.0
  0
LINE
  5
259
  8
SLD-0_0
  6
CONTINUOUS
 62
     7
 10
-110.0522446399999978
 20
282.2415188699999931
 30
0.0
 11
-110.0522446399999978
 21
292.9918642599999998
 31
0.0
  0
LINE
  5
25A
  8
SLD-0_0
  6
CONTINUOUS
 62
     7
 10
23.3872157600000001
 20
292.9918642599999998
 30
0.0
 11
23.3872157600000001
 21
282.2415188699999931
 31
0.0
  0
LINE
  5
25B
  8
SLD-0_0
  6
CONTINUOUS
 62
     7
 10
-117.182999719999998
 20
104.3391103099999953
 30
0.0
 11
17.5768207600000004
 21
104.3391103099999953
 31
0.0
  0
LINE
  5
25C
  8
SLD-0_0
  6
CONTINUOUS
 62
     7
 10
-97.1374409600000064
 20
271.4921867799999973
 30
0.0
 11
-97.1374409600000064
 21
282.2415188699999931
 31
0.0
  0
LINE
  5
25D
  8
SLD-0_0
  6
CONTINUOUS
 62
     7
 10
-65.8987145600000019
 20
276.9914915699999938
 30
0.0
 11
-50.9005184600000007
 21
276.9914915699999938
 31
0.0
  0
LINE
  5
25E
  8
SLD-0_0
  6
CONTINUOUS
 62
     7
 10
-50.6128520800000103
 20
255.2574313000000075
 30
0.0
 11
-50.6166466199999974
 21
255.2739687399999866
 31
0.0
  0
LINE
  5
25F
  8
SLD-0_0
  6
CONTINUOUS
 62
     7
 10
-117.182999719999998
 20
106.2664509600000002
 30
0.0
 11
17.5768207600000004
 21
106.2664509600000002
 31
0.0
  0
LINE
  5
260
  8
SLD-0_0
  6
CONTINUOUS
 62
     7
 10
-88.5292607100000026
 20
271.4921867799999973
 30
0.0
 11
-88.5292607100000026
 21
282.2415188699999931
 31
0.0
  0
LINE
  5
261
  8
SLD-0_0
  6
CONTINUOUS
 62
     7
 10
-75.8809610200000009
 20
100.3222973000000025
 30
0.0
 11
-75.8809610200000009
 21
112.5733743100000055
 31
0.0
  0
LINE
  5
262
  8
SLD-0_0
  6
CONTINUOUS
 62
     7
 10
-50.1809536299999976
 20
255.1399477299999035
 30
0.0
 11
-50.2550953699999994
 21
255.0897455100000002
 31
0.0
  0
LINE
  5
263
  8
SLD-0_0
  6
CONTINUOUS
 62
     7
 10
-84.3807156899999882
 20
100.3222973000000025
 30
0.0
 11
-84.3807156899999882
 21
112.5733743100000055
 31
0.0
  0
LINE
  5
264
  8
SLD-0_0
  6
CONTINUOUS
 62
     7
 10
-6.6801090600000004
 20
112.5733743100000055
 30
0.0
 11
-6.6801090600000004
 21
100.3222973000000025
 31
0.0
  0
LINE
  5
265
  8
SLD-0_0
  6
CONTINUOUS
 62
     7
 10
-50.0977272200000101
 20
255.2117498599999976
 30
0.0
 11
-50.1809536299999976
 21
255.1399477299999035
 31
0.0
  0
LINE
  5
266
  8
SLD-0_0
  6
CONTINUOUS
 62
     7
 10
-49.7899162799999999
 20
282.2415188699999931
 30
0.0
 11
-49.7899162799999999
 21
292.9918642599999998
 31
0.0
  0
LINE
  5
267
  8
SLD-0_0
  6
CONTINUOUS
 62
     7
 10
-50.6059219200000001
 20
255.2328846400000089
 30
0.0
 11
-50.6128520800000103
 21
255.2574313000000075
 31
0.0
  0
LINE
  5
268
  8
SLD-0_0
  6
CONTINUOUS
 62
     7
 10
-23.9633488899999989
 20
282.2415188699999931
 30
0.0
 11
-23.9633488899999989
 21
292.9918642599999998
 31
0.0
  0
LINE
  5
269
  8
SLD-0_0
  6
CONTINUOUS
 62
     7
 10
-10.9299863899999998
 20
100.3222973000000025
 30
0.0
 11
-10.9299863899999998
 21
88.0732469400000042
 31
0.0
  0
LINE
  5
26A
  8
SLD-0_0
  6
CONTINUOUS
 62
     7
 10
-80.1308383500000048
 20
88.0732469400000042
 30
0.0
 11
-80.1308383500000048
 21
100.3222973000000025
 31
0.0
  0
LINE
  5
26B
  8
SLD-0_0
  6
CONTINUOUS
 62
     7
 10
14.5713042599999998
 20
100.3222973000000025
 30
0.0
 11
14.5713042599999998
 21
88.0732469400000042
 31
0.0
  0
LINE
  5
26C
  8
SLD-0_0
  6
CONTINUOUS
 62
     7
 10
4.8697483300000002
 20
88.0732469400000042
 30
0.0
 11
4.8697483300000002
 21
100.3222973000000025
 31
0.0
  0
LINE
  5
26D
  8
SLD-0_0
  6
CONTINUOUS
 62
     7
 10
-117.1809730699999932
 20
112.5733743100000055
 30
0.0
 11
-117.1809730699999932
 21
100.3222973000000025
 31
0.0
  0
LINE
  5
26E
  8
SLD-0_0
  6
CONTINUOUS
 62
     7
 10
14.5692776199999994
 20
88.0732469400000042
 30
0.0
 11
14.5692776199999994
 21
100.3222973000000025
 31
0.0
  0
LINE
  5
26F
  8
SLD-0_0
  6
CONTINUOUS
 62
     7
 10
-118.6624515299999985
 20
292.9918642599999998
 30
0.0
 11
-118.6624515299999985
 21
282.2415188699999931
 31
0.0
  0
LINE
  5
270
  8
SLD-0_0
  6
CONTINUOUS
 62
     7
 10
-41.1797093799999985
 20
282.2415188699999931
 30
0.0
 11
-41.1797093799999985
 21
292.9918642599999998
 31
0.0
  0
LINE
  5
271
  8
SLD-0_0
  6
CONTINUOUS
 62
     7
 10
-101.4420377400000035
 20
282.2415188699999931
 30
0.0
 11
-101.4420377400000035
 21
292.9918642599999998
 31
0.0
  0
LINE
  5
272
  8
SLD-0_0
  6
CONTINUOUS
 62
     7
 10
9.1196256600000005
 20
100.3222973000000025
 30
0.0
 11
9.1196256600000005
 21
112.5733743100000055
 31
0.0
  0
LINE
  5
273
  8
SLD-0_0
  6
CONTINUOUS
 62
     7
 10
-50.2550953699999994
 20
255.0897455100000002
 30
0.0
 11
-50.3206482000000008
 21
255.0586757899999952
 31
0.0
  0
LINE
  5
274
  8
SLD-0_0
  6
CONTINUOUS
 62
     7
 10
-49.6117311000000001
 20
260.7390252700000133
 30
0.0
 11
-49.5955310699999998
 21
260.5465424300001018
 31
0.0
  0
LINE
  5
275
  8
SLD-0_0
  6
CONTINUOUS
 62
     7
 10
-199.6425797100000068
 20
73.9918083799999806
 30
0.0
 11
-199.6425797100000068
 21
71.9918083799999948
 31
0.0
  0
LINE
  5
276
  8
SLD-0_0
  6
CONTINUOUS
 62
     7
 10
120.3574202899999932
 20
73.9918083799999806
 30
0.0
 11
100.3574202899999932
 21
73.9918083799999806
 31
0.0
  0
LINE
  5
277
  8
SLD-0_0
  6
CONTINUOUS
 62
     7
 10
-104.4303277399999956
 20
100.3222973000000025
 30
0.0
 11
-104.4303277399999956
 21
88.0732469400000042
 31
0.0
  0
LINE
  5
278
  8
SLD-0_0
  6
CONTINUOUS
 62
     7
 10
-114.356841419999995
 20
282.2415188699999931
 30
0.0
 11
-114.356841419999995
 21
271.4921867799999973
 31
0.0
  0
LINE
  5
279
  8
SLD-0_0
  6
CONTINUOUS
 62
     7
 10
-16.3816650000000017
 20
100.3222973000000025
 30
0.0
 11
-16.3816650000000017
 21
112.5733743100000055
 31
0.0
  0
LINE
  5
27A
  8
SLD-0_0
  6
CONTINUOUS
 62
     7
 10
98.3424852699999832
 20
87.9921810899999883
 30
0.0
 11
98.3424852699999832
 21
84.9907178800000054
 31
0.0
  0
LINE
  5
27B
  8
SLD-0_0
  6
CONTINUOUS
 62
     7
 10
-75.6174969900000065
 20
282.2415188699999931
 30
0.0
 11
-75.6174969900000065
 21
292.9918642599999998
 31
0.0
  0
LINE
  5
27C
  8
SLD-0_0
  6
CONTINUOUS
 62
     7
 10
-71.6300703600000048
 20
88.0732469400000042
 30
0.0
 11
-71.6300703600000048
 21
100.3222973000000025
 31
0.0
  0
LINE
  5
27D
  8
SLD-0_0
  6
CONTINUOUS
 62
     7
 10
-92.8814836799999881
 20
100.3222973000000025
 30
0.0
 11
-92.8814836799999881
 21
112.5733743100000055
 31
0.0
  0
LINE
  5
27E
  8
SLD-0_0
  6
CONTINUOUS
 62
     7
 10
1.8176189700000001
 20
112.5733743100000055
 30
0.0
 11
1.8176189700000001
 21
100.3222973000000025
 31
0.0
  0
LINE
  5
27F
  8
SLD-0_0
  6
CONTINUOUS
 62
     7
 10
-41.8809290100000027
 20
100.3222973000000025
 30
0.0
 11
-41.8809290100000027
 21
112.5733743100000055
 31
0.0
  0
LINE
  5
280
  8
SLD-0_0
  6
CONTINUOUS
 62
     7
 10
6.0674962999999993
 20
88.0732469400000042
 30
0.0
 11
6.0674962999999993
 21
100.3222973000000025
 31
0.0
  0
LINE
  5
281
  8
SLD-0_0
  6
CONTINUOUS
 62
     7
 10
6.0695229499999988
 20
100.3222973000000025
 30
0.0
 11
6.0695229499999988
 21
88.0732469400000042
 31
0.0
  0
LINE
  5
282
  8
SLD-0_0
  6
CONTINUOUS
 62
     7
 10
-87.4298050799999942
 20
100.3222973000000025
 30
0.0
 11
-87.4298050799999942
 21
88.0732469400000042
 31
0.0
  0
LINE
  5
283
  8
SLD-0_0
  6
CONTINUOUS
 62
     7
 10
-49.6227223100000003
 20
260.8612136899999996
 30
0.0
 11
-49.6117311000000001
 21
260.7390252700000133
 31
0.0
  0
LINE
  5
284
  8
SLD-0_0
  6
CONTINUOUS
 62
     7
 10
-44.9300184000000016
 20
100.3222973000000025
 30
0.0
 11
-44.9300184000000016
 21
88.0732469400000042
 31
0.0
  0
LINE
  5
285
  8
SLD-0_0
  6
CONTINUOUS
 62
     7
 10
-66.1804183999999935
 20
112.5733743100000055
 30
0.0
 11
-66.1804183999999935
 21
100.3222973000000025
 31
0.0
  0
LINE
  5
286
  8
SLD-0_0
  6
CONTINUOUS
 62
     7
 10
-49.5330124199999986
 20
259.6386730199999988
 30
0.0
 11
-49.5133114799999987
 21
259.2563582399999973
 31
0.0
  0
LINE
  5
287
  8
SLD-0_0
  6
CONTINUOUS
 62
     7
 10
-100.1824770500000028
 20
112.5733743100000055
 30
0.0
 11
-100.1824770500000028
 21
100.3222973000000025
 31
0.0
  0
LINE
  5
288
  8
SLD-0_0
  6
CONTINUOUS
 62
     7
 10
-49.5133114799999987
 20
259.2563582399999973
 30
0.0
 11
-49.497068910000003
 21
258.8494219299998917
 31
0.0
  0
LINE
  5
289
  8
SLD-0_0
  6
CONTINUOUS
 62
     7
 10
-84.2256772399999818
 20
282.2415188699999931
 30
0.0
 11
-84.2256772399999818
 21
292.9918642599999998
 31
0.0
  0
LINE
  5
28A
  8
SLD-0_0
  6
CONTINUOUS
 62
     7
 10
-52.3992234199999913
 20
276.9914915699999938
 30
0.0
 11
-50.3979101700000029
 21
281.9598150099999998
 31
0.0
  0
LINE
  5
28B
  8
SLD-0_0
  6
CONTINUOUS
 62
     7
 10
-47.862575630000002
 20
261.1400773500000128
 30
0.0
 11
-50.9005184600000007
 21
261.1400773500000128
 31
0.0
  0
LINE
  5
28C
  8
SLD-0_0
  6
CONTINUOUS
 62
     7
 10
-49.5013510799999992
 20
257.1581532399999901
 30
0.0
 11
-49.5284019300000011
 21
256.7651281099999778
 31
0.0
  0
LINE
  5
28D
  8
SLD-0_0
  6
CONTINUOUS
 62
     7
 10
-40.6821677100000016
 20
112.5733743100000055
 30
0.0
 11
-40.6821677100000016
 21
100.3222973000000025
 31
0.0
  0
LINE
  5
28E
  8
SLD-0_0
  6
CONTINUOUS
 62
     7
 10
117.8574202899999932
 20
371.4921983799999907
 30
0.0
 11
-197.1425797100000068
 21
371.4921983799999907
 31
0.0
  0
LINE
  5
28F
  8
SLD-0_0
  6
CONTINUOUS
 62
     7
 10
-105.7486611700000054
 20
271.4921867799999973
 30
0.0
 11
-105.7486611700000054
 21
282.2415188699999931
 31
0.0
  0
LINE
  5
290
  8
SLD-0_0
  6
CONTINUOUS
 62
     7
 10
-112.9310957400000035
 20
94.0153739499999972
 30
0.0
 11
21.8307513899999996
 21
94.0153739499999972
 31
0.0
  0
LINE
  5
291
  8
SLD-0_0
  6
CONTINUOUS
 62
     7
 10
100.3574202899999932
 20
271.4921983799999907
 30
0.0
 11
100.3574202899999932
 21
371.4921983799999907
 31
0.0
  0
LINE
  5
292
  8
SLD-0_0
  6
CONTINUOUS
 62
     7
 10
-112.9310957400000035
 20
100.3222973000000025
 30
0.0
 11
-112.9310957400000035
 21
88.0732469400000042
 31
0.0
  0
LINE
  5
293
  8
SLD-0_0
  6
CONTINUOUS
 62
     7
 10
-50.3979101700000029
 20
281.9598150099999998
 30
0.0
 11
-56.6491007500000023
 21
281.9598150099999998
 31
0.0
  0
LINE
  5
294
  8
SLD-0_0
  6
CONTINUOUS
 62
     7
 10
10.3173736399999996
 20
112.5733743100000055
 30
0.0
 11
10.3173736399999996
 21
100.3222973000000025
 31
0.0
  0
LINE
  5
295
  8
SLD-0_0
  6
CONTINUOUS
 62
     7
 10
21.8692576699999996
 20
100.3222973000000025
 30
0.0
 11
21.8692576699999996
 21
88.0732469400000042
 31
0.0
  0
LINE
  5
296
  8
SLD-0_0
  6
CONTINUOUS
 62
     7
 10
-127.7043340900000032
 20
87.9921810899999883
 30
0.0
 11
98.3424852699999832
 21
87.9921810899999883
 31
0.0
  0
LINE
  5
297
  8
SLD-0_0
  6
CONTINUOUS
 62
     7
 10
-74.6811863899999935
 20
112.5733743100000055
 30
0.0
 11
-74.6811863899999935
 21
100.3222973000000025
 31
0.0
  0
LINE
  5
298
  8
SLD-0_0
  6
CONTINUOUS
 62
     7
 10
-127.7043340900000032
 20
84.9907178800000054
 30
0.0
 11
-127.7043340900000032
 21
87.9921810899999883
 31
0.0
  0
LINE
  5
299
  8
SLD-0_0
  6
CONTINUOUS
 62
     7
 10
17.6193803299999985
 20
112.5733743100000055
 30
0.0
 11
23.3669493000000017
 21
112.5733743100000055
 31
0.0
  0
LINE
  5
29A
  8
SLD-0_0
  6
CONTINUOUS
 62
     7
 10
-61.930541060000003
 20
100.3222973000000025
 30
0.0
 11
-61.930541060000003
 21
88.0732469400000042
 31
0.0
  0
LINE
  5
29B
  8
SLD-0_0
  6
CONTINUOUS
 62
     7
 10
-58.4001231700000005
 20
282.2415188699999931
 30
0.0
 11
-58.4001231700000005
 21
292.9918642599999998
 31
0.0
  0
LINE
  5
29C
  8
SLD-0_0
  6
CONTINUOUS
 62
     7
 10
-129.7036206900000082
 20
84.9907178800000054
 30
0.0
 11
100.3574202899999932
 21
84.9907178800000054
 31
0.0
  0
LINE
  5
29D
  8
SLD-0_0
  6
CONTINUOUS
 62
     7
 10
-65.8987145600000019
 20
271.4921983799999907
 30
0.0
 11
-197.1425797100000068
 21
271.4921983799999907
 31
0.0
  0
LINE
  5
29E
  8
SLD-0_0
  6
CONTINUOUS
 62
     7
 10
-49.5758556500000012
 20
260.2928997099999719
 30
0.0
 11
-49.5544382900000002
 21
259.9872317100000032
 31
0.0
  0
LINE
  5
29F
  8
SLD-0_0
  6
CONTINUOUS
 62
     7
 10
-2.4403649500000002
 20
271.4921867799999973
 30
0.0
 11
-2.4403649500000002
 21
282.2415188699999931
 31
0.0
  0
LINE
  5
2A0
  8
SLD-0_0
  6
CONTINUOUS
 62
     7
 10
-71.3108735600000045
 20
271.4921867799999973
 30
0.0
 11
-71.3108735600000045
 21
282.2415188699999931
 31
0.0
  0
LINE
  5
2A1
  8
SLD-0_0
  6
CONTINUOUS
 62
     7
 10
23.3669493000000017
 20
112.5733743100000055
 30
0.0
 11
23.3669493000000017
 21
100.3222973000000025
 31
0.0
  0
LINE
  5
2A2
  8
SLD-0_0
  6
CONTINUOUS
 62
     7
 10
-199.6425797100000068
 20
273.9921983799999907
 30
0.0
 11
-199.6425797100000068
 21
290.4921983799999907
 31
0.0
  0
LINE
  5
2A3
  8
SLD-0_0
  6
CONTINUOUS
 62
     7
 10
-29.131297
 20
88.0732469400000042
 30
0.0
 11
-29.131297
 21
100.3222973000000025
 31
0.0
  0
LINE
  5
2A4
  8
SLD-0_0
  6
CONTINUOUS
 62
     7
 10
-32.5735557799999995
 20
282.2415188699999931
 30
0.0
 11
-32.5735557799999995
 21
292.9918642599999998
 31
0.0
  0
LINE
  5
2A5
  8
SLD-0_0
  6
CONTINUOUS
 62
     7
 10
-12.1297610200000001
 20
88.0732469400000042
 30
0.0
 11
-12.1297610200000001
 21
100.3222973000000025
 31
0.0
  0
LINE
  5
2A6
  8
SLD-0_0
  6
CONTINUOUS
 62
     7
 10
1.864231829999998
 20
282.2415188699999931
 30
0.0
 11
1.864231829999998
 21
292.9918642599999998
 31
0.0
  0
LINE
  5
2A7
  8
SLD-0_0
  6
CONTINUOUS
 62
     7
 10
-2.4302317200000001
 20
100.3222973000000025
 30
0.0
 11
-2.4302317200000001
 21
88.0732469400000042
 31
0.0
  0
LINE
  5
2A8
  8
SLD-0_0
  6
CONTINUOUS
 62
     7
 10
-118.6796780300000052
 20
112.5733743100000055
 30
0.0
 11
-118.6796780300000052
 21
100.3222973000000025
 31
0.0
  0
LINE
  5
2A9
  8
SLD-0_0
  6
CONTINUOUS
 62
     7
 10
-101.3822516700000023
 20
100.3222973000000025
 30
0.0
 11
-101.3822516700000023
 21
112.5733743100000055
 31
0.0
  0
LINE
  5
2AA
  8
SLD-0_0
  6
CONTINUOUS
 62
     7
 10
-49.4864257899999984
 20
257.5722297600000275
 30
0.0
 11
-49.5013510799999992
 21
257.1581532399999901
 31
0.0
  0
LINE
  5
2AB
  8
SLD-0_0
  6
CONTINUOUS
 62
     7
 10
-70.4313090600000038
 20
100.3222973000000025
 30
0.0
 11
-70.4313090600000038
 21
88.0732469400000042
 31
0.0
  0
LINE
  5
2AC
  8
SLD-0_0
  6
CONTINUOUS
 62
     7
 10
23.3669493000000017
 20
88.0732469400000042
 30
0.0
 11
23.3669493000000017
 21
100.3222973000000025
 31
0.0
  0
LINE
  5
2AD
  8
SLD-0_0
  6
CONTINUOUS
 62
     7
 10
-49.6258140600000033
 20
256.0787704200000121
 30
0.0
 11
-49.6996422200000012
 21
255.8037070299999982
 31
0.0
  0
LINE
  5
2AE
  8
SLD-0_0
  6
CONTINUOUS
 62
     7
 10
-50.3206482000000008
 20
255.0586757899999952
 30
0.0
 11
-50.3781078700000009
 21
255.044271110000011
 31
0.0
  0
LINE
  5
2AF
  8
SLD-0_0
  6
CONTINUOUS
 62
     7
 10
-108.6822317200000043
 20
112.5733743100000055
 30
0.0
 11
-108.6822317200000043
 21
100.3222973000000025
 31
0.0
  0
LINE
  5
2B0
  8
SLD-0_0
  6
CONTINUOUS
 62
     7
 10
-50.0049203900000023
 20
255.3076193199999864
 30
0.0
 11
-50.0977272200000101
 21
255.2117498599999976
 31
0.0
  0
LINE
  5
2B1
  8
SLD-0_0
  6
CONTINUOUS
 62
     7
 10
-78.9290370800000005
 20
100.3222973000000025
 30
0.0
 11
-78.9290370800000005
 21
88.0732469400000042
 31
0.0
  0
LINE
  5
2B2
  8
SLD-0_0
  6
CONTINUOUS
 62
     7
 10
23.3872157600000001
 20
282.2415188699999931
 30
0.0
 11
-114.356841419999995
 21
282.2415188699999931
 31
0.0
  0
LINE
  5
2B3
  8
SLD-0_0
  6
CONTINUOUS
 62
     7
 10
-92.8358841400000045
 20
282.2415188699999931
 30
0.0
 11
-92.8358841400000045
 21
292.9918642599999998
 31
0.0
  0
LINE
  5
2B4
  8
SLD-0_0
  6
CONTINUOUS
 62
     7
 10
-63.1303156900000033
 20
88.0732469400000042
 30
0.0
 11
-63.1303156900000033
 21
100.3222973000000025
 31
0.0
  0
LINE
  5
2B5
  8
SLD-0_0
  6
CONTINUOUS
 62
     7
 10
-36.4312770499999985
 20
100.3222973000000025
 30
0.0
 11
-36.4312770499999985
 21
88.0732469400000042
 31
0.0
  0
LINE
  5
2B6
  8
SLD-0_0
  6
CONTINUOUS
 62
     7
 10
-49.6996422200000012
 20
255.8037070299999982
 30
0.0
 11
-49.7925296900000021
 21
255.5862333899999896
 31
0.0
  0
LINE
  5
2B7
  8
SLD-0_0
  6
CONTINUOUS
 62
     7
 10
-27.9315223800000005
 20
100.3222973000000025
 30
0.0
 11
-27.9315223800000005
 21
88.0732469400000042
 31
0.0
  0
LINE
  5
2B8
  8
SLD-0_0
  6
CONTINUOUS
 62
     7
 10
6.1688286200000002
 20
271.4921867799999973
 30
0.0
 11
6.1688286200000002
 21
282.2415188699999931
 31
0.0
  0
LINE
  5
2B9
  8
SLD-0_0
  6
CONTINUOUS
 62
     7
 10
0.61784434
 20
100.3222973000000025
 30
0.0
 11
0.61784434
 21
112.5733743100000055
 31
0.0
  0
LINE
  5
2BA
  8
SLD-0_0
  6
CONTINUOUS
 62
     7
 10
120.3574202899999932
 20
273.9921983799999907
 30
0.0
 11
120.3574202899999932
 21
290.4921983799999907
 31
0.0
  0
LINE
  5
2BB
  8
SLD-0_0
  6
CONTINUOUS
 62
     7
 10
-129.7036206900000082
 20
84.9907178800000054
 30
0.0
 11
-129.7036206900000082
 21
71.9918083799999948
 31
0.0
  0
LINE
  5
2BC
  8
SLD-0_0
  6
CONTINUOUS
 62
     7
 10
-118.6624515299999985
 20
271.4921867799999973
 30
0.0
 11
-118.6624515299999985
 21
282.2415188699999931
 31
0.0
  0
LINE
  5
2BD
  8
SLD-0_0
  6
CONTINUOUS
 62
     7
 10
-23.6816450500000002
 20
112.5733743100000055
 30
0.0
 11
-23.6816450500000002
 21
100.3222973000000025
 31
0.0
  0
LINE
  5
2BE
  8
SLD-0_0
  6
CONTINUOUS
 62
     7
 10
-67.380193019999993
 20
100.3222973000000025
 30
0.0
 11
-67.380193019999993
 21
112.5733743100000055
 31
0.0
  0
LINE
  5
2BF
  8
SLD-0_0
  6
CONTINUOUS
 62
     7
 10
-49.5693117699999988
 20
256.4022889899999882
 30
0.0
 11
-49.6258140600000033
 21
256.0787704200000121
 31
0.0
  0
LINE
  5
2C0
  8
SLD-0_0
  6
CONTINUOUS
 62
     7
 10
-50.6166466199999974
 20
255.2739687399999866
 30
0.0
 11
-50.6178012999999893
 21
255.2800295099999914
 31
0.0
  0
LINE
  5
2C1
  8
SLD-0_0
  6
CONTINUOUS
 62
     7
 10
17.6193803299999985
 20
100.3222973000000025
 30
0.0
 11
17.6193803299999985
 21
112.5733743100000055
 31
0.0
  0
LINE
  5
2C2
  8
SLD-0_0
  6
CONTINUOUS
 62
     7
 10
-49.9020373700000022
 20
255.430023570000003
 30
0.0
 11
-50.0049203900000023
 21
255.3076193199999864
 31
0.0
  0
LINE
  5
2C3
  8
SLD-0_0
  6
CONTINUOUS
 62
     7
 10
19.0826189799999995
 20
292.9918642599999998
 30
0.0
 11
-118.6624515299999985
 21
292.9918642599999998
 31
0.0
  0
LINE
  5
2C4
  8
SLD-0_0
  6
CONTINUOUS
 62
     7
 10
-88.6316063499999842
 20
88.0732469400000042
 30
0.0
 11
-88.6316063499999842
 21
100.3222973000000025
 31
0.0
  0
LINE
  5
2C5
  8
SLD-0_0
  6
CONTINUOUS
 62
     7
 10
-118.6796780300000052
 20
88.0732469400000042
 30
0.0
 11
-118.6796780300000052
 21
100.3222973000000025
 31
0.0
  0
LINE
  5
2C6
  8
SLD-0_0
  6
CONTINUOUS
 62
     7
 10
-50.4279701299999985
 20
255.0440640799999983
 30
0.0
 11
-50.4707307299999925
 21
255.0555872500000021
 31
0.0
  0
LINE
  5
2C7
  8
SLD-0_0
  6
CONTINUOUS
 62
     7
 10
-33.3832009899999989
 20
100.3222973000000025
 30
0.0
 11
-33.3832009899999989
 21
112.5733743100000055
 31
0.0
  0
LINE
  5
2C8
  8
SLD-0_0
  6
CONTINUOUS
 62
     7
 10
100.3574202899999932
 20
84.9907178800000054
 30
0.0
 11
100.3574202899999932
 21
71.9918083799999948
 31
0.0
  0
LINE
  5
2C9
  8
SLD-0_0
  6
CONTINUOUS
 62
     7
 10
-49.6267712499999902
 20
260.9039730700000064
 30
0.0
 11
-49.6227223100000003
 21
260.8612136899999996
 31
0.0
  0
LINE
  5
2CA
  8
SLD-0_0
  6
CONTINUOUS
 62
     7
 10
-19.431767709999999
 20
100.3222973000000025
 30
0.0
 11
-19.431767709999999
 21
88.0732469400000042
 31
0.0
  0
LINE
  5
2CB
  8
SLD-0_0
  6
CONTINUOUS
 62
     7
 10
23.3669493000000017
 20
100.3222973000000025
 30
0.0
 11
-112.9310957400000035
 21
100.3222973000000025
 31
0.0
  0
LINE
  5
2CC
  8
SLD-0_0
  6
CONTINUOUS
 62
     7
 10
-20.6295156900000016
 20
88.0732469400000042
 30
0.0
 11
-20.6295156900000016
 21
100.3222973000000025
 31
0.0
  0
LINE
  5
2CD
  8
SLD-0_0
  6
CONTINUOUS
 62
     7
 10
-49.5544382900000002
 20
259.9872317100000032
 30
0.0
 11
-49.5330124199999986
 21
259.6386730199999988
 31
0.0
  0
LINE
  5
2CE
  8
SLD-0_0
  6
CONTINUOUS
 62
     7
 10
-49.4860181499999925
 20
258.4269986999997855
 30
0.0
 11
-49.4818926299999902
 21
257.9982231100000263
 31
0.0
  0
LINE
  5
2CF
  8
SLD-0_0
  6
CONTINUOUS
 62
     7
 10
17.6193803299999985
 20
112.5733743100000055
 30
0.0
 11
-118.6796780300000052
 21
112.5733743100000055
 31
0.0
  0
LINE
  5
2D0
  8
SLD-0_0
  6
CONTINUOUS
 62
     7
 10
-49.1819223800000032
 20
112.5733743100000055
 30
0.0
 11
-49.1819223800000032
 21
100.3222973000000025
 31
0.0
  0
LINE
  5
2D1
  8
SLD-0_0
  6
CONTINUOUS
 62
     7
 10
-54.6295476900000025
 20
88.0732469400000042
 30
0.0
 11
-54.6295476900000025
 21
100.3222973000000025
 31
0.0
  0
LINE
  5
2D2
  8
SLD-0_0
  6
CONTINUOUS
 62
     7
 10
-11.0495585300000005
 20
271.4921867799999973
 30
0.0
 11
-11.0495585300000005
 21
282.2415188699999931
 31
0.0
  0
LINE
  5
2D3
  8
SLD-0_0
  6
CONTINUOUS
 62
     7
 10
-50.3816970000000026
 20
100.3222973000000025
 30
0.0
 11
-50.3816970000000026
 21
112.5733743100000055
 31
0.0
  0
LINE
  5
2D4
  8
SLD-0_0
  6
CONTINUOUS
 62
     7
 10
-50.4707307299999925
 20
255.0555872500000021
 30
0.0
 11
-50.5068854399999907
 21
255.0763731899999982
 31
0.0
  0
LINE
  5
2D5
  8
SLD-0_0
  6
CONTINUOUS
 62
     7
 10
-112.9310957400000035
 20
88.0732469400000042
 30
0.0
 11
23.3669493000000017
 21
88.0732469400000042
 31
0.0
  0
LINE
  5
2D6
  8
SLD-0_0
  6
CONTINUOUS
 62
     7
 10
-118.6624515299999985
 20
282.2415188699999931
 30
0.0
 11
19.0826189799999995
 21
282.2415188699999931
 31
0.0
  0
LINE
  5
2D7
  8
SLD-0_0
  6
CONTINUOUS
 62
     7
 10
-66.3992962000000091
 20
281.9598150099999998
 30
0.0
 11
-60.1501322700000003
 21
281.9598150099999998
 31
0.0
  0
LINE
  5
2D8
  8
SLD-0_0
  6
CONTINUOUS
 62
     7
 10
-64.3979829599999931
 20
276.9914915699999938
 30
0.0
 11
-66.3992962000000091
 21
281.9598150099999998
 31
0.0
  0
LINE
  5
2D9
  8
SLD-0_0
  6
CONTINUOUS
 62
     7
 10
-118.6796780300000052
 20
100.3222973000000025
 30
0.0
 11
17.6193803299999985
 21
100.3222973000000025
 31
0.0
  0
LINE
  5
2DA
  8
SLD-0_0
  6
CONTINUOUS
 62
     7
 10
-45.4843061700000035
 20
271.4921867799999973
 30
0.0
 11
-45.4843061700000035
 21
282.2415188699999931
 31
0.0
  0
LINE
  5
2DB
  8
SLD-0_0
  6
CONTINUOUS
 62
     7
 10
-15.3521286700000008
 20
282.2415188699999931
 30
0.0
 11
-15.3521286700000008
 21
292.9918642599999998
 31
0.0
  0
LINE
  5
2DC
  8
SLD-0_0
  6
CONTINUOUS
 62
     7
 10
-50.9005184600000007
 20
276.9914915699999938
 30
0.0
 11
-50.9005184600000007
 21
254.5099039199999993
 31
0.0
  0
LINE
  5
2DD
  8
SLD-0_0
  6
CONTINUOUS
 62
     7
 10
-3.6300063499999982
 20
88.0732469400000042
 30
0.0
 11
-3.6300063499999982
 21
100.3222973000000025
 31
0.0
  0
LINE
  5
2DE
  8
SLD-0_0
  6
CONTINUOUS
 62
     7
 10
13.3695029999999999
 20
88.0732469400000042
 30
0.0
 11
13.3695029999999999
 21
100.3222973000000025
 31
0.0
  0
LINE
  5
2DF
  8
SLD-0_0
  6
CONTINUOUS
 62
     7
 10
-49.5284019300000011
 20
256.7651281099999778
 30
0.0
 11
-49.5693117699999988
 21
256.4022889899999882
 31
0.0
  0
LINE
  5
2E0
  8
SLD-0_0
  6
CONTINUOUS
 62
     7
 10
-49.7925296900000021
 20
255.5862333899999896
 30
0.0
 11
-49.9020373700000022
 21
255.430023570000003
 31
0.0
  0
LINE
  5
2E1
  8
SLD-0_0
  6
CONTINUOUS
 62
     7
 10
-15.1798637299999992
 20
112.5733743100000055
 30
0.0
 11
-15.1798637299999992
 21
100.3222973000000025
 31
0.0
  0
LINE
  5
2E2
  8
SLD-0_0
  6
CONTINUOUS
 62
     7
 10
-32.1813997200000017
 20
112.5733743100000055
 30
0.0
 11
-32.1813997200000017
 21
100.3222973000000025
 31
0.0
  0
LINE
  5
2E3
  8
SLD-0_0
  6
CONTINUOUS
 62
     7
 10
-28.2679456699999996
 20
271.4921867799999973
 30
0.0
 11
-28.2679456699999996
 21
282.2415188699999931
 31
0.0
  0
LINE
  5
2E4
  8
SLD-0_0
  6
CONTINUOUS
 62
     7
 10
-50.9005184600000007
 20
271.5975723799999741
 30
0.0
 11
-47.862575630000002
 21
271.5975723799999741
 31
0.0
  0
LINE
  5
2E5
  8
SLD-0_0
  6
CONTINUOUS
 62
     7
 10
-79.9210804599999989
 20
271.4921867799999973
 30
0.0
 11
-79.9210804599999989
 21
282.2415188699999931
 31
0.0
  0
LINE
  5
2E6
  8
SLD-0_0
  6
CONTINUOUS
 62
     7
 10
-83.1819543900000014
 20
112.5733743100000055
 30
0.0
 11
-83.1819543900000014
 21
100.3222973000000025
 31
0.0
  0
LINE
  5
2E7
  8
SLD-0_0
  6
CONTINUOUS
 62
     7
 10
-53.4307863900000015
 20
100.3222973000000025
 30
0.0
 11
-53.4307863900000015
 21
88.0732469400000042
 31
0.0
  0
LINE
  5
2E8
  8
SLD-0_0
  6
CONTINUOUS
 62
     7
 10
-7.8819103300000002
 20
100.3222973000000025
 30
0.0
 11
-7.8819103300000002
 21
112.5733743100000055
 31
0.0
  0
LINE
  5
2E9
  8
SLD-0_0
  6
CONTINUOUS
 62
     7
 10
-60.1501322700000003
 20
281.9598150099999998
 30
0.0
 11
-60.1501322700000003
 21
276.9914915699999938
 31
0.0
  0
LINE
  5
2EA
  8
SLD-0_0
  6
CONTINUOUS
 62
     7
 10
-112.9310957400000035
 20
92.3393374399999942
 30
0.0
 11
21.8307513899999996
 21
92.3393374399999942
 31
0.0
  0
LINE
  5
2EB
  8
SLD-0_0
  6
CONTINUOUS
 62
     7
 10
-49.5955310699999998
 20
260.5465424300001018
 30
0.0
 11
-49.5758556500000012
 21
260.2928997099999719
 31
0.0
  0
LINE
  5
2EC
  8
SLD-0_0
  6
CONTINUOUS
 62
     7
 10
-19.6567254499999997
 20
271.4921867799999973
 30
0.0
 11
-19.6567254499999997
 21
282.2415188699999931
 31
0.0
  0
LINE
  5
2ED
  8
SLD-0_0
  6
CONTINUOUS
 62
     7
 10
-6.744961739999999
 20
282.2415188699999931
 30
0.0
 11
-6.744961739999999
 21
292.9918642599999998
 31
0.0
  0
LINE
  5
2EE
  8
SLD-0_0
  6
CONTINUOUS
 62
     7
 10
120.3574202899999932
 20
302.4921983799999907
 30
0.0
 11
120.3574202899999932
 21
340.4921983799999907
 31
0.0
  0
LINE
  5
2EF
  8
SLD-0_0
  6
CONTINUOUS
 62
     7
 10
-197.1425797100000068
 20
349.9921983799999907
 30
0.0
 11
-199.6425797100000068
 21
352.4921983799999907
 31
0.0
  0
LINE
  5
2F0
  8
SLD-0_0
  6
CONTINUOUS
 62
     7
 10
110.3574202899999932
 20
299.9921983799999907
 30
0.0
 11
117.8574202899999932
 21
299.9921983799999907
 31
0.0
  0
LINE
  5
2F1
  8
SLD-0_0
  6
CONTINUOUS
 62
     7
 10
110.3574202899999932
 20
349.9921983799999907
 30
0.0
 11
117.8574202899999932
 21
349.9921983799999907
 31
0.0
  0
LINE
  5
2F2
  8
SLD-0_0
  6
CONTINUOUS
 62
     7
 10
-199.6425797100000068
 20
302.4921983799999907
 30
0.0
 11
-199.6425797100000068
 21
340.4921983799999907
 31
0.0
  0
LINE
  5
2F3
  8
SLD-0_0
  6
CONTINUOUS
 62
     7
 10
117.8574202899999932
 20
292.9921983799999907
 30
0.0
 11
120.3574202899999932
 21
290.4921983799999907
 31
0.0
  0
LINE
  5
2F4
  8
SLD-0_0
  6
CONTINUOUS
 62
     7
 10
117.8574202899999932
 20
271.4921983799999907
 30
0.0
 11
-47.862575630000002
 21
271.4921983799999907
 31
0.0
  0
LINE
  5
2F5
  8
SLD-0_0
  6
CONTINUOUS
 62
     7
 10
117.8574202899999932
 20
299.9921983799999907
 30
0.0
 11
120.3574202899999932
 21
302.4921983799999907
 31
0.0
  0
LINE
  5
2F6
  8
SLD-0_0
  6
CONTINUOUS
 62
     7
 10
110.3574202899999932
 20
292.9921983799999907
 30
0.0
 11
117.8574202899999932
 21
292.9921983799999907
 31
0.0
  0
LINE
  5
2F7
  8
SLD-0_0
  6
CONTINUOUS
 62
     7
 10
110.3574202899999932
 20
342.9921983799999907
 30
0.0
 11
117.8574202899999932
 21
342.9921983799999907
 31
0.0
  0
LINE
  5
2F8
  8
SLD-0_0
  6
CONTINUOUS
 62
     7
 10
-197.1425797100000068
 20
299.9921983799999907
 30
0.0
 11
-199.6425797100000068
 21
302.4921983799999907
 31
0.0
  0
LINE
  5
2F9
  8
SLD-0_0
  6
CONTINUOUS
 62
     7
 10
117.8574202899999932
 20
349.9921983799999907
 30
0.0
 11
120.3574202899999932
 21
352.4921983799999907
 31
0.0
  0
LINE
  5
2FA
  8
SLD-0_0
  6
CONTINUOUS
 62
     7
 10
-189.6425797100000068
 20
342.9921983799999907
 30
0.0
 11
-197.1425797100000068
 21
342.9921983799999907
 31
0.0
  0
LINE
  5
2FB
  8
SLD-0_0
  6
CONTINUOUS
 62
     7
 10
-189.6425797100000068
 20
349.9921983799999907
 30
0.0
 11
-197.1425797100000068
 21
349.9921983799999907
 31
0.0
  0
LINE
  5
2FC
  8
SLD-0_0
  6
CONTINUOUS
 62
     7
 10
-197.1425797100000068
 20
342.9921983799999907
 30
0.0
 11
-199.6425797100000068
 21
340.4921983799999907
 31
0.0
  0
LINE
  5
2FD
  8
SLD-0_0
  6
CONTINUOUS
 62
     7
 10
117.8574202899999932
 20
342.9921983799999907
 30
0.0
 11
120.3574202899999932
 21
340.4921983799999907
 31
0.0
  0
LINE
  5
2FE
  8
SLD-0_0
  6
CONTINUOUS
 62
     7
 10
-189.6425797100000068
 20
299.9921983799999907
 30
0.0
 11
-197.1425797100000068
 21
299.9921983799999907
 31
0.0
  0
LINE
  5
2FF
  8
SLD-0_0
  6
CONTINUOUS
 62
     7
 10
-197.1425797100000068
 20
292.9921983799999907
 30
0.0
 11
-199.6425797100000068
 21
290.4921983799999907
 31
0.0
  0
LINE
  5
300
  8
SLD-0_0
  6
CONTINUOUS
 62
     7
 10
120.3574202899999932
 20
352.4921983799999907
 30
0.0
 11
120.3574202899999932
 21
368.9921983799999907
 31
0.0
  0
LINE
  5
301
  8
SLD-0_0
  6
CONTINUOUS
 62
     7
 10
-189.6425797100000068
 20
292.9921983799999907
 30
0.0
 11
-197.1425797100000068
 21
292.9921983799999907
 31
0.0
  0
LINE
  5
302
  8
SLD-0_0
  6
CONTINUOUS
 62
     7
 10
-199.6425797100000068
 20
352.4921983799999907
 30
0.0
 11
-199.6425797100000068
 21
368.9921983799999907
 31
0.0
  0
ARC
  5
303
  8
SLD-0_0
  6
CONTINUOUS
 62
     7
 10
-189.6425797100000068
 20
296.4921983799999907
 30
0.0
 40
3.5
 50
270.0
 51
90.0
  0
ARC
  5
304
  8
SLD-0_0
  6
CONTINUOUS
 62
     7
 10
110.3574202899999932
 20
296.4921983799999907
 30
0.0
 40
3.5
 50
90.0
 51
270.0
  0
ARC
  5
305
  8
SLD-0_0
  6
CONTINUOUS
 62
     7
 10
-189.6425797100000068
 20
346.4921983799999907
 30
0.0
 40
3.5
 50
270.0
 51
90.0
  0
ARC
  5
306
  8
SLD-0_0
  6
CONTINUOUS
 62
     7
 10
110.3574202899999932
 20
346.4921983799999907
 30
0.0
 40
3.5
 50
90.0
 51
270.0
  0
LINE
  5
307
  8
SLD-0_0
  6
PHANTOM
 62
     7
 10
-179.6425797100000068
 20
271.4921983799999907
 30
0.0
 11
-179.6425797100000068
 21
371.4921983799999907
 31
0.0
  0
LINE
  5
308
  8
SLD-0_0
  6
PHANTOM
 62
     7
 10
-129.6306614199999956
 20
271.4921983799999907
 30
0.0
 11
-129.6306614199999956
 21
371.4921983799999907
 31
0.0
  0
LINE
  5
309
  8
SLD-0_0
  6
PHANTOM
 62
     7
 10
-48.6425797099999997
 20
301.4921983799999907
 30
0.0
 11
-66.6425797100000068
 21
301.4921983799999907
 31
0.0
  0
LINE
  5
30A
  8
SLD-0_0
  6
PHANTOM
 62
     7
 10
-10.6425797099999997
 20
349.4921983799999907
 30
0.0
 11
-28.6425797099999997
 21
349.4921983799999907
 31
0.0
  0
LINE
  5
30B
  8
SLD-0_0
  6
PHANTOM
 62
     7
 10
-48.6425797099999997
 20
301.4921983799999907
 30
0.0
 11
-48.6425797099999997
 21
349.4921983799999907
 31
0.0
  0
LINE
  5
30C
  8
SLD-0_0
  6
PHANTOM
 62
     7
 10
-9.6425797099999997
 20
301.4921983799999907
 30
0.0
 11
-9.6425797099999997
 21
349.4921983799999907
 31
0.0
  0
LINE
  5
30D
  8
SLD-0_0
  6
PHANTOM
 62
     7
 10
-29.6425797099999997
 20
349.4921983799999907
 30
0.0
 11
-47.6425797099999997
 21
349.4921983799999907
 31
0.0
  0
LINE
  5
30E
  8
SLD-0_0
  6
PHANTOM
 62
     7
 10
20.7295909700000003
 20
157.2710589300000095
 30
0.0
 11
20.7295909700000003
 21
157.4918083700000011
 31
0.0
  0
LINE
  5
30F
  8
SLD-0_0
  6
PHANTOM
 62
     7
 10
-106.9727555500000022
 20
157.2710589300000095
 30
0.0
 11
-106.9727555500000022
 21
157.4918083700000011
 31
0.0
  0
LINE
  5
310
  8
SLD-0_0
  6
PHANTOM
 62
     7
 10
-29.6425797099999997
 20
301.4921983799999907
 30
0.0
 11
-47.6425797099999997
 21
301.4921983799999907
 31
0.0
  0
LINE
  5
311
  8
SLD-0_0
  6
PHANTOM
 62
     7
 10
9.3574202900000003
 20
301.4921983799999907
 30
0.0
 11
9.3574202900000003
 21
349.4921983799999907
 31
0.0
  0
LINE
  5
312
  8
SLD-0_0
  6
PHANTOM
 62
     7
 10
-108.4727555500000022
 20
158.9918083700000011
 30
0.0
 11
-110.7704090299999962
 21
158.9918083700000011
 31
0.0
  0
LINE
  5
313
  8
SLD-0_0
  6
PHANTOM
 62
     7
 10
-123.6425797100000068
 20
157.291808379999992
 30
0.0
 11
-123.6425797100000068
 21
87.9921810899999883
 31
0.0
  0
LINE
  5
314
  8
SLD-0_0
  6
PHANTOM
 62
     7
 10
8.3574202900000003
 20
349.4921983799999907
 30
0.0
 11
-9.6425797099999997
 21
349.4921983799999907
 31
0.0
  0
LINE
  5
315
  8
SLD-0_0
  6
PHANTOM
 62
     7
 10
8.3574202900000003
 20
301.4921983799999907
 30
0.0
 11
-9.6425797099999997
 21
301.4921983799999907
 31
0.0
  0
LINE
  5
316
  8
SLD-0_0
  6
PHANTOM
 62
     7
 10
-47.6425797099999997
 20
301.4921983799999907
 30
0.0
 11
-47.6425797099999997
 21
349.4921983799999907
 31
0.0
  0
LINE
  5
317
  8
SLD-0_0
  6
PHANTOM
 62
     7
 10
-105.6425797100000068
 20
349.4921983799999907
 30
0.0
 11
-123.6425797100000068
 21
349.4921983799999907
 31
0.0
  0
LINE
  5
318
  8
SLD-0_0
  6
PHANTOM
 62
     7
 10
-28.6425797099999997
 20
301.4921983799999907
 30
0.0
 11
-28.6425797099999997
 21
349.4921983799999907
 31
0.0
  0
LINE
  5
319
  8
SLD-0_0
  6
PHANTOM
 62
     7
 10
-10.6425797099999997
 20
301.4921983799999907
 30
0.0
 11
-10.6425797099999997
 21
349.4921983799999907
 31
0.0
  0
LINE
  5
31A
  8
SLD-0_0
  6
PHANTOM
 62
     7
 10
26.0272444500000013
 20
157.2710589300000095
 30
0.0
 11
26.0272444500000013
 21
157.4918083700000011
 31
0.0
  0
LINE
  5
31B
  8
SLD-0_0
  6
PHANTOM
 62
     7
 10
9.3574202900000003
 20
157.291808379999992
 30
0.0
 11
9.3574202900000003
 21
112.5733743100000055
 31
0.0
  0
LINE
  5
31C
  8
SLD-0_0
  6
PHANTOM
 62
     7
 10
-105.6425797100000068
 20
301.4921983799999907
 30
0.0
 11
-105.6425797100000068
 21
349.4921983799999907
 31
0.0
  0
LINE
  5
31D
  8
SLD-0_0
  6
PHANTOM
 62
     7
 10
-105.6425797100000068
 20
157.291808379999992
 30
0.0
 11
-123.6425797100000068
 21
157.291808379999992
 31
0.0
  0
LINE
  5
31E
  8
SLD-0_0
  6
PHANTOM
 62
     7
 10
27.3574202900000003
 20
157.291808379999992
 30
0.0
 11
9.3574202900000003
 21
157.291808379999992
 31
0.0
  0
LINE
  5
31F
  8
SLD-0_0
  6
PHANTOM
 62
     7
 10
-86.6425797100000068
 20
301.4921983799999907
 30
0.0
 11
-86.6425797100000068
 21
349.4921983799999907
 31
0.0
  0
LINE
  5
320
  8
SLD-0_0
  6
PHANTOM
 62
     7
 10
-86.6425797100000068
 20
349.4921983799999907
 30
0.0
 11
-104.6425797100000068
 21
349.4921983799999907
 31
0.0
  0
LINE
  5
321
  8
SLD-0_0
  6
PHANTOM
 62
     7
 10
-67.6425797100000068
 20
301.4921983799999907
 30
0.0
 11
-85.6425797100000068
 21
301.4921983799999907
 31
0.0
  0
LINE
  5
322
  8
SLD-0_0
  6
PHANTOM
 62
     7
 10
27.3574202900000003
 20
301.4921983799999907
 30
0.0
 11
27.3574202900000003
 21
349.4921983799999907
 31
0.0
  0
LINE
  5
323
  8
SLD-0_0
  6
PHANTOM
 62
     7
 10
-86.6425797100000068
 20
301.4921983799999907
 30
0.0
 11
-104.6425797100000068
 21
301.4921983799999907
 31
0.0
  0
LINE
  5
324
  8
SLD-0_0
  6
PHANTOM
 62
     7
 10
-10.6425797099999997
 20
301.4921983799999907
 30
0.0
 11
-28.6425797099999997
 21
301.4921983799999907
 31
0.0
  0
LINE
  5
325
  8
SLD-0_0
  6
PHANTOM
 62
     7
 10
-48.6425797099999997
 20
349.4921983799999907
 30
0.0
 11
-66.6425797100000068
 21
349.4921983799999907
 31
0.0
  0
LINE
  5
326
  8
SLD-0_0
  6
PHANTOM
 62
     7
 10
27.3574202900000003
 20
301.4921983799999907
 30
0.0
 11
9.3574202900000003
 21
301.4921983799999907
 31
0.0
  0
LINE
  5
327
  8
SLD-0_0
  6
PHANTOM
 62
     7
 10
-105.6425797100000068
 20
157.291808379999992
 30
0.0
 11
-105.6425797100000068
 21
112.5733743100000055
 31
0.0
  0
LINE
  5
328
  8
SLD-0_0
  6
PHANTOM
 62
     7
 10
-105.6425797100000068
 20
301.4921983799999907
 30
0.0
 11
-123.6425797100000068
 21
301.4921983799999907
 31
0.0
  0
LINE
  5
329
  8
SLD-0_0
  6
PHANTOM
 62
     7
 10
-67.6425797100000068
 20
301.4921983799999907
 30
0.0
 11
-67.6425797100000068
 21
349.4921983799999907
 31
0.0
  0
LINE
  5
32A
  8
SLD-0_0
  6
PHANTOM
 62
     7
 10
27.3574202900000003
 20
157.291808379999992
 30
0.0
 11
27.3574202900000003
 21
87.9921810899999883
 31
0.0
  0
LINE
  5
32B
  8
SLD-0_0
  6
PHANTOM
 62
     7
 10
-29.6425797099999997
 20
301.4921983799999907
 30
0.0
 11
-29.6425797099999997
 21
349.4921983799999907
 31
0.0
  0
LINE
  5
32C
  8
SLD-0_0
  6
PHANTOM
 62
     7
 10
-112.2704090299999962
 20
157.2710589300000095
 30
0.0
 11
-112.2704090299999962
 21
157.4918083700000011
 31
0.0
  0
LINE
  5
32D
  8
SLD-0_0
  6
PHANTOM
 62
     7
 10
-123.6425797100000068
 20
301.4921983799999907
 30
0.0
 11
-123.6425797100000068
 21
349.4921983799999907
 31
0.0
  0
LINE
  5
32E
  8
SLD-0_0
  6
PHANTOM
 62
     7
 10
-66.6425797100000068
 20
301.4921983799999907
 30
0.0
 11
-66.6425797100000068
 21
349.4921983799999907
 31
0.0
  0
LINE
  5
32F
  8
SLD-0_0
  6
PHANTOM
 62
     7
 10
-67.6425797100000068
 20
349.4921983799999907
 30
0.0
 11
-85.6425797100000068
 21
349.4921983799999907
 31
0.0
  0
LINE
  5
330
  8
SLD-0_0
  6
PHANTOM
 62
     7
 10
-85.6425797100000068
 20
301.4921983799999907
 30
0.0
 11
-85.6425797100000068
 21
349.4921983799999907
 31
0.0
  0
LINE
  5
331
  8
SLD-0_0
  6
PHANTOM
 62
     7
 10
27.3574202900000003
 20
349.4921983799999907
 30
0.0
 11
9.3574202900000003
 21
349.4921983799999907
 31
0.0
  0
LINE
  5
332
  8
SLD-0_0
  6
PHANTOM
 62
     7
 10
24.5272444500000013
 20
158.9918083700000011
 30
0.0
 11
22.2295909700000003
 21
158.9918083700000011
 31
0.0
  0
LINE
  5
333
  8
SLD-0_0
  6
PHANTOM
 62
     7
 10
-104.6425797100000068
 20
301.4921983799999907
 30
0.0
 11
-104.6425797100000068
 21
349.4921983799999907
 31
0.0
  0
LINE
  5
334
  8
SLD-0_0
  6
PHANTOM
 62
     7
 10
8.3574202900000003
 20
301.4921983799999907
 30
0.0
 11
8.3574202900000003
 21
349.4921983799999907
 31
0.0
  0
ARC
  5
335
  8
SLD-0_0
  6
PHANTOM
 62
     7
 10
24.5272444500000013
 20
157.4918083700000011
 30
0.0
 40
1.5
 50
0.0
 51
90.0
  0
ARC
  5
336
  8
SLD-0_0
  6
PHANTOM
 62
     7
 10
22.2295909700000003
 20
157.4918083700000011
 30
0.0
 40
1.5
 50
90.0
 51
180.0
  0
ARC
  5
337
  8
SLD-0_0
  6
PHANTOM
 62
     7
 10
-108.4727555500000022
 20
157.4918083700000011
 30
0.0
 40
1.5
 50
0.0
 51
90.0
  0
ARC
  5
338
  8
SLD-0_0
  6
PHANTOM
 62
     7
 10
-110.7704090299999962
 20
157.4918083700000011
 30
0.0
 40
1.5
 50
90.0
 51
180.0
  0
LINE
  5
339
  8
SLD-0_3
  6
CONTINUOUS
 62
     7
 10
15.0910052500000003
 20
371.497951270000101
 30
0.0
 11
15.0910052500000003
 21
359.1775627999999756
 31
0.0
  0
LINE
  5
33A
  8
SLD-0_3
  6
CONTINUOUS
 62
     7
 10
-20.8460134900000007
 20
371.497951270000101
 30
0.0
 11
-20.8460134900000007
 21
359.1775627999999756
 31
0.0
  0
LINE
  5
33B
  8
SLD-0_3
  6
CONTINUOUS
 62
     7
 10
-101.7095699500000023
 20
371.497951270000101
 30
0.0
 11
-101.7095699500000023
 21
359.1775627999999756
 31
0.0
  0
LINE
  5
33C
  8
SLD-0_3
  6
CONTINUOUS
 62
     7
 10
-47.8011704099999903
 20
371.497951270000101
 30
0.0
 11
-47.8011704099999903
 21
359.1775627999999756
 31
0.0
  0
LINE
  5
33D
  8
SLD-0_3
  6
CONTINUOUS
 62
     7
 10
-56.7849465199999983
 20
371.497951270000101
 30
0.0
 11
-56.7849465199999983
 21
359.1775627999999756
 31
0.0
  0
LINE
  5
33E
  8
SLD-0_3
  6
CONTINUOUS
 62
     7
 10
24.0766956500000013
 20
359.1775627999999756
 30
0.0
 11
-119.6790364699999998
 21
359.1775627999999756
 31
0.0
  0
LINE
  5
33F
  8
SLD-0_3
  6
CONTINUOUS
 62
     7
 10
-65.7706369200000012
 20
371.497951270000101
 30
0.0
 11
-65.7706369200000012
 21
359.1775627999999756
 31
0.0
  0
LINE
  5
340
  8
SLD-0_3
  6
CONTINUOUS
 62
     7
 10
-11.8622373799999998
 20
371.497951270000101
 30
0.0
 11
-11.8622373799999998
 21
359.1775627999999756
 31
0.0
  0
LINE
  5
341
  8
SLD-0_3
  6
CONTINUOUS
 62
     7
 10
-74.7563273300000048
 20
371.497951270000101
 30
0.0
 11
-74.7563273300000048
 21
359.1775627999999756
 31
0.0
  0
LINE
  5
342
  8
SLD-0_3
  6
CONTINUOUS
 62
     7
 10
-29.8297896000000016
 20
371.497951270000101
 30
0.0
 11
-29.8297896000000016
 21
359.1775627999999756
 31
0.0
  0
LINE
  5
343
  8
SLD-0_3
  6
CONTINUOUS
 62
     7
 10
-2.8765469800000001
 20
371.497951270000101
 30
0.0
 11
-2.8765469800000001
 21
359.1775627999999756
 31
0.0
  0
LINE
  5
344
  8
SLD-0_3
  6
CONTINUOUS
 62
     7
 10
-110.695260360000006
 20
371.497951270000101
 30
0.0
 11
-110.695260360000006
 21
359.1775627999999756
 31
0.0
  0
LINE
  5
345
  8
SLD-0_3
  6
CONTINUOUS
 62
     7
 10
-119.6790364699999998
 20
359.1775627999999756
 30
0.0
 11
-119.6790364699999998
 21
371.497951270000101
 31
0.0
  0
LINE
  5
346
  8
SLD-0_3
  6
CONTINUOUS
 62
     7
 10
24.0766956500000013
 20
371.497951270000101
 30
0.0
 11
24.0766956500000013
 21
359.1775627999999756
 31
0.0
  0
LINE
  5
347
  8
SLD-0_3
  6
CONTINUOUS
 62
     7
 10
-83.7401034399999986
 20
371.497951270000101
 30
0.0
 11
-83.7401034399999986
 21
359.1775627999999756
 31
0.0
  0
LINE
  5
348
  8
SLD-0_3
  6
CONTINUOUS
 62
     7
 10
-38.8173942999999966
 20
371.497951270000101
 30
0.0
 11
-38.8173942999999966
 21
359.1775627999999756
 31
0.0
  0
LINE
  5
349
  8
SLD-0_3
  6
CONTINUOUS
 62
     7
 10
-92.7238795500000066
 20
371.497951270000101
 30
0.0
 11
-92.7238795500000066
 21
359.1775627999999756
 31
0.0
  0
LINE
  5
34A
  8
SLD-0_3
  6
CONTINUOUS
 62
     7
 10
6.1091434299999987
 20
371.497951270000101
 30
0.0
 11
6.1091434299999987
 21
359.1775627999999756
 31
0.0
  0
LINE
  5
34B
  8
SLD-0_3
  6
PHANTOM
 62
     7
 10
45.6009890400000018
 20
354.2616488799999956
 30
0.0
 11
58.3635791399999988
 21
354.2616488799999956
 31
0.0
  0
LINE
  5
34C
  8
SLD-0_3
  6
PHANTOM
 62
     7
 10
58.3635791399999988
 20
354.2616488799999956
 30
0.0
 11
58.3635791399999988
 21
341.9412604199999919
 31
0.0
  0
LINE
  5
34D
  8
SLD-0_3
  6
PHANTOM
 62
     7
 10
74.0837516099999931
 20
308.3214931200000137
 30
0.0
 11
66.6735241800000011
 21
308.3214931200000137
 31
0.0
  0
LINE
  5
34E
  8
SLD-0_3
  6
PHANTOM
 62
     7
 10
74.0837516099999931
 20
314.496044540000014
 30
0.0
 11
74.0837516099999931
 21
318.2011582599999997
 31
0.0
  0
LINE
  5
34F
  8
SLD-0_3
  6
PHANTOM
 62
     7
 10
66.6735241800000011
 20
299.6765468300000066
 30
0.0
 11
74.0837516099999931
 21
299.6765468300000066
 31
0.0
  0
LINE
  5
350
  8
SLD-0_3
  6
PHANTOM
 62
     7
 10
74.0837516099999931
 20
313.2613256899999783
 30
0.0
 11
66.6735241800000011
 21
313.2613256899999783
 31
0.0
  0
LINE
  5
351
  8
SLD-0_3
  6
PHANTOM
 62
     7
 10
64.0427547000000033
 20
203.9918083700000011
 30
0.0
 11
64.0427547000000033
 21
193.9529473800000119
 31
0.0
  0
LINE
  5
352
  8
SLD-0_3
  6
PHANTOM
 62
     7
 10
56.5243099099999995
 20
193.9625188599999888
 30
0.0
 11
52.4687385300000031
 21
193.9625188599999888
 31
0.0
  0
LINE
  5
353
  8
SLD-0_3
  6
PHANTOM
 62
     7
 10
40.3412963899999895
 20
193.0637569799999937
 30
0.0
 11
40.3361526600000033
 21
192.9613437200000021
 31
0.0
  0
LINE
  5
354
  8
SLD-0_3
  6
PHANTOM
 62
     7
 10
89.9026482400000049
 20
193.7916121400000122
 30
0.0
 11
89.8204257200000029
 21
193.8417422199999862
 31
0.0
  0
LINE
  5
355
  8
SLD-0_3
  6
PHANTOM
 62
     7
 10
45.7641523300000017
 20
193.9625188599999888
 30
0.0
 11
43.3964488100000025
 21
193.9625188599999888
 31
0.0
  0
LINE
  5
356
  8
SLD-0_3
  6
PHANTOM
 62
     7
 10
40.3809487999999988
 20
193.2591728200000034
 30
0.0
 11
40.3563948099999905
 21
193.1632006600000011
 31
0.0
  0
LINE
  5
357
  8
SLD-0_3
  6
PHANTOM
 62
     7
 10
64.0427547000000033
 20
193.9529473800000119
 30
0.0
 11
79.8567275200000068
 21
193.9529473800000119
 31
0.0
  0
LINE
  5
358
  8
SLD-0_3
  6
PHANTOM
 62
     7
 10
90.3361864900000029
 20
193.0637569799999937
 30
0.0
 11
90.3211455499999829
 21
193.1632006600000011
 31
0.0
  0
LINE
  5
359
  8
SLD-0_3
  6
PHANTOM
 62
     7
 10
78.2087233200000043
 20
193.9625188599999888
 30
0.0
 11
74.1531519499999803
 21
193.9625188599999888
 31
0.0
  0
LINE
  5
35A
  8
SLD-0_3
  6
PHANTOM
 62
     7
 10
69.8162692599999986
 20
193.9625188599999888
 30
0.0
 11
65.3387309299999828
 21
193.9625188599999888
 31
0.0
  0
LINE
  5
35B
  8
SLD-0_3
  6
PHANTOM
 62
     7
 10
48.8351341199999993
 20
193.9625188599999888
 30
0.0
 11
45.7641523300000017
 21
193.9625188599999888
 31
0.0
  0
LINE
  5
35C
  8
SLD-0_3
  6
PHANTOM
 62
     7
 10
40.9450772400000034
 20
193.8838833000000079
 30
0.0
 11
40.8578843800000016
 21
193.8417422199999862
 31
0.0
  0
LINE
  5
35D
  8
SLD-0_3
  6
PHANTOM
 62
     7
 10
40.4144592000000031
 20
193.3511714900000129
 30
0.0
 11
40.3809487999999988
 21
193.2591728200000034
 31
0.0
  0
LINE
  5
35E
  8
SLD-0_3
  6
PHANTOM
 62
     7
 10
79.8567275200000068
 20
193.9529473800000119
 30
0.0
 11
79.8567275200000068
 21
203.9918083700000011
 31
0.0
  0
LINE
  5
35F
  8
SLD-0_3
  6
PHANTOM
 62
     7
 10
90.341309190000004
 20
192.9613437200000021
 30
0.0
 11
90.3361864900000029
 21
193.0637569799999937
 31
0.0
  0
LINE
  5
360
  8
SLD-0_3
  6
PHANTOM
 62
     7
 10
90.1716138599999937
 20
193.5212407200000087
 30
0.0
 11
90.1143425799999847
 21
193.5983073600000068
 31
0.0
  0
LINE
  5
361
  8
SLD-0_3
  6
PHANTOM
 62
     7
 10
90.1143425799999847
 20
193.5983073600000068
 30
0.0
 11
90.0500973999999985
 21
193.6693927700000017
 31
0.0
  0
LINE
  5
362
  8
SLD-0_3
  6
PHANTOM
 62
     7
 10
40.3361526600000033
 20
192.9613437200000021
 30
0.0
 11
40.3361526600000033
 21
87.9921810899999883
 31
0.0
  0
LINE
  5
363
  8
SLD-0_3
  6
PHANTOM
 62
     7
 10
88.8047826300000054
 20
193.9625188599999888
 30
0.0
 11
87.2810130400000048
 21
193.9625188599999888
 31
0.0
  0
LINE
  5
364
  8
SLD-0_3
  6
PHANTOM
 62
     7
 10
43.3964488100000025
 20
193.9625188599999888
 30
0.0
 11
41.872679220000002
 21
193.9625188599999888
 31
0.0
  0
LINE
  5
365
  8
SLD-0_3
  6
PHANTOM
 62
     7
 10
41.2314444099999875
 20
193.9573531599999967
 30
0.0
 11
41.1323563899999911
 21
193.9421907100000055
 31
0.0
  0
LINE
  5
366
  8
SLD-0_3
  6
PHANTOM
 62
     7
 10
40.6280823199999972
 20
193.6693927700000017
 30
0.0
 11
40.5637375900000023
 21
193.5983073600000068
 31
0.0
  0
LINE
  5
367
  8
SLD-0_3
  6
PHANTOM
 62
     7
 10
90.3211455499999829
 20
193.1632006600000011
 30
0.0
 11
90.2966770999999966
 21
193.2591728200000034
 31
0.0
  0
LINE
  5
368
  8
SLD-0_3
  6
PHANTOM
 62
     7
 10
41.872679220000002
 20
193.9625188599999888
 30
0.0
 11
41.3334992099999923
 21
193.9625188599999888
 31
0.0
  0
LINE
  5
369
  8
SLD-0_3
  6
PHANTOM
 62
     7
 10
90.2632718499999953
 20
193.3511714900000129
 30
0.0
 11
90.2214205300000032
 21
193.4386947799999916
 31
0.0
  0
LINE
  5
36A
  8
SLD-0_3
  6
PHANTOM
 62
     7
 10
65.3387309299999828
 20
193.9625188599999888
 30
0.0
 11
60.8611925900000017
 21
193.9625188599999888
 31
0.0
  0
LINE
  5
36B
  8
SLD-0_3
  6
PHANTOM
 62
     7
 10
60.8611925900000017
 20
193.9625188599999888
 30
0.0
 11
56.5243099099999995
 21
193.9625188599999888
 31
0.0
  0
LINE
  5
36C
  8
SLD-0_3
  6
PHANTOM
 62
     7
 10
40.8578843800000016
 20
193.8417422199999862
 30
0.0
 11
40.7756548500000022
 21
193.7916121400000122
 31
0.0
  0
LINE
  5
36D
  8
SLD-0_3
  6
PHANTOM
 62
     7
 10
40.7756548500000022
 20
193.7916121400000122
 30
0.0
 11
40.6988877799999997
 21
193.733995010000001
 31
0.0
  0
LINE
  5
36E
  8
SLD-0_3
  6
PHANTOM
 62
     7
 10
84.9133095199999985
 20
193.9625188599999888
 30
0.0
 11
81.8423277299999938
 21
193.9625188599999888
 31
0.0
  0
LINE
  5
36F
  8
SLD-0_3
  6
PHANTOM
 62
     7
 10
41.1323563899999911
 20
193.9421907100000055
 30
0.0
 11
41.0367342899999912
 21
193.9175334399999997
 31
0.0
  0
LINE
  5
370
  8
SLD-0_3
  6
PHANTOM
 62
     7
 10
40.6988877799999997
 20
193.733995010000001
 30
0.0
 11
40.6280823199999972
 21
193.6693927700000017
 31
0.0
  0
LINE
  5
371
  8
SLD-0_3
  6
PHANTOM
 62
     7
 10
57.5131852199999969
 20
361.4921983799999907
 30
0.0
 11
60.7526165499999991
 21
368.35371533
 31
0.0
  0
LINE
  5
372
  8
SLD-0_3
  6
PHANTOM
 62
     7
 10
53.166274180000002
 20
344.4441982600000074
 30
0.0
 11
53.1605313000000024
 21
342.7155918600000177
 31
0.0
  0
LINE
  5
373
  8
SLD-0_3
  6
PHANTOM
 62
     7
 10
45.6411891899999986
 20
353.4968889099999956
 30
0.0
 11
53.1605313000000024
 21
353.4968889099999956
 31
0.0
  0
LINE
  5
374
  8
SLD-0_3
  6
PHANTOM
 62
     7
 10
79.8687444499999941
 20
294.0839404199999763
 30
0.0
 11
79.8687444499999941
 21
318.8185176900000215
 31
0.0
  0
LINE
  5
375
  8
SLD-0_3
  6
PHANTOM
 62
     7
 10
69.0683044700000011
 20
303.288817349999988
 30
0.0
 11
69.0683044700000011
 21
299.6784611200000086
 31
0.0
  0
LINE
  5
376
  8
SLD-0_3
  6
PHANTOM
 62
     7
 10
74.0837516099999931
 20
299.6765468300000066
 30
0.0
 11
74.0837516099999931
 21
303.3797462599999903
 31
0.0
  0
LINE
  5
377
  8
SLD-0_3
  6
PHANTOM
 62
     7
 10
66.6735241800000011
 20
309.5562119800000005
 30
0.0
 11
74.0837516099999931
 21
309.5562119800000005
 31
0.0
  0
LINE
  5
378
  8
SLD-0_3
  6
PHANTOM
 62
     7
 10
74.0837516099999931
 20
294.7347999699999832
 30
0.0
 11
74.0837516099999931
 21
298.4399136800000178
 31
0.0
  0
LINE
  5
379
  8
SLD-0_3
  6
PHANTOM
 62
     7
 10
64.0547716300000047
 20
294.0839404199999763
 30
0.0
 11
79.8687444499999941
 21
294.0839404199999763
 31
0.0
  0
LINE
  5
37A
  8
SLD-0_3
  6
PHANTOM
 62
     7
 10
66.6735241800000011
 20
318.2011582599999997
 30
0.0
 11
66.6735241800000011
 21
314.496044540000014
 31
0.0
  0
LINE
  5
37B
  8
SLD-0_3
  6
PHANTOM
 62
     7
 10
57.5461761099999975
 20
346.3872054499998967
 30
0.0
 11
55.3772823700000032
 21
346.4025197899999853
 31
0.0
  0
LINE
  5
37C
  8
SLD-0_3
  6
PHANTOM
 62
     7
 10
66.6735241800000011
 20
294.7347999699999832
 30
0.0
 11
74.0837516099999931
 21
294.7347999699999832
 31
0.0
  0
LINE
  5
37D
  8
SLD-0_3
  6
PHANTOM
 62
     7
 10
69.0683044700000011
 20
308.3234073999998941
 30
0.0
 11
69.0683044700000011
 21
304.6182936999999811
 31
0.0
  0
LINE
  5
37E
  8
SLD-0_3
  6
PHANTOM
 62
     7
 10
66.6735241800000011
 20
314.496044540000014
 30
0.0
 11
74.0837516099999931
 21
314.496044540000014
 31
0.0
  0
LINE
  5
37F
  8
SLD-0_3
  6
PHANTOM
 62
     7
 10
74.0837516099999931
 20
298.4399136800000178
 30
0.0
 11
66.6735241800000011
 21
298.4399136800000178
 31
0.0
  0
LINE
  5
380
  8
SLD-0_3
  6
PHANTOM
 62
     7
 10
66.6735241800000011
 20
304.616379400000028
 30
0.0
 11
74.0837516099999931
 21
304.616379400000028
 31
0.0
  0
LINE
  5
381
  8
SLD-0_3
  6
PHANTOM
 62
     7
 10
60.7526165499999991
 20
368.35371533
 30
0.0
 11
60.7526165499999991
 21
361.4921983799999907
 31
0.0
  0
LINE
  5
382
  8
SLD-0_3
  6
PHANTOM
 62
     7
 10
53.1605313000000024
 20
342.7155918600000177
 30
0.0
 11
45.6411891899999986
 21
342.7155918600000177
 31
0.0
  0
LINE
  5
383
  8
SLD-0_3
  6
PHANTOM
 62
     7
 10
45.6009890400000018
 20
341.9412604199999919
 30
0.0
 11
45.6009890400000018
 21
354.2616488799999956
 31
0.0
  0
LINE
  5
384
  8
SLD-0_3
  6
PHANTOM
 62
     7
 10
69.0683044700000011
 20
298.4399136800000178
 30
0.0
 11
69.0683044700000011
 21
294.7367142599999852
 31
0.0
  0
LINE
  5
385
  8
SLD-0_3
  6
PHANTOM
 62
     7
 10
69.0683044700000011
 20
313.2354827300000011
 30
0.0
 11
69.0683044700000011
 21
309.5562119800000005
 31
0.0
  0
LINE
  5
386
  8
SLD-0_3
  6
PHANTOM
 62
     7
 10
69.5736777700000033
 20
368.35371533
 30
0.0
 11
73.1728739400000023
 21
361.4921983799999907
 31
0.0
  0
LINE
  5
387
  8
SLD-0_3
  6
PHANTOM
 62
     7
 10
55.3772823700000032
 20
346.4025197899999853
 30
0.0
 11
55.3677108999999916
 21
344.4441982600000074
 31
0.0
  0
LINE
  5
388
  8
SLD-0_3
  6
PHANTOM
 62
     7
 10
74.0837516099999931
 20
303.3797462599999903
 30
0.0
 11
66.6735241800000011
 21
303.3797462599999903
 31
0.0
  0
LINE
  5
389
  8
SLD-0_3
  6
PHANTOM
 62
     7
 10
69.5736777700000033
 20
361.5177757399999905
 30
0.0
 11
69.5736777700000033
 21
368.35371533
 31
0.0
  0
LINE
  5
38A
  8
SLD-0_3
  6
PHANTOM
 62
     7
 10
66.6735241800000011
 20
308.3214931200000137
 30
0.0
 11
66.6735241800000011
 21
304.616379400000028
 31
0.0
  0
LINE
  5
38B
  8
SLD-0_3
  6
PHANTOM
 62
     7
 10
74.0837516099999931
 20
309.5562119800000005
 30
0.0
 11
74.0837516099999931
 21
313.2613256899999783
 31
0.0
  0
LINE
  5
38C
  8
SLD-0_3
  6
PHANTOM
 62
     7
 10
58.3635791399999988
 20
341.9412604199999919
 30
0.0
 11
45.6009890400000018
 21
341.9412604199999919
 31
0.0
  0
LINE
  5
38D
  8
SLD-0_3
  6
PHANTOM
 62
     7
 10
66.6735241800000011
 20
298.4399136800000178
 30
0.0
 11
66.6735241800000011
 21
294.7347999699999832
 31
0.0
  0
LINE
  5
38E
  8
SLD-0_3
  6
PHANTOM
 62
     7
 10
66.6735241800000011
 20
303.3797462599999903
 30
0.0
 11
66.6735241800000011
 21
299.6765468300000066
 31
0.0
  0
LINE
  5
38F
  8
SLD-0_3
  6
PHANTOM
 62
     7
 10
66.6735241800000011
 20
313.2613256899999783
 30
0.0
 11
66.6735241800000011
 21
309.5562119800000005
 31
0.0
  0
LINE
  5
390
  8
SLD-0_3
  6
PHANTOM
 62
     7
 10
55.3772823700000032
 20
349.8530325599999742
 30
0.0
 11
57.5461761099999975
 21
349.8530325599999742
 31
0.0
  0
LINE
  5
391
  8
SLD-0_3
  6
PHANTOM
 62
     7
 10
64.0547716300000047
 20
318.8185176900000215
 30
0.0
 11
64.0547716300000047
 21
294.0839404199999763
 31
0.0
  0
LINE
  5
392
  8
SLD-0_3
  6
PHANTOM
 62
     7
 10
69.0683044700000011
 20
318.1456437699999924
 30
0.0
 11
69.0683044700000011
 21
314.4979588400000239
 31
0.0
  0
LINE
  5
393
  8
SLD-0_3
  6
PHANTOM
 62
     7
 10
60.7526165499999991
 20
368.35371533
 30
0.0
 11
69.5736777700000033
 21
368.35371533
 31
0.0
  0
LINE
  5
394
  8
SLD-0_3
  6
PHANTOM
 62
     7
 10
53.166274180000002
 20
351.7577539000000115
 30
0.0
 11
55.3677108999999916
 21
351.7577539000000115
 31
0.0
  0
LINE
  5
395
  8
SLD-0_3
  6
PHANTOM
 62
     7
 10
55.3677108999999916
 20
351.7577539000000115
 30
0.0
 11
55.3772823700000032
 21
349.8530325599999742
 31
0.0
  0
LINE
  5
396
  8
SLD-0_3
  6
PHANTOM
 62
     7
 10
55.3677108999999916
 20
344.4441982600000074
 30
0.0
 11
53.166274180000002
 21
344.4441982600000074
 31
0.0
  0
LINE
  5
397
  8
SLD-0_3
  6
PHANTOM
 62
     7
 10
74.0837516099999931
 20
304.616379400000028
 30
0.0
 11
74.0837516099999931
 21
308.3214931200000137
 31
0.0
  0
LINE
  5
398
  8
SLD-0_3
  6
PHANTOM
 62
     7
 10
53.1605313000000024
 20
353.4968889099999956
 30
0.0
 11
53.166274180000002
 21
351.7577539000000115
 31
0.0
  0
LINE
  5
399
  8
SLD-0_3
  6
PHANTOM
 62
     7
 10
57.5461761099999975
 20
349.8530325599999742
 30
0.0
 11
57.5461761099999975
 21
346.3872054499998967
 31
0.0
  0
LINE
  5
39A
  8
SLD-0_3
  6
PHANTOM
 62
     7
 10
45.6411891899999986
 20
342.7155918600000177
 30
0.0
 11
45.6411891899999986
 21
353.4968889099999956
 31
0.0
  0
LINE
  5
39B
  8
SLD-0_3
  6
PHANTOM
 62
     7
 10
79.8687444499999941
 20
318.8185176900000215
 30
0.0
 11
64.0547716300000047
 21
318.8185176900000215
 31
0.0
  0
LINE
  5
39C
  8
SLD-0_3
  6
PHANTOM
 62
     7
 10
74.0837516099999931
 20
318.2011582599999997
 30
0.0
 11
66.6735241800000011
 21
318.2011582599999997
 31
0.0
  0
LINE
  5
39D
  8
SLD-0_3
  6
PHANTOM
 62
     7
 10
40.4564268999999967
 20
193.4386947799999916
 30
0.0
 11
40.4144592000000031
 21
193.3511714900000129
 31
0.0
  0
LINE
  5
39E
  8
SLD-0_3
  6
PHANTOM
 62
     7
 10
90.0500973999999985
 20
193.6693927700000017
 30
0.0
 11
89.9793690399999946
 21
193.733995010000001
 31
0.0
  0
LINE
  5
39F
  8
SLD-0_3
  6
PHANTOM
 62
     7
 10
89.7331922000000048
 20
193.8838833000000079
 30
0.0
 11
89.6414384100000063
 21
193.9175334399999997
 31
0.0
  0
LINE
  5
3A0
  8
SLD-0_3
  6
PHANTOM
 62
     7
 10
74.1531519499999803
 20
193.9625188599999888
 30
0.0
 11
69.8162692599999986
 21
193.9625188599999888
 31
0.0
  0
LINE
  5
3A1
  8
SLD-0_3
  6
PHANTOM
 62
     7
 10
90.341309190000004
 20
87.9921810899999883
 30
0.0
 11
90.341309190000004
 21
192.9613437200000021
 31
0.0
  0
LINE
  5
3A2
  8
SLD-0_3
  6
PHANTOM
 62
     7
 10
89.4463329000000016
 20
193.9573531599999967
 30
0.0
 11
89.3439626400000009
 21
193.9625188599999888
 31
0.0
  0
LINE
  5
3A3
  8
SLD-0_3
  6
PHANTOM
 62
     7
 10
40.5637375900000023
 20
193.5983073600000068
 30
0.0
 11
40.506352739999997
 21
193.5212407200000087
 31
0.0
  0
LINE
  5
3A4
  8
SLD-0_3
  6
PHANTOM
 62
     7
 10
40.506352739999997
 20
193.5212407200000087
 30
0.0
 11
40.4564268999999967
 21
193.4386947799999916
 31
0.0
  0
LINE
  5
3A5
  8
SLD-0_3
  6
PHANTOM
 62
     7
 10
90.2214205300000032
 20
193.4386947799999916
 30
0.0
 11
90.1716138599999937
 21
193.5212407200000087
 31
0.0
  0
LINE
  5
3A6
  8
SLD-0_3
  6
PHANTOM
 62
     7
 10
89.6414384100000063
 20
193.9175334399999997
 30
0.0
 11
89.5456550699999951
 21
193.9421907100000055
 31
0.0
  0
LINE
  5
3A7
  8
SLD-0_3
  6
PHANTOM
 62
     7
 10
89.5456550699999951
 20
193.9421907100000055
 30
0.0
 11
89.4463329000000016
 21
193.9573531599999967
 31
0.0
  0
LINE
  5
3A8
  8
SLD-0_3
  6
PHANTOM
 62
     7
 10
40.3563948099999905
 20
193.1632006600000011
 30
0.0
 11
40.3412963899999895
 21
193.0637569799999937
 31
0.0
  0
LINE
  5
3A9
  8
SLD-0_3
  6
PHANTOM
 62
     7
 10
81.8423277299999938
 20
193.9625188599999888
 30
0.0
 11
78.2087233200000043
 21
193.9625188599999888
 31
0.0
  0
LINE
  5
3AA
  8
SLD-0_3
  6
PHANTOM
 62
     7
 10
41.0367342899999912
 20
193.9175334399999997
 30
0.0
 11
40.9450772400000034
 21
193.8838833000000079
 31
0.0
  0
LINE
  5
3AB
  8
SLD-0_3
  6
PHANTOM
 62
     7
 10
89.9793690399999946
 20
193.733995010000001
 30
0.0
 11
89.9026482400000049
 21
193.7916121400000122
 31
0.0
  0
LINE
  5
3AC
  8
SLD-0_3
  6
PHANTOM
 62
     7
 10
41.3334992099999923
 20
193.9625188599999888
 30
0.0
 11
41.2314444099999875
 21
193.9573531599999967
 31
0.0
  0
LINE
  5
3AD
  8
SLD-0_3
  6
PHANTOM
 62
     7
 10
90.2966770999999966
 20
193.2591728200000034
 30
0.0
 11
90.2632718499999953
 21
193.3511714900000129
 31
0.0
  0
LINE
  5
3AE
  8
SLD-0_3
  6
PHANTOM
 62
     7
 10
89.8204257200000029
 20
193.8417422199999862
 30
0.0
 11
89.7331922000000048
 21
193.8838833000000079
 31
0.0
  0
LINE
  5
3AF
  8
SLD-0_3
  6
PHANTOM
 62
     7
 10
89.3439626400000009
 20
193.9625188599999888
 30
0.0
 11
88.8047826300000054
 21
193.9625188599999888
 31
0.0
  0
LINE
  5
3B0
  8
SLD-0_3
  6
PHANTOM
 62
     7
 10
52.4687385300000031
 20
193.9625188599999888
 30
0.0
 11
48.8351341199999993
 21
193.9625188599999888
 31
0.0
  0
LINE
  5
3B1
  8
SLD-0_3
  6
PHANTOM
 62
     7
 10
87.2810130400000048
 20
193.9625188599999888
 30
0.0
 11
84.9133095199999985
 21
193.9625188599999888
 31
0.0
  0
LINE
  5
3B2
  8
SLD-0_1
  6
PHANTOM
 62
     7
 10
-144.1485439100000008
 20
315.7094403199999988
 30
0.0
 11
-147.8547921500000086
 21
315.7094403199999988
 31
0.0
  0
LINE
  5
3B3
  8
SLD-0_1
  6
PHANTOM
 62
     7
 10
-144.1485439100000008
 20
307.4093663100001095
 30
0.0
 11
-147.8547921500000086
 21
307.4093663100001095
 31
0.0
  0
LINE
  5
3B4
  8
SLD-0_1
  6
PHANTOM
 62
     7
 10
-147.8547921500000086
 20
308.4012047499999767
 30
0.0
 11
-144.1485439100000008
 21
308.4012047499999767
 31
0.0
  0
LINE
  5
3B5
  8
SLD-0_1
  6
PHANTOM
 62
     7
 10
-156.7468867299999999
 20
316.6985589299999901
 30
0.0
 11
-160.4513217299999042
 21
316.6985589299999901
 31
0.0
  0
LINE
  5
3B6
  8
SLD-0_1
  6
PHANTOM
 62
     7
 10
-160.4513217299999042
 20
324.0067944799999964
 30
0.0
 11
-156.7468867299999999
 21
324.0067944799999964
 31
0.0
  0
LINE
  5
3B7
  8
SLD-0_1
  6
PHANTOM
 62
     7
 10
-144.1485439100000008
 20
324.0067944799999964
 30
0.0
 11
-147.8547921500000086
 21
324.0067944799999964
 31
0.0
  0
LINE
  5
3B8
  8
SLD-0_1
  6
PHANTOM
 62
     7
 10
-156.7468867299999999
 20
308.4012047499999767
 30
0.0
 11
-160.4513217299999042
 21
308.4012047499999767
 31
0.0
  0
LINE
  5
3B9
  8
SLD-0_1
  6
PHANTOM
 62
     7
 10
-156.7468867299999999
 20
291.805589800000007
 30
0.0
 11
-160.4513217299999042
 21
291.805589800000007
 31
0.0
  0
LINE
  5
3BA
  8
SLD-0_1
  6
PHANTOM
 62
     7
 10
-160.4513217299999042
 20
332.3068685000000073
 30
0.0
 11
-156.7468867299999999
 21
332.3068685000000073
 31
0.0
  0
LINE
  5
3BB
  8
SLD-0_1
  6
PHANTOM
 62
     7
 10
-160.4513217299999042
 20
307.4093663100001095
 30
0.0
 11
-156.7468867299999999
 21
307.4093663100001095
 31
0.0
  0
LINE
  5
3BC
  8
SLD-0_1
  6
PHANTOM
 62
     7
 10
-156.7468867299999999
 20
300.1029439600000046
 30
0.0
 11
-160.4513217299999042
 21
300.1029439600000046
 31
0.0
  0
LINE
  5
3BD
  8
SLD-0_1
  6
PHANTOM
 62
     7
 10
-160.4513217299999042
 20
333.2923606300000188
 30
0.0
 11
-160.4513217299999042
 21
290.8173778199999902
 31
0.0
  0
LINE
  5
3BE
  8
SLD-0_1
  6
PHANTOM
 62
     7
 10
-147.8547921500000086
 20
300.1029439600000046
 30
0.0
 11
-144.1485439100000008
 21
300.1029439600000046
 31
0.0
  0
LINE
  5
3BF
  8
SLD-0_1
  6
PHANTOM
 62
     7
 10
-160.4513217299999042
 20
315.7094403199999988
 30
0.0
 11
-156.7468867299999999
 21
315.7094403199999988
 31
0.0
  0
LINE
  5
3C0
  8
SLD-0_1
  6
PHANTOM
 62
     7
 10
-167.8592851200000098
 20
362.9314671000000203
 30
0.0
 11
-167.8592851200000098
 21
279.9479526599999986
 31
0.0
  0
LINE
  5
3C1
  8
SLD-0_1
  6
PHANTOM
 62
     7
 10
-160.4513217299999042
 20
299.1129187500000057
 30
0.0
 11
-156.7468867299999999
 21
299.1129187500000057
 31
0.0
  0
LINE
  5
3C2
  8
SLD-0_1
  6
PHANTOM
 62
     7
 10
-134.2709571899999901
 20
362.9314671000000203
 30
0.0
 11
-167.8592851200000098
 21
362.9314671000000203
 31
0.0
  0
LINE
  5
3C4
  8
SLD-0_1
  6
PHANTOM
 62
     7
 10
-167.8592851200000098
 20
279.9479526599999986
 30
0.0
 11
-134.2709571899999901
 21
279.9479526599999986
 31
0.0
  0
LINE
  5
3C6
  8
SLD-0_1
  6
PHANTOM
 62
     7
 10
-147.8547921500000086
 20
316.6985589299999901
 30
0.0
 11
-144.1485439100000008
 21
316.6985589299999901
 31
0.0
  0
LINE
  5
3C7
  8
SLD-0_1
  6
PHANTOM
 62
     7
 10
-147.8547921500000086
 20
324.9950064700000212
 30
0.0
 11
-144.1485439100000008
 21
324.9950064700000212
 31
0.0
  0
LINE
  5
3C8
  8
SLD-0_1
  6
PHANTOM
 62
     7
 10
-144.1485439100000008
 20
332.3068685000000073
 30
0.0
 11
-147.8547921500000086
 21
332.3068685000000073
 31
0.0
  0
LINE
  5
3C9
  8
SLD-0_1
  6
PHANTOM
 62
     7
 10
-134.2709571899999901
 20
279.9479526599999986
 30
0.0
 11
-134.2709571899999901
 21
362.9314671000000203
 31
0.0
  0
LINE
  5
3CA
  8
SLD-0_1
  6
PHANTOM
 62
     7
 10
-156.7468867299999999
 20
324.9950064700000212
 30
0.0
 11
-160.4513217299999042
 21
324.9950064700000212
 31
0.0
  0
LINE
  5
3CB
  8
SLD-0_1
  6
PHANTOM
 62
     7
 10
-147.8547921500000086
 20
291.805589800000007
 30
0.0
 11
-144.1485439100000008
 21
291.805589800000007
 31
0.0
  0
LINE
  5
3CC
  8
SLD-0_1
  6
PHANTOM
 62
     7
 10
-144.1485439100000008
 20
299.1129187500000057
 30
0.0
 11
-147.8547921500000086
 21
299.1129187500000057
 31
0.0
  0
LINE
  5
3CD
  8
SLD-0_1
  6
PHANTOM
 62
     7
 10
-144.1485439100000008
 20
333.2923606300000188
 30
0.0
 11
-160.4513217299999042
 21
333.2923606300000188
 31
0.0
  0
CIRCLE
  5
3D3
  8
SLD-0_1
  6
PHANTOM
 62
     7
 10
-152.2974722399999905
 20
320.3478573099999949
 30
0.0
 40
3.3605157399999981
  0
CIRCLE
  5
3D4
  8
SLD-0_1
  6
PHANTOM
 62
     7
 10
-152.2974722399999905
 20
312.0505031399999893
 30
0.0
 40
3.3605157399999981
  0
CIRCLE
  5
3D5
  8
SLD-0_1
  6
PHANTOM
 62
     7
 10
-152.2974722399999905
 20
303.7522423400000093
 30
0.0
 40
3.3605157399999981
  0
CIRCLE
  5
3D6
  8
SLD-0_1
  6
PHANTOM
 62
     7
 10
-152.2974722399999905
 20
295.4548881800000117
 30
0.0
 40
3.3605157399999981
  0
TEXT
  5
3D7
  8
SLD-0
 62
     7
 10
265.2583252700000003
 20
-389.9248852399999805
 30
0.0
 40
9.5250000000000004
  1
002
 41
1.2857142857142869
 72
     5
 11
293.8333252700001026
 21
-389.9248852399999805
 31
0.0
  0
TEXT
  5
3D8
  8
SLD-0
 62
     7
 10
-277.1645752300000254
 20
370.8748852499999771
 30
0.0
 40
9.5250000000000004
  1
-M2
 41
1.1249999999999989
 72
     5
 11
-248.5895752300000083
 21
370.8748852499999771
 31
0.0
  0
TEXT
  5
3D9
  8
SLD-0
 62
     7
 10
-247.6523425400000065
 20
-50.7896749900000017
 30
0.0
 40
9.5250000000000004
  1
-R
 41
1.2
 72
     5
 11
-228.6023425399999951
 21
-50.7896749900000017
 31
0.0
  0
LINE
  5
43C
  8
0
  6
CONTINUOUS
 10
-160.4513217299999042
 20
290.8173778199999902
 30
0.0
 11
-144.1485439100000008
 21
290.8173778199999902
 31
0.0
  0
LINE
  5
449
  8
SLD-0
  6
PHANTOM
 62
     7
 10
-144.0733336721889088
 20
225.991807494360188
 30
0.0
 11
-160.3697651721886075
 21
225.991807494360188
 31
0.0
  0
LINE
  5
44A
  8
SLD-0_1
  6
PHANTOM
 62
     7
 10
-134.201186652188909
 20
73.9918080302745693
 30
0.0
 11
-134.201186652188909
 21
210.4783092823954007
 31
0.0
  0
LINE
  5
44B
  8
SLD-0_1
  6
PHANTOM
 62
     7
 10
-167.7541565321886026
 20
210.4783092823954007
 30
0.0
 11
-167.7541565321886026
 21
73.9918080302745693
 31
0.0
  0
LINE
  5
44C
  8
SLD-0_1
  6
PHANTOM
 62
     7
 10
-144.0733336721889088
 20
210.4783092823954007
 30
0.0
 11
-144.0733336721889088
 21
225.991807494360188
 31
0.0
  0
LINE
  5
44D
  8
SLD-0_1
  6
PHANTOM
 62
     7
 10
-134.201186652188909
 20
210.4783092823954007
 30
0.0
 11
-167.7541565321886026
 21
210.4783092823954007
 31
0.0
  0
LINE
  5
44E
  8
SLD-0_1
  6
PHANTOM
 62
     7
 10
-160.3697651721886075
 20
225.991807494360188
 30
0.0
 11
-160.3697651721886075
 21
210.4783092823954007
 31
0.0
  0
ENDSEC
  0
EOF
