  0
SECTION
  2
HEADER
  9
$ACADVER
  1
AC1009
  9
$INSBASE
 10
0.0
 20
0.0
 30
0.0
  9
$EXTMIN
 10
-277.1645752300000254
 20
-389.9248852399999805
 30
0.0
  9
$EXTMAX
 10
293.8333252700001026
 20
380.3998852499998975
 30
0.0
  9
$LIMMIN
 10
-305.7992775000000165
 20
-430.3669356999999991
  9
$LIMMAX
 10
296.8930275499999993
 20
420.8419356999999081
  9
$ORTHOMODE
 70
     0
  9
$REGENMODE
 70
     1
  9
$FILLMODE
 70
     1
  9
$QTEXTMODE
 70
     0
  9
$MIRRTEXT
 70
     1
  9
$DRAGMODE
 70
     2
  9
$LTSCALE
 40
0.2
  9
$OSMODE
 70
  1079
  9
$ATTMODE
 70
     1
  9
$TEXTSIZE
 40
9.5250000000000004
  9
$TRACEWID
 40
0.05
  9
$TEXTSTYLE
  7
STANDARD
  9
$CLAYER
  8
0
  9
$CELTYPE
  6
CONTINUOUS
  9
$CECOLOR
 62
   256
  9
$DIMSCALE
 40
1.0
  9
$DIMASZ
 40
0.18
  9
$DIMEXO
 40
0.0625
  9
$DIMDLI
 40
0.38
  9
$DIMRND
 40
0.0
  9
$DIMDLE
 40
0.0
  9
$DIMEXE
 40
0.18
  9
$DIMTP
 40
0.0
  9
$DIMTM
 40
0.0
  9
$DIMTXT
 40
0.18
  9
$DIMCEN
 40
0.09
  9
$DIMTSZ
 40
0.0
  9
$DIMTOL
 70
     0
  9
$DIMLIM
 70
     0
  9
$DIMTIH
 70
     1
  9
$DIMTOH
 70
     1
  9
$DIMSE1
 70
     0
  9
$DIMSE2
 70
     0
  9
$DIMTAD
 70
     0
  9
$DIMZIN
 70
     0
  9
$DIMBLK
  1

  9
$DIMASO
 70
     1
  9
$DIMSHO
 70
     1
  9
$DIMPOST
  1

  9
$DIMAPOST
  1

  9
$DIMALT
 70
     0
  9
$DIMALTD
 70
     2
  9
$DIMALTF
 40
25.3999999999999986
  9
$DIMLFAC
 40
1.0
  9
$DIMTOFL
 70
     0
  9
$DIMTVP
 40
0.0
  9
$DIMTIX
 70
     0
  9
$DIMSOXD
 70
     0
  9
$DIMSAH
 70
     0
  9
$DIMBLK1
  1

  9
$DIMBLK2
  1

  9
$DIMSTYLE
  2
STANDARD
  9
$DIMCLRD
 70
     0
  9
$DIMCLRE
 70
     0
  9
$DIMCLRT
 70
     0
  9
$DIMTFAC
 40
1.0
  9
$DIMGAP
 40
0.09
  9
$LUNITS
 70
     2
  9
$LUPREC
 70
     4
  9
$SKETCHINC
 40
0.1
  9
$FILLETRAD
 40
0.0
  9
$AUNITS
 70
     0
  9
$AUPREC
 70
     0
  9
$MENU
  1
acad
  9
$ELEVATION
 40
0.0
  9
$PELEVATION
 40
0.0
  9
$THICKNESS
 40
0.0
  9
$LIMCHECK
 70
     0
  9
$BLIPMODE
 70
     0
  9
$CHAMFERA
 40
0.0
  9
$CHAMFERB
 40
0.0
  9
$SKPOLY
 70
     0
  9
$TDCREATE
 40
2440588.749988425988704
  9
$TDUPDATE
 40
2458754.5683333338238299
  9
$TDINDWG
 40
0.0014236111
  9
$TDUSRTIMER
 40
0.0014236111
  9
$USRTIMER
 70
     1
  9
$ANGBASE
 50
0.0
  9
$ANGDIR
 70
     0
  9
$PDMODE
 70
     0
  9
$PDSIZE
 40
1.0
  9
$PLINEWID
 40
0.0
  9
$COORDS
 70
     1
  9
$SPLFRAME
 70
     0
  9
$SPLINETYPE
 70
     6
  9
$SPLINESEGS
 70
     8
  9
$ATTDIA
 70
     1
  9
$ATTREQ
 70
     1
  9
$HANDLING
 70
     1
  9
$HANDSEED
  5
3B8
  9
$SURFTAB1
 70
     6
  9
$SURFTAB2
 70
     6
  9
$SURFTYPE
 70
     6
  9
$SURFU
 70
     6
  9
$SURFV
 70
     6
  9
$UCSNAME
  2

  9
$UCSORG
 10
0.0
 20
0.0
 30
0.0
  9
$UCSXDIR
 10
1.0
 20
0.0
 30
0.0
  9
$UCSYDIR
 10
0.0
 20
1.0
 30
0.0
  9
$PUCSNAME
  2

  9
$PUCSORG
 10
0.0
 20
0.0
 30
0.0
  9
$PUCSXDIR
 10
1.0
 20
0.0
 30
0.0
  9
$PUCSYDIR
 10
0.0
 20
1.0
 30
0.0
  9
$USERI1
 70
     0
  9
$USERI2
 70
     0
  9
$USERI3
 70
     0
  9
$USERI4
 70
     0
  9
$USERI5
 70
     0
  9
$USERR1
 40
0.0
  9
$USERR2
 40
0.0
  9
$USERR3
 40
0.0
  9
$USERR4
 40
0.0
  9
$USERR5
 40
0.0
  9
$WORLDVIEW
 70
     1
  9
$SHADEDGE
 70
     3
  9
$SHADEDIF
 70
    70
  9
$TILEMODE
 70
     1
  9
$MAXACTVP
 70
    16
  9
$PLIMCHECK
 70
     0
  9
$PEXTMIN
 10
1.0000000000000000E+20
 20
1.0000000000000000E+20
 30
1.0000000000000000E+20
  9
$PEXTMAX
 10
-1.0000000000000000E+20
 20
-1.0000000000000000E+20
 30
-1.0000000000000000E+20
  9
$PLIMMIN
 10
0.0
 20
0.0
  9
$PLIMMAX
 10
12.0
 20
9.0
  9
$UNITMODE
 70
     0
  9
$VISRETAIN
 70
     0
  9
$PLINEGEN
 70
     1
  9
$PSLTSCALE
 70
     0
  0
ENDSEC
  0
SECTION
  2
TABLES
  0
TABLE
  2
VPORT
 70
     1
  0
VPORT
  2
*ACTIVE
 70
     0
 10
0.0
 20
0.0
 11
1.0
 21
1.0
 12
76.8810909870176147
 22
-13.1251986272253607
 13
0.0
 23
0.0
 14
1.0
 24
1.0
 15
0.0
 25
0.0
 16
0.0
 26
0.0
 36
1.0
 17
0.0
 27
0.0
 37
0.0
 40
876.2925501889395719
 41
2.2135355892648771
 42
50.0
 43
0.0
 44
0.0
 50
0.0
 51
0.0
 71
     0
 72
   100
 73
     1
 74
     1
 75
     0
 76
     0
 77
     0
 78
     0
  0
ENDTAB
  0
TABLE
  2
LTYPE
 70
    30
  0
LTYPE
  2
CONTINUOUS
 70
     0
  3
Solid line
 72
    65
 73
     0
 40
0.0
  0
LTYPE
  2
HIDDENX2
 70
     0
  3
CADPAC LINETYPE
 72
    65
 73
     2
 40
45.3057216699999898
 49
33.9792912599999966
 49
-11.3264304199999994
  0
LTYPE
  2
HIDDEN
 70
     0
  3
CADPAC LINETYPE
 72
    65
 73
     2
 40
33.9792912599999966
 49
22.6528608399999989
 49
-11.3264304199999994
  0
LTYPE
  2
HIDDEN2
 70
     0
  3
CADPAC LINETYPE
 72
    65
 73
     2
 40
28.3160760499999995
 49
16.9896456299999983
 49
-11.3264304199999994
  0
LTYPE
  2
DASHED
 70
     0
  3
CADPAC LINETYPE
 72
    65
 73
     2
 40
33.9792912599999966
 49
22.6528608399999989
 49
-11.3264304199999994
  0
LTYPE
  2
DASHED2
 70
     0
  3
CADPAC LINETYPE
 72
    65
 73
     2
 40
25.4844684400000006
 49
16.9896456299999983
 49
-8.4948228100000005
  0
LTYPE
  2
DASHEDX2
 70
     0
  3
CADPAC LINETYPE
 72
    65
 73
     2
 40
50.9689368800000011
 49
33.9792912599999966
 49
-16.9896456299999983
  0
LTYPE
  2
DOTX2
 70
     0
  3
CADPAC LINETYPE
 72
    65
 73
     2
 40
14.1580380199999993
 49
0.0
 49
-14.1580380199999993
  0
LTYPE
  2
DOT
 70
     0
  3
CADPAC LINETYPE
 72
    65
 73
     2
 40
11.3264304199999994
 49
0.0
 49
-11.3264304199999994
  0
LTYPE
  2
DOT2
 70
     0
  3
CADPAC LINETYPE
 72
    65
 73
     2
 40
8.4948228100000005
 49
0.0
 49
-8.4948228100000005
  0
LTYPE
  2
CENTERX2
 70
     0
  3
CADPAC LINETYPE
 72
    65
 73
     4
 40
67.9585825099999994
 49
28.3160760499999995
 49
-14.1580380199999993
 49
11.3264304199999994
 49
-14.1580380199999993
  0
LTYPE
  2
CENTER
 70
     0
  3
CADPAC LINETYPE
 72
    65
 73
     4
 40
52.1015799299999998
 49
22.6528608399999989
 49
-11.3264304199999994
 49
6.7958582500000002
 49
-11.3264304199999994
  0
LTYPE
  2
CENTER2
 70
     0
  3
CADPAC LINETYPE
 72
    65
 73
     4
 40
36.2445773399999993
 49
16.9896456299999983
 49
-8.4948228100000005
 49
2.2652860800000001
 49
-8.4948228100000005
  0
LTYPE
  2
DASHDOTX2
 70
     0
  3
CADPAC LINETYPE
 72
    65
 73
     4
 40
56.6321520899999982
 49
28.3160760499999995
 49
-14.1580380199999993
 49
0.0
 49
-14.1580380199999993
  0
LTYPE
  2
DASHDOT
 70
     0
  3
CADPAC LINETYPE
 72
    65
 73
     4
 40
45.3057216699999898
 49
22.6528608399999989
 49
-11.3264304199999994
 49
0.0
 49
-11.3264304199999994
  0
LTYPE
  2
DASHDOT2
 70
     0
  3
CADPAC LINETYPE
 72
    65
 73
     4
 40
33.9792912599999966
 49
16.9896456299999983
 49
-8.4948228100000005
 49
0.0
 49
-8.4948228100000005
  0
LTYPE
  2
DIVIDEX2
 70
     0
  3
CADPAC LINETYPE
 72
    65
 73
     6
 40
70.7901901200000054
 49
28.3160760499999995
 49
-14.1580380199999993
 49
0.0
 49
-14.1580380199999993
 49
0.0
 49
-14.1580380199999993
  0
LTYPE
  2
DIVIDE
 70
     0
  3
CADPAC LINETYPE
 72
    65
 73
     6
 40
56.6321520899999982
 49
22.6528608399999989
 49
-11.3264304199999994
 49
0.0
 49
-11.3264304199999994
 49
0.0
 49
-11.3264304199999994
  0
LTYPE
  2
DIVIDE2
 70
     0
  3
CADPAC LINETYPE
 72
    65
 73
     6
 40
42.4741140699999988
 49
16.9896456299999983
 49
-8.4948228100000005
 49
0.0
 49
-8.4948228100000005
 49
0.0
 49
-8.4948228100000005
  0
LTYPE
  2
BORDERX2
 70
     0
  3
CADPAC LINETYPE
 72
    65
 73
     6
 40
99.1062661600000041
 49
28.3160760499999995
 49
-14.1580380199999993
 49
28.3160760499999995
 49
-14.1580380199999993
 49
0.0
 49
-14.1580380199999993
  0
LTYPE
  2
BORDER
 70
     0
  3
CADPAC LINETYPE
 72
    65
 73
     6
 40
79.2850129299999935
 49
22.6528608399999989
 49
-11.3264304199999994
 49
22.6528608399999989
 49
-11.3264304199999994
 49
0.0
 49
-11.3264304199999994
  0
LTYPE
  2
BORDER2
 70
     0
  3
CADPAC LINETYPE
 72
    65
 73
     6
 40
59.4637596999999971
 49
16.9896456299999983
 49
-8.4948228100000005
 49
16.9896456299999983
 49
-8.4948228100000005
 49
0.0
 49
-8.4948228100000005
  0
LTYPE
  2
PHANTOMX2
 70
     0
  3
CADPAC LINETYPE
 72
    65
 73
     6
 40
84.9482281399999977
 49
28.3160760499999995
 49
-11.3264304199999994
 49
11.3264304199999994
 49
-11.3264304199999994
 49
11.3264304199999994
 49
-11.3264304199999994
  0
LTYPE
  2
PHANTOM
 70
     0
  3
CADPAC LINETYPE
 72
    65
 73
     6
 40
70.223868589999995
 49
22.6528608399999989
 49
-11.3264304199999994
 49
6.7958582500000002
 49
-11.3264304199999994
 49
6.7958582500000002
 49
-11.3264304199999994
  0
LTYPE
  2
PHANTOM2
 70
     0
  3
CADPAC LINETYPE
 72
    65
 73
     6
 40
60.0300812199999996
 49
16.9896456299999983
 49
-11.3264304199999994
 49
4.5305721700000001
 49
-11.3264304199999994
 49
4.5305721700000001
 49
-11.3264304199999994
  0
LTYPE
  2
ACAD_ISO06W100
 70
     0
  3
CADPAC LINETYPE
 72
    65
 73
     8
 40
76.4534053200000017
 49
28.3160760499999995
 49
-14.1580380199999993
 49
0.0
 49
-11.3264304199999994
 49
0.0
 49
-11.3264304199999994
 49
0.0
 49
-11.3264304199999994
  0
LTYPE
  2
ACAD_ISO13W100
 70
     0
  3
CADPAC LINETYPE
 72
    65
 73
     8
 40
90.6114433499999876
 49
22.6528608399999989
 49
-11.3264304199999994
 49
22.6528608399999989
 49
-11.3264304199999994
 49
0.0
 49
-11.3264304199999994
 49
0.0
 49
-11.3264304199999994
  0
LTYPE
  2
ACAD_ISO14W100
 70
     0
  3
CADPAC LINETYPE
 72
    65
 73
     8
 40
67.9585825099999994
 49
22.6528608399999989
 49
-11.3264304199999994
 49
0.0
 49
-11.3264304199999994
 49
0.0
 49
-11.3264304199999994
 49
0.0
 49
-11.3264304199999994
  0
ENDTAB
  0
TABLE
  2
LAYER
 70
     8
  0
LAYER
  2
0
 70
     0
 62
     7
  6
CONTINUOUS
  0
LAYER
  2
SLD-0_6
 70
     0
 62
     7
  6
CONTINUOUS
  0
LAYER
  2
SLD-0_4
 70
     0
 62
     7
  6
CONTINUOUS
  0
LAYER
  2
SLD-0_3
 70
     0
 62
     7
  6
CONTINUOUS
  0
LAYER
  2
SLD-0_1
 70
     0
 62
     7
  6
CONTINUOUS
  0
LAYER
  2
SLD-0_0
 70
     0
 62
     7
  6
CONTINUOUS
  0
LAYER
  2
SLD-0_2
 70
     0
 62
     7
  6
CONTINUOUS
  0
LAYER
  2
SLD-0
 70
     0
 62
     7
  6
CONTINUOUS
  0
ENDTAB
  0
TABLE
  2
STYLE
 70
     1
  0
STYLE
  2
STANDARD
 70
     0
 40
0.0
 41
1.0
 50
0.0
 71
     0
 42
9.5250000000000004
  3
txt.shx
  4
bigfont.shx
  0
ENDTAB
  0
TABLE
  2
VIEW
 70
     1
  0
VIEW
  2
QQQQ
 70
     0
 40
851.208871390000013
 10
-4.4531249800000001
 20
-4.7625000000000002
 41
602.6923050499998453
 11
0.0
 21
0.0
 31
1.0
 12
100.0
 22
100.0
 32
0.0
 42
50.0
 43
0.0
 44
0.0
 50
0.0
 71
     0
  0
ENDTAB
  0
TABLE
  2
UCS
 70
     0
  0
ENDTAB
  0
TABLE
  2
APPID
 70
     4
  0
APPID
  2
ACAD
 70
     0
  0
APPID
  2
ACAD_NAV_VCDISPLAY
 70
     0
  0
APPID
  2
ACAD_EXEMPT_FROM_CAD_STANDARDS
 70
     0
  0
APPID
  2
ACAD_MLEADERVER
 70
     0
  0
ENDTAB
  0
TABLE
  2
DIMSTYLE
 70
     3
  0
DIMSTYLE
  2
STANDARD
 70
     0
  3

  4

  5

  6

  7

 40
1.0
 41
0.18
 42
0.0625
 43
0.38
 44
0.18
 45
0.0
 46
0.0
 47
0.0
 48
0.0
140
0.18
141
0.09
142
0.0
143
25.3999999999999986
144
1.0
145
0.0
146
1.0
147
0.09
 71
     0
 72
     0
 73
     1
 74
     1
 75
     0
 76
     0
 77
     0
 78
     0
170
     0
171
     2
172
     0
173
     0
174
     0
175
     0
176
     0
177
     0
178
     0
  0
DIMSTYLE
  2
ISO-25
 70
     0
  3

  4

  5

  6

  7

 40
1.0
 41
2.5
 42
0.625
 43
3.75
 44
1.25
 45
0.0
 46
0.0
 47
0.0
 48
0.0
140
2.5
141
2.5
142
0.0
143
0.0393700787
144
1.0
145
0.0
146
1.0
147
0.625
 71
     0
 72
     0
 73
     0
 74
     0
 75
     0
 76
     0
 77
     1
 78
     8
170
     0
171
     3
172
     1
173
     0
174
     0
175
     0
176
     0
177
     0
178
     0
  0
ENDTAB
  0
ENDSEC
  0
SECTION
  2
BLOCKS
  0
BLOCK
  8
0
  2
$MODEL_SPACE
 70
     0
 10
0.0
 20
0.0
 30
0.0
  3
$MODEL_SPACE
  1

  0
ENDBLK
  5
E
  8
0
  0
BLOCK
 67
     1
  8
0
  2
$PAPER_SPACE
 70
     0
 10
0.0
 20
0.0
 30
0.0
  3
$PAPER_SPACE
  1

  0
ENDBLK
  5
10
 67
     1
  8
0
  0
ENDSEC
  0
SECTION
  2
ENTITIES
  0
LINE
  5
40
  8
SLD-0_4
  6
PHANTOM
 62
     7
 10
-175.3788632899999982
 20
-69.9589062900000016
 30
0.0
 11
-176.1082088400000032
 21
-69.9589062900000016
 31
0.0
  0
LINE
  5
41
  8
SLD-0_4
  6
PHANTOM
 62
     7
 10
-136.1885039400000039
 20
-60.4927283900000035
 30
0.0
 11
-136.1885039400000039
 21
-61.2144167800000005
 31
0.0
  0
LINE
  5
42
  8
SLD-0_4
  6
PHANTOM
 62
     7
 10
-136.1885039400000039
 20
-69.9589062900000016
 30
0.0
 11
-136.1885039400000039
 21
-70.9926244100000048
 31
0.0
  0
LINE
  5
43
  8
SLD-0_4
  6
PHANTOM
 62
     7
 10
-167.3953051599999924
 20
-69.9589062900000016
 30
0.0
 11
-168.1246507200000053
 21
-69.9589062900000016
 31
0.0
  0
LINE
  5
44
  8
SLD-0_4
  6
PHANTOM
 62
     7
 10
-141.2881799600000079
 20
-69.9589062900000016
 30
0.0
 11
-142.009868339999997
 21
-69.9589062900000016
 31
0.0
  0
LINE
  5
45
  8
SLD-0_4
  6
PHANTOM
 62
     7
 10
-149.9943836099999999
 20
-69.9589062900000016
 30
0.0
 11
-149.9943836099999999
 21
-61.2144167800000005
 31
0.0
  0
LINE
  5
46
  8
SLD-0_4
  6
PHANTOM
 62
     7
 10
-157.2562533500000086
 20
-70.9926244100000048
 30
0.0
 11
-157.2562533500000086
 21
-69.9589062900000016
 31
0.0
  0
LINE
  5
47
  8
SLD-0_4
  6
PHANTOM
 62
     7
 10
-165.2388543200000015
 20
-69.9589062900000016
 30
0.0
 11
-165.9605427099999986
 21
-69.9589062900000016
 31
0.0
  0
LINE
  5
48
  8
SLD-0_4
  6
PHANTOM
 62
     7
 10
-175.9742635300000018
 20
-297.6125612899999737
 30
0.0
 11
-175.9742635300000018
 21
-309.6151771500000223
 31
0.0
  0
LINE
  5
49
  8
SLD-0_4
  6
PHANTOM
 62
     7
 10
-129.6425797100000068
 20
-309.6151771500000223
 30
0.0
 11
-179.6425797100000068
 21
-309.6151771500000223
 31
0.0
  0
LINE
  5
4A
  8
SLD-0_4
  6
PHANTOM
 62
     7
 10
-133.1907765900000129
 20
-309.6151771500000223
 30
0.0
 11
-133.1907765900000129
 21
-297.6125612899999737
 31
0.0
  0
LINE
  5
4B
  8
SLD-0_4
  6
PHANTOM
 62
     7
 10
-133.1907765900000129
 20
-297.6125612899999737
 30
0.0
 11
-175.9742635300000018
 21
-297.6125612899999737
 31
0.0
  0
LINE
  5
4C
  8
SLD-0_4
  6
PHANTOM
 62
     7
 10
-176.1082088400000032
 20
-61.2144167800000005
 30
0.0
 11
-175.3788632899999982
 21
-61.2144167800000005
 31
0.0
  0
LINE
  5
4D
  8
SLD-0_4
  6
PHANTOM
 62
     7
 10
-135.459158379999991
 20
-61.2144167800000005
 30
0.0
 11
-135.459158379999991
 21
-69.9589062900000016
 31
0.0
  0
LINE
  5
4E
  8
SLD-0_4
  6
PHANTOM
 62
     7
 10
-152.1565773300000046
 20
-61.2144167800000005
 30
0.0
 11
-151.4272317699999917
 21
-61.2144167800000005
 31
0.0
  0
LINE
  5
4F
  8
SLD-0_4
  6
PHANTOM
 62
     7
 10
-29.8352138999999994
 20
-144.4925955999999871
 30
0.0
 11
-29.8352138999999994
 21
-66.4925956000000014
 31
0.0
  0
LINE
  5
50
  8
SLD-0_4
  6
PHANTOM
 62
     7
 10
-168.1246507200000053
 20
-69.9589062900000016
 30
0.0
 11
-168.1246507200000053
 21
-70.9926244100000048
 31
0.0
  0
LINE
  5
51
  8
SLD-0_4
  6
PHANTOM
 62
     7
 10
-0.4263222300000001
 20
-145.5181729599999869
 30
0.0
 11
-0.4263222300000001
 21
-152.3541125499999964
 31
0.0
  0
LINE
  5
52
  8
SLD-0_4
  6
PHANTOM
 62
     7
 10
-28.8352138999999994
 20
-65.4925956000000014
 30
0.0
 11
19.1647861000000006
 21
-65.4925956000000014
 31
0.0
  0
LINE
  5
53
  8
SLD-0_4
  6
PHANTOM
 62
     7
 10
-0.93169553
 20
-123.6959766300000041
 30
0.0
 11
-0.93169553
 21
-127.306332850000004
 31
0.0
  0
LINE
  5
54
  8
SLD-0_4
  6
PHANTOM
 62
     7
 10
-12.4538238900000007
 20
-80.5975885400000038
 30
0.0
 11
-14.6227176300000004
 21
-80.5822741900000068
 31
0.0
  0
LINE
  5
55
  8
SLD-0_4
  6
PHANTOM
 62
     7
 10
4.0837516100000002
 20
-117.4285820099999995
 30
0.0
 11
4.0837516100000002
 21
-113.7234682899999996
 31
0.0
  0
LINE
  5
56
  8
SLD-0_4
  6
PHANTOM
 62
     7
 10
-176.1082088400000032
 20
-70.9926244100000048
 30
0.0
 11
-133.3027075400000001
 21
-70.9926244100000048
 31
0.0
  0
LINE
  5
57
  8
SLD-0_4
  6
PHANTOM
 62
     7
 10
-12.4868147799999996
 20
-145.4925955999999871
 30
0.0
 11
-9.2473834499999992
 21
-152.3541125499999964
 31
0.0
  0
LINE
  5
58
  8
SLD-0_4
  6
PHANTOM
 62
     7
 10
-16.8337258200000015
 20
-82.5405957300000068
 30
0.0
 11
-16.8394687000000012
 21
-84.2692021200000028
 31
0.0
  0
LINE
  5
59
  8
SLD-0_4
  6
PHANTOM
 62
     7
 10
-167.3953051599999924
 20
-61.2144167800000005
 30
0.0
 11
-167.3953051599999924
 21
-69.9589062900000016
 31
0.0
  0
LINE
  5
5A
  8
SLD-0_4
  6
PHANTOM
 62
     7
 10
4.0837516100000002
 20
-118.6633008700000005
 30
0.0
 11
-3.3264758200000002
 21
-118.6633008700000005
 31
0.0
  0
LINE
  5
5B
  8
SLD-0_4
  6
PHANTOM
 62
     7
 10
-0.4263222300000001
 20
-152.3541125499999964
 30
0.0
 11
3.1728739400000001
 21
-145.4925955999999871
 31
0.0
  0
LINE
  5
5C
  8
SLD-0_4
  6
PHANTOM
 62
     7
 10
-3.3264758200000002
 20
-128.5448802999999884
 30
0.0
 11
-3.3264758200000002
 21
-132.2499940099999947
 31
0.0
  0
LINE
  5
5D
  8
SLD-0_4
  6
PHANTOM
 62
     7
 10
-16.8394687000000012
 20
-73.4879050800000044
 30
0.0
 11
-16.8337258200000015
 21
-75.2270400799999948
 31
0.0
  0
LINE
  5
5E
  8
SLD-0_4
  6
PHANTOM
 62
     7
 10
-176.1082088400000032
 20
-60.4927283900000035
 30
0.0
 11
-176.1082088400000032
 21
-61.2144167800000005
 31
0.0
  0
LINE
  5
5F
  8
SLD-0_4
  6
PHANTOM
 62
     7
 10
-176.1082088400000032
 20
-69.9589062900000016
 30
0.0
 11
-176.1082088400000032
 21
-70.9926244100000048
 31
0.0
  0
LINE
  5
60
  8
SLD-0_4
  6
PHANTOM
 62
     7
 10
-136.1885039400000039
 20
-61.2144167800000005
 30
0.0
 11
-135.459158379999991
 21
-61.2144167800000005
 31
0.0
  0
LINE
  5
61
  8
SLD-0_4
  6
PHANTOM
 62
     7
 10
-165.2388543200000015
 20
-70.9926244100000048
 30
0.0
 11
-165.2388543200000015
 21
-69.9589062900000016
 31
0.0
  0
LINE
  5
62
  8
SLD-0_4
  6
PHANTOM
 62
     7
 10
17.1647861000000006
 20
-142.4925955999999871
 30
0.0
 11
17.1647861000000006
 21
-68.4925955999999871
 31
0.0
  0
LINE
  5
63
  8
SLD-0_4
  6
PHANTOM
 62
     7
 10
4.0837516100000002
 20
-113.7234682899999996
 30
0.0
 11
-3.3264758200000002
 21
-113.7234682899999996
 31
0.0
  0
LINE
  5
64
  8
SLD-0_4
  6
PHANTOM
 62
     7
 10
-0.93169553
 20
-118.6613865700000048
 30
0.0
 11
-0.93169553
 21
-122.3665002799999968
 31
0.0
  0
LINE
  5
65
  8
SLD-0_4
  6
PHANTOM
 62
     7
 10
-133.3027075400000001
 20
-69.9589062900000016
 30
0.0
 11
-134.0243959299999972
 21
-69.9589062900000016
 31
0.0
  0
LINE
  5
66
  8
SLD-0_4
  6
PHANTOM
 62
     7
 10
-0.93169553
 20
-113.7493112500000052
 30
0.0
 11
-0.93169553
 21
-117.4285820099999995
 31
0.0
  0
LINE
  5
67
  8
SLD-0_4
  6
PHANTOM
 62
     7
 10
-11.6364208599999994
 20
-85.0435335600000144
 30
0.0
 11
-24.3990109599999982
 21
-85.0435335600000144
 31
0.0
  0
LINE
  5
68
  8
SLD-0_4
  6
PHANTOM
 62
     7
 10
-159.4107898899999896
 20
-61.2144167800000005
 30
0.0
 11
-159.4107898899999896
 21
-69.9589062900000016
 31
0.0
  0
LINE
  5
69
  8
SLD-0_4
  6
PHANTOM
 62
     7
 10
-168.1246507200000053
 20
-60.4927283900000035
 30
0.0
 11
-168.1246507200000053
 21
-61.2144167800000005
 31
0.0
  0
LINE
  5
6A
  8
SLD-0_4
  6
PHANTOM
 62
     7
 10
-149.2726952200000028
 20
-61.2144167800000005
 30
0.0
 11
-149.2726952200000028
 21
-60.4927283900000035
 31
0.0
  0
LINE
  5
6B
  8
SLD-0_4
  6
PHANTOM
 62
     7
 10
-165.9605427099999986
 20
-69.9589062900000016
 30
0.0
 11
-165.9605427099999986
 21
-61.2144167800000005
 31
0.0
  0
LINE
  5
6C
  8
SLD-0_4
  6
PHANTOM
 62
     7
 10
-3.3264758200000002
 20
-113.7234682899999996
 30
0.0
 11
-3.3264758200000002
 21
-117.4285820099999995
 31
0.0
  0
LINE
  5
6D
  8
SLD-0_4
  6
PHANTOM
 62
     7
 10
-12.4868147799999996
 20
-65.4925956000000014
 30
0.0
 11
-9.2473834499999992
 21
-58.6310786499999921
 31
0.0
  0
LINE
  5
6E
  8
SLD-0_4
  6
PHANTOM
 62
     7
 10
-0.4263222300000001
 20
-65.4670182400000016
 30
0.0
 11
-0.4263222300000001
 21
-58.6310786499999921
 31
0.0
  0
LINE
  5
6F
  8
SLD-0_4
  6
PHANTOM
 62
     7
 10
-135.459158379999991
 20
-69.9589062900000016
 30
0.0
 11
-136.1885039400000039
 21
-69.9589062900000016
 31
0.0
  0
LINE
  5
70
  8
SLD-0_4
  6
PHANTOM
 62
     7
 10
-143.4427164999999889
 20
-61.2144167800000005
 30
0.0
 11
-143.4427164999999889
 21
-69.9589062900000016
 31
0.0
  0
LINE
  5
71
  8
SLD-0_4
  6
PHANTOM
 62
     7
 10
-149.9943836099999999
 20
-61.2144167800000005
 30
0.0
 11
-149.2726952200000028
 21
-61.2144167800000005
 31
0.0
  0
LINE
  5
72
  8
SLD-0_4
  6
PHANTOM
 62
     7
 10
4.0837516100000002
 20
-127.3082471599999934
 30
0.0
 11
4.0837516100000002
 21
-123.6050477200000017
 31
0.0
  0
LINE
  5
73
  8
SLD-0_4
  6
PHANTOM
 62
     7
 10
-5.9452283699999988
 20
-132.9008535600000016
 30
0.0
 11
9.8687444499999994
 21
-132.9008535600000016
 31
0.0
  0
LINE
  5
74
  8
SLD-0_4
  6
PHANTOM
 62
     7
 10
-3.3264758200000002
 20
-123.6050477200000017
 30
0.0
 11
-3.3264758200000002
 21
-127.3082471599999934
 31
0.0
  0
LINE
  5
75
  8
SLD-0_4
  6
PHANTOM
 62
     7
 10
-14.6227176300000004
 20
-77.1317614200000037
 30
0.0
 11
-12.4538238900000007
 21
-77.1317614200000037
 31
0.0
  0
LINE
  5
76
  8
SLD-0_4
  6
PHANTOM
 62
     7
 10
-175.3788632899999982
 20
-61.2144167800000005
 30
0.0
 11
-175.3788632899999982
 21
-69.9589062900000016
 31
0.0
  0
LINE
  5
77
  8
SLD-0_4
  6
PHANTOM
 62
     7
 10
-141.2881799600000079
 20
-70.9926244100000048
 30
0.0
 11
-141.2881799600000079
 21
-69.9589062900000016
 31
0.0
  0
LINE
  5
78
  8
SLD-0_4
  6
PHANTOM
 62
     7
 10
-173.9441008299999964
 20
-61.2144167800000005
 30
0.0
 11
-173.2224124500000073
 21
-61.2144167800000005
 31
0.0
  0
LINE
  5
79
  8
SLD-0_4
  6
PHANTOM
 62
     7
 10
-26.8352138999999994
 20
-68.4925955999999871
 30
0.0
 11
17.1647861000000006
 21
-68.4925955999999871
 31
0.0
  0
LINE
  5
7A
  8
SLD-0_4
  6
PHANTOM
 62
     7
 10
-14.6322890999999995
 20
-82.5405957300000068
 30
0.0
 11
-16.8337258200000015
 21
-82.5405957300000068
 31
0.0
  0
LINE
  5
7B
  8
SLD-0_4
  6
PHANTOM
 62
     7
 10
-133.3027075400000001
 20
-70.9926244100000048
 30
0.0
 11
-133.3027075400000001
 21
-69.9589062900000016
 31
0.0
  0
LINE
  5
7C
  8
SLD-0_4
  6
PHANTOM
 62
     7
 10
-173.2224124500000073
 20
-61.2144167800000005
 30
0.0
 11
-173.2224124500000073
 21
-60.4927283900000035
 31
0.0
  0
LINE
  5
7D
  8
SLD-0_4
  6
PHANTOM
 62
     7
 10
-26.8352138999999994
 20
-142.4925955999999871
 30
0.0
 11
17.1647861000000006
 21
-142.4925955999999871
 31
0.0
  0
LINE
  5
7E
  8
SLD-0_4
  6
PHANTOM
 62
     7
 10
-9.2473834499999992
 20
-152.3541125499999964
 30
0.0
 11
-0.4263222300000001
 21
-152.3541125499999964
 31
0.0
  0
LINE
  5
7F
  8
SLD-0_4
  6
PHANTOM
 62
     7
 10
-3.3264758200000002
 20
-112.4887494299999986
 30
0.0
 11
4.0837516100000002
 21
-112.4887494299999986
 31
0.0
  0
LINE
  5
80
  8
SLD-0_4
  6
PHANTOM
 62
     7
 10
-24.3588108100000014
 20
-84.2692021200000028
 30
0.0
 11
-24.3588108100000014
 21
-73.4879050800000044
 31
0.0
  0
LINE
  5
81
  8
SLD-0_4
  6
PHANTOM
 62
     7
 10
9.8687444499999994
 20
-108.166276289999999
 30
0.0
 11
-5.9452283699999988
 21
-108.166276289999999
 31
0.0
  0
LINE
  5
82
  8
SLD-0_4
  6
PHANTOM
 62
     7
 10
-144.1720620600000018
 20
-60.4927283900000035
 30
0.0
 11
-144.1720620600000018
 21
-61.2144167800000005
 31
0.0
  0
LINE
  5
83
  8
SLD-0_4
  6
PHANTOM
 62
     7
 10
-152.1565773300000046
 20
-60.4927283900000035
 30
0.0
 11
-152.1565773300000046
 21
-61.2144167800000005
 31
0.0
  0
LINE
  5
84
  8
SLD-0_4
  6
PHANTOM
 62
     7
 10
-168.1246507200000053
 20
-61.2144167800000005
 30
0.0
 11
-167.3953051599999924
 21
-61.2144167800000005
 31
0.0
  0
LINE
  5
85
  8
SLD-0_4
  6
PHANTOM
 62
     7
 10
-165.9605427099999986
 20
-61.2144167800000005
 30
0.0
 11
-165.2388543200000015
 21
-61.2144167800000005
 31
0.0
  0
LINE
  5
86
  8
SLD-0_4
  6
PHANTOM
 62
     7
 10
-3.3264758200000002
 20
-122.3684145800000067
 30
0.0
 11
4.0837516100000002
 21
-122.3684145800000067
 31
0.0
  0
LINE
  5
87
  8
SLD-0_4
  6
PHANTOM
 62
     7
 10
20.1647861000000006
 20
-144.4925955999999871
 30
0.0
 11
20.1647861000000006
 21
-66.4925956000000014
 31
0.0
  0
LINE
  5
88
  8
SLD-0_4
  6
PHANTOM
 62
     7
 10
-24.3588108100000014
 20
-73.4879050800000044
 30
0.0
 11
-16.8394687000000012
 21
-73.4879050800000044
 31
0.0
  0
LINE
  5
89
  8
SLD-0_4
  6
PHANTOM
 62
     7
 10
-3.3264758200000002
 20
-117.4285820099999995
 30
0.0
 11
4.0837516100000002
 21
-117.4285820099999995
 31
0.0
  0
LINE
  5
8A
  8
SLD-0_4
  6
PHANTOM
 62
     7
 10
-0.93169553
 20
-128.5448802999999884
 30
0.0
 11
-0.93169553
 21
-132.2480797199999927
 31
0.0
  0
LINE
  5
8B
  8
SLD-0_4
  6
PHANTOM
 62
     7
 10
-3.3264758200000002
 20
-118.6633008700000005
 30
0.0
 11
-3.3264758200000002
 21
-122.3684145800000067
 31
0.0
  0
LINE
  5
8C
  8
SLD-0_4
  6
PHANTOM
 62
     7
 10
-9.2473834499999992
 20
-58.6310786499999921
 30
0.0
 11
-0.4263222300000001
 21
-58.6310786499999921
 31
0.0
  0
LINE
  5
8D
  8
SLD-0_4
  6
PHANTOM
 62
     7
 10
4.0837516100000002
 20
-122.3684145800000067
 30
0.0
 11
4.0837516100000002
 21
-118.6633008700000005
 31
0.0
  0
LINE
  5
8E
  8
SLD-0_4
  6
PHANTOM
 62
     7
 10
-12.4538238900000007
 20
-77.1317614200000037
 30
0.0
 11
-12.4538238900000007
 21
-80.5975885400000038
 31
0.0
  0
LINE
  5
8F
  8
SLD-0_4
  6
PHANTOM
 62
     7
 10
-143.4427164999999889
 20
-69.9589062900000016
 30
0.0
 11
-144.1720620600000018
 21
-69.9589062900000016
 31
0.0
  0
LINE
  5
90
  8
SLD-0_4
  6
PHANTOM
 62
     7
 10
-151.4272317699999917
 20
-61.2144167800000005
 30
0.0
 11
-151.4272317699999917
 21
-69.9589062900000016
 31
0.0
  0
LINE
  5
91
  8
SLD-0_4
  6
PHANTOM
 62
     7
 10
-142.009868339999997
 20
-61.2144167800000005
 30
0.0
 11
-141.2881799600000079
 21
-61.2144167800000005
 31
0.0
  0
LINE
  5
92
  8
SLD-0_4
  6
PHANTOM
 62
     7
 10
-165.2388543200000015
 20
-61.2144167800000005
 30
0.0
 11
-165.2388543200000015
 21
-60.4927283900000035
 31
0.0
  0
LINE
  5
93
  8
SLD-0_4
  6
PHANTOM
 62
     7
 10
-173.9441008299999964
 20
-69.9589062900000016
 30
0.0
 11
-173.9441008299999964
 21
-61.2144167800000005
 31
0.0
  0
LINE
  5
94
  8
SLD-0_4
  6
PHANTOM
 62
     7
 10
4.0837516100000002
 20
-112.4887494299999986
 30
0.0
 11
4.0837516100000002
 21
-108.7836357300000003
 31
0.0
  0
LINE
  5
95
  8
SLD-0_4
  6
PHANTOM
 62
     7
 10
4.0837516100000002
 20
-128.5448802999999884
 30
0.0
 11
-3.3264758200000002
 21
-128.5448802999999884
 31
0.0
  0
LINE
  5
96
  8
SLD-0_4
  6
PHANTOM
 62
     7
 10
-0.4263222300000001
 20
-58.6310786499999921
 30
0.0
 11
3.1728739400000001
 21
-65.4925956000000014
 31
0.0
  0
LINE
  5
97
  8
SLD-0_4
  6
PHANTOM
 62
     7
 10
-0.93169553
 20
-108.8391502099999997
 30
0.0
 11
-0.93169553
 21
-112.4868351399999966
 31
0.0
  0
LINE
  5
98
  8
SLD-0_4
  6
PHANTOM
 62
     7
 10
-26.8352138999999994
 20
-142.4925955999999871
 30
0.0
 11
-26.8352138999999994
 21
-68.4925955999999871
 31
0.0
  0
LINE
  5
99
  8
SLD-0_4
  6
PHANTOM
 62
     7
 10
-9.2473834499999992
 20
-58.6310786499999921
 30
0.0
 11
-9.2473834499999992
 21
-65.4925956000000014
 31
0.0
  0
LINE
  5
9A
  8
SLD-0_4
  6
PHANTOM
 62
     7
 10
-16.8394687000000012
 20
-84.2692021200000028
 30
0.0
 11
-24.3588108100000014
 21
-84.2692021200000028
 31
0.0
  0
LINE
  5
9B
  8
SLD-0_4
  6
PHANTOM
 62
     7
 10
-5.9452283699999988
 20
-108.166276289999999
 30
0.0
 11
-5.9452283699999988
 21
-132.9008535600000016
 31
0.0
  0
LINE
  5
9C
  8
SLD-0_4
  6
PHANTOM
 62
     7
 10
-133.3027075400000001
 20
-61.2144167800000005
 30
0.0
 11
-133.3027075400000001
 21
-60.4927283900000035
 31
0.0
  0
LINE
  5
9D
  8
SLD-0_4
  6
PHANTOM
 62
     7
 10
-144.1720620600000018
 20
-69.9589062900000016
 30
0.0
 11
-144.1720620600000018
 21
-70.9926244100000048
 31
0.0
  0
LINE
  5
9E
  8
SLD-0_4
  6
PHANTOM
 62
     7
 10
-160.1401354500000025
 20
-60.4927283900000035
 30
0.0
 11
-160.1401354500000025
 21
-61.2144167800000005
 31
0.0
  0
LINE
  5
9F
  8
SLD-0_4
  6
PHANTOM
 62
     7
 10
-142.009868339999997
 20
-69.9589062900000016
 30
0.0
 11
-142.009868339999997
 21
-61.2144167800000005
 31
0.0
  0
LINE
  5
A0
  8
SLD-0_4
  6
PHANTOM
 62
     7
 10
-149.2726952200000028
 20
-70.9926244100000048
 30
0.0
 11
-149.2726952200000028
 21
-69.9589062900000016
 31
0.0
  0
LINE
  5
A1
  8
SLD-0_4
  6
PHANTOM
 62
     7
 10
-157.9779417299999977
 20
-61.2144167800000005
 30
0.0
 11
-157.2562533500000086
 21
-61.2144167800000005
 31
0.0
  0
LINE
  5
A2
  8
SLD-0_4
  6
PHANTOM
 62
     7
 10
-173.2224124500000073
 20
-69.9589062900000016
 30
0.0
 11
-173.9441008299999964
 21
-69.9589062900000016
 31
0.0
  0
LINE
  5
A3
  8
SLD-0_4
  6
PHANTOM
 62
     7
 10
-134.0243959299999972
 20
-69.9589062900000016
 30
0.0
 11
-134.0243959299999972
 21
-61.2144167800000005
 31
0.0
  0
LINE
  5
A4
  8
SLD-0_4
  6
PHANTOM
 62
     7
 10
-159.4107898899999896
 20
-69.9589062900000016
 30
0.0
 11
-160.1401354500000025
 21
-69.9589062900000016
 31
0.0
  0
LINE
  5
A5
  8
SLD-0_4
  6
PHANTOM
 62
     7
 10
-149.2726952200000028
 20
-69.9589062900000016
 30
0.0
 11
-149.9943836099999999
 21
-69.9589062900000016
 31
0.0
  0
LINE
  5
A6
  8
SLD-0_4
  6
PHANTOM
 62
     7
 10
-24.3990109599999982
 20
-72.7231451100000044
 30
0.0
 11
-11.6364208599999994
 21
-72.7231451100000044
 31
0.0
  0
LINE
  5
A7
  8
SLD-0_4
  6
PHANTOM
 62
     7
 10
9.8687444499999994
 20
-132.9008535600000016
 30
0.0
 11
9.8687444499999994
 21
-108.166276289999999
 31
0.0
  0
LINE
  5
A8
  8
SLD-0_4
  6
PHANTOM
 62
     7
 10
-3.3264758200000002
 20
-108.7836357300000003
 30
0.0
 11
-3.3264758200000002
 21
-112.4887494299999986
 31
0.0
  0
LINE
  5
A9
  8
SLD-0_4
  6
PHANTOM
 62
     7
 10
-3.3264758200000002
 20
-132.2499940099999947
 30
0.0
 11
4.0837516100000002
 21
-132.2499940099999947
 31
0.0
  0
LINE
  5
AA
  8
SLD-0_4
  6
PHANTOM
 62
     7
 10
-16.8337258200000015
 20
-75.2270400799999948
 30
0.0
 11
-14.6322890999999995
 21
-75.2270400799999948
 31
0.0
  0
LINE
  5
AB
  8
SLD-0_4
  6
PHANTOM
 62
     7
 10
-151.4272317699999917
 20
-69.9589062900000016
 30
0.0
 11
-152.1565773300000046
 21
-69.9589062900000016
 31
0.0
  0
LINE
  5
AC
  8
SLD-0_4
  6
PHANTOM
 62
     7
 10
-160.1401354500000025
 20
-61.2144167800000005
 30
0.0
 11
-159.4107898899999896
 21
-61.2144167800000005
 31
0.0
  0
LINE
  5
AD
  8
SLD-0_4
  6
PHANTOM
 62
     7
 10
-141.2881799600000079
 20
-61.2144167800000005
 30
0.0
 11
-141.2881799600000079
 21
-60.4927283900000035
 31
0.0
  0
LINE
  5
AE
  8
SLD-0_4
  6
PHANTOM
 62
     7
 10
-24.3990109599999982
 20
-85.0435335600000144
 30
0.0
 11
-24.3990109599999982
 21
-72.7231451100000044
 31
0.0
  0
LINE
  5
AF
  8
SLD-0_4
  6
PHANTOM
 62
     7
 10
4.0837516100000002
 20
-123.6050477200000017
 30
0.0
 11
-3.3264758200000002
 21
-123.6050477200000017
 31
0.0
  0
LINE
  5
B0
  8
SLD-0_4
  6
PHANTOM
 62
     7
 10
-14.6322890999999995
 20
-75.2270400799999948
 30
0.0
 11
-14.6227176300000004
 21
-77.1317614200000037
 31
0.0
  0
LINE
  5
B1
  8
SLD-0_4
  6
PHANTOM
 62
     7
 10
-133.3027075400000001
 20
-60.4927283900000035
 30
0.0
 11
-176.1082088400000032
 21
-60.4927283900000035
 31
0.0
  0
LINE
  5
B2
  8
SLD-0_4
  6
PHANTOM
 62
     7
 10
-160.1401354500000025
 20
-69.9589062900000016
 30
0.0
 11
-160.1401354500000025
 21
-70.9926244100000048
 31
0.0
  0
LINE
  5
B3
  8
SLD-0_4
  6
PHANTOM
 62
     7
 10
-157.2562533500000086
 20
-69.9589062900000016
 30
0.0
 11
-157.9779417299999977
 21
-69.9589062900000016
 31
0.0
  0
LINE
  5
B4
  8
SLD-0_4
  6
PHANTOM
 62
     7
 10
-157.9779417299999977
 20
-69.9589062900000016
 30
0.0
 11
-157.9779417299999977
 21
-61.2144167800000005
 31
0.0
  0
LINE
  5
B5
  8
SLD-0_4
  6
PHANTOM
 62
     7
 10
-173.2224124500000073
 20
-70.9926244100000048
 30
0.0
 11
-173.2224124500000073
 21
-69.9589062900000016
 31
0.0
  0
LINE
  5
B6
  8
SLD-0_4
  6
PHANTOM
 62
     7
 10
-11.6364208599999994
 20
-72.7231451100000044
 30
0.0
 11
-11.6364208599999994
 21
-85.0435335600000144
 31
0.0
  0
LINE
  5
B7
  8
SLD-0_4
  6
PHANTOM
 62
     7
 10
-28.8352138999999994
 20
-145.4925955999999871
 30
0.0
 11
19.1647861000000006
 21
-145.4925955999999871
 31
0.0
  0
LINE
  5
B8
  8
SLD-0_4
  6
PHANTOM
 62
     7
 10
-9.2473834499999992
 20
-152.3541125499999964
 30
0.0
 11
-9.2473834499999992
 21
-145.4925955999999871
 31
0.0
  0
LINE
  5
B9
  8
SLD-0_4
  6
PHANTOM
 62
     7
 10
-3.3264758200000002
 20
-127.3082471599999934
 30
0.0
 11
4.0837516100000002
 21
-127.3082471599999934
 31
0.0
  0
LINE
  5
BA
  8
SLD-0_4
  6
PHANTOM
 62
     7
 10
4.0837516100000002
 20
-132.2499940099999947
 30
0.0
 11
4.0837516100000002
 21
-128.5448802999999884
 31
0.0
  0
LINE
  5
BB
  8
SLD-0_4
  6
PHANTOM
 62
     7
 10
-14.6227176300000004
 20
-80.5822741900000068
 30
0.0
 11
-14.6322890999999995
 21
-82.5405957300000068
 31
0.0
  0
LINE
  5
BC
  8
SLD-0_4
  6
PHANTOM
 62
     7
 10
4.0837516100000002
 20
-108.7836357300000003
 30
0.0
 11
-3.3264758200000002
 21
-108.7836357300000003
 31
0.0
  0
LINE
  5
BD
  8
SLD-0_4
  6
PHANTOM
 62
     7
 10
-152.1565773300000046
 20
-69.9589062900000016
 30
0.0
 11
-152.1565773300000046
 21
-70.9926244100000048
 31
0.0
  0
LINE
  5
BE
  8
SLD-0_4
  6
PHANTOM
 62
     7
 10
-157.2562533500000086
 20
-61.2144167800000005
 30
0.0
 11
-157.2562533500000086
 21
-60.4927283900000035
 31
0.0
  0
LINE
  5
BF
  8
SLD-0_4
  6
PHANTOM
 62
     7
 10
-21.1648658800000007
 20
-230.5222751199999891
 30
0.0
 11
-24.2358476699999983
 21
-230.5222751199999891
 31
0.0
  0
LINE
  5
C0
  8
SLD-0_4
  6
PHANTOM
 62
     7
 10
-134.0243959299999972
 20
-61.2144167800000005
 30
0.0
 11
-133.3027075400000001
 21
-61.2144167800000005
 31
0.0
  0
LINE
  5
C1
  8
SLD-0_4
  6
PHANTOM
 62
     7
 10
-144.1720620600000018
 20
-61.2144167800000005
 30
0.0
 11
-143.4427164999999889
 21
-61.2144167800000005
 31
0.0
  0
LINE
  5
C2
  8
SLD-0_4
  6
PHANTOM
 62
     7
 10
-29.4936472599999995
 20
-230.9635532599999976
 30
0.0
 11
-29.5435731000000104
 21
-231.0460991999999862
 31
0.0
  0
LINE
  5
C3
  8
SLD-0_4
  6
PHANTOM
 62
     7
 10
-17.5312614700000005
 20
-230.5222751199999891
 30
0.0
 11
-21.1648658800000007
 21
-230.5222751199999891
 31
0.0
  0
LINE
  5
C4
  8
SLD-0_4
  6
PHANTOM
 62
     7
 10
17.2810130400000013
 20
-230.5222751199999891
 30
0.0
 11
14.9133095200000003
 21
-230.5222751199999891
 31
0.0
  0
LINE
  5
C5
  8
SLD-0_4
  6
PHANTOM
 62
     7
 10
8.2087233200000007
 20
-230.5222751199999891
 30
0.0
 11
4.1531519499999989
 21
-230.5222751199999891
 31
0.0
  0
LINE
  5
C6
  8
SLD-0_4
  6
PHANTOM
 62
     7
 10
-26.603551190000001
 20
-230.5222751199999891
 30
0.0
 11
-28.1273207800000016
 21
-230.5222751199999891
 31
0.0
  0
LINE
  5
C7
  8
SLD-0_4
  6
PHANTOM
 62
     7
 10
-28.6665007900000006
 20
-230.5222751199999891
 30
0.0
 11
-28.7685555899999983
 21
-230.5274408200000096
 31
0.0
  0
LINE
  5
C8
  8
SLD-0_4
  6
PHANTOM
 62
     7
 10
19.9026482400000013
 20
-230.6931818399999941
 30
0.0
 11
19.8204257199999994
 21
-230.6430517599999916
 31
0.0
  0
LINE
  5
C9
  8
SLD-0_4
  6
PHANTOM
 62
     7
 10
20.3361864899999993
 20
-231.4210370000000125
 30
0.0
 11
20.3211455500000007
 21
-231.3215933200000052
 31
0.0
  0
LINE
  5
CA
  8
SLD-0_4
  6
PHANTOM
 62
     7
 10
18.8047826299999983
 20
-230.5222751199999891
 30
0.0
 11
17.2810130400000013
 21
-230.5222751199999891
 31
0.0
  0
LINE
  5
CB
  8
SLD-0_4
  6
PHANTOM
 62
     7
 10
20.3211455500000007
 20
-231.3215933200000052
 30
0.0
 11
20.2966771000000001
 21
-231.2256211600000029
 31
0.0
  0
LINE
  5
CC
  8
SLD-0_4
  6
PHANTOM
 62
     7
 10
20.0500973999999985
 20
-230.8154012100000045
 30
0.0
 11
19.9793690400000017
 21
-230.7507989700000053
 31
0.0
  0
LINE
  5
CD
  8
SLD-0_4
  6
PHANTOM
 62
     7
 10
19.7331922000000013
 20
-230.6009106799999984
 30
0.0
 11
19.6414384099999992
 21
-230.5672605400000066
 31
0.0
  0
LINE
  5
CE
  8
SLD-0_4
  6
PHANTOM
 62
     7
 10
19.9793690400000017
 20
-230.7507989700000053
 30
0.0
 11
19.9026482400000013
 21
-230.6931818399999941
 31
0.0
  0
LINE
  5
CF
  8
SLD-0_4
  6
PHANTOM
 62
     7
 10
-5.9572453000000003
 20
-220.4929855999999972
 30
0.0
 11
-5.9572453000000003
 21
-230.5318465899999865
 31
0.0
  0
LINE
  5
D0
  8
SLD-0_4
  6
PHANTOM
 62
     7
 10
-24.2358476699999983
 20
-230.5222751199999891
 30
0.0
 11
-26.603551190000001
 21
-230.5222751199999891
 31
0.0
  0
LINE
  5
D1
  8
SLD-0_4
  6
PHANTOM
 62
     7
 10
20.1716138600000008
 20
-230.9635532599999976
 30
0.0
 11
20.1143425799999989
 21
-230.8864866199999994
 31
0.0
  0
LINE
  5
D2
  8
SLD-0_4
  6
PHANTOM
 62
     7
 10
-28.8676436099999982
 20
-230.5426032700000007
 30
0.0
 11
-28.9632657100000017
 21
-230.5672605400000066
 31
0.0
  0
LINE
  5
D3
  8
SLD-0_4
  6
PHANTOM
 62
     7
 10
20.2214205299999996
 20
-231.0460991999999862
 30
0.0
 11
20.1716138600000008
 21
-230.9635532599999976
 31
0.0
  0
LINE
  5
D4
  8
SLD-0_4
  6
PHANTOM
 62
     7
 10
11.8423277299999992
 20
-230.5222751199999891
 30
0.0
 11
8.2087233200000007
 21
-230.5222751199999891
 31
0.0
  0
LINE
  5
D5
  8
SLD-0_4
  6
PHANTOM
 62
     7
 10
-0.18373074
 20
-230.5222751199999891
 30
0.0
 11
-4.6612690700000003
 21
-230.5222751199999891
 31
0.0
  0
LINE
  5
D6
  8
SLD-0_4
  6
PHANTOM
 62
     7
 10
19.5456550699999987
 20
-230.5426032700000007
 30
0.0
 11
19.4463329000000016
 21
-230.5274408200000096
 31
0.0
  0
LINE
  5
D7
  8
SLD-0_4
  6
PHANTOM
 62
     7
 10
9.8567275199999997
 20
-230.5318465899999865
 30
0.0
 11
9.8567275199999997
 21
-220.4929855999999972
 31
0.0
  0
LINE
  5
D8
  8
SLD-0_4
  6
PHANTOM
 62
     7
 10
-29.4362624100000012
 20
-230.8864866199999994
 30
0.0
 11
-29.4936472599999995
 21
-230.9635532599999976
 31
0.0
  0
LINE
  5
D9
  8
SLD-0_4
  6
PHANTOM
 62
     7
 10
-13.4756900900000005
 20
-230.5222751199999891
 30
0.0
 11
-17.5312614700000005
 21
-230.5222751199999891
 31
0.0
  0
LINE
  5
DA
  8
SLD-0_4
  6
PHANTOM
 62
     7
 10
-28.7685555899999983
 20
-230.5274408200000096
 30
0.0
 11
-28.8676436099999982
 21
-230.5426032700000007
 31
0.0
  0
LINE
  5
DB
  8
SLD-0_4
  6
PHANTOM
 62
     7
 10
19.6414384099999992
 20
-230.5672605400000066
 30
0.0
 11
19.5456550699999987
 21
-230.5426032700000007
 31
0.0
  0
LINE
  5
DC
  8
SLD-0_4
  6
PHANTOM
 62
     7
 10
-29.0549227600000002
 20
-230.6009106799999984
 30
0.0
 11
-29.1421156199999984
 21
-230.6430517599999916
 31
0.0
  0
LINE
  5
DD
  8
SLD-0_4
  6
PHANTOM
 62
     7
 10
-29.5855408000000004
 20
-231.1336224800000139
 30
0.0
 11
-29.6190512000000012
 21
-231.2256211600000029
 31
0.0
  0
LINE
  5
DE
  8
SLD-0_4
  6
PHANTOM
 62
     7
 10
14.9133095200000003
 20
-230.5222751199999891
 30
0.0
 11
11.8423277299999992
 21
-230.5222751199999891
 31
0.0
  0
LINE
  5
DF
  8
SLD-0_4
  6
PHANTOM
 62
     7
 10
20.2966771000000001
 20
-231.2256211600000029
 30
0.0
 11
20.2632718499999989
 21
-231.1336224800000139
 31
0.0
  0
LINE
  5
E0
  8
SLD-0_4
  6
PHANTOM
 62
     7
 10
20.2632718499999989
 20
-231.1336224800000139
 30
0.0
 11
20.2214205299999996
 21
-231.0460991999999862
 31
0.0
  0
LINE
  5
E1
  8
SLD-0_4
  6
PHANTOM
 62
     7
 10
-9.1388074100000001
 20
-230.5222751199999891
 30
0.0
 11
-13.4756900900000005
 21
-230.5222751199999891
 31
0.0
  0
LINE
  5
E2
  8
SLD-0_4
  6
PHANTOM
 62
     7
 10
-29.2243451500000013
 20
-230.6931818399999941
 30
0.0
 11
-29.3011122200000003
 21
-230.7507989700000053
 31
0.0
  0
LINE
  5
E3
  8
SLD-0_4
  6
PHANTOM
 62
     7
 10
19.4463329000000016
 20
-230.5274408200000096
 30
0.0
 11
19.3439626400000009
 21
-230.5222751199999891
 31
0.0
  0
LINE
  5
E4
  8
SLD-0_4
  6
PHANTOM
 62
     7
 10
-29.3719176799999993
 20
-230.8154012100000045
 30
0.0
 11
-29.4362624100000012
 21
-230.8864866199999994
 31
0.0
  0
LINE
  5
E5
  8
SLD-0_4
  6
PHANTOM
 62
     7
 10
-28.1273207800000016
 20
-230.5222751199999891
 30
0.0
 11
-28.6665007900000006
 21
-230.5222751199999891
 31
0.0
  0
LINE
  5
E6
  8
SLD-0_4
  6
PHANTOM
 62
     7
 10
-29.1421156199999984
 20
-230.6430517599999916
 30
0.0
 11
-29.2243451500000013
 21
-230.6931818399999941
 31
0.0
  0
LINE
  5
E7
  8
SLD-0_4
  6
PHANTOM
 62
     7
 10
-29.3011122200000003
 20
-230.7507989700000053
 30
0.0
 11
-29.3719176799999993
 21
-230.8154012100000045
 31
0.0
  0
LINE
  5
E8
  8
SLD-0_4
  6
PHANTOM
 62
     7
 10
-5.9572453000000003
 20
-220.4929855999999972
 30
0.0
 11
9.8567275199999997
 21
-220.4929855999999972
 31
0.0
  0
LINE
  5
E9
  8
SLD-0_4
  6
PHANTOM
 62
     7
 10
20.1143425799999989
 20
-230.8864866199999994
 30
0.0
 11
20.0500973999999985
 21
-230.8154012100000045
 31
0.0
  0
LINE
  5
EA
  8
SLD-0_4
  6
PHANTOM
 62
     7
 10
-29.5435731000000104
 20
-231.0460991999999862
 30
0.0
 11
-29.5855408000000004
 21
-231.1336224800000139
 31
0.0
  0
LINE
  5
EB
  8
SLD-0_4
  6
PHANTOM
 62
     7
 10
-29.6190512000000012
 20
-231.2256211600000029
 30
0.0
 11
-29.6436051899999988
 21
-231.3215933200000052
 31
0.0
  0
LINE
  5
EC
  8
SLD-0_4
  6
PHANTOM
 62
     7
 10
-28.9632657100000017
 20
-230.5672605400000066
 30
0.0
 11
-29.0549227600000002
 21
-230.6009106799999984
 31
0.0
  0
LINE
  5
ED
  8
SLD-0_4
  6
PHANTOM
 62
     7
 10
19.3439626400000009
 20
-230.5222751199999891
 30
0.0
 11
18.8047826299999983
 21
-230.5222751199999891
 31
0.0
  0
LINE
  5
EE
  8
SLD-0_4
  6
PHANTOM
 62
     7
 10
-4.6612690700000003
 20
-230.5222751199999891
 30
0.0
 11
-9.1388074100000001
 21
-230.5222751199999891
 31
0.0
  0
LINE
  5
EF
  8
SLD-0_4
  6
PHANTOM
 62
     7
 10
4.1531519499999989
 20
-230.5222751199999891
 30
0.0
 11
-0.18373074
 21
-230.5222751199999891
 31
0.0
  0
LINE
  5
F0
  8
SLD-0_4
  6
PHANTOM
 62
     7
 10
-29.6587036099999999
 20
-231.4210370000000125
 30
0.0
 11
-29.6638473400000002
 21
-231.5234502600000042
 31
0.0
  0
LINE
  5
F1
  8
SLD-0_4
  6
PHANTOM
 62
     7
 10
20.3413091900000005
 20
-231.5234502600000042
 30
0.0
 11
20.3361864899999993
 21
-231.4210370000000125
 31
0.0
  0
LINE
  5
F2
  8
SLD-0_4
  6
PHANTOM
 62
     7
 10
-29.6638473400000002
 20
-231.5234502600000042
 30
0.0
 11
-29.6638473400000002
 21
-336.4926128899999753
 31
0.0
  0
LINE
  5
F3
  8
SLD-0_4
  6
PHANTOM
 62
     7
 10
-29.6436051899999988
 20
-231.3215933200000052
 30
0.0
 11
-29.6587036099999999
 21
-231.4210370000000125
 31
0.0
  0
LINE
  5
F4
  8
SLD-0_4
  6
PHANTOM
 62
     7
 10
-5.9572453000000003
 20
-230.5318465899999865
 30
0.0
 11
9.8567275199999997
 21
-230.5318465899999865
 31
0.0
  0
LINE
  5
F5
  8
SLD-0_4
  6
PHANTOM
 62
     7
 10
20.3413091900000005
 20
-336.4926128899999753
 30
0.0
 11
20.3413091900000005
 21
-231.5234502600000042
 31
0.0
  0
LINE
  5
F6
  8
SLD-0_4
  6
PHANTOM
 62
     7
 10
19.8204257199999994
 20
-230.6430517599999916
 30
0.0
 11
19.7331922000000013
 21
-230.6009106799999984
 31
0.0
  0
LINE
  5
F7
  8
SLD-0_4
  6
PHANTOM
 62
     7
 10
-129.6306614199999956
 20
-155.4925955999999871
 30
0.0
 11
-129.6306614199999956
 21
-55.4925956000000014
 31
0.0
  0
CIRCLE
  5
F8
  8
SLD-0_4
  6
PHANTOM
 62
     7
 10
-162.683547190000013
 20
-65.6445135000000022
 30
0.0
 40
2.6164181399999991
  0
CIRCLE
  5
F9
  8
SLD-0_4
  6
PHANTOM
 62
     7
 10
-154.6999890699999867
 20
-65.6445135000000022
 30
0.0
 40
2.6164181399999991
  0
CIRCLE
  5
FA
  8
SLD-0_4
  6
PHANTOM
 62
     7
 10
-146.7154738000000123
 20
-65.6445135000000022
 30
0.0
 40
2.6164181399999991
  0
CIRCLE
  5
FB
  8
SLD-0_4
  6
PHANTOM
 62
     7
 10
-138.731915679999986
 20
-65.6445135000000022
 30
0.0
 40
2.6164181399999991
  0
ARC
  5
FC
  8
SLD-0_4
  6
PHANTOM
 62
     7
 10
19.1647861000000006
 20
-144.4925955999999871
 30
0.0
 40
1.0
 50
270.0
 51
360.0
  0
CIRCLE
  5
FD
  8
SLD-0_4
  6
PHANTOM
 62
     7
 10
-4.8352139000000003
 20
-148.9351599899999883
 30
0.0
 40
2.50017756
  0
ARC
  5
FE
  8
SLD-0_4
  6
PHANTOM
 62
     7
 10
19.1647861000000006
 20
-66.4925956000000014
 30
0.0
 40
1.0
 50
0.0
 51
90.0
  0
ARC
  5
FF
  8
SLD-0_4
  6
PHANTOM
 62
     7
 10
-28.8352138999999994
 20
-144.4925955999999871
 30
0.0
 40
1.0
 50
180.0
 51
270.0
  0
CIRCLE
  5
100
  8
SLD-0_4
  6
PHANTOM
 62
     7
 10
-4.8352139000000003
 20
-62.050031220000001
 30
0.0
 40
2.50017756
  0
ARC
  5
101
  8
SLD-0_4
  6
PHANTOM
 62
     7
 10
-28.8352138999999994
 20
-66.4925956000000014
 30
0.0
 40
1.0
 50
90.0
 51
180.0
  0
LINE
  5
102
  8
SLD-0_4
  6
CONTINUOUS
 62
     7
 10
47.8574202900000003
 20
-133.9925955999999871
 30
0.0
 11
50.3574202900000003
 21
-136.4925955999999871
 31
0.0
  0
LINE
  5
103
  8
SLD-0_4
  6
CONTINUOUS
 62
     7
 10
47.8574202900000003
 20
-155.4925955999999871
 30
0.0
 11
-197.1425797100000068
 21
-155.4925955999999871
 31
0.0
  0
LINE
  5
104
  8
SLD-0_4
  6
CONTINUOUS
 62
     7
 10
50.3574202900000003
 20
-152.9925955999999871
 30
0.0
 11
50.3574202900000003
 21
-136.4925955999999871
 31
0.0
  0
LINE
  5
105
  8
SLD-0_4
  6
CONTINUOUS
 62
     7
 10
50.3574202900000003
 20
-124.4925956000000014
 30
0.0
 11
50.3574202900000003
 21
-86.4925955999999871
 31
0.0
  0
LINE
  5
106
  8
SLD-0_4
  6
CONTINUOUS
 62
     7
 10
-197.1425797100000068
 20
-133.9925955999999871
 30
0.0
 11
-199.6425797100000068
 21
-136.4925955999999871
 31
0.0
  0
LINE
  5
107
  8
SLD-0_4
  6
CONTINUOUS
 62
     7
 10
40.3574202900000003
 20
-76.9925955999999729
 30
0.0
 11
47.8574202900000003
 21
-76.9925955999999729
 31
0.0
  0
LINE
  5
108
  8
SLD-0_4
  6
CONTINUOUS
 62
     7
 10
47.8574202900000003
 20
-83.9925955999999871
 30
0.0
 11
50.3574202900000003
 21
-86.4925955999999871
 31
0.0
  0
LINE
  5
109
  8
SLD-0_4
  6
CONTINUOUS
 62
     7
 10
-197.1425797100000068
 20
-76.9925955999999729
 30
0.0
 11
-199.6425797100000068
 21
-74.4925955999999729
 31
0.0
  0
LINE
  5
10A
  8
SLD-0_4
  6
CONTINUOUS
 62
     7
 10
-197.1425797100000068
 20
-126.9925956000000014
 30
0.0
 11
-199.6425797100000068
 21
-124.4925956000000014
 31
0.0
  0
LINE
  5
10B
  8
SLD-0_4
  6
CONTINUOUS
 62
     7
 10
-197.1425797100000068
 20
-155.4925955999999871
 30
0.0
 11
-199.6425797100000068
 21
-152.9925955999999871
 31
0.0
  0
LINE
  5
10C
  8
SLD-0_4
  6
CONTINUOUS
 62
     7
 10
40.3574202900000003
 20
-83.9925955999999871
 30
0.0
 11
47.8574202900000003
 21
-83.9925955999999871
 31
0.0
  0
LINE
  5
10D
  8
SLD-0_4
  6
CONTINUOUS
 62
     7
 10
40.3574202900000003
 20
-126.9925956000000014
 30
0.0
 11
47.8574202900000003
 21
-126.9925956000000014
 31
0.0
  0
LINE
  5
10E
  8
SLD-0_4
  6
CONTINUOUS
 62
     7
 10
47.8574202900000003
 20
-126.9925956000000014
 30
0.0
 11
50.3574202900000003
 21
-124.4925956000000014
 31
0.0
  0
LINE
  5
10F
  8
SLD-0_4
  6
CONTINUOUS
 62
     7
 10
-199.6425797100000068
 20
-124.4925956000000014
 30
0.0
 11
-199.6425797100000068
 21
-86.4925955999999871
 31
0.0
  0
LINE
  5
110
  8
SLD-0_4
  6
CONTINUOUS
 62
     7
 10
50.3574202900000003
 20
-74.4925955999999729
 30
0.0
 11
50.3574202900000003
 21
-57.9925956000000014
 31
0.0
  0
LINE
  5
111
  8
SLD-0_4
  6
CONTINUOUS
 62
     7
 10
30.3574202900000003
 20
-155.4925955999999871
 30
0.0
 11
30.3574202900000003
 21
-55.4925956000000014
 31
0.0
  0
LINE
  5
112
  8
SLD-0_4
  6
CONTINUOUS
 62
     7
 10
40.3574202900000003
 20
-133.9925955999999871
 30
0.0
 11
47.8574202900000003
 21
-133.9925955999999871
 31
0.0
  0
LINE
  5
113
  8
SLD-0_4
  6
CONTINUOUS
 62
     7
 10
-189.6425797100000068
 20
-83.9925955999999871
 30
0.0
 11
-197.1425797100000068
 21
-83.9925955999999871
 31
0.0
  0
LINE
  5
114
  8
SLD-0_4
  6
CONTINUOUS
 62
     7
 10
-189.6425797100000068
 20
-126.9925956000000014
 30
0.0
 11
-197.1425797100000068
 21
-126.9925956000000014
 31
0.0
  0
LINE
  5
115
  8
SLD-0_4
  6
CONTINUOUS
 62
     7
 10
-199.6425797100000068
 20
-57.9925956000000014
 30
0.0
 11
-197.1425797100000068
 21
-55.4925956000000014
 31
0.0
  0
LINE
  5
116
  8
SLD-0_4
  6
CONTINUOUS
 62
     7
 10
-199.6425797100000068
 20
-152.9925955999999871
 30
0.0
 11
-199.6425797100000068
 21
-136.4925955999999871
 31
0.0
  0
LINE
  5
117
  8
SLD-0_4
  6
CONTINUOUS
 62
     7
 10
47.8574202900000003
 20
-155.4925955999999871
 30
0.0
 11
50.3574202900000003
 21
-152.9925955999999871
 31
0.0
  0
LINE
  5
118
  8
SLD-0_4
  6
CONTINUOUS
 62
     7
 10
-189.6425797100000068
 20
-76.9925955999999729
 30
0.0
 11
-197.1425797100000068
 21
-76.9925955999999729
 31
0.0
  0
LINE
  5
119
  8
SLD-0_4
  6
CONTINUOUS
 62
     7
 10
-197.1425797100000068
 20
-83.9925955999999871
 30
0.0
 11
-199.6425797100000068
 21
-86.4925955999999871
 31
0.0
  0
LINE
  5
11A
  8
SLD-0_4
  6
CONTINUOUS
 62
     7
 10
47.8574202900000003
 20
-55.4925956000000014
 30
0.0
 11
-197.1425797100000068
 21
-55.4925956000000014
 31
0.0
  0
LINE
  5
11B
  8
SLD-0_4
  6
CONTINUOUS
 62
     7
 10
50.3574202900000003
 20
-57.9925956000000014
 30
0.0
 11
47.8574202900000003
 21
-55.4925956000000014
 31
0.0
  0
LINE
  5
11C
  8
SLD-0_4
  6
CONTINUOUS
 62
     7
 10
-189.6425797100000068
 20
-133.9925955999999871
 30
0.0
 11
-197.1425797100000068
 21
-133.9925955999999871
 31
0.0
  0
LINE
  5
11D
  8
SLD-0_4
  6
CONTINUOUS
 62
     7
 10
47.8574202900000003
 20
-76.9925955999999729
 30
0.0
 11
50.3574202900000003
 21
-74.4925955999999729
 31
0.0
  0
LINE
  5
11E
  8
SLD-0_4
  6
CONTINUOUS
 62
     7
 10
-199.6425797100000068
 20
-74.4925955999999729
 30
0.0
 11
-199.6425797100000068
 21
-57.9925956000000014
 31
0.0
  0
LINE
  5
11F
  8
SLD-0_4
  6
CONTINUOUS
 62
     7
 10
-129.7036206900000082
 20
-339.4940760999999725
 30
0.0
 11
30.3574202900000003
 21
-339.4940760999999725
 31
0.0
  0
LINE
  5
120
  8
SLD-0_4
  6
CONTINUOUS
 62
     7
 10
-127.7043340900000032
 20
-339.4940760999999725
 30
0.0
 11
-127.7043340900000032
 21
-336.4926128899999753
 31
0.0
  0
LINE
  5
121
  8
SLD-0_4
  6
CONTINUOUS
 62
     7
 10
28.342485270000001
 20
-336.4926128899999753
 30
0.0
 11
28.342485270000001
 21
-339.4940760999999725
 31
0.0
  0
LINE
  5
122
  8
SLD-0_4
  6
CONTINUOUS
 62
     7
 10
-127.7043340900000032
 20
-336.4926128899999753
 30
0.0
 11
28.342485270000001
 21
-336.4926128899999753
 31
0.0
  0
LINE
  5
123
  8
SLD-0_4
  6
CONTINUOUS
 62
     7
 10
30.3574202900000003
 20
-339.4940760999999725
 30
0.0
 11
30.3574202900000003
 21
-352.4929855999999972
 31
0.0
  0
LINE
  5
124
  8
SLD-0_4
  6
CONTINUOUS
 62
     7
 10
50.3574202900000003
 20
-350.4929855999999972
 30
0.0
 11
50.3574202900000003
 21
-352.4929855999999972
 31
0.0
  0
LINE
  5
125
  8
SLD-0_4
  6
CONTINUOUS
 62
     7
 10
50.3574202900000003
 20
-350.4929855999999972
 30
0.0
 11
30.3574202900000003
 21
-350.4929855999999972
 31
0.0
  0
LINE
  5
126
  8
SLD-0_4
  6
CONTINUOUS
 62
     7
 10
-129.7036206900000082
 20
-339.4940760999999725
 30
0.0
 11
-129.7036206900000082
 21
-352.4929855999999972
 31
0.0
  0
ARC
  5
127
  8
SLD-0_4
  6
CONTINUOUS
 62
     7
 10
40.3574202900000003
 20
-80.4925955999999871
 30
0.0
 40
3.5
 50
90.0
 51
270.0
  0
ARC
  5
128
  8
SLD-0_4
  6
CONTINUOUS
 62
     7
 10
-189.6425797100000068
 20
-80.4925955999999871
 30
0.0
 40
3.5
 50
270.0
 51
450.0
  0
ARC
  5
129
  8
SLD-0_4
  6
CONTINUOUS
 62
     7
 10
40.3574202900000003
 20
-130.4925955999999871
 30
0.0
 40
3.5
 50
90.0
 51
270.0
  0
ARC
  5
12A
  8
SLD-0_4
  6
CONTINUOUS
 62
     7
 10
-189.6425797100000068
 20
-130.4925955999999871
 30
0.0
 40
3.5
 50
270.0
 51
450.0
  0
LINE
  5
12B
  8
0
  6
CONTINUOUS
 62
     7
 10
-62.7006666699999968
 20
-155.4926071999998953
 30
0.0
 11
-62.7006666699999968
 21
-144.7432751100000132
 31
0.0
  0
LINE
  5
12C
  8
0
  6
CONTINUOUS
 62
     7
 10
-54.0934997399999986
 20
-155.4926071999998953
 30
0.0
 11
-54.0934997399999986
 21
-144.7432751100000132
 31
0.0
  0
LINE
  5
12D
  8
0
  6
CONTINUOUS
 62
     7
 10
-67.0072901000000059
 20
-144.7432751100000132
 30
0.0
 11
-67.0072901000000059
 21
-133.9929297200000065
 31
0.0
  0
LINE
  5
12E
  8
0
  6
CONTINUOUS
 62
     7
 10
-97.1374409600000064
 20
-155.4926071999998953
 30
0.0
 11
-97.1374409600000064
 21
-144.7432751100000132
 31
0.0
  0
LINE
  5
12F
  8
0
  6
CONTINUOUS
 62
     7
 10
-49.7899162799999999
 20
-144.7432751100000132
 30
0.0
 11
-49.7899162799999999
 21
-133.9929297200000065
 31
0.0
  0
LINE
  5
130
  8
0
  6
CONTINUOUS
 62
     7
 10
-101.4420377400000035
 20
-144.7432751100000132
 30
0.0
 11
-101.4420377400000035
 21
-133.9929297200000065
 31
0.0
  0
LINE
  5
131
  8
0
  6
CONTINUOUS
 62
     7
 10
-75.6174969900000065
 20
-144.7432751100000132
 30
0.0
 11
-75.6174969900000065
 21
-133.9929297200000065
 31
0.0
  0
LINE
  5
132
  8
0
  6
CONTINUOUS
 62
     7
 10
-105.7486611700000054
 20
-155.4926071999998953
 30
0.0
 11
-105.7486611700000054
 21
-144.7432751100000132
 31
0.0
  0
LINE
  5
133
  8
0
  6
CONTINUOUS
 62
     7
 10
-71.3108735600000045
 20
-155.4926071999998953
 30
0.0
 11
-71.3108735600000045
 21
-144.7432751100000132
 31
0.0
  0
LINE
  5
134
  8
0
  6
CONTINUOUS
 62
     7
 10
-118.6624515299999985
 20
-155.4926071999998953
 30
0.0
 11
-118.6624515299999985
 21
-144.7432751100000132
 31
0.0
  0
LINE
  5
135
  8
0
  6
CONTINUOUS
 62
     7
 10
-118.6624515299999985
 20
-144.7432751100000132
 30
0.0
 11
-45.4843061700000035
 21
-144.7432751100000132
 31
0.0
  0
LINE
  5
136
  8
0
  6
CONTINUOUS
 62
     7
 10
-79.9210804599999989
 20
-155.4926071999998953
 30
0.0
 11
-79.9210804599999989
 21
-144.7432751100000132
 31
0.0
  0
LINE
  5
137
  8
0
  6
CONTINUOUS
 62
     7
 10
-45.4843061700000035
 20
-144.7432751100000132
 30
0.0
 11
-114.356841419999995
 21
-144.7432751100000132
 31
0.0
  0
LINE
  5
138
  8
0
  6
CONTINUOUS
 62
     7
 10
-110.0522446399999978
 20
-144.7432751100000132
 30
0.0
 11
-110.0522446399999978
 21
-133.9929297200000065
 31
0.0
  0
LINE
  5
139
  8
0
  6
CONTINUOUS
 62
     7
 10
-88.5292607100000026
 20
-155.4926071999998953
 30
0.0
 11
-88.5292607100000026
 21
-144.7432751100000132
 31
0.0
  0
LINE
  5
13A
  8
0
  6
CONTINUOUS
 62
     7
 10
-118.6624515299999985
 20
-133.9929297200000065
 30
0.0
 11
-118.6624515299999985
 21
-144.7432751100000132
 31
0.0
  0
LINE
  5
13B
  8
0
  6
CONTINUOUS
 62
     7
 10
-114.356841419999995
 20
-144.7432751100000132
 30
0.0
 11
-114.356841419999995
 21
-155.4926071999998953
 31
0.0
  0
LINE
  5
13C
  8
0
  6
CONTINUOUS
 62
     7
 10
-84.225677239999996
 20
-144.7432751100000132
 30
0.0
 11
-84.225677239999996
 21
-133.9929297200000065
 31
0.0
  0
LINE
  5
13D
  8
0
  6
CONTINUOUS
 62
     7
 10
-58.4001231700000005
 20
-144.7432751100000132
 30
0.0
 11
-58.4001231700000005
 21
-133.9929297200000065
 31
0.0
  0
LINE
  5
13E
  8
0
  6
CONTINUOUS
 62
     7
 10
-92.8358841400000045
 20
-144.7432751100000132
 30
0.0
 11
-92.8358841400000045
 21
-133.9929297200000065
 31
0.0
  0
LINE
  5
13F
  8
0
  6
CONTINUOUS
 62
     7
 10
-45.4843061700000035
 20
-133.9929297200000065
 30
0.0
 11
-118.6624515299999985
 21
-133.9929297200000065
 31
0.0
  0
LINE
  5
140
  8
0
  6
CONTINUOUS
 62
     7
 10
-45.4843061700000035
 20
-155.4926071999998953
 30
0.0
 11
-45.4843061700000035
 21
-133.9929297200000065
 31
0.0
  0
LINE
  5
141
  8
0
  6
CONTINUOUS
 62
     7
 10
-62.7006666699999968
 20
272.2048584400000095
 30
0.0
 11
-62.7006666699999968
 21
282.9541905300000053
 31
0.0
  0
LINE
  5
142
  8
0
  6
CONTINUOUS
 62
     7
 10
-54.0934997399999986
 20
272.2048584400000095
 30
0.0
 11
-54.0934997399999986
 21
282.9541905300000053
 31
0.0
  0
LINE
  5
143
  8
SLD-0_6
  6
PHANTOM
 62
     7
 10
-48.6425797099999997
 20
-125.4925956000000014
 30
0.0
 11
-66.6425797100000068
 21
-125.4925956000000014
 31
0.0
  0
LINE
  5
144
  8
SLD-0_6
  6
PHANTOM
 62
     7
 10
-105.6425797100000068
 20
-77.4925955999999729
 30
0.0
 11
-123.6425797100000068
 21
-77.4925955999999729
 31
0.0
  0
LINE
  5
145
  8
SLD-0_6
  6
PHANTOM
 62
     7
 10
-86.6425797100000068
 20
-125.4925956000000014
 30
0.0
 11
-86.6425797100000068
 21
-77.4925955999999729
 31
0.0
  0
LINE
  5
146
  8
SLD-0_6
  6
PHANTOM
 62
     7
 10
-67.6425797100000068
 20
-125.4925956000000014
 30
0.0
 11
-85.6425797100000068
 21
-125.4925956000000014
 31
0.0
  0
LINE
  5
147
  8
SLD-0_6
  6
PHANTOM
 62
     7
 10
-48.6425797099999997
 20
-77.4925955999999729
 30
0.0
 11
-66.6425797100000068
 21
-77.4925955999999729
 31
0.0
  0
LINE
  5
148
  8
SLD-0_6
  6
PHANTOM
 62
     7
 10
-67.6425797100000068
 20
-125.4925956000000014
 30
0.0
 11
-67.6425797100000068
 21
-77.4925955999999729
 31
0.0
  0
LINE
  5
149
  8
SLD-0_6
  6
PHANTOM
 62
     7
 10
-66.6425797100000068
 20
-125.4925956000000014
 30
0.0
 11
-66.6425797100000068
 21
-77.4925955999999729
 31
0.0
  0
LINE
  5
14A
  8
SLD-0_6
  6
PHANTOM
 62
     7
 10
-85.6425797100000068
 20
-125.4925956000000014
 30
0.0
 11
-85.6425797100000068
 21
-77.4925955999999729
 31
0.0
  0
LINE
  5
14B
  8
SLD-0_6
  6
PHANTOM
 62
     7
 10
-48.6425797099999997
 20
-125.4925956000000014
 30
0.0
 11
-48.6425797099999997
 21
-77.4925955999999729
 31
0.0
  0
LINE
  5
14C
  8
SLD-0_6
  6
PHANTOM
 62
     7
 10
-105.6425797100000068
 20
-125.4925956000000014
 30
0.0
 11
-105.6425797100000068
 21
-77.4925955999999729
 31
0.0
  0
LINE
  5
14D
  8
SLD-0_6
  6
PHANTOM
 62
     7
 10
-86.6425797100000068
 20
-77.4925955999999729
 30
0.0
 11
-104.6425797100000068
 21
-77.4925955999999729
 31
0.0
  0
LINE
  5
14E
  8
SLD-0_6
  6
PHANTOM
 62
     7
 10
-86.6425797100000068
 20
-125.4925956000000014
 30
0.0
 11
-104.6425797100000068
 21
-125.4925956000000014
 31
0.0
  0
LINE
  5
14F
  8
SLD-0_6
  6
PHANTOM
 62
     7
 10
-105.6425797100000068
 20
-125.4925956000000014
 30
0.0
 11
-123.6425797100000068
 21
-125.4925956000000014
 31
0.0
  0
LINE
  5
150
  8
SLD-0_6
  6
PHANTOM
 62
     7
 10
-123.6425797100000068
 20
-125.4925956000000014
 30
0.0
 11
-123.6425797100000068
 21
-77.4925955999999729
 31
0.0
  0
LINE
  5
151
  8
SLD-0_6
  6
PHANTOM
 62
     7
 10
-67.6425797100000068
 20
-77.4925955999999729
 30
0.0
 11
-85.6425797100000068
 21
-77.4925955999999729
 31
0.0
  0
LINE
  5
152
  8
SLD-0_6
  6
PHANTOM
 62
     7
 10
-104.6425797100000068
 20
-125.4925956000000014
 30
0.0
 11
-104.6425797100000068
 21
-77.4925955999999729
 31
0.0
  0
LINE
  5
153
  8
SLD-0_6
  6
PHANTOM
 62
     7
 10
-55.2704090300000033
 20
-267.2137350500000252
 30
0.0
 11
-55.2704090300000033
 21
-266.9929856100000052
 31
0.0
  0
LINE
  5
154
  8
SLD-0_6
  6
PHANTOM
 62
     7
 10
-108.4727555500000022
 20
-265.4929856100000052
 30
0.0
 11
-110.7704090299999962
 21
-265.4929856100000052
 31
0.0
  0
LINE
  5
155
  8
SLD-0_6
  6
PHANTOM
 62
     7
 10
-49.9727555500000022
 20
-267.2137350500000252
 30
0.0
 11
-49.9727555500000022
 21
-266.9929856100000052
 31
0.0
  0
LINE
  5
156
  8
SLD-0_6
  6
PHANTOM
 62
     7
 10
-105.6425797100000068
 20
-267.1929856000000996
 30
0.0
 11
-123.6425797100000068
 21
-267.1929856000000996
 31
0.0
  0
LINE
  5
157
  8
SLD-0_6
  6
PHANTOM
 62
     7
 10
-105.6425797100000068
 20
-267.1929856000000996
 30
0.0
 11
-105.6425797100000068
 21
-311.9114196699999866
 31
0.0
  0
LINE
  5
158
  8
SLD-0_6
  6
PHANTOM
 62
     7
 10
-112.2704090299999962
 20
-267.2137350500000252
 30
0.0
 11
-112.2704090299999962
 21
-266.9929856100000052
 31
0.0
  0
LINE
  5
159
  8
SLD-0_6
  6
PHANTOM
 62
     7
 10
-106.9727555500000022
 20
-267.2137350500000252
 30
0.0
 11
-106.9727555500000022
 21
-266.9929856100000052
 31
0.0
  0
LINE
  5
15A
  8
SLD-0_6
  6
PHANTOM
 62
     7
 10
-123.6425797100000068
 20
-267.1929856000000996
 30
0.0
 11
-123.6425797100000068
 21
-336.4926128899999753
 31
0.0
  0
LINE
  5
15B
  8
SLD-0_6
  6
PHANTOM
 62
     7
 10
-66.6425797100000068
 20
-267.1929856000000996
 30
0.0
 11
-66.6425797100000068
 21
-311.9114196699999866
 31
0.0
  0
LINE
  5
15C
  8
SLD-0_6
  6
PHANTOM
 62
     7
 10
-48.6425797099999997
 20
-267.1929856000000996
 30
0.0
 11
-66.6425797100000068
 21
-267.1929856000000996
 31
0.0
  0
LINE
  5
15D
  8
SLD-0_6
  6
PHANTOM
 62
     7
 10
-48.6425797099999997
 20
-267.1929856000000996
 30
0.0
 11
-48.6425797099999997
 21
-311.9114196699999866
 31
0.0
  0
LINE
  5
15E
  8
SLD-0_6
  6
PHANTOM
 62
     7
 10
-51.4727555500000022
 20
-265.4929856100000052
 30
0.0
 11
-53.7704090300000104
 21
-265.4929856100000052
 31
0.0
  0
ARC
  5
15F
  8
SLD-0_6
  6
PHANTOM
 62
     7
 10
-51.4727555500000022
 20
-266.9929856100000052
 30
0.0
 40
1.5
 50
0.0
 51
90.0
  0
ARC
  5
160
  8
SLD-0_6
  6
PHANTOM
 62
     7
 10
-108.4727555500000022
 20
-266.9929856100000052
 30
0.0
 40
1.5
 50
0.0
 51
90.0
  0
ARC
  5
161
  8
SLD-0_6
  6
PHANTOM
 62
     7
 10
-53.7704090300000104
 20
-266.9929856100000052
 30
0.0
 40
1.5
 50
90.0
 51
180.0
  0
ARC
  5
162
  8
SLD-0_6
  6
PHANTOM
 62
     7
 10
-110.7704090299999962
 20
-266.9929856100000052
 30
0.0
 40
1.5
 50
90.0
 51
180.0
  0
LINE
  5
163
  8
SLD-0_6
  6
CONTINUOUS
 62
     7
 10
-101.7095699500000023
 20
-55.4868427099999906
 30
0.0
 11
-101.7095699500000023
 21
-67.8072311800000023
 31
0.0
  0
LINE
  5
164
  8
SLD-0_6
  6
CONTINUOUS
 62
     7
 10
-56.7849465199999983
 20
-55.4868427099999906
 30
0.0
 11
-56.7849465199999983
 21
-67.8072311800000023
 31
0.0
  0
LINE
  5
165
  8
SLD-0_6
  6
CONTINUOUS
 62
     7
 10
-65.7706369200000012
 20
-55.4868427099999906
 30
0.0
 11
-65.7706369200000012
 21
-67.8072311800000023
 31
0.0
  0
LINE
  5
166
  8
SLD-0_6
  6
CONTINUOUS
 62
     7
 10
-110.695260360000006
 20
-55.4868427099999906
 30
0.0
 11
-110.695260360000006
 21
-67.8072311800000023
 31
0.0
  0
LINE
  5
167
  8
SLD-0_6
  6
CONTINUOUS
 62
     7
 10
-83.7401034399999986
 20
-55.4868427099999906
 30
0.0
 11
-83.7401034399999986
 21
-67.8072311800000023
 31
0.0
  0
LINE
  5
168
  8
SLD-0_6
  6
CONTINUOUS
 62
     7
 10
-47.8011704099999903
 20
-55.4868427099999906
 30
0.0
 11
-47.8011704099999903
 21
-67.8072311800000023
 31
0.0
  0
LINE
  5
169
  8
SLD-0_6
  6
CONTINUOUS
 62
     7
 10
-47.8011704099999903
 20
-67.8072311800000023
 30
0.0
 11
-119.6790364699999998
 21
-67.8072311800000023
 31
0.0
  0
LINE
  5
16A
  8
SLD-0_6
  6
CONTINUOUS
 62
     7
 10
-74.7563273300000048
 20
-55.4868427099999906
 30
0.0
 11
-74.7563273300000048
 21
-67.8072311800000023
 31
0.0
  0
LINE
  5
16B
  8
SLD-0_6
  6
CONTINUOUS
 62
     7
 10
-119.6790364699999998
 20
-67.8072311800000023
 30
0.0
 11
-119.6790364699999998
 21
-55.4868427099999906
 31
0.0
  0
LINE
  5
16C
  8
SLD-0_6
  6
CONTINUOUS
 62
     7
 10
-92.7238795500000066
 20
-55.4868427099999906
 30
0.0
 11
-92.7238795500000066
 21
-67.8072311800000023
 31
0.0
  0
LINE
  5
16D
  8
SLD-0_6
  6
CONTINUOUS
 62
     7
 10
-112.9310957400000035
 20
-336.4115470400000163
 30
0.0
 11
-118.6796780300000052
 21
-336.4115470400000163
 31
0.0
  0
LINE
  5
16E
  8
SLD-0_6
  6
CONTINUOUS
 62
     7
 10
-95.9295597499999957
 20
-324.1624966800000038
 30
0.0
 11
-95.9295597499999957
 21
-336.4115470400000163
 31
0.0
  0
LINE
  5
16F
  8
SLD-0_6
  6
CONTINUOUS
 62
     7
 10
-58.8824650000000105
 20
-324.1624966800000038
 30
0.0
 11
-58.8824650000000105
 21
-311.9114196699999866
 31
0.0
  0
LINE
  5
170
  8
SLD-0_6
  6
CONTINUOUS
 62
     7
 10
-46.6830674699999904
 20
-336.4115470400000163
 30
0.0
 11
-46.6830674699999904
 21
-324.1624966800000038
 31
0.0
  0
LINE
  5
171
  8
SLD-0_6
  6
CONTINUOUS
 62
     7
 10
-97.1313610199999857
 20
-336.4115470400000163
 30
0.0
 11
-97.1313610199999857
 21
-324.1624966800000038
 31
0.0
  0
LINE
  5
172
  8
SLD-0_6
  6
CONTINUOUS
 62
     7
 10
-117.182999719999998
 20
-320.1456836699999826
 30
0.0
 11
-50.3816970000000026
 21
-320.1456836699999826
 31
0.0
  0
LINE
  5
173
  8
SLD-0_6
  6
CONTINUOUS
 62
     7
 10
-75.8809610200000009
 20
-324.1624966800000038
 30
0.0
 11
-75.8809610200000009
 21
-311.9114196699999866
 31
0.0
  0
LINE
  5
174
  8
SLD-0_6
  6
CONTINUOUS
 62
     7
 10
-80.1308383500000048
 20
-336.4115470400000163
 30
0.0
 11
-80.1308383500000048
 21
-324.1624966800000038
 31
0.0
  0
LINE
  5
175
  8
SLD-0_6
  6
CONTINUOUS
 62
     7
 10
-104.4303277399999956
 20
-324.1624966800000038
 30
0.0
 11
-104.4303277399999956
 21
-336.4115470400000163
 31
0.0
  0
LINE
  5
176
  8
SLD-0_6
  6
CONTINUOUS
 62
     7
 10
-92.8814836799999881
 20
-324.1624966800000038
 30
0.0
 11
-92.8814836799999881
 21
-311.9114196699999866
 31
0.0
  0
LINE
  5
177
  8
SLD-0_6
  6
CONTINUOUS
 62
     7
 10
-66.1804183999999935
 20
-311.9114196699999866
 30
0.0
 11
-66.1804183999999935
 21
-324.1624966800000038
 31
0.0
  0
LINE
  5
178
  8
SLD-0_6
  6
CONTINUOUS
 62
     7
 10
-112.9310957400000035
 20
-330.4694200299999807
 30
0.0
 11
-46.6830674699999904
 21
-330.4694200299999807
 31
0.0
  0
LINE
  5
179
  8
SLD-0_6
  6
CONTINUOUS
 62
     7
 10
-74.6811863899999935
 20
-311.9114196699999866
 30
0.0
 11
-74.6811863899999935
 21
-324.1624966800000038
 31
0.0
  0
LINE
  5
17A
  8
SLD-0_6
  6
CONTINUOUS
 62
     7
 10
-118.6796780300000052
 20
-311.9114196699999866
 30
0.0
 11
-118.6796780300000052
 21
-324.1624966800000038
 31
0.0
  0
LINE
  5
17B
  8
SLD-0_6
  6
CONTINUOUS
 62
     7
 10
-70.4313090600000038
 20
-324.1624966800000038
 30
0.0
 11
-70.4313090600000038
 21
-336.4115470400000163
 31
0.0
  0
LINE
  5
17C
  8
SLD-0_6
  6
CONTINUOUS
 62
     7
 10
-78.9290370800000005
 20
-324.1624966800000038
 30
0.0
 11
-78.9290370800000005
 21
-336.4115470400000163
 31
0.0
  0
LINE
  5
17D
  8
SLD-0_6
  6
CONTINUOUS
 62
     7
 10
-67.380193019999993
 20
-324.1624966800000038
 30
0.0
 11
-67.380193019999993
 21
-311.9114196699999866
 31
0.0
  0
LINE
  5
17E
  8
SLD-0_6
  6
CONTINUOUS
 62
     7
 10
-118.6796780300000052
 20
-336.4115470400000163
 30
0.0
 11
-118.6796780300000052
 21
-324.1624966800000038
 31
0.0
  0
LINE
  5
17F
  8
SLD-0_6
  6
CONTINUOUS
 62
     7
 10
-49.1819223800000032
 20
-311.9114196699999866
 30
0.0
 11
-49.1819223800000032
 21
-324.1624966800000038
 31
0.0
  0
LINE
  5
180
  8
SLD-0_6
  6
CONTINUOUS
 62
     7
 10
-50.3816970000000026
 20
-324.1624966800000038
 30
0.0
 11
-50.3816970000000026
 21
-311.9114196699999866
 31
0.0
  0
LINE
  5
181
  8
SLD-0_6
  6
CONTINUOUS
 62
     7
 10
-118.6796780300000052
 20
-324.1624966800000038
 30
0.0
 11
-45.4843061700000035
 21
-324.1624966800000038
 31
0.0
  0
LINE
  5
182
  8
SLD-0_6
  6
CONTINUOUS
 62
     7
 10
-53.4307863900000015
 20
-324.1624966800000038
 30
0.0
 11
-53.4307863900000015
 21
-336.4115470400000163
 31
0.0
  0
LINE
  5
183
  8
SLD-0_6
  6
CONTINUOUS
 62
     7
 10
-105.6301023599999951
 20
-336.4115470400000163
 30
0.0
 11
-105.6301023599999951
 21
-324.1624966800000038
 31
0.0
  0
LINE
  5
184
  8
SLD-0_6
  6
CONTINUOUS
 62
     7
 10
-45.4843061700000035
 20
-324.1624966800000038
 30
0.0
 11
-112.9310957400000035
 21
-324.1624966800000038
 31
0.0
  0
LINE
  5
185
  8
SLD-0_6
  6
CONTINUOUS
 62
     7
 10
-109.8820063499999975
 20
-324.1624966800000038
 30
0.0
 11
-109.8820063499999975
 21
-311.9114196699999866
 31
0.0
  0
LINE
  5
186
  8
SLD-0_6
  6
CONTINUOUS
 62
     7
 10
-45.4843061700000035
 20
-311.9114196699999866
 30
0.0
 11
-45.4843061700000035
 21
-336.4926128899999753
 31
0.0
  0
LINE
  5
187
  8
SLD-0_6
  6
CONTINUOUS
 62
     7
 10
-91.6817090600000029
 20
-311.9114196699999866
 30
0.0
 11
-91.6817090600000029
 21
-324.1624966800000038
 31
0.0
  0
LINE
  5
188
  8
SLD-0_6
  6
CONTINUOUS
 62
     7
 10
-57.680663729999992
 20
-311.9114196699999866
 30
0.0
 11
-57.680663729999992
 21
-324.1624966800000038
 31
0.0
  0
LINE
  5
189
  8
SLD-0_6
  6
CONTINUOUS
 62
     7
 10
-117.182999719999998
 20
-318.2183430200000203
 30
0.0
 11
-50.3816970000000026
 21
-318.2183430200000203
 31
0.0
  0
LINE
  5
18A
  8
SLD-0_6
  6
CONTINUOUS
 62
     7
 10
-84.3807156899999882
 20
-324.1624966800000038
 30
0.0
 11
-84.3807156899999882
 21
-311.9114196699999866
 31
0.0
  0
LINE
  5
18B
  8
SLD-0_6
  6
CONTINUOUS
 62
     7
 10
-117.1809730699999932
 20
-311.9114196699999866
 30
0.0
 11
-117.1809730699999932
 21
-324.1624966800000038
 31
0.0
  0
LINE
  5
18C
  8
SLD-0_6
  6
CONTINUOUS
 62
     7
 10
-71.6300703600000048
 20
-336.4115470400000163
 30
0.0
 11
-71.6300703600000048
 21
-324.1624966800000038
 31
0.0
  0
LINE
  5
18D
  8
SLD-0_6
  6
CONTINUOUS
 62
     7
 10
-87.4298050799999942
 20
-324.1624966800000038
 30
0.0
 11
-87.4298050799999942
 21
-336.4115470400000163
 31
0.0
  0
LINE
  5
18E
  8
SLD-0_6
  6
CONTINUOUS
 62
     7
 10
-100.1824770500000028
 20
-311.9114196699999866
 30
0.0
 11
-100.1824770500000028
 21
-324.1624966800000038
 31
0.0
  0
LINE
  5
18F
  8
SLD-0_6
  6
CONTINUOUS
 62
     7
 10
-112.9310957400000035
 20
-324.1624966800000038
 30
0.0
 11
-112.9310957400000035
 21
-336.4115470400000163
 31
0.0
  0
LINE
  5
190
  8
SLD-0_6
  6
CONTINUOUS
 62
     7
 10
-61.930541060000003
 20
-324.1624966800000038
 30
0.0
 11
-61.930541060000003
 21
-336.4115470400000163
 31
0.0
  0
LINE
  5
191
  8
SLD-0_6
  6
CONTINUOUS
 62
     7
 10
-101.3822516700000023
 20
-324.1624966800000038
 30
0.0
 11
-101.3822516700000023
 21
-311.9114196699999866
 31
0.0
  0
LINE
  5
192
  8
SLD-0_6
  6
CONTINUOUS
 62
     7
 10
-108.6822317200000043
 20
-311.9114196699999866
 30
0.0
 11
-108.6822317200000043
 21
-324.1624966800000038
 31
0.0
  0
LINE
  5
193
  8
SLD-0_6
  6
CONTINUOUS
 62
     7
 10
-63.1303156900000033
 20
-336.4115470400000163
 30
0.0
 11
-63.1303156900000033
 21
-324.1624966800000038
 31
0.0
  0
LINE
  5
194
  8
SLD-0_6
  6
CONTINUOUS
 62
     7
 10
-88.6316063499999842
 20
-336.4115470400000163
 30
0.0
 11
-88.6316063499999842
 21
-324.1624966800000038
 31
0.0
  0
LINE
  5
195
  8
SLD-0_6
  6
CONTINUOUS
 62
     7
 10
-45.4843061700000035
 20
-311.9114196699999866
 30
0.0
 11
-118.6796780300000052
 21
-311.9114196699999866
 31
0.0
  0
LINE
  5
196
  8
SLD-0_6
  6
CONTINUOUS
 62
     7
 10
-54.6295476900000025
 20
-336.4115470400000163
 30
0.0
 11
-54.6295476900000025
 21
-324.1624966800000038
 31
0.0
  0
LINE
  5
197
  8
SLD-0_6
  6
CONTINUOUS
 62
     7
 10
-112.9310957400000035
 20
-336.4115470400000163
 30
0.0
 11
-45.4843061700000035
 21
-336.4115470400000163
 31
0.0
  0
LINE
  5
198
  8
SLD-0_6
  6
CONTINUOUS
 62
     7
 10
-83.1819543900000014
 20
-311.9114196699999866
 30
0.0
 11
-83.1819543900000014
 21
-324.1624966800000038
 31
0.0
  0
LINE
  5
199
  8
SLD-0_6
  6
CONTINUOUS
 62
     7
 10
-112.9310957400000035
 20
-332.1454565500000058
 30
0.0
 11
-46.6830674699999904
 21
-332.1454565500000058
 31
0.0
  0
LINE
  5
19A
  8
SLD-0_6
  6
CONTINUOUS
 62
     7
 10
-46.6830674699999904
 20
88.7859185899999943
 30
0.0
 11
-46.6830674699999904
 21
101.0349689600000005
 31
0.0
  0
LINE
  5
19B
  8
SLD-0_2
  6
CONTINUOUS
 62
     7
 10
-199.6425797100000068
 20
-350.4929855999999972
 30
0.0
 11
-199.6425797100000068
 21
-352.4929855999999972
 31
0.0
  0
LINE
  5
19C
  8
SLD-0_2
  6
CONTINUOUS
 62
     7
 10
50.3574202900000003
 20
-352.4929855999999972
 30
0.0
 11
-199.6425797100000068
 21
-352.4929855999999972
 31
0.0
  0
LINE
  5
19D
  8
SLD-0_2
  6
CONTINUOUS
 62
     7
 10
-129.7036206900000082
 20
-350.4929855999999972
 30
0.0
 11
-199.6425797100000068
 21
-350.4929855999999972
 31
0.0
  0
LINE
  5
19E
  8
SLD-0_2
  6
PHANTOM
 62
     7
 10
-179.6425797100000068
 20
-155.4925955999999871
 30
0.0
 11
-179.6425797100000068
 21
-55.4925956000000014
 31
0.0
  0
LINE
  5
19F
  8
SLD-0
  6
PHANTOM
 62
     7
 10
-179.6425797100000068
 20
-309.6151771500000223
 30
0.0
 11
-179.6425797100000068
 21
-350.4929855999999972
 31
0.0
  0
LINE
  5
1A0
  8
SLD-0
  6
PHANTOM
 62
     7
 10
-129.6425797100000068
 20
-309.6151771500000223
 30
0.0
 11
-129.6425797100000068
 21
-339.4940760999999725
 31
0.0
  0
LINE
  5
1A1
  8
SLD-0
  6
PHANTOM
 62
     7
 10
-26.8352138999999994
 20
359.204870040000003
 30
0.0
 11
17.1647861000000006
 21
359.204870040000003
 31
0.0
  0
LINE
  5
1A2
  8
SLD-0
  6
PHANTOM
 62
     7
 10
-28.8352138999999994
 20
282.204870040000003
 30
0.0
 11
19.1647861000000006
 21
282.204870040000003
 31
0.0
  0
LINE
  5
1A3
  8
SLD-0
  6
PHANTOM
 62
     7
 10
-28.8352138999999994
 20
362.204870040000003
 30
0.0
 11
19.1647861000000006
 21
362.204870040000003
 31
0.0
  0
LINE
  5
1A4
  8
SLD-0
  6
PHANTOM
 62
     7
 10
17.1647861000000006
 20
285.204870040000003
 30
0.0
 11
17.1647861000000006
 21
359.204870040000003
 31
0.0
  0
LINE
  5
1A5
  8
SLD-0
  6
PHANTOM
 62
     7
 10
20.1647861000000006
 20
283.204870040000003
 30
0.0
 11
20.1647861000000006
 21
361.204870040000003
 31
0.0
  0
LINE
  5
1A6
  8
SLD-0
  6
PHANTOM
 62
     7
 10
-29.8352138999999994
 20
283.204870040000003
 30
0.0
 11
-29.8352138999999994
 21
361.204870040000003
 31
0.0
  0
LINE
  5
1A7
  8
SLD-0
  6
PHANTOM
 62
     7
 10
-26.8352138999999994
 20
285.204870040000003
 30
0.0
 11
17.1647861000000006
 21
285.204870040000003
 31
0.0
  0
LINE
  5
1A8
  8
SLD-0
  6
PHANTOM
 62
     7
 10
-26.8352138999999994
 20
285.204870040000003
 30
0.0
 11
-26.8352138999999994
 21
359.204870040000003
 31
0.0
  0
LINE
  5
1A9
  8
SLD-0
  6
PHANTOM
 62
     7
 10
-5.9572453000000003
 20
204.7044800300000134
 30
0.0
 11
9.8567275199999997
 21
204.7044800300000134
 31
0.0
  0
LINE
  5
1AA
  8
SLD-0
  6
PHANTOM
 62
     7
 10
-9.2473834499999992
 20
275.3433530799999858
 30
0.0
 11
-0.4263222300000001
 21
275.3433530799999858
 31
0.0
  0
LINE
  5
1AB
  8
SLD-0
  6
PHANTOM
 62
     7
 10
-0.4263222300000001
 20
282.1792926800000032
 30
0.0
 11
-0.4263222300000001
 21
275.3433530799999858
 31
0.0
  0
LINE
  5
1AC
  8
SLD-0
  6
PHANTOM
 62
     7
 10
-0.4263222300000001
 20
275.3433530799999858
 30
0.0
 11
3.1728739400000001
 21
282.204870040000003
 31
0.0
  0
LINE
  5
1AD
  8
SLD-0
  6
PHANTOM
 62
     7
 10
-9.2473834499999992
 20
275.3433530799999858
 30
0.0
 11
-9.2473834499999992
 21
282.204870040000003
 31
0.0
  0
LINE
  5
1AE
  8
SLD-0
  6
PHANTOM
 62
     7
 10
-12.4868147799999996
 20
282.204870040000003
 30
0.0
 11
-9.2473834499999992
 21
275.3433530799999858
 31
0.0
  0
LINE
  5
1B0
  8
SLD-0
  6
PHANTOM
 62
     7
 10
-144.1485439100000008
 20
334.0050322800000231
 30
0.0
 11
-144.1485439100000008
 21
291.5300494800000024
 31
0.0
  0
LINE
  5
1B1
  8
SLD-0
  6
PHANTOM
 62
     7
 10
-156.7468867299999999
 20
334.0050322800000231
 30
0.0
 11
-156.7468867299999999
 21
291.5300494800000024
 31
0.0
  0
LINE
  5
1B2
  8
SLD-0
  6
PHANTOM
 62
     7
 10
-147.8547921500000086
 20
334.0050322800000231
 30
0.0
 11
-147.8547921500000086
 21
291.5300494800000024
 31
0.0
  0
CIRCLE
  5
1B3
  8
SLD-0
  6
PHANTOM
 62
     7
 10
-170.6680624599999874
 20
-65.6445135000000022
 30
0.0
 40
2.6164181399999991
  0
CIRCLE
  5
1B4
  8
SLD-0
  6
PHANTOM
 62
     7
 10
-4.8352139000000003
 20
365.6474344200000246
 30
0.0
 40
2.50017756
  0
ARC
  5
1B5
  8
SLD-0
  6
PHANTOM
 62
     7
 10
19.1647861000000006
 20
361.204870040000003
 30
0.0
 40
1.0
 50
0.0
 51
90.0
  0
ARC
  5
1B6
  8
SLD-0
  6
PHANTOM
 62
     7
 10
19.1647861000000006
 20
283.204870040000003
 30
0.0
 40
1.0
 50
270.0
 51
360.0
  0
ARC
  5
1B7
  8
SLD-0
  6
PHANTOM
 62
     7
 10
-28.8352138999999994
 20
283.204870040000003
 30
0.0
 40
1.0
 50
180.0
 51
270.0
  0
ARC
  5
1B8
  8
SLD-0
  6
PHANTOM
 62
     7
 10
-28.8352138999999994
 20
361.204870040000003
 30
0.0
 40
1.0
 50
90.0
 51
180.0
  0
CIRCLE
  5
1B9
  8
SLD-0
  6
PHANTOM
 62
     7
 10
-4.8352139000000003
 20
278.7623056400000223
 30
0.0
 40
2.50017756
  0
CIRCLE
  5
1BA
  8
SLD-0
  6
PHANTOM
 62
     7
 10
-152.2974722399999905
 20
329.3569765099999813
 30
0.0
 40
3.360515739999999
  0
LINE
  5
1BB
  8
SLD-0
  6
CONTINUOUS
 62
     7
 10
-199.6425797100000068
 20
72.7044800400000071
 30
0.0
 11
50.3574202900000003
 21
72.7044800400000071
 31
0.0
  0
LINE
  5
1BC
  8
SLD-0
  6
CONTINUOUS
 62
     7
 10
50.3574202900000003
 20
369.704870040000003
 30
0.0
 11
47.8574202900000003
 21
372.204870040000003
 31
0.0
  0
LINE
  5
1BD
  8
SLD-0
  6
CONTINUOUS
 62
     7
 10
-199.6425797100000068
 20
369.704870040000003
 30
0.0
 11
-197.1425797100000068
 21
372.204870040000003
 31
0.0
  0
LINE
  5
1BE
  8
SLD-0
  6
CONTINUOUS
 62
     7
 10
47.8574202900000003
 20
272.204870040000003
 30
0.0
 11
50.3574202900000003
 21
274.704870040000003
 31
0.0
  0
LINE
  5
1BF
  8
SLD-0
  6
CONTINUOUS
 62
     7
 10
-197.1425797100000068
 20
272.204870040000003
 30
0.0
 11
-199.6425797100000068
 21
274.704870040000003
 31
0.0
  0
LINE
  5
1C0
  8
SLD-0
  6
CONTINUOUS
 62
     7
 10
-45.4843061700000035
 20
282.9541905300000053
 30
0.0
 11
-114.356841419999995
 21
282.9541905300000053
 31
0.0
  0
LINE
  5
1C1
  8
SLD-0
  6
CONTINUOUS
 62
     7
 10
-45.4843061700000035
 20
101.0349689600000005
 30
0.0
 11
-112.9310957400000035
 21
101.0349689600000005
 31
0.0
  0
LINE
  5
1C2
  8
SLD-0
  6
CONTINUOUS
 62
     7
 10
-45.4843061700000035
 20
113.2860459599999956
 30
0.0
 11
-45.4843061700000035
 21
88.7048527500000006
 31
0.0
  0
LINE
  5
1C3
  8
SLD-0_0
  6
CONTINUOUS
 62
     7
 10
-105.6301023599999951
 20
88.7859185899999943
 30
0.0
 11
-105.6301023599999951
 21
101.0349689600000005
 31
0.0
  0
LINE
  5
1C4
  8
SLD-0_0
  6
CONTINUOUS
 62
     7
 10
-112.9310957400000035
 20
88.7859185899999943
 30
0.0
 11
-118.6796780300000052
 21
88.7859185899999943
 31
0.0
  0
LINE
  5
1C5
  8
SLD-0_0
  6
CONTINUOUS
 62
     7
 10
-95.9295597499999957
 20
101.0349689600000005
 30
0.0
 11
-95.9295597499999957
 21
88.7859185899999943
 31
0.0
  0
LINE
  5
1C6
  8
SLD-0_0
  6
CONTINUOUS
 62
     7
 10
50.3574202900000003
 20
74.7044800400000071
 30
0.0
 11
50.3574202900000003
 21
72.7044800400000071
 31
0.0
  0
LINE
  5
1C7
  8
SLD-0_0
  6
CONTINUOUS
 62
     7
 10
-109.8820063499999975
 20
101.0349689600000005
 30
0.0
 11
-109.8820063499999975
 21
113.2860459599999956
 31
0.0
  0
LINE
  5
1C8
  8
SLD-0_0
  6
CONTINUOUS
 62
     7
 10
-58.8824650000000105
 20
101.0349689600000005
 30
0.0
 11
-58.8824650000000105
 21
113.2860459599999956
 31
0.0
  0
LINE
  5
1C9
  8
SLD-0_0
  6
CONTINUOUS
 62
     7
 10
-91.6817090600000029
 20
113.2860459599999956
 30
0.0
 11
-91.6817090600000029
 21
101.0349689600000005
 31
0.0
  0
LINE
  5
1CA
  8
SLD-0_0
  6
CONTINUOUS
 62
     7
 10
-67.0072901000000059
 20
282.9541905300000053
 30
0.0
 11
-67.0072901000000059
 21
293.7045359200000121
 31
0.0
  0
LINE
  5
1CB
  8
SLD-0_0
  6
CONTINUOUS
 62
     7
 10
-97.1313610199999857
 20
88.7859185899999943
 30
0.0
 11
-97.1313610199999857
 21
101.0349689600000005
 31
0.0
  0
LINE
  5
1CC
  8
SLD-0_0
  6
CONTINUOUS
 62
     7
 10
-57.680663729999992
 20
113.2860459599999956
 30
0.0
 11
-57.680663729999992
 21
101.0349689600000005
 31
0.0
  0
LINE
  5
1CD
  8
SLD-0_0
  6
CONTINUOUS
 62
     7
 10
-129.7036206900000082
 20
74.7044800400000071
 30
0.0
 11
-199.6425797100000068
 21
74.7044800400000071
 31
0.0
  0
LINE
  5
1CE
  8
SLD-0_0
  6
CONTINUOUS
 62
     7
 10
-110.0522446399999978
 20
282.9541905300000053
 30
0.0
 11
-110.0522446399999978
 21
293.7045359200000121
 31
0.0
  0
LINE
  5
1CF
  8
SLD-0_0
  6
CONTINUOUS
 62
     7
 10
-117.182999719999998
 20
105.0517819699999933
 30
0.0
 11
-50.3816970000000026
 21
105.0517819699999933
 31
0.0
  0
LINE
  5
1D0
  8
SLD-0_0
  6
CONTINUOUS
 62
     7
 10
-97.1374409600000064
 20
272.2048584400000095
 30
0.0
 11
-97.1374409600000064
 21
282.9541905300000053
 31
0.0
  0
LINE
  5
1D1
  8
SLD-0_0
  6
CONTINUOUS
 62
     7
 10
-117.182999719999998
 20
106.9791226199999983
 30
0.0
 11
-50.3816970000000026
 21
106.9791226199999983
 31
0.0
  0
LINE
  5
1D2
  8
SLD-0_0
  6
CONTINUOUS
 62
     7
 10
-88.5292607100000026
 20
272.2048584400000095
 30
0.0
 11
-88.5292607100000026
 21
282.9541905300000053
 31
0.0
  0
LINE
  5
1D3
  8
SLD-0_0
  6
CONTINUOUS
 62
     7
 10
-75.8809610200000009
 20
101.0349689600000005
 30
0.0
 11
-75.8809610200000009
 21
113.2860459599999956
 31
0.0
  0
LINE
  5
1D4
  8
SLD-0_0
  6
CONTINUOUS
 62
     7
 10
-84.3807156899999882
 20
101.0349689600000005
 30
0.0
 11
-84.3807156899999882
 21
113.2860459599999956
 31
0.0
  0
LINE
  5
1D5
  8
SLD-0_0
  6
CONTINUOUS
 62
     7
 10
-49.7899162799999999
 20
282.9541905300000053
 30
0.0
 11
-49.7899162799999999
 21
293.7045359200000121
 31
0.0
  0
LINE
  5
1D6
  8
SLD-0_0
  6
CONTINUOUS
 62
     7
 10
-80.1308383500000048
 20
88.7859185899999943
 30
0.0
 11
-80.1308383500000048
 21
101.0349689600000005
 31
0.0
  0
LINE
  5
1D7
  8
SLD-0_0
  6
CONTINUOUS
 62
     7
 10
-117.1809730699999932
 20
113.2860459599999956
 30
0.0
 11
-117.1809730699999932
 21
101.0349689600000005
 31
0.0
  0
LINE
  5
1D8
  8
SLD-0_0
  6
CONTINUOUS
 62
     7
 10
-118.6624515299999985
 20
293.7045359200000121
 30
0.0
 11
-118.6624515299999985
 21
282.9541905300000053
 31
0.0
  0
LINE
  5
1D9
  8
SLD-0_0
  6
CONTINUOUS
 62
     7
 10
-101.4420377400000035
 20
282.9541905300000053
 30
0.0
 11
-101.4420377400000035
 21
293.7045359200000121
 31
0.0
  0
LINE
  5
1DA
  8
SLD-0_0
  6
CONTINUOUS
 62
     7
 10
-199.6425797100000068
 20
74.7044800400000071
 30
0.0
 11
-199.6425797100000068
 21
72.7044800400000071
 31
0.0
  0
LINE
  5
1DB
  8
SLD-0_0
  6
CONTINUOUS
 62
     7
 10
50.3574202900000003
 20
74.7044800400000071
 30
0.0
 11
30.3574202900000003
 21
74.7044800400000071
 31
0.0
  0
LINE
  5
1DC
  8
SLD-0_0
  6
CONTINUOUS
 62
     7
 10
-104.4303277399999956
 20
101.0349689600000005
 30
0.0
 11
-104.4303277399999956
 21
88.7859185899999943
 31
0.0
  0
LINE
  5
1DD
  8
SLD-0_0
  6
CONTINUOUS
 62
     7
 10
-114.356841419999995
 20
282.9541905300000053
 30
0.0
 11
-114.356841419999995
 21
272.2048584400000095
 31
0.0
  0
LINE
  5
1DE
  8
SLD-0_0
  6
CONTINUOUS
 62
     7
 10
28.342485270000001
 20
88.7048527500000006
 30
0.0
 11
28.342485270000001
 21
85.7033895400000034
 31
0.0
  0
LINE
  5
1DF
  8
SLD-0_0
  6
CONTINUOUS
 62
     7
 10
-75.6174969900000065
 20
282.9541905300000053
 30
0.0
 11
-75.6174969900000065
 21
293.7045359200000121
 31
0.0
  0
LINE
  5
1E0
  8
SLD-0_0
  6
CONTINUOUS
 62
     7
 10
-71.6300703600000048
 20
88.7859185899999943
 30
0.0
 11
-71.6300703600000048
 21
101.0349689600000005
 31
0.0
  0
LINE
  5
1E1
  8
SLD-0_0
  6
CONTINUOUS
 62
     7
 10
-92.8814836799999881
 20
101.0349689600000005
 30
0.0
 11
-92.8814836799999881
 21
113.2860459599999956
 31
0.0
  0
LINE
  5
1E2
  8
SLD-0_0
  6
CONTINUOUS
 62
     7
 10
-87.4298050799999942
 20
101.0349689600000005
 30
0.0
 11
-87.4298050799999942
 21
88.7859185899999943
 31
0.0
  0
LINE
  5
1E3
  8
SLD-0_0
  6
CONTINUOUS
 62
     7
 10
-66.1804183999999935
 20
113.2860459599999956
 30
0.0
 11
-66.1804183999999935
 21
101.0349689600000005
 31
0.0
  0
LINE
  5
1E4
  8
SLD-0_0
  6
CONTINUOUS
 62
     7
 10
-100.1824770500000028
 20
113.2860459599999956
 30
0.0
 11
-100.1824770500000028
 21
101.0349689600000005
 31
0.0
  0
LINE
  5
1E5
  8
SLD-0_0
  6
CONTINUOUS
 62
     7
 10
-84.225677239999996
 20
282.9541905300000053
 30
0.0
 11
-84.225677239999996
 21
293.7045359200000121
 31
0.0
  0
LINE
  5
1E6
  8
SLD-0_0
  6
CONTINUOUS
 62
     7
 10
47.8574202900000003
 20
372.204870040000003
 30
0.0
 11
-197.1425797100000068
 21
372.204870040000003
 31
0.0
  0
LINE
  5
1E7
  8
SLD-0_0
  6
CONTINUOUS
 62
     7
 10
-105.7486611700000054
 20
272.2048584400000095
 30
0.0
 11
-105.7486611700000054
 21
282.9541905300000053
 31
0.0
  0
LINE
  5
1E8
  8
SLD-0_0
  6
CONTINUOUS
 62
     7
 10
-112.9310957400000035
 20
94.7280456099999952
 30
0.0
 11
-46.6830674699999904
 21
94.7280456099999952
 31
0.0
  0
LINE
  5
1E9
  8
SLD-0_0
  6
CONTINUOUS
 62
     7
 10
30.3574202900000003
 20
272.204870040000003
 30
0.0
 11
30.3574202900000003
 21
372.204870040000003
 31
0.0
  0
LINE
  5
1EA
  8
SLD-0_0
  6
CONTINUOUS
 62
     7
 10
-112.9310957400000035
 20
101.0349689600000005
 30
0.0
 11
-112.9310957400000035
 21
88.7859185899999943
 31
0.0
  0
LINE
  5
1EB
  8
SLD-0_0
  6
CONTINUOUS
 62
     7
 10
-127.7043340900000032
 20
88.7048527500000006
 30
0.0
 11
28.342485270000001
 21
88.7048527500000006
 31
0.0
  0
LINE
  5
1EC
  8
SLD-0_0
  6
CONTINUOUS
 62
     7
 10
-74.6811863899999935
 20
113.2860459599999956
 30
0.0
 11
-74.6811863899999935
 21
101.0349689600000005
 31
0.0
  0
LINE
  5
1ED
  8
SLD-0_0
  6
CONTINUOUS
 62
     7
 10
-127.7043340900000032
 20
85.7033895400000034
 30
0.0
 11
-127.7043340900000032
 21
88.7048527500000006
 31
0.0
  0
LINE
  5
1EE
  8
SLD-0_0
  6
CONTINUOUS
 62
     7
 10
-61.930541060000003
 20
101.0349689600000005
 30
0.0
 11
-61.930541060000003
 21
88.7859185899999943
 31
0.0
  0
LINE
  5
1EF
  8
SLD-0_0
  6
CONTINUOUS
 62
     7
 10
-58.4001231700000005
 20
282.9541905300000053
 30
0.0
 11
-58.4001231700000005
 21
293.7045359200000121
 31
0.0
  0
LINE
  5
1F0
  8
SLD-0_0
  6
CONTINUOUS
 62
     7
 10
-129.7036206900000082
 20
85.7033895400000034
 30
0.0
 11
30.3574202900000003
 21
85.7033895400000034
 31
0.0
  0
LINE
  5
1F1
  8
SLD-0_0
  6
CONTINUOUS
 62
     7
 10
-71.3108735600000045
 20
272.2048584400000095
 30
0.0
 11
-71.3108735600000045
 21
282.9541905300000053
 31
0.0
  0
LINE
  5
1F2
  8
SLD-0_0
  6
CONTINUOUS
 62
     7
 10
-199.6425797100000068
 20
274.704870040000003
 30
0.0
 11
-199.6425797100000068
 21
291.204870040000003
 31
0.0
  0
LINE
  5
1F3
  8
SLD-0_0
  6
CONTINUOUS
 62
     7
 10
-118.6796780300000052
 20
113.2860459599999956
 30
0.0
 11
-118.6796780300000052
 21
101.0349689600000005
 31
0.0
  0
LINE
  5
1F4
  8
SLD-0_0
  6
CONTINUOUS
 62
     7
 10
-101.3822516700000023
 20
101.0349689600000005
 30
0.0
 11
-101.3822516700000023
 21
113.2860459599999956
 31
0.0
  0
LINE
  5
1F5
  8
SLD-0_0
  6
CONTINUOUS
 62
     7
 10
-70.4313090600000038
 20
101.0349689600000005
 30
0.0
 11
-70.4313090600000038
 21
88.7859185899999943
 31
0.0
  0
LINE
  5
1F6
  8
SLD-0_0
  6
CONTINUOUS
 62
     7
 10
-108.6822317200000043
 20
113.2860459599999956
 30
0.0
 11
-108.6822317200000043
 21
101.0349689600000005
 31
0.0
  0
LINE
  5
1F7
  8
SLD-0_0
  6
CONTINUOUS
 62
     7
 10
-78.9290370800000005
 20
101.0349689600000005
 30
0.0
 11
-78.9290370800000005
 21
88.7859185899999943
 31
0.0
  0
LINE
  5
1F8
  8
SLD-0_0
  6
CONTINUOUS
 62
     7
 10
-92.8358841400000045
 20
282.9541905300000053
 30
0.0
 11
-92.8358841400000045
 21
293.7045359200000121
 31
0.0
  0
LINE
  5
1F9
  8
SLD-0_0
  6
CONTINUOUS
 62
     7
 10
-63.1303156900000033
 20
88.7859185899999943
 30
0.0
 11
-63.1303156900000033
 21
101.0349689600000005
 31
0.0
  0
LINE
  5
1FA
  8
SLD-0_0
  6
CONTINUOUS
 62
     7
 10
50.3574202900000003
 20
274.704870040000003
 30
0.0
 11
50.3574202900000003
 21
291.204870040000003
 31
0.0
  0
LINE
  5
1FB
  8
SLD-0_0
  6
CONTINUOUS
 62
     7
 10
-129.7036206900000082
 20
85.7033895400000034
 30
0.0
 11
-129.7036206900000082
 21
72.7044800400000071
 31
0.0
  0
LINE
  5
1FC
  8
SLD-0_0
  6
CONTINUOUS
 62
     7
 10
-118.6624515299999985
 20
272.2048584400000095
 30
0.0
 11
-118.6624515299999985
 21
282.9541905300000053
 31
0.0
  0
LINE
  5
1FD
  8
SLD-0_0
  6
CONTINUOUS
 62
     7
 10
-67.380193019999993
 20
101.0349689600000005
 30
0.0
 11
-67.380193019999993
 21
113.2860459599999956
 31
0.0
  0
LINE
  5
1FE
  8
SLD-0_0
  6
CONTINUOUS
 62
     7
 10
-45.4843061700000035
 20
293.7045359200000121
 30
0.0
 11
-118.6624515299999985
 21
293.7045359200000121
 31
0.0
  0
LINE
  5
1FF
  8
SLD-0_0
  6
CONTINUOUS
 62
     7
 10
-88.6316063499999842
 20
88.7859185899999943
 30
0.0
 11
-88.6316063499999842
 21
101.0349689600000005
 31
0.0
  0
LINE
  5
200
  8
SLD-0_0
  6
CONTINUOUS
 62
     7
 10
-118.6796780300000052
 20
88.7859185899999943
 30
0.0
 11
-118.6796780300000052
 21
101.0349689600000005
 31
0.0
  0
LINE
  5
201
  8
SLD-0_0
  6
CONTINUOUS
 62
     7
 10
30.3574202900000003
 20
85.7033895400000034
 30
0.0
 11
30.3574202900000003
 21
72.7044800400000071
 31
0.0
  0
LINE
  5
202
  8
SLD-0_0
  6
CONTINUOUS
 62
     7
 10
-45.4843061700000035
 20
113.2860459599999956
 30
0.0
 11
-118.6796780300000052
 21
113.2860459599999956
 31
0.0
  0
LINE
  5
203
  8
SLD-0_0
  6
CONTINUOUS
 62
     7
 10
-49.1819223800000032
 20
113.2860459599999956
 30
0.0
 11
-49.1819223800000032
 21
101.0349689600000005
 31
0.0
  0
LINE
  5
204
  8
SLD-0_0
  6
CONTINUOUS
 62
     7
 10
-54.6295476900000025
 20
88.7859185899999943
 30
0.0
 11
-54.6295476900000025
 21
101.0349689600000005
 31
0.0
  0
LINE
  5
205
  8
SLD-0_0
  6
CONTINUOUS
 62
     7
 10
-50.3816970000000026
 20
101.0349689600000005
 30
0.0
 11
-50.3816970000000026
 21
113.2860459599999956
 31
0.0
  0
LINE
  5
206
  8
SLD-0_0
  6
CONTINUOUS
 62
     7
 10
-112.9310957400000035
 20
88.7859185899999943
 30
0.0
 11
-45.4843061700000035
 21
88.7859185899999943
 31
0.0
  0
LINE
  5
207
  8
SLD-0_0
  6
CONTINUOUS
 62
     7
 10
-118.6624515299999985
 20
282.9541905300000053
 30
0.0
 11
-45.4843061700000035
 21
282.9541905300000053
 31
0.0
  0
LINE
  5
208
  8
SLD-0_0
  6
CONTINUOUS
 62
     7
 10
-118.6796780300000052
 20
101.0349689600000005
 30
0.0
 11
-45.4843061700000035
 21
101.0349689600000005
 31
0.0
  0
LINE
  5
209
  8
SLD-0_0
  6
CONTINUOUS
 62
     7
 10
-45.4843061700000035
 20
272.2048584400000095
 30
0.0
 11
-45.4843061700000035
 21
293.7045359200000121
 31
0.0
  0
LINE
  5
20A
  8
SLD-0_0
  6
CONTINUOUS
 62
     7
 10
-79.9210804599999989
 20
272.2048584400000095
 30
0.0
 11
-79.9210804599999989
 21
282.9541905300000053
 31
0.0
  0
LINE
  5
20B
  8
SLD-0_0
  6
CONTINUOUS
 62
     7
 10
-83.1819543900000014
 20
113.2860459599999956
 30
0.0
 11
-83.1819543900000014
 21
101.0349689600000005
 31
0.0
  0
LINE
  5
20C
  8
SLD-0_0
  6
CONTINUOUS
 62
     7
 10
-53.4307863900000015
 20
101.0349689600000005
 30
0.0
 11
-53.4307863900000015
 21
88.7859185899999943
 31
0.0
  0
LINE
  5
20D
  8
SLD-0_0
  6
CONTINUOUS
 62
     7
 10
-112.9310957400000035
 20
93.0520090999999923
 30
0.0
 11
-46.6830674699999904
 21
93.0520090999999923
 31
0.0
  0
LINE
  5
20E
  8
SLD-0_0
  6
CONTINUOUS
 62
     7
 10
50.3574202900000003
 20
303.204870040000003
 30
0.0
 11
50.3574202900000003
 21
341.204870040000003
 31
0.0
  0
LINE
  5
20F
  8
SLD-0_0
  6
CONTINUOUS
 62
     7
 10
-197.1425797100000068
 20
350.704870040000003
 30
0.0
 11
-199.6425797100000068
 21
353.204870040000003
 31
0.0
  0
LINE
  5
210
  8
SLD-0_0
  6
CONTINUOUS
 62
     7
 10
40.3574202900000003
 20
300.704870040000003
 30
0.0
 11
47.8574202900000003
 21
300.704870040000003
 31
0.0
  0
LINE
  5
211
  8
SLD-0_0
  6
CONTINUOUS
 62
     7
 10
40.3574202900000003
 20
350.704870040000003
 30
0.0
 11
47.8574202900000003
 21
350.704870040000003
 31
0.0
  0
LINE
  5
212
  8
SLD-0_0
  6
CONTINUOUS
 62
     7
 10
-199.6425797100000068
 20
303.204870040000003
 30
0.0
 11
-199.6425797100000068
 21
341.204870040000003
 31
0.0
  0
LINE
  5
213
  8
SLD-0_0
  6
CONTINUOUS
 62
     7
 10
47.8574202900000003
 20
293.704870040000003
 30
0.0
 11
50.3574202900000003
 21
291.204870040000003
 31
0.0
  0
LINE
  5
214
  8
SLD-0_0
  6
CONTINUOUS
 62
     7
 10
47.8574202900000003
 20
272.204870040000003
 30
0.0
 11
-197.1425797100000068
 21
272.204870040000003
 31
0.0
  0
LINE
  5
215
  8
SLD-0_0
  6
CONTINUOUS
 62
     7
 10
47.8574202900000003
 20
300.704870040000003
 30
0.0
 11
50.3574202900000003
 21
303.204870040000003
 31
0.0
  0
LINE
  5
216
  8
SLD-0_0
  6
CONTINUOUS
 62
     7
 10
40.3574202900000003
 20
293.704870040000003
 30
0.0
 11
47.8574202900000003
 21
293.704870040000003
 31
0.0
  0
LINE
  5
217
  8
SLD-0_0
  6
CONTINUOUS
 62
     7
 10
40.3574202900000003
 20
343.704870040000003
 30
0.0
 11
47.8574202900000003
 21
343.704870040000003
 31
0.0
  0
LINE
  5
218
  8
SLD-0_0
  6
CONTINUOUS
 62
     7
 10
-197.1425797100000068
 20
300.704870040000003
 30
0.0
 11
-199.6425797100000068
 21
303.204870040000003
 31
0.0
  0
LINE
  5
219
  8
SLD-0_0
  6
CONTINUOUS
 62
     7
 10
47.8574202900000003
 20
350.704870040000003
 30
0.0
 11
50.3574202900000003
 21
353.204870040000003
 31
0.0
  0
LINE
  5
21A
  8
SLD-0_0
  6
CONTINUOUS
 62
     7
 10
-189.6425797100000068
 20
343.704870040000003
 30
0.0
 11
-197.1425797100000068
 21
343.704870040000003
 31
0.0
  0
LINE
  5
21B
  8
SLD-0_0
  6
CONTINUOUS
 62
     7
 10
-189.6425797100000068
 20
350.704870040000003
 30
0.0
 11
-197.1425797100000068
 21
350.704870040000003
 31
0.0
  0
LINE
  5
21C
  8
SLD-0_0
  6
CONTINUOUS
 62
     7
 10
-197.1425797100000068
 20
343.704870040000003
 30
0.0
 11
-199.6425797100000068
 21
341.204870040000003
 31
0.0
  0
LINE
  5
21D
  8
SLD-0_0
  6
CONTINUOUS
 62
     7
 10
47.8574202900000003
 20
343.704870040000003
 30
0.0
 11
50.3574202900000003
 21
341.204870040000003
 31
0.0
  0
LINE
  5
21E
  8
SLD-0_0
  6
CONTINUOUS
 62
     7
 10
-189.6425797100000068
 20
300.704870040000003
 30
0.0
 11
-197.1425797100000068
 21
300.704870040000003
 31
0.0
  0
LINE
  5
21F
  8
SLD-0_0
  6
CONTINUOUS
 62
     7
 10
-197.1425797100000068
 20
293.704870040000003
 30
0.0
 11
-199.6425797100000068
 21
291.204870040000003
 31
0.0
  0
LINE
  5
220
  8
SLD-0_0
  6
CONTINUOUS
 62
     7
 10
50.3574202900000003
 20
353.204870040000003
 30
0.0
 11
50.3574202900000003
 21
369.704870040000003
 31
0.0
  0
LINE
  5
221
  8
SLD-0_0
  6
CONTINUOUS
 62
     7
 10
-189.6425797100000068
 20
293.704870040000003
 30
0.0
 11
-197.1425797100000068
 21
293.704870040000003
 31
0.0
  0
LINE
  5
222
  8
SLD-0_0
  6
CONTINUOUS
 62
     7
 10
-199.6425797100000068
 20
353.204870040000003
 30
0.0
 11
-199.6425797100000068
 21
369.704870040000003
 31
0.0
  0
ARC
  5
223
  8
SLD-0_0
  6
CONTINUOUS
 62
     7
 10
-189.6425797100000068
 20
297.204870040000003
 30
0.0
 40
3.5
 50
270.0
 51
450.0
  0
ARC
  5
224
  8
SLD-0_0
  6
CONTINUOUS
 62
     7
 10
40.3574202900000003
 20
297.204870040000003
 30
0.0
 40
3.5
 50
90.0
 51
270.0
  0
ARC
  5
225
  8
SLD-0_0
  6
CONTINUOUS
 62
     7
 10
-189.6425797100000068
 20
347.204870040000003
 30
0.0
 40
3.5
 50
270.0
 51
450.0
  0
ARC
  5
226
  8
SLD-0_0
  6
CONTINUOUS
 62
     7
 10
40.3574202900000003
 20
347.204870040000003
 30
0.0
 40
3.5
 50
90.0
 51
270.0
  0
LINE
  5
227
  8
SLD-0_0
  6
PHANTOM
 62
     7
 10
-179.6425797100000068
 20
272.204870040000003
 30
0.0
 11
-179.6425797100000068
 21
372.204870040000003
 31
0.0
  0
LINE
  5
228
  8
SLD-0_0
  6
PHANTOM
 62
     7
 10
-129.6306614199999956
 20
272.204870040000003
 30
0.0
 11
-129.6306614199999956
 21
372.204870040000003
 31
0.0
  0
LINE
  5
229
  8
SLD-0_0
  6
PHANTOM
 62
     7
 10
-48.6425797099999997
 20
302.204870040000003
 30
0.0
 11
-66.6425797100000068
 21
302.204870040000003
 31
0.0
  0
LINE
  5
22A
  8
SLD-0_0
  6
PHANTOM
 62
     7
 10
-48.6425797099999997
 20
302.204870040000003
 30
0.0
 11
-48.6425797099999997
 21
350.204870040000003
 31
0.0
  0
LINE
  5
22B
  8
SLD-0_0
  6
PHANTOM
 62
     7
 10
-55.2704090300000033
 20
157.9837305800000138
 30
0.0
 11
-55.2704090300000033
 21
158.2044800300000134
 31
0.0
  0
LINE
  5
22C
  8
SLD-0_0
  6
PHANTOM
 62
     7
 10
-106.9727555500000022
 20
157.9837305800000138
 30
0.0
 11
-106.9727555500000022
 21
158.2044800300000134
 31
0.0
  0
LINE
  5
22D
  8
SLD-0_0
  6
PHANTOM
 62
     7
 10
-108.4727555500000022
 20
159.7044800300000134
 30
0.0
 11
-110.7704090299999962
 21
159.7044800300000134
 31
0.0
  0
LINE
  5
22E
  8
SLD-0_0
  6
PHANTOM
 62
     7
 10
-123.6425797100000068
 20
158.0044800400000042
 30
0.0
 11
-123.6425797100000068
 21
88.7048527500000006
 31
0.0
  0
LINE
  5
22F
  8
SLD-0_0
  6
PHANTOM
 62
     7
 10
-105.6425797100000068
 20
350.204870040000003
 30
0.0
 11
-123.6425797100000068
 21
350.204870040000003
 31
0.0
  0
LINE
  5
230
  8
SLD-0_0
  6
PHANTOM
 62
     7
 10
-49.9727555500000022
 20
157.9837305800000138
 30
0.0
 11
-49.9727555500000022
 21
158.2044800300000134
 31
0.0
  0
LINE
  5
231
  8
SLD-0_0
  6
PHANTOM
 62
     7
 10
-66.6425797100000068
 20
158.0044800400000042
 30
0.0
 11
-66.6425797100000068
 21
113.2860459599999956
 31
0.0
  0
LINE
  5
232
  8
SLD-0_0
  6
PHANTOM
 62
     7
 10
-105.6425797100000068
 20
302.204870040000003
 30
0.0
 11
-105.6425797100000068
 21
350.204870040000003
 31
0.0
  0
LINE
  5
233
  8
SLD-0_0
  6
PHANTOM
 62
     7
 10
-105.6425797100000068
 20
158.0044800400000042
 30
0.0
 11
-123.6425797100000068
 21
158.0044800400000042
 31
0.0
  0
LINE
  5
234
  8
SLD-0_0
  6
PHANTOM
 62
     7
 10
-48.6425797099999997
 20
158.0044800400000042
 30
0.0
 11
-66.6425797100000068
 21
158.0044800400000042
 31
0.0
  0
LINE
  5
235
  8
SLD-0_0
  6
PHANTOM
 62
     7
 10
-86.6425797100000068
 20
302.204870040000003
 30
0.0
 11
-86.6425797100000068
 21
350.204870040000003
 31
0.0
  0
LINE
  5
236
  8
SLD-0_0
  6
PHANTOM
 62
     7
 10
-86.6425797100000068
 20
350.204870040000003
 30
0.0
 11
-104.6425797100000068
 21
350.204870040000003
 31
0.0
  0
LINE
  5
237
  8
SLD-0_0
  6
PHANTOM
 62
     7
 10
-67.6425797100000068
 20
302.204870040000003
 30
0.0
 11
-85.6425797100000068
 21
302.204870040000003
 31
0.0
  0
LINE
  5
238
  8
SLD-0_0
  6
PHANTOM
 62
     7
 10
-86.6425797100000068
 20
302.204870040000003
 30
0.0
 11
-104.6425797100000068
 21
302.204870040000003
 31
0.0
  0
LINE
  5
239
  8
SLD-0_0
  6
PHANTOM
 62
     7
 10
-48.6425797099999997
 20
350.204870040000003
 30
0.0
 11
-66.6425797100000068
 21
350.204870040000003
 31
0.0
  0
LINE
  5
23A
  8
SLD-0_0
  6
PHANTOM
 62
     7
 10
-105.6425797100000068
 20
158.0044800400000042
 30
0.0
 11
-105.6425797100000068
 21
113.2860459599999956
 31
0.0
  0
LINE
  5
23B
  8
SLD-0_0
  6
PHANTOM
 62
     7
 10
-105.6425797100000068
 20
302.204870040000003
 30
0.0
 11
-123.6425797100000068
 21
302.204870040000003
 31
0.0
  0
LINE
  5
23C
  8
SLD-0_0
  6
PHANTOM
 62
     7
 10
-67.6425797100000068
 20
302.204870040000003
 30
0.0
 11
-67.6425797100000068
 21
350.204870040000003
 31
0.0
  0
LINE
  5
23D
  8
SLD-0_0
  6
PHANTOM
 62
     7
 10
-48.6425797099999997
 20
158.0044800400000042
 30
0.0
 11
-48.6425797099999997
 21
113.2860459599999956
 31
0.0
  0
LINE
  5
23E
  8
SLD-0_0
  6
PHANTOM
 62
     7
 10
-112.2704090299999962
 20
157.9837305800000138
 30
0.0
 11
-112.2704090299999962
 21
158.2044800300000134
 31
0.0
  0
LINE
  5
23F
  8
SLD-0_0
  6
PHANTOM
 62
     7
 10
-123.6425797100000068
 20
302.204870040000003
 30
0.0
 11
-123.6425797100000068
 21
350.204870040000003
 31
0.0
  0
LINE
  5
240
  8
SLD-0_0
  6
PHANTOM
 62
     7
 10
-66.6425797100000068
 20
302.204870040000003
 30
0.0
 11
-66.6425797100000068
 21
350.204870040000003
 31
0.0
  0
LINE
  5
241
  8
SLD-0_0
  6
PHANTOM
 62
     7
 10
-67.6425797100000068
 20
350.204870040000003
 30
0.0
 11
-85.6425797100000068
 21
350.204870040000003
 31
0.0
  0
LINE
  5
242
  8
SLD-0_0
  6
PHANTOM
 62
     7
 10
-85.6425797100000068
 20
302.204870040000003
 30
0.0
 11
-85.6425797100000068
 21
350.204870040000003
 31
0.0
  0
LINE
  5
243
  8
SLD-0_0
  6
PHANTOM
 62
     7
 10
-51.4727555500000022
 20
159.7044800300000134
 30
0.0
 11
-53.7704090300000104
 21
159.7044800300000134
 31
0.0
  0
LINE
  5
244
  8
SLD-0_0
  6
PHANTOM
 62
     7
 10
-104.6425797100000068
 20
302.204870040000003
 30
0.0
 11
-104.6425797100000068
 21
350.204870040000003
 31
0.0
  0
ARC
  5
245
  8
SLD-0_0
  6
PHANTOM
 62
     7
 10
-51.4727555500000022
 20
158.2044800300000134
 30
0.0
 40
1.5
 50
0.0
 51
90.0
  0
ARC
  5
246
  8
SLD-0_0
  6
PHANTOM
 62
     7
 10
-53.7704090300000104
 20
158.2044800300000134
 30
0.0
 40
1.5
 50
90.0
 51
180.0
  0
ARC
  5
247
  8
SLD-0_0
  6
PHANTOM
 62
     7
 10
-108.4727555500000022
 20
158.2044800300000134
 30
0.0
 40
1.5
 50
0.0
 51
90.0
  0
ARC
  5
248
  8
SLD-0_0
  6
PHANTOM
 62
     7
 10
-110.7704090299999962
 20
158.2044800300000134
 30
0.0
 40
1.5
 50
90.0
 51
180.0
  0
LINE
  5
249
  8
SLD-0_3
  6
CONTINUOUS
 62
     7
 10
-101.7095699500000023
 20
372.2106229299999995
 30
0.0
 11
-101.7095699500000023
 21
359.8902344599999878
 31
0.0
  0
LINE
  5
24A
  8
SLD-0_3
  6
CONTINUOUS
 62
     7
 10
-47.8011704099999903
 20
372.2106229299999995
 30
0.0
 11
-47.8011704099999903
 21
359.8902344599999878
 31
0.0
  0
LINE
  5
24B
  8
SLD-0_3
  6
CONTINUOUS
 62
     7
 10
-56.7849465199999983
 20
372.2106229299999995
 30
0.0
 11
-56.7849465199999983
 21
359.8902344599999878
 31
0.0
  0
LINE
  5
24C
  8
SLD-0_3
  6
CONTINUOUS
 62
     7
 10
-47.8011704099999903
 20
359.8902344599999878
 30
0.0
 11
-119.6790364699999998
 21
359.8902344599999878
 31
0.0
  0
LINE
  5
24D
  8
SLD-0_3
  6
CONTINUOUS
 62
     7
 10
-65.7706369200000012
 20
372.2106229299999995
 30
0.0
 11
-65.7706369200000012
 21
359.8902344599999878
 31
0.0
  0
LINE
  5
24E
  8
SLD-0_3
  6
CONTINUOUS
 62
     7
 10
-74.7563273300000048
 20
372.2106229299999995
 30
0.0
 11
-74.7563273300000048
 21
359.8902344599999878
 31
0.0
  0
LINE
  5
24F
  8
SLD-0_3
  6
CONTINUOUS
 62
     7
 10
-110.695260360000006
 20
372.2106229299999995
 30
0.0
 11
-110.695260360000006
 21
359.8902344599999878
 31
0.0
  0
LINE
  5
250
  8
SLD-0_3
  6
CONTINUOUS
 62
     7
 10
-119.6790364699999998
 20
359.8902344599999878
 30
0.0
 11
-119.6790364699999998
 21
372.2106229299999995
 31
0.0
  0
LINE
  5
251
  8
SLD-0_3
  6
CONTINUOUS
 62
     7
 10
-83.7401034399999986
 20
372.2106229299999995
 30
0.0
 11
-83.7401034399999986
 21
359.8902344599999878
 31
0.0
  0
LINE
  5
252
  8
SLD-0_3
  6
CONTINUOUS
 62
     7
 10
-92.7238795500000066
 20
372.2106229299999995
 30
0.0
 11
-92.7238795500000066
 21
359.8902344599999878
 31
0.0
  0
LINE
  5
253
  8
SLD-0_3
  6
PHANTOM
 62
     7
 10
-24.3990109599999982
 20
354.9743205400000079
 30
0.0
 11
-11.6364208599999994
 21
354.9743205400000079
 31
0.0
  0
LINE
  5
254
  8
SLD-0_3
  6
PHANTOM
 62
     7
 10
-11.6364208599999994
 20
354.9743205400000079
 30
0.0
 11
-11.6364208599999994
 21
342.6539320800000041
 31
0.0
  0
LINE
  5
255
  8
SLD-0_3
  6
PHANTOM
 62
     7
 10
4.0837516100000002
 20
309.034164780000026
 30
0.0
 11
-3.3264758200000002
 21
309.034164780000026
 31
0.0
  0
LINE
  5
256
  8
SLD-0_3
  6
PHANTOM
 62
     7
 10
4.0837516100000002
 20
315.2087162000000262
 30
0.0
 11
4.0837516100000002
 21
318.913829920000012
 31
0.0
  0
LINE
  5
257
  8
SLD-0_3
  6
PHANTOM
 62
     7
 10
-3.3264758200000002
 20
300.3892184900000188
 30
0.0
 11
4.0837516100000002
 21
300.3892184900000188
 31
0.0
  0
LINE
  5
258
  8
SLD-0_3
  6
PHANTOM
 62
     7
 10
4.0837516100000002
 20
313.9739973499999905
 30
0.0
 11
-3.3264758200000002
 21
313.9739973499999905
 31
0.0
  0
LINE
  5
259
  8
SLD-0_3
  6
PHANTOM
 62
     7
 10
-5.9572453000000003
 20
204.7044800300000134
 30
0.0
 11
-5.9572453000000003
 21
194.6656190399999957
 31
0.0
  0
LINE
  5
25A
  8
SLD-0_3
  6
PHANTOM
 62
     7
 10
-13.4756900900000005
 20
194.675190520000001
 30
0.0
 11
-17.5312614700000005
 21
194.675190520000001
 31
0.0
  0
LINE
  5
25B
  8
SLD-0_3
  6
PHANTOM
 62
     7
 10
-29.6587036099999999
 20
193.776428640000006
 30
0.0
 11
-29.6638473400000002
 21
193.674015379999986
 31
0.0
  0
LINE
  5
25C
  8
SLD-0_3
  6
PHANTOM
 62
     7
 10
19.9026482400000013
 20
194.5042837899999881
 30
0.0
 11
19.8204257199999994
 21
194.5544138799999985
 31
0.0
  0
LINE
  5
25D
  8
SLD-0_3
  6
PHANTOM
 62
     7
 10
-24.2358476699999983
 20
194.675190520000001
 30
0.0
 11
-26.603551190000001
 21
194.675190520000001
 31
0.0
  0
LINE
  5
25E
  8
SLD-0_3
  6
PHANTOM
 62
     7
 10
-29.6190512000000012
 20
193.9718444799999872
 30
0.0
 11
-29.6436051899999988
 21
193.8758723200000134
 31
0.0
  0
LINE
  5
25F
  8
SLD-0_3
  6
PHANTOM
 62
     7
 10
-5.9572453000000003
 20
194.6656190399999957
 30
0.0
 11
9.8567275199999997
 21
194.6656190399999957
 31
0.0
  0
LINE
  5
260
  8
SLD-0_3
  6
PHANTOM
 62
     7
 10
20.3361864899999993
 20
193.776428640000006
 30
0.0
 11
20.3211455500000007
 21
193.8758723200000134
 31
0.0
  0
LINE
  5
261
  8
SLD-0_3
  6
PHANTOM
 62
     7
 10
8.2087233200000007
 20
194.675190520000001
 30
0.0
 11
4.1531519499999989
 21
194.675190520000001
 31
0.0
  0
LINE
  5
262
  8
SLD-0_3
  6
PHANTOM
 62
     7
 10
-0.18373074
 20
194.675190520000001
 30
0.0
 11
-4.6612690700000003
 21
194.675190520000001
 31
0.0
  0
LINE
  5
263
  8
SLD-0_3
  6
PHANTOM
 62
     7
 10
-21.1648658800000007
 20
194.675190520000001
 30
0.0
 11
-24.2358476699999983
 21
194.675190520000001
 31
0.0
  0
LINE
  5
264
  8
SLD-0_3
  6
PHANTOM
 62
     7
 10
-29.0549227600000002
 20
194.5965549500000122
 30
0.0
 11
-29.1421156199999984
 21
194.5544138799999985
 31
0.0
  0
LINE
  5
265
  8
SLD-0_3
  6
PHANTOM
 62
     7
 10
-29.5855408000000004
 20
194.0638431499999967
 30
0.0
 11
-29.6190512000000012
 21
193.9718444799999872
 31
0.0
  0
LINE
  5
266
  8
SLD-0_3
  6
PHANTOM
 62
     7
 10
9.8567275199999997
 20
194.6656190399999957
 30
0.0
 11
9.8567275199999997
 21
204.7044800300000134
 31
0.0
  0
LINE
  5
267
  8
SLD-0_3
  6
PHANTOM
 62
     7
 10
20.3413091900000005
 20
193.674015379999986
 30
0.0
 11
20.3361864899999993
 21
193.776428640000006
 31
0.0
  0
LINE
  5
268
  8
SLD-0_3
  6
PHANTOM
 62
     7
 10
20.1716138600000008
 20
194.2339123799999925
 30
0.0
 11
20.1143425799999989
 21
194.3109790199999907
 31
0.0
  0
LINE
  5
269
  8
SLD-0_3
  6
PHANTOM
 62
     7
 10
20.1143425799999989
 20
194.3109790199999907
 30
0.0
 11
20.0500973999999985
 21
194.382064430000014
 31
0.0
  0
LINE
  5
26A
  8
SLD-0_3
  6
PHANTOM
 62
     7
 10
-29.6638473400000002
 20
193.674015379999986
 30
0.0
 11
-29.6638473400000002
 21
88.7048527500000006
 31
0.0
  0
LINE
  5
26B
  8
SLD-0_3
  6
PHANTOM
 62
     7
 10
18.8047826299999983
 20
194.675190520000001
 30
0.0
 11
17.2810130400000013
 21
194.675190520000001
 31
0.0
  0
LINE
  5
26C
  8
SLD-0_3
  6
PHANTOM
 62
     7
 10
-26.603551190000001
 20
194.675190520000001
 30
0.0
 11
-28.1273207800000016
 21
194.675190520000001
 31
0.0
  0
LINE
  5
26D
  8
SLD-0_3
  6
PHANTOM
 62
     7
 10
-28.7685555899999983
 20
194.670024820000009
 30
0.0
 11
-28.8676436099999982
 21
194.6548623600000099
 31
0.0
  0
LINE
  5
26E
  8
SLD-0_3
  6
PHANTOM
 62
     7
 10
-29.3719176799999993
 20
194.382064430000014
 30
0.0
 11
-29.4362624100000012
 21
194.3109790199999907
 31
0.0
  0
LINE
  5
26F
  8
SLD-0_3
  6
PHANTOM
 62
     7
 10
20.3211455500000007
 20
193.8758723200000134
 30
0.0
 11
20.2966771000000001
 21
193.9718444799999872
 31
0.0
  0
LINE
  5
270
  8
SLD-0_3
  6
PHANTOM
 62
     7
 10
-28.1273207800000016
 20
194.675190520000001
 30
0.0
 11
-28.6665007900000006
 21
194.675190520000001
 31
0.0
  0
LINE
  5
271
  8
SLD-0_3
  6
PHANTOM
 62
     7
 10
20.2632718499999989
 20
194.0638431499999967
 30
0.0
 11
20.2214205299999996
 21
194.1513664400000039
 31
0.0
  0
LINE
  5
272
  8
SLD-0_3
  6
PHANTOM
 62
     7
 10
-4.6612690700000003
 20
194.675190520000001
 30
0.0
 11
-9.1388074100000001
 21
194.675190520000001
 31
0.0
  0
LINE
  5
273
  8
SLD-0_3
  6
PHANTOM
 62
     7
 10
-9.1388074100000001
 20
194.675190520000001
 30
0.0
 11
-13.4756900900000005
 21
194.675190520000001
 31
0.0
  0
LINE
  5
274
  8
SLD-0_3
  6
PHANTOM
 62
     7
 10
-29.1421156199999984
 20
194.5544138799999985
 30
0.0
 11
-29.2243451500000013
 21
194.5042837899999881
 31
0.0
  0
LINE
  5
275
  8
SLD-0_3
  6
PHANTOM
 62
     7
 10
-29.2243451500000013
 20
194.5042837899999881
 30
0.0
 11
-29.3011122200000003
 21
194.4466666700000133
 31
0.0
  0
LINE
  5
276
  8
SLD-0_3
  6
PHANTOM
 62
     7
 10
14.9133095200000003
 20
194.675190520000001
 30
0.0
 11
11.8423277299999992
 21
194.675190520000001
 31
0.0
  0
LINE
  5
277
  8
SLD-0_3
  6
PHANTOM
 62
     7
 10
-28.8676436099999982
 20
194.6548623600000099
 30
0.0
 11
-28.9632657100000017
 21
194.630205100000012
 31
0.0
  0
LINE
  5
278
  8
SLD-0_3
  6
PHANTOM
 62
     7
 10
-29.3011122200000003
 20
194.4466666700000133
 30
0.0
 11
-29.3719176799999993
 21
194.382064430000014
 31
0.0
  0
LINE
  5
279
  8
SLD-0_3
  6
PHANTOM
 62
     7
 10
-12.4868147799999996
 20
362.204870040000003
 30
0.0
 11
-9.2473834499999992
 21
369.0663869900000122
 31
0.0
  0
LINE
  5
27A
  8
SLD-0_3
  6
PHANTOM
 62
     7
 10
-16.8337258200000015
 20
345.1568699200000196
 30
0.0
 11
-16.8394687000000012
 21
343.4282635199999731
 31
0.0
  0
LINE
  5
27B
  8
SLD-0_3
  6
PHANTOM
 62
     7
 10
-24.3588108100000014
 20
354.2095605700000078
 30
0.0
 11
-16.8394687000000012
 21
354.2095605700000078
 31
0.0
  0
LINE
  5
27C
  8
SLD-0_3
  6
PHANTOM
 62
     7
 10
9.8687444499999994
 20
294.7966120699999806
 30
0.0
 11
9.8687444499999994
 21
319.5311893499999769
 31
0.0
  0
LINE
  5
27D
  8
SLD-0_3
  6
PHANTOM
 62
     7
 10
-0.93169553
 20
304.0014890100000002
 30
0.0
 11
-0.93169553
 21
300.3911327800000208
 31
0.0
  0
LINE
  5
27E
  8
SLD-0_3
  6
PHANTOM
 62
     7
 10
4.0837516100000002
 20
300.3892184900000188
 30
0.0
 11
4.0837516100000002
 21
304.0924179200000026
 31
0.0
  0
LINE
  5
27F
  8
SLD-0_3
  6
PHANTOM
 62
     7
 10
-3.3264758200000002
 20
310.2688836400000127
 30
0.0
 11
4.0837516100000002
 21
310.2688836400000127
 31
0.0
  0
LINE
  5
280
  8
SLD-0_3
  6
PHANTOM
 62
     7
 10
4.0837516100000002
 20
295.4474716299999955
 30
0.0
 11
4.0837516100000002
 21
299.1525853399999733
 31
0.0
  0
LINE
  5
281
  8
SLD-0_3
  6
PHANTOM
 62
     7
 10
-5.9452283699999988
 20
294.7966120699999806
 30
0.0
 11
9.8687444499999994
 21
294.7966120699999806
 31
0.0
  0
LINE
  5
282
  8
SLD-0_3
  6
PHANTOM
 62
     7
 10
-3.3264758200000002
 20
318.913829920000012
 30
0.0
 11
-3.3264758200000002
 21
315.2087162000000262
 31
0.0
  0
LINE
  5
283
  8
SLD-0_3
  6
PHANTOM
 62
     7
 10
-12.4538238900000007
 20
347.0998771100000226
 30
0.0
 11
-14.6227176300000004
 21
347.1151914499999975
 31
0.0
  0
LINE
  5
284
  8
SLD-0_3
  6
PHANTOM
 62
     7
 10
-3.3264758200000002
 20
295.4474716299999955
 30
0.0
 11
4.0837516100000002
 21
295.4474716299999955
 31
0.0
  0
LINE
  5
285
  8
SLD-0_3
  6
PHANTOM
 62
     7
 10
-0.93169553
 20
309.03607906000002
 30
0.0
 11
-0.93169553
 21
305.3309653499999854
 31
0.0
  0
LINE
  5
286
  8
SLD-0_3
  6
PHANTOM
 62
     7
 10
-3.3264758200000002
 20
315.2087162000000262
 30
0.0
 11
4.0837516100000002
 21
315.2087162000000262
 31
0.0
  0
LINE
  5
287
  8
SLD-0_3
  6
PHANTOM
 62
     7
 10
4.0837516100000002
 20
299.1525853399999733
 30
0.0
 11
-3.3264758200000002
 21
299.1525853399999733
 31
0.0
  0
LINE
  5
288
  8
SLD-0_3
  6
PHANTOM
 62
     7
 10
-3.3264758200000002
 20
305.3290510599999834
 30
0.0
 11
4.0837516100000002
 21
305.3290510599999834
 31
0.0
  0
LINE
  5
289
  8
SLD-0_3
  6
PHANTOM
 62
     7
 10
-9.2473834499999992
 20
369.0663869900000122
 30
0.0
 11
-9.2473834499999992
 21
362.204870040000003
 31
0.0
  0
LINE
  5
28A
  8
SLD-0_3
  6
PHANTOM
 62
     7
 10
-16.8394687000000012
 20
343.4282635199999731
 30
0.0
 11
-24.3588108100000014
 21
343.4282635199999731
 31
0.0
  0
LINE
  5
28B
  8
SLD-0_3
  6
PHANTOM
 62
     7
 10
-24.3990109599999982
 20
342.6539320800000041
 30
0.0
 11
-24.3990109599999982
 21
354.9743205400000079
 31
0.0
  0
LINE
  5
28C
  8
SLD-0_3
  6
PHANTOM
 62
     7
 10
-0.93169553
 20
299.1525853399999733
 30
0.0
 11
-0.93169553
 21
295.4493859099999895
 31
0.0
  0
LINE
  5
28D
  8
SLD-0_3
  6
PHANTOM
 62
     7
 10
-0.93169553
 20
313.9481543900000133
 30
0.0
 11
-0.93169553
 21
310.2688836400000127
 31
0.0
  0
LINE
  5
28E
  8
SLD-0_3
  6
PHANTOM
 62
     7
 10
-0.4263222300000001
 20
369.0663869900000122
 30
0.0
 11
3.1728739400000001
 21
362.204870040000003
 31
0.0
  0
LINE
  5
28F
  8
SLD-0_3
  6
PHANTOM
 62
     7
 10
-14.6227176300000004
 20
347.1151914499999975
 30
0.0
 11
-14.6322890999999995
 21
345.1568699200000196
 31
0.0
  0
LINE
  5
290
  8
SLD-0_3
  6
PHANTOM
 62
     7
 10
4.0837516100000002
 20
304.0924179200000026
 30
0.0
 11
-3.3264758200000002
 21
304.0924179200000026
 31
0.0
  0
LINE
  5
291
  8
SLD-0_3
  6
PHANTOM
 62
     7
 10
-0.4263222300000001
 20
362.2304474000000027
 30
0.0
 11
-0.4263222300000001
 21
369.0663869900000122
 31
0.0
  0
LINE
  5
292
  8
SLD-0_3
  6
PHANTOM
 62
     7
 10
-3.3264758200000002
 20
309.034164780000026
 30
0.0
 11
-3.3264758200000002
 21
305.3290510599999834
 31
0.0
  0
LINE
  5
293
  8
SLD-0_3
  6
PHANTOM
 62
     7
 10
4.0837516100000002
 20
310.2688836400000127
 30
0.0
 11
4.0837516100000002
 21
313.9739973499999905
 31
0.0
  0
LINE
  5
294
  8
SLD-0_3
  6
PHANTOM
 62
     7
 10
-11.6364208599999994
 20
342.6539320800000041
 30
0.0
 11
-24.3990109599999982
 21
342.6539320800000041
 31
0.0
  0
LINE
  5
295
  8
SLD-0_3
  6
PHANTOM
 62
     7
 10
-3.3264758200000002
 20
299.1525853399999733
 30
0.0
 11
-3.3264758200000002
 21
295.4474716299999955
 31
0.0
  0
LINE
  5
296
  8
SLD-0_3
  6
PHANTOM
 62
     7
 10
-3.3264758200000002
 20
304.0924179200000026
 30
0.0
 11
-3.3264758200000002
 21
300.3892184900000188
 31
0.0
  0
LINE
  5
297
  8
SLD-0_3
  6
PHANTOM
 62
     7
 10
-3.3264758200000002
 20
313.9739973499999905
 30
0.0
 11
-3.3264758200000002
 21
310.2688836400000127
 31
0.0
  0
LINE
  5
298
  8
SLD-0_3
  6
PHANTOM
 62
     7
 10
-14.6227176300000004
 20
350.5657042099999785
 30
0.0
 11
-12.4538238900000007
 21
350.5657042099999785
 31
0.0
  0
LINE
  5
299
  8
SLD-0_3
  6
PHANTOM
 62
     7
 10
-5.9452283699999988
 20
319.5311893499999769
 30
0.0
 11
-5.9452283699999988
 21
294.7966120699999806
 31
0.0
  0
LINE
  5
29A
  8
SLD-0_3
  6
PHANTOM
 62
     7
 10
-0.93169553
 20
318.8583154300000047
 30
0.0
 11
-0.93169553
 21
315.2106304999999793
 31
0.0
  0
LINE
  5
29B
  8
SLD-0_3
  6
PHANTOM
 62
     7
 10
-9.2473834499999992
 20
369.0663869900000122
 30
0.0
 11
-0.4263222300000001
 21
369.0663869900000122
 31
0.0
  0
LINE
  5
29C
  8
SLD-0_3
  6
PHANTOM
 62
     7
 10
-16.8337258200000015
 20
352.4704255600000238
 30
0.0
 11
-14.6322890999999995
 21
352.4704255600000238
 31
0.0
  0
LINE
  5
29D
  8
SLD-0_3
  6
PHANTOM
 62
     7
 10
-14.6322890999999995
 20
352.4704255600000238
 30
0.0
 11
-14.6227176300000004
 21
350.5657042099999785
 31
0.0
  0
LINE
  5
29E
  8
SLD-0_3
  6
PHANTOM
 62
     7
 10
-14.6322890999999995
 20
345.1568699200000196
 30
0.0
 11
-16.8337258200000015
 21
345.1568699200000196
 31
0.0
  0
LINE
  5
29F
  8
SLD-0_3
  6
PHANTOM
 62
     7
 10
4.0837516100000002
 20
305.3290510599999834
 30
0.0
 11
4.0837516100000002
 21
309.034164780000026
 31
0.0
  0
LINE
  5
2A0
  8
SLD-0_3
  6
PHANTOM
 62
     7
 10
-16.8394687000000012
 20
354.2095605700000078
 30
0.0
 11
-16.8337258200000015
 21
352.4704255600000238
 31
0.0
  0
LINE
  5
2A1
  8
SLD-0_3
  6
PHANTOM
 62
     7
 10
-12.4538238900000007
 20
350.5657042099999785
 30
0.0
 11
-12.4538238900000007
 21
347.0998771100000226
 31
0.0
  0
LINE
  5
2A2
  8
SLD-0_3
  6
PHANTOM
 62
     7
 10
-24.3588108100000014
 20
343.4282635199999731
 30
0.0
 11
-24.3588108100000014
 21
354.2095605700000078
 31
0.0
  0
LINE
  5
2A3
  8
SLD-0_3
  6
PHANTOM
 62
     7
 10
9.8687444499999994
 20
319.5311893499999769
 30
0.0
 11
-5.9452283699999988
 21
319.5311893499999769
 31
0.0
  0
LINE
  5
2A4
  8
SLD-0_3
  6
PHANTOM
 62
     7
 10
4.0837516100000002
 20
318.913829920000012
 30
0.0
 11
-3.3264758200000002
 21
318.913829920000012
 31
0.0
  0
LINE
  5
2A5
  8
SLD-0_3
  6
PHANTOM
 62
     7
 10
-29.5435731000000104
 20
194.1513664400000039
 30
0.0
 11
-29.5855408000000004
 21
194.0638431499999967
 31
0.0
  0
LINE
  5
2A6
  8
SLD-0_3
  6
PHANTOM
 62
     7
 10
20.0500973999999985
 20
194.382064430000014
 30
0.0
 11
19.9793690400000017
 21
194.4466666700000133
 31
0.0
  0
LINE
  5
2A7
  8
SLD-0_3
  6
PHANTOM
 62
     7
 10
19.7331922000000013
 20
194.5965549500000122
 30
0.0
 11
19.6414384099999992
 21
194.630205100000012
 31
0.0
  0
LINE
  5
2A8
  8
SLD-0_3
  6
PHANTOM
 62
     7
 10
4.1531519499999989
 20
194.675190520000001
 30
0.0
 11
-0.18373074
 21
194.675190520000001
 31
0.0
  0
LINE
  5
2A9
  8
SLD-0_3
  6
PHANTOM
 62
     7
 10
20.3413091900000005
 20
88.7048527500000006
 30
0.0
 11
20.3413091900000005
 21
193.674015379999986
 31
0.0
  0
LINE
  5
2AA
  8
SLD-0_3
  6
PHANTOM
 62
     7
 10
19.4463329000000016
 20
194.670024820000009
 30
0.0
 11
19.3439626400000009
 21
194.675190520000001
 31
0.0
  0
LINE
  5
2AB
  8
SLD-0_3
  6
PHANTOM
 62
     7
 10
-29.4362624100000012
 20
194.3109790199999907
 30
0.0
 11
-29.4936472599999995
 21
194.2339123799999925
 31
0.0
  0
LINE
  5
2AC
  8
SLD-0_3
  6
PHANTOM
 62
     7
 10
-29.4936472599999995
 20
194.2339123799999925
 30
0.0
 11
-29.5435731000000104
 21
194.1513664400000039
 31
0.0
  0
LINE
  5
2AD
  8
SLD-0_3
  6
PHANTOM
 62
     7
 10
20.2214205299999996
 20
194.1513664400000039
 30
0.0
 11
20.1716138600000008
 21
194.2339123799999925
 31
0.0
  0
LINE
  5
2AE
  8
SLD-0_3
  6
PHANTOM
 62
     7
 10
19.6414384099999992
 20
194.630205100000012
 30
0.0
 11
19.5456550699999987
 21
194.6548623600000099
 31
0.0
  0
LINE
  5
2AF
  8
SLD-0_3
  6
PHANTOM
 62
     7
 10
19.5456550699999987
 20
194.6548623600000099
 30
0.0
 11
19.4463329000000016
 21
194.670024820000009
 31
0.0
  0
LINE
  5
2B0
  8
SLD-0_3
  6
PHANTOM
 62
     7
 10
-29.6436051899999988
 20
193.8758723200000134
 30
0.0
 11
-29.6587036099999999
 21
193.776428640000006
 31
0.0
  0
LINE
  5
2B1
  8
SLD-0_3
  6
PHANTOM
 62
     7
 10
11.8423277299999992
 20
194.675190520000001
 30
0.0
 11
8.2087233200000007
 21
194.675190520000001
 31
0.0
  0
LINE
  5
2B2
  8
SLD-0_3
  6
PHANTOM
 62
     7
 10
-28.9632657100000017
 20
194.630205100000012
 30
0.0
 11
-29.0549227600000002
 21
194.5965549500000122
 31
0.0
  0
LINE
  5
2B3
  8
SLD-0_3
  6
PHANTOM
 62
     7
 10
19.9793690400000017
 20
194.4466666700000133
 30
0.0
 11
19.9026482400000013
 21
194.5042837899999881
 31
0.0
  0
LINE
  5
2B4
  8
SLD-0_3
  6
PHANTOM
 62
     7
 10
-28.6665007900000006
 20
194.675190520000001
 30
0.0
 11
-28.7685555899999983
 21
194.670024820000009
 31
0.0
  0
LINE
  5
2B5
  8
SLD-0_3
  6
PHANTOM
 62
     7
 10
20.2966771000000001
 20
193.9718444799999872
 30
0.0
 11
20.2632718499999989
 21
194.0638431499999967
 31
0.0
  0
LINE
  5
2B6
  8
SLD-0_3
  6
PHANTOM
 62
     7
 10
19.8204257199999994
 20
194.5544138799999985
 30
0.0
 11
19.7331922000000013
 21
194.5965549500000122
 31
0.0
  0
LINE
  5
2B7
  8
SLD-0_3
  6
PHANTOM
 62
     7
 10
19.3439626400000009
 20
194.675190520000001
 30
0.0
 11
18.8047826299999983
 21
194.675190520000001
 31
0.0
  0
LINE
  5
2B8
  8
SLD-0_3
  6
PHANTOM
 62
     7
 10
-17.5312614700000005
 20
194.675190520000001
 30
0.0
 11
-21.1648658800000007
 21
194.675190520000001
 31
0.0
  0
LINE
  5
2B9
  8
SLD-0_3
  6
PHANTOM
 62
     7
 10
17.2810130400000013
 20
194.675190520000001
 30
0.0
 11
14.9133095200000003
 21
194.675190520000001
 31
0.0
  0
LINE
  5
2BA
  8
SLD-0_1
  6
PHANTOM
 62
     7
 10
-144.1485439100000008
 20
316.422111980000011
 30
0.0
 11
-147.8547921500000086
 21
316.422111980000011
 31
0.0
  0
LINE
  5
2BB
  8
SLD-0_1
  6
PHANTOM
 62
     7
 10
-144.1485439100000008
 20
308.122037970000008
 30
0.0
 11
-147.8547921500000086
 21
308.122037970000008
 31
0.0
  0
LINE
  5
2BC
  8
SLD-0_1
  6
PHANTOM
 62
     7
 10
-147.8547921500000086
 20
309.1138764099999889
 30
0.0
 11
-144.1485439100000008
 21
309.1138764099999889
 31
0.0
  0
LINE
  5
2BD
  8
SLD-0_1
  6
PHANTOM
 62
     7
 10
-156.7468867299999999
 20
317.4112305900000024
 30
0.0
 11
-160.4513217299999894
 21
317.4112305900000024
 31
0.0
  0
LINE
  5
2BE
  8
SLD-0_1
  6
PHANTOM
 62
     7
 10
-160.4513217299999894
 20
324.7194661400000086
 30
0.0
 11
-156.7468867299999999
 21
324.7194661400000086
 31
0.0
  0
LINE
  5
2BF
  8
SLD-0_1
  6
PHANTOM
 62
     7
 10
-144.1485439100000008
 20
324.7194661400000086
 30
0.0
 11
-147.8547921500000086
 21
324.7194661400000086
 31
0.0
  0
LINE
  5
2C0
  8
SLD-0_1
  6
PHANTOM
 62
     7
 10
-156.7468867299999999
 20
309.1138764099999889
 30
0.0
 11
-160.4513217299999894
 21
309.1138764099999889
 31
0.0
  0
LINE
  5
2C1
  8
SLD-0_1
  6
PHANTOM
 62
     7
 10
-156.7468867299999999
 20
292.5182614600000193
 30
0.0
 11
-160.4513217299999894
 21
292.5182614600000193
 31
0.0
  0
LINE
  5
2C2
  8
SLD-0_1
  6
PHANTOM
 62
     7
 10
-160.4513217299999894
 20
333.0195401600000196
 30
0.0
 11
-156.7468867299999999
 21
333.0195401600000196
 31
0.0
  0
LINE
  5
2C3
  8
SLD-0_1
  6
PHANTOM
 62
     7
 10
-160.4513217299999894
 20
308.122037970000008
 30
0.0
 11
-156.7468867299999999
 21
308.122037970000008
 31
0.0
  0
LINE
  5
2C4
  8
SLD-0_1
  6
PHANTOM
 62
     7
 10
-156.7468867299999999
 20
300.8156156200000169
 30
0.0
 11
-160.4513217299999894
 21
300.8156156200000169
 31
0.0
  0
LINE
  5
2C5
  8
SLD-0_1
  6
PHANTOM
 62
     7
 10
-160.4513217299999894
 20
334.0050322800000231
 30
0.0
 11
-160.4513217299999894
 21
291.5300494800000024
 31
0.0
  0
LINE
  5
2C6
  8
SLD-0_1
  6
PHANTOM
 62
     7
 10
-147.8547921500000086
 20
300.8156156200000169
 30
0.0
 11
-144.1485439100000008
 21
300.8156156200000169
 31
0.0
  0
LINE
  5
2C7
  8
SLD-0_1
  6
PHANTOM
 62
     7
 10
-160.4513217299999894
 20
316.422111980000011
 30
0.0
 11
-156.7468867299999999
 21
316.422111980000011
 31
0.0
  0
LINE
  5
2C8
  8
SLD-0_1
  6
PHANTOM
 62
     7
 10
-167.8592851200000098
 20
363.6441387500000246
 30
0.0
 11
-167.8592851200000098
 21
280.6606243200000108
 31
0.0
  0
LINE
  5
2C9
  8
SLD-0_1
  6
PHANTOM
 62
     7
 10
-160.4513217299999894
 20
299.825590410000018
 30
0.0
 11
-156.7468867299999999
 21
299.825590410000018
 31
0.0
  0
LINE
  5
2CA
  8
SLD-0_1
  6
PHANTOM
 62
     7
 10
-134.2709571899999901
 20
363.6441387500000246
 30
0.0
 11
-167.8592851200000098
 21
363.6441387500000246
 31
0.0
  0
LINE
  5
2CC
  8
SLD-0_1
  6
PHANTOM
 62
     7
 10
-167.8592851200000098
 20
280.6606243200000108
 30
0.0
 11
-134.2709571899999901
 21
280.6606243200000108
 31
0.0
  0
LINE
  5
2CE
  8
SLD-0_1
  6
PHANTOM
 62
     7
 10
-147.8547921500000086
 20
317.4112305900000024
 30
0.0
 11
-144.1485439100000008
 21
317.4112305900000024
 31
0.0
  0
LINE
  5
2CF
  8
SLD-0_1
  6
PHANTOM
 62
     7
 10
-147.8547921500000086
 20
325.7076781299999766
 30
0.0
 11
-144.1485439100000008
 21
325.7076781299999766
 31
0.0
  0
LINE
  5
2D0
  8
SLD-0_1
  6
PHANTOM
 62
     7
 10
-144.1485439100000008
 20
333.0195401600000196
 30
0.0
 11
-147.8547921500000086
 21
333.0195401600000196
 31
0.0
  0
LINE
  5
2D1
  8
SLD-0_1
  6
PHANTOM
 62
     7
 10
-134.2709571899999901
 20
280.6606243200000108
 30
0.0
 11
-134.2709571899999901
 21
363.6441387500000246
 31
0.0
  0
LINE
  5
2D2
  8
SLD-0_1
  6
PHANTOM
 62
     7
 10
-156.7468867299999999
 20
325.7076781299999766
 30
0.0
 11
-160.4513217299999894
 21
325.7076781299999766
 31
0.0
  0
LINE
  5
2D3
  8
SLD-0_1
  6
PHANTOM
 62
     7
 10
-147.8547921500000086
 20
292.5182614600000193
 30
0.0
 11
-144.1485439100000008
 21
292.5182614600000193
 31
0.0
  0
LINE
  5
2D4
  8
SLD-0_1
  6
PHANTOM
 62
     7
 10
-144.1485439100000008
 20
299.825590410000018
 30
0.0
 11
-147.8547921500000086
 21
299.825590410000018
 31
0.0
  0
LINE
  5
2D5
  8
SLD-0_1
  6
PHANTOM
 62
     7
 10
-144.1485439100000008
 20
334.0050322800000231
 30
0.0
 11
-160.4513217299999894
 21
334.0050322800000231
 31
0.0
  0
CIRCLE
  5
2DB
  8
SLD-0_1
  6
PHANTOM
 62
     7
 10
-152.2974722399999905
 20
321.0605289700000071
 30
0.0
 40
3.360515739999999
  0
CIRCLE
  5
2DC
  8
SLD-0_1
  6
PHANTOM
 62
     7
 10
-152.2974722399999905
 20
312.7631748000000016
 30
0.0
 40
3.360515739999999
  0
CIRCLE
  5
2DD
  8
SLD-0_1
  6
PHANTOM
 62
     7
 10
-152.2974722399999905
 20
304.4649140000000216
 30
0.0
 40
3.360515739999999
  0
CIRCLE
  5
2DE
  8
SLD-0_1
  6
PHANTOM
 62
     7
 10
-152.2974722399999905
 20
296.167559840000024
 30
0.0
 40
3.360515739999999
  0
TEXT
  5
2DF
  8
SLD-0
 62
     7
 10
265.2583252700000003
 20
-389.9248852399999805
 30
0.0
 40
9.5250000000000004
  1
001
 41
1.4999999999999989
 72
     5
 11
293.8333252699999889
 21
-389.9248852399999805
 31
0.0
  0
TEXT
  5
2E0
  8
SLD-0
 62
     7
 10
-277.1645752300000254
 20
370.8748852499999771
 30
0.0
 40
9.5250000000000004
  1
-M2
 41
1.125
 72
     5
 11
-248.5895752300000083
 21
370.8748852499999771
 31
0.0
  0
TEXT
  5
2E1
  8
SLD-0
 62
     7
 10
-247.6523425400000065
 20
-50.7896749900000017
 30
0.0
 40
9.5250000000000004
  1
-R
 41
1.2
 72
     5
 11
-228.6023425399999951
 21
-50.7896749900000017
 31
0.0
  0
LINE
  5
341
  8
0
  6
CONTINUOUS
 10
-160.4513217299999894
 20
291.5300494800000024
 30
0.0
 11
-144.1485439100000008
 21
291.5300494800000024
 31
0.0
  0
LINE
  5
34E
  8
SLD-0
  6
PHANTOM
 62
     7
 10
-144.0733336721889088
 20
226.7044791543602003
 30
0.0
 11
-160.3697651721886928
 21
226.7044791543602003
 31
0.0
  0
LINE
  5
34F
  8
SLD-0_1
  6
PHANTOM
 62
     7
 10
-134.201186652188909
 20
74.7044796902745816
 30
0.0
 11
-134.201186652188909
 21
211.190980942395413
 31
0.0
  0
LINE
  5
350
  8
SLD-0_1
  6
PHANTOM
 62
     7
 10
-167.7541565321886878
 20
211.190980942395413
 30
0.0
 11
-167.7541565321886878
 21
74.7044796902745816
 31
0.0
  0
LINE
  5
351
  8
SLD-0_1
  6
PHANTOM
 62
     7
 10
-144.0733336721889088
 20
211.190980942395413
 30
0.0
 11
-144.0733336721889088
 21
226.7044791543602003
 31
0.0
  0
LINE
  5
352
  8
SLD-0_1
  6
PHANTOM
 62
     7
 10
-134.201186652188909
 20
211.190980942395413
 30
0.0
 11
-167.7541565321886878
 21
211.190980942395413
 31
0.0
  0
LINE
  5
353
  8
SLD-0_1
  6
PHANTOM
 62
     7
 10
-160.3697651721886928
 20
226.7044791543602003
 30
0.0
 11
-160.3697651721886928
 21
211.190980942395413
 31
0.0
  0
ENDSEC
  0
EOF
