  0
SECTION
  2
HEADER
  9
$ACADVER
  1
AC1014
  9
$ACADMAINTVER
 70
       0
  9
$DWGCODEPAGE
  3
ANSI_932
  9
$INSBASE
 10
0.0
 20
0.0
 30
0.0
  9
$EXTMIN
 10
-66.16815846
 20
-44.36718006
 30
0.0
  9
$EXTMAX
 10
123.48753608
 20
87.18424824
 30
0.0
  9
$LIMMIN
 10
-72.09489892
 20
-48.47816219
  9
$LIMMAX
 10
129.41427654
 20
91.29523037
  9
$ORTHOMODE
 70
       0
  9
$REGENMODE
 70
       1
  9
$FILLMODE
 70
       1
  9
$QTEXTMODE
 70
       0
  9
$MIRRTEXT
 70
       1
  9
$DRAGMODE
 70
       2
  9
$LTSCALE
 40
1.0
  9
$OSMODE
 70
       0
  9
$ATTMODE
 70
       1
  9
$TEXTSIZE
 40
0.2
  9
$TRACEWID
 40
0.05
  9
$TEXTSTYLE
  7
STANDARD
  9
$CLAYER
  8
0
  9
$CELTYPE
  6
CONTINUOUS
  9
$CECOLOR
 62
     256
  9
$CELTSCALE
 40
1.0
  9
$DELOBJ
 70
       1
  9
$DISPSILH
 70
       0
  9
$DIMSCALE
 40
1.0
  9
$DIMASZ
 40
0.18
  9
$DIMEXO
 40
0.0625
  9
$DIMDLI
 40
0.38
  9
$DIMRND
 40
0.0
  9
$DIMDLE
 40
0.0
  9
$DIMEXE
 40
0.18
  9
$DIMTP
 40
0.0
  9
$DIMTM
 40
0.0
  9
$DIMTXT
 40
0.18
  9
$DIMCEN
 40
0.09
  9
$DIMTSZ
 40
0.0
  9
$DIMTOL
 70
       0
  9
$DIMLIM
 70
       0
  9
$DIMTIH
 70
       1
  9
$DIMTOH
 70
       1
  9
$DIMSE1
 70
       0
  9
$DIMSE2
 70
       0
  9
$DIMTAD
 70
       0
  9
$DIMZIN
 70
       0
  9
$DIMBLK
  1

  9
$DIMASO
 70
       1
  9
$DIMSHO
 70
       1
  9
$DIMPOST
  1

  9
$DIMAPOST
  1

  9
$DIMALT
 70
       0
  9
$DIMALTD
 70
       2
  9
$DIMALTF
 40
25.4
  9
$DIMLFAC
 40
1.0
  9
$DIMTOFL
 70
       0
  9
$DIMTVP
 40
0.0
  9
$DIMTIX
 70
       0
  9
$DIMSOXD
 70
       0
  9
$DIMSAH
 70
       0
  9
$DIMBLK1
  1

  9
$DIMBLK2
  1

  9
$DIMSTYLE
  2
STANDARD
  9
$DIMCLRD
 70
       0
  9
$DIMCLRE
 70
       0
  9
$DIMCLRT
 70
       0
  9
$DIMTFAC
 40
1.0
  9
$DIMGAP
 40
0.09
  9
$DIMJUST
 70
       0
  9
$DIMSD1
 70
       0
  9
$DIMSD2
 70
       0
  9
$DIMTOLJ
 70
       1
  9
$DIMTZIN
 70
       0
  9
$DIMALTZ
 70
       0
  9
$DIMALTTZ
 70
       0
  9
$DIMFIT
 70
       3
  9
$DIMUPT
 70
       0
  9
$DIMUNIT
 70
       2
  9
$DIMDEC
 70
       4
  9
$DIMTDEC
 70
       4
  9
$DIMALTU
 70
       2
  9
$DIMALTTD
 70
       2
  9
$DIMTXSTY
  7
STANDARD
  9
$DIMAUNIT
 70
       0
  9
$LUNITS
 70
       2
  9
$LUPREC
 70
       4
  9
$SKETCHINC
 40
0.1
  9
$FILLETRAD
 40
0.0
  9
$AUNITS
 70
       0
  9
$AUPREC
 70
       0
  9
$MENU
  1
acad
  9
$ELEVATION
 40
0.0
  9
$PELEVATION
 40
0.0
  9
$THICKNESS
 40
0.0
  9
$LIMCHECK
 70
       0
  9
$BLIPMODE
 70
       1
  9
$CHAMFERA
 40
0.0
  9
$CHAMFERB
 40
0.0
  9
$CHAMFERC
 40
0.0
  9
$CHAMFERD
 40
0.0
  9
$SKPOLY
 70
       0
  9
$TDCREATE
 40
0.000000000
  9
$TDUPDATE
 40
0.000000000
  9
$TDINDWG
 40
0.0000000000
  9
$TDUSRTIMER
 40
0.0000000000
  9
$USRTIMER
 70
       1
  9
$ANGBASE
 50
0.0
  9
$ANGDIR
 70
       0
  9
$PDMODE
 70
       0
  9
$PDSIZE
 40
1.0
  9
$PLINEWID
 40
0.0
  9
$COORDS
 70
       1
  9
$SPLFRAME
 70
       0
  9
$SPLINETYPE
 70
       6
  9
$SPLINESEGS
 70
       8
  9
$ATTDIA
 70
       0
  9
$ATTREQ
 70
       1
  9
$HANDLING
 70
       1
  9
$HANDSEED
  5
1DB
  9
$SURFTAB1
 70
       6
  9
$SURFTAB2
 70
       6
  9
$SURFTYPE
 70
       6
  9
$SURFU
 70
       6
  9
$SURFV
 70
       6
  9
$UCSNAME
  2

  9
$UCSORG
 10
0.0
 20
0.0
 30
0.0
  9
$UCSXDIR
 10
1.0
 20
0.0
 30
0.0
  9
$UCSYDIR
 10
0.0
 20
1.0
 30
0.0
  9
$PUCSNAME
  2

  9
$PUCSORG
 10
0.0
 20
0.0
 30
0.0
  9
$PUCSXDIR
 10
1.0
 20
0.0
 30
0.0
  9
$PUCSYDIR
 10
0.0
 20
1.0
 30
0.0
  9
$USERI1
 70
       0
  9
$USERI2
 70
       0
  9
$USERI3
 70
       0
  9
$USERI4
 70
       0
  9
$USERI5
 70
       0
  9
$USERR1
 40
0.0
  9
$USERR2
 40
0.0
  9
$USERR3
 40
0.0
  9
$USERR4
 40
0.0
  9
$USERR5
 40
0.0
  9
$WORLDVIEW
 70
       1
  9
$SHADEDGE
 70
       3
  9
$SHADEDIF
 70
      70
  9
$TILEMODE
 70
       1
  9
$MAXACTVP
 70
      16
  9
$PINSBASE
 10
0.0
 20
0.0
 30
0.0
  9
$PLIMCHECK
 70
       0
  9
$PEXTMIN
 10
1.00000000E+20
 20
1.00000000E+20
 30
1.00000000E+20
  9
$PEXTMAX
 10
-1.00000000E+20
 20
-1.00000000E+20
 30
-1.00000000E+20
  9
$PLIMMIN
 10
0.0
 20
0.0
  9
$PLIMMAX
 10
12.0
 20
9.0
  9
$UNITMODE
 70
       0
  9
$VISRETAIN
 70
       0
  9
$PLINEGEN
 70
       1
  9
$PSLTSCALE
 70
       0
  9
$TREEDEPTH
 70
    3020
  9
$PICKSTYLE
 70
       1
  9
$CMLSTYLE
  2
STANDARD
  9
$CMLJUST
 70
       0
  9
$CMLSCALE
 40
1.0
  9
$PROXYGRAPHICS
 70
       0
  9
$MEASUREMENT
 70
       0
  0
ENDSEC
  0
SECTION
  2
CLASSES
  0
CLASS
  1
LWPOLYLINE
  2
AcDbPolyline
  3
"AutoCAD"
 90
        0
280
       0
281
       1
  0
CLASS
  1
IMAGE
  2
AcDbRasterImage
  3
ISM
 90
      127
280
       0
281
       1
  0
CLASS
  1
OLE2FRAME
  2
AcDbOle2Frame
  3
""
 90
        0
280
       0
281
       1
  0
CLASS
  1
HATCH
  2
AcDbHatch
  3
"ACAD_SEDONA"
 90
        0
280
       0
281
       1
  0
CLASS
  1
DICTIONARYVAR
  2
AcDbDictionaryVar
  3
"AutoCAD"
 90
        0
280
       0
281
       0
  0
CLASS
  1
RASTERVARIABLES
  2
AcDbRasterVariables
  3
ISM
 90
        0
280
       0
281
       0
  0
CLASS
  1
IMAGEDEF
  2
AcDbRasterImageDef
  3
ISM
 90
        0
280
       0
281
       0
  0
CLASS
  1
IMAGEDEF_REACTOR
  2
AcDbRasterImageDefReactor
  3
ISM
 90
        1
280
       0
281
       0
  0
CLASS
  1
IDBUFFER
  2
AcDbIdBuffer
  3
"Acad"
 90
        0
280
       0
281
       0
  0
CLASS
  1
SPATIAL_FILTER
  2
AcDbSpatialFilter
  3
"Acad"
 90
        0
280
       0
281
       0
  0
CLASS
  1
XRECORD
  2
AcDbXrecord
  3
"<Built In>"
 90
        0
280
       0
281
       0
  0
CLASS
  1
SORTENTSTABLE
  2
AcDbSortentsTable
  3
"AutoCAD"
 90
        0
280
       0
281
       0
  0
CLASS
  1
LAYER_INDEX
  2
AcDbLayerIndex
  3
"Acad"
 90
        0
280
       0
281
       0
  0
CLASS
  1
SPATIAL_INDEX
  2
AcDbSpatialIndex
  3
"Acad"
 90
        0
280
       0
281
       0
  0
CLASS
  1
OBJECT_PTR
  2
CAseDLPNTableRecord
  3
"ASE-LPNTableRecord"
 90
        1
280
       0
281
       0
  0
CLASS
  1
LAYOUT
  2
AcDbLayout
  3
"AutoCAD 2000"
 90
        1
280
       0
281
       0
  0
CLASS
  1
PLOTSETTINGS
  2
AcDbPlotSettings
  3
"AutoCAD 2000"
 90
        1
280
       0
281
       0
  0
CLASS
  1
ACDBDICTIONARYWDFLT
  2
AcDbDictionaryWithDefault
  3
"AutoCAD 2000"
 90
        1
280
       0
281
       0
  0
CLASS
  1
ACDBPLACEHOLDER
  2
AcDbPlaceHolder
  3
"AutoCAD 2000"
 90
        1
280
       0
281
       0
  0
CLASS
  1
VBA_PROJECT
  2
AcDbVbaProject
  3
"acadvba"
 90
        1
280
       0
281
       0
  0
CLASS
  1
WIPEOUT
  2
AcDbWipeout
  3
WipeOut|AutoCAD Express Tool|expresstools@autodesk.com
 90
      127
280
       0
281
       1
  0
CLASS
  1
WIPEOUTVARIABLES
  2
AcDbWipeoutVariables
  3
WipeOut|AutoCAD Express Tool|expresstools@autodesk.com
 90
        0
280
       0
281
       0
  0
CLASS
  1
RTEXT
  2
RText
  3
RText|AutoCAD Express Tool|expresstools@autodesk.com
 90
        0
280
       0
281
       1
  0
CLASS
  1
ARCALIGNEDTEXT
  2
AcDbArcAlignedText
  3
ATEXT|AutoCAD Express Tool|expresstools@autodesk.com
 90
        0
280
       0
281
       1
  0
ENDSEC
  0
SECTION
  2
TABLES
  0
TABLE
  2
VPORT
  5
7
100
AcDbSymbolTable
 70
       1
  0
VPORT
  5
15
100
AcDbSymbolTableRecord
100
AcDbViewportTableRecord
  2
*ACTIVE
 70
       0
 10
0.0
 20
0.0
 11
1.0
 21
1.0
 12
28.65968881
 22
21.40853409
 13
0.0
 23
0.0
 14
1.0
 24
1.0
 15
0.0
 25
0.0
 16
0.0
 26
0.0
 36
1.0
 17
0.0
 27
0.0
 37
0.0
 40
139.77339257
 41
1.4416848
 42
50.0
 43
0.0
 44
0.0
 50
0.0
 51
0.0
 71
       0
 72
     100
 73
       1
 74
       1
 75
       0
 76
       0
 77
       0
 78
       0
  0
ENDTAB
  0
TABLE
  2
LTYPE
  5
4
100
AcDbSymbolTable
 70
      30
  0
LTYPE
  5
11
100
AcDbSymbolTableRecord
100
AcDbLinetypeTableRecord
  2
BYBLOCK
 70
      64
  3

 72
      65
 73
       0
 40
0.0
  0
LTYPE
  5
12
100
AcDbSymbolTableRecord
100
AcDbLinetypeTableRecord
  2
BYLAYER
 70
      64
  3

 72
      65
 73
       0
 40
0.0
  0
LTYPE
  5
13
100
AcDbSymbolTableRecord
100
AcDbLinetypeTableRecord
  2
CONTINUOUS
 70
      64
  3
Solid line
 72
      65
 73
       0
 40
0.0
  0
LTYPE
  5
1D
100
AcDbSymbolTableRecord
100
AcDbLinetypeTableRecord
  2
HIDDENX2
 70
      64
  3
CADPAC LINETYPE
 72
      65
 73
       2
 40
9.97071389
 49
7.47803542
 74
       0
 49
-2.49267847
 74
       0
  0
LTYPE
  5
1E
100
AcDbSymbolTableRecord
100
AcDbLinetypeTableRecord
  2
HIDDEN
 70
      64
  3
CADPAC LINETYPE
 72
      65
 73
       2
 40
7.47803542
 49
4.98535695
 74
       0
 49
-2.49267847
 74
       0
  0
LTYPE
  5
1F
100
AcDbSymbolTableRecord
100
AcDbLinetypeTableRecord
  2
HIDDEN2
 70
      64
  3
CADPAC LINETYPE
 72
      65
 73
       2
 40
6.23169618
 49
3.73901771
 74
       0
 49
-2.49267847
 74
       0
  0
LTYPE
  5
20
100
AcDbSymbolTableRecord
100
AcDbLinetypeTableRecord
  2
DASHED
 70
      64
  3
CADPAC LINETYPE
 72
      65
 73
       2
 40
7.47803542
 49
4.98535695
 74
       0
 49
-2.49267847
 74
       0
  0
LTYPE
  5
21
100
AcDbSymbolTableRecord
100
AcDbLinetypeTableRecord
  2
DASHED2
 70
      64
  3
CADPAC LINETYPE
 72
      65
 73
       2
 40
5.60852656
 49
3.73901771
 74
       0
 49
-1.86950885
 74
       0
  0
LTYPE
  5
22
100
AcDbSymbolTableRecord
100
AcDbLinetypeTableRecord
  2
DASHEDX2
 70
      64
  3
CADPAC LINETYPE
 72
      65
 73
       2
 40
11.21705313
 49
7.47803542
 74
       0
 49
-3.73901771
 74
       0
  0
LTYPE
  5
23
100
AcDbSymbolTableRecord
100
AcDbLinetypeTableRecord
  2
DOTX2
 70
      64
  3
CADPAC LINETYPE
 72
      65
 73
       2
 40
3.11584809
 49
0.0
 74
       0
 49
-3.11584809
 74
       0
  0
LTYPE
  5
24
100
AcDbSymbolTableRecord
100
AcDbLinetypeTableRecord
  2
DOT
 70
      64
  3
CADPAC LINETYPE
 72
      65
 73
       2
 40
2.49267847
 49
0.0
 74
       0
 49
-2.49267847
 74
       0
  0
LTYPE
  5
25
100
AcDbSymbolTableRecord
100
AcDbLinetypeTableRecord
  2
DOT2
 70
      64
  3
CADPAC LINETYPE
 72
      65
 73
       2
 40
1.86950885
 49
0.0
 74
       0
 49
-1.86950885
 74
       0
  0
LTYPE
  5
26
100
AcDbSymbolTableRecord
100
AcDbLinetypeTableRecord
  2
CENTERX2
 70
      64
  3
CADPAC LINETYPE
 72
      65
 73
       4
 40
14.95607084
 49
6.23169618
 74
       0
 49
-3.11584809
 74
       0
 49
2.49267847
 74
       0
 49
-3.11584809
 74
       0
  0
LTYPE
  5
27
100
AcDbSymbolTableRecord
100
AcDbLinetypeTableRecord
  2
CENTER
 70
      64
  3
CADPAC LINETYPE
 72
      65
 73
       4
 40
11.46632097
 49
4.98535695
 74
       0
 49
-2.49267847
 74
       0
 49
1.49560708
 74
       0
 49
-2.49267847
 74
       0
  0
LTYPE
  5
28
100
AcDbSymbolTableRecord
100
AcDbLinetypeTableRecord
  2
CENTER2
 70
      64
  3
CADPAC LINETYPE
 72
      65
 73
       4
 40
7.97657111
 49
3.73901771
 74
       0
 49
-1.86950885
 74
       0
 49
0.49853569
 74
       0
 49
-1.86950885
 74
       0
  0
LTYPE
  5
29
100
AcDbSymbolTableRecord
100
AcDbLinetypeTableRecord
  2
DASHDOTX2
 70
      64
  3
CADPAC LINETYPE
 72
      65
 73
       4
 40
12.46339236
 49
6.23169618
 74
       0
 49
-3.11584809
 74
       0
 49
0.0
 74
       0
 49
-3.11584809
 74
       0
  0
LTYPE
  5
2A
100
AcDbSymbolTableRecord
100
AcDbLinetypeTableRecord
  2
DASHDOT
 70
      64
  3
CADPAC LINETYPE
 72
      65
 73
       4
 40
9.97071389
 49
4.98535695
 74
       0
 49
-2.49267847
 74
       0
 49
0.0
 74
       0
 49
-2.49267847
 74
       0
  0
LTYPE
  5
2B
100
AcDbSymbolTableRecord
100
AcDbLinetypeTableRecord
  2
DASHDOT2
 70
      64
  3
CADPAC LINETYPE
 72
      65
 73
       4
 40
7.47803542
 49
3.73901771
 74
       0
 49
-1.86950885
 74
       0
 49
0.0
 74
       0
 49
-1.86950885
 74
       0
  0
LTYPE
  5
2C
100
AcDbSymbolTableRecord
100
AcDbLinetypeTableRecord
  2
DIVIDEX2
 70
      64
  3
CADPAC LINETYPE
 72
      65
 73
       6
 40
15.57924045
 49
6.23169618
 74
       0
 49
-3.11584809
 74
       0
 49
0.0
 74
       0
 49
-3.11584809
 74
       0
 49
0.0
 74
       0
 49
-3.11584809
 74
       0
  0
LTYPE
  5
2D
100
AcDbSymbolTableRecord
100
AcDbLinetypeTableRecord
  2
DIVIDE
 70
      64
  3
CADPAC LINETYPE
 72
      65
 73
       6
 40
12.46339236
 49
4.98535695
 74
       0
 49
-2.49267847
 74
       0
 49
0.0
 74
       0
 49
-2.49267847
 74
       0
 49
0.0
 74
       0
 49
-2.49267847
 74
       0
  0
LTYPE
  5
2E
100
AcDbSymbolTableRecord
100
AcDbLinetypeTableRecord
  2
DIVIDE2
 70
      64
  3
CADPAC LINETYPE
 72
      65
 73
       6
 40
9.34754427
 49
3.73901771
 74
       0
 49
-1.86950885
 74
       0
 49
0.0
 74
       0
 49
-1.86950885
 74
       0
 49
0.0
 74
       0
 49
-1.86950885
 74
       0
  0
LTYPE
  5
2F
100
AcDbSymbolTableRecord
100
AcDbLinetypeTableRecord
  2
BORDERX2
 70
      64
  3
CADPAC LINETYPE
 72
      65
 73
       6
 40
21.81093664
 49
6.23169618
 74
       0
 49
-3.11584809
 74
       0
 49
6.23169618
 74
       0
 49
-3.11584809
 74
       0
 49
0.0
 74
       0
 49
-3.11584809
 74
       0
  0
LTYPE
  5
30
100
AcDbSymbolTableRecord
100
AcDbLinetypeTableRecord
  2
BORDER
 70
      64
  3
CADPAC LINETYPE
 72
      65
 73
       6
 40
17.44874931
 49
4.98535695
 74
       0
 49
-2.49267847
 74
       0
 49
4.98535695
 74
       0
 49
-2.49267847
 74
       0
 49
0.0
 74
       0
 49
-2.49267847
 74
       0
  0
LTYPE
  5
31
100
AcDbSymbolTableRecord
100
AcDbLinetypeTableRecord
  2
BORDER2
 70
      64
  3
CADPAC LINETYPE
 72
      65
 73
       6
 40
13.08656198
 49
3.73901771
 74
       0
 49
-1.86950885
 74
       0
 49
3.73901771
 74
       0
 49
-1.86950885
 74
       0
 49
0.0
 74
       0
 49
-1.86950885
 74
       0
  0
LTYPE
  5
32
100
AcDbSymbolTableRecord
100
AcDbLinetypeTableRecord
  2
PHANTOMX2
 70
      64
  3
CADPAC LINETYPE
 72
      65
 73
       6
 40
18.69508855
 49
6.23169618
 74
       0
 49
-2.49267847
 74
       0
 49
2.49267847
 74
       0
 49
-2.49267847
 74
       0
 49
2.49267847
 74
       0
 49
-2.49267847
 74
       0
  0
LTYPE
  5
33
100
AcDbSymbolTableRecord
100
AcDbLinetypeTableRecord
  2
PHANTOM
 70
      64
  3
CADPAC LINETYPE
 72
      65
 73
       6
 40
15.45460653
 49
4.98535695
 74
       0
 49
-2.49267847
 74
       0
 49
1.49560708
 74
       0
 49
-2.49267847
 74
       0
 49
1.49560708
 74
       0
 49
-2.49267847
 74
       0
  0
LTYPE
  5
34
100
AcDbSymbolTableRecord
100
AcDbLinetypeTableRecord
  2
PHANTOM2
 70
      64
  3
CADPAC LINETYPE
 72
      65
 73
       6
 40
13.21119591
 49
3.73901771
 74
       0
 49
-2.49267847
 74
       0
 49
0.99707139
 74
       0
 49
-2.49267847
 74
       0
 49
0.99707139
 74
       0
 49
-2.49267847
 74
       0
  0
LTYPE
  5
35
100
AcDbSymbolTableRecord
100
AcDbLinetypeTableRecord
  2
ACAD_ISO06W100
 70
      64
  3
CADPAC LINETYPE
 72
      65
 73
       8
 40
16.82557969
 49
6.23169618
 74
       0
 49
-3.11584809
 74
       0
 49
0.0
 74
       0
 49
-2.49267847
 74
       0
 49
0.0
 74
       0
 49
-2.49267847
 74
       0
 49
0.0
 74
       0
 49
-2.49267847
 74
       0
  0
LTYPE
  5
36
100
AcDbSymbolTableRecord
100
AcDbLinetypeTableRecord
  2
ACAD_ISO13W100
 70
      64
  3
CADPAC LINETYPE
 72
      65
 73
       8
 40
19.94142778
 49
4.98535695
 74
       0
 49
-2.49267847
 74
       0
 49
4.98535695
 74
       0
 49
-2.49267847
 74
       0
 49
0.0
 74
       0
 49
-2.49267847
 74
       0
 49
0.0
 74
       0
 49
-2.49267847
 74
       0
  0
LTYPE
  5
37
100
AcDbSymbolTableRecord
100
AcDbLinetypeTableRecord
  2
ACAD_ISO14W100
 70
      64
  3
CADPAC LINETYPE
 72
      65
 73
       8
 40
14.95607084
 49
4.98535695
 74
       0
 49
-2.49267847
 74
       0
 49
0.0
 74
       0
 49
-2.49267847
 74
       0
 49
0.0
 74
       0
 49
-2.49267847
 74
       0
 49
0.0
 74
       0
 49
-2.49267847
 74
       0
  0
ENDTAB
  0
TABLE
  2
LAYER
  5
2
100
AcDbSymbolTable
 70
       4
  0
LAYER
  5
14
100
AcDbSymbolTableRecord
100
AcDbLayerTableRecord
  2
0
 70
       0
 62
       7
  6
CONTINUOUS
  0
LAYER
  5
38
100
AcDbSymbolTableRecord
100
AcDbLayerTableRecord
  2
LAYER0001
 70
       0
 62
       7
  6
CONTINUOUS
  0
LAYER
  5
39
100
AcDbSymbolTableRecord
100
AcDbLayerTableRecord
  2
LAYER0002
 70
       0
 62
       7
  6
CONTINUOUS
  0
LAYER
  5
3A
100
AcDbSymbolTableRecord
100
AcDbLayerTableRecord
  2
LAYER0003
 70
       0
 62
       7
  6
CONTINUOUS
  0
ENDTAB
  0
TABLE
  2
STYLE
  5
3
100
AcDbSymbolTable
 70
       1
  0
STYLE
  5
17
100
AcDbSymbolTableRecord
100
AcDbTextStyleTableRecord
  2
STANDARD
 70
       0
 40
0.0
 41
1.0
 50
0.0
 71
       0
 42
5.0
  3
txt.shx
  4
bigfont.shx
  0
ENDTAB
  0
TABLE
  2
VIEW
  5
5
100
AcDbSymbolTable
 70
       1
  0
VIEW
  5
3B
100
AcDbSymbolTableRecord
100
AcDbViewTableRecord
  2
QQQQ
 70
       0
 40
139.77339257
 10
28.65968881
 20
21.40853409
 41
201.50917546
 11
0.0
 21
0.0
 31
1.0
 12
100.0
 22
100.0
 32
0.0
 42
50.0
 43
0.0
 44
0.0
 50
0.0
 71
       0
  0
ENDTAB
  0
TABLE
  2
UCS
  5
6
100
AcDbSymbolTable
 70
       0
  0
ENDTAB
  0
TABLE
  2
APPID
  5
8
100
AcDbSymbolTable
 70
       1
  0
APPID
  5
16
100
AcDbSymbolTableRecord
100
AcDbRegAppTableRecord
  2
ACAD
 70
       0
  0
ENDTAB
  0
TABLE
  2
DIMSTYLE
  5
9
100
AcDbSymbolTable
 70
       1
  0
DIMSTYLE
105
18
100
AcDbSymbolTableRecord
100
AcDbDimStyleTableRecord
  2
STANDARD
 70
       0
  3

  4

  5

  6

  7

 40
1.0
 41
0.18
 42
0.0625
 43
0.38
 44
0.18
 45
0.0
 46
0.0
 47
0.0
 48
0.0
 71
       0
 72
       0
 73
       1
 74
       1
 75
       0
 76
       0
 77
       0
 78
       0
140
0.18
141
0.09
142
0.0
143
25.4
144
1.0
145
0.0
146
1.0
147
0.09
170
       0
171
       2
172
       0
173
       0
174
       0
175
       0
176
       0
177
       0
178
       0
270
       2
271
       4
272
       4
273
       2
274
       2
275
       0
280
       0
281
       0
282
       0
283
       1
284
       0
285
       0
286
       0
287
       0
288
       0
340
17
  0
ENDTAB
  0
TABLE
  2
BLOCK_RECORD
  5
1
100
AcDbSymbolTable
 70
       0
  0
BLOCK_RECORD
  5
A
100
AcDbSymbolTableRecord
100
AcDbBlockTableRecord
  2
*MODEL_SPACE
  0
BLOCK_RECORD
  5
B
100
AcDbSymbolTableRecord
100
AcDbBlockTableRecord
  2
*PAPER_SPACE
  0
ENDTAB
  0
ENDSEC
  0
SECTION
  2
BLOCKS
  0
BLOCK
  5
D
100
AcDbEntity
  8
0
100
AcDbBlockBegin
  2
*MODEL_SPACE
 70
       0
 10
0.0
 20
0.0
 30
0.0
  3
*MODEL_SPACE
  1

  0
ENDBLK
  5
E
100
AcDbEntity
  8
0
100
AcDbBlockEnd
  0
BLOCK
  5
F
100
AcDbEntity
 67
       1
  8
0
100
AcDbBlockBegin
  2
*PAPER_SPACE
 70
       0
 10
0.0
 20
0.0
 30
0.0
  3
*PAPER_SPACE
  1

  0
ENDBLK
  5
10
100
AcDbEntity
 67
       1
  8
0
100
AcDbBlockEnd
  0
ENDSEC
  0
SECTION
  2
ENTITIES
  0
LINE
  5
3C
100
AcDbEntity
  8
LAYER0003
  6
CONTINUOUS
 62
       7
100
AcDbLine
 10
-58.98778433
 20
76.45710501
 30
0.0
 11
-58.98778433
 21
-13.54289499
 31
0.0
  0
LINE
  5
3D
100
AcDbEntity
  8
LAYER0003
  6
CONTINUOUS
 62
       7
100
AcDbLine
 10
-40.98778433
 20
76.45710501
 30
0.0
 11
-40.98778433
 21
-13.54289499
 31
0.0
  0
LINE
  5
3E
100
AcDbEntity
  8
LAYER0003
  6
CONTINUOUS
 62
       7
100
AcDbLine
 10
-40.98778433
 20
76.45710501
 30
0.0
 11
-58.98778433
 21
76.45710501
 31
0.0
  0
LINE
  5
3F
100
AcDbEntity
  8
LAYER0003
  6
CONTINUOUS
 62
       7
100
AcDbLine
 10
-40.98778433
 20
-13.54289499
 30
0.0
 11
-58.98778433
 21
-13.54289499
 31
0.0
  0
LINE
  5
40
100
AcDbEntity
  8
LAYER0003
  6
CONTINUOUS
 62
       7
100
AcDbLine
 10
-46.98778439
 20
82.05710501
 30
0.0
 11
-52.98778514
 21
82.05710501
 31
0.0
  0
LINE
  5
41
100
AcDbEntity
  8
LAYER0003
  6
CONTINUOUS
 62
       7
100
AcDbLine
 10
-46.98778439
 20
82.05710501
 30
0.0
 11
-46.98778439
 21
76.45710501
 31
0.0
  0
LINE
  5
42
100
AcDbEntity
  8
LAYER0003
  6
CONTINUOUS
 62
       7
100
AcDbLine
 10
-52.98778514
 20
76.45710501
 30
0.0
 11
-52.98778514
 21
82.05710501
 31
0.0
  0
LINE
  5
43
100
AcDbEntity
  8
LAYER0003
  6
CONTINUOUS
 62
       7
100
AcDbLine
 10
-40.98778433
 20
74.45710491
 30
0.0
 11
-58.98778433
 21
74.45710491
 31
0.0
  0
LINE
  5
44
100
AcDbEntity
  8
LAYER0003
  6
CONTINUOUS
 62
       7
100
AcDbLine
 10
112.51478691
 20
71.45710501
 30
0.0
 11
119.61513807
 21
71.45710501
 31
0.0
  0
LINE
  5
45
100
AcDbEntity
  8
LAYER0003
  6
CONTINUOUS
 62
       7
100
AcDbLine
 10
117.41671928
 20
73.45710646
 30
0.0
 11
112.51478859
 21
73.45710646
 31
0.0
  0
LINE
  5
46
100
AcDbEntity
  8
LAYER0003
  6
CONTINUOUS
 62
       7
100
AcDbLine
 10
117.41671928
 20
73.91370133
 30
0.0
 11
117.41671928
 21
73.45710646
 31
0.0
  0
LINE
  5
47
100
AcDbEntity
  8
LAYER0003
  6
CONTINUOUS
 62
       7
100
AcDbLine
 10
119.84031119
 20
71.95531156
 30
0.0
 11
117.94187346
 21
74.1119182
 31
0.0
  0
LINE
  5
48
100
AcDbEntity
  8
LAYER0003
  6
CONTINUOUS
 62
       7
100
AcDbLine
 10
93.1667467
 20
80.31459421
 30
0.0
 11
95.36773016
 21
76.50237687
 31
0.0
  0
LINE
  5
49
100
AcDbEntity
  8
LAYER0003
  6
CONTINUOUS
 62
       7
100
AcDbLine
 10
95.36773016
 20
76.50237687
 30
0.0
 11
95.34505805
 21
76.46310597
 31
0.0
  0
LINE
  5
4A
100
AcDbEntity
  8
LAYER0003
  6
CONTINUOUS
 62
       7
100
AcDbLine
 10
92.88978998
 20
81.00373846
 30
0.0
 11
93.24643065
 21
80.38602106
 31
0.0
  0
LINE
  5
4B
100
AcDbEntity
  8
LAYER0003
  6
CONTINUOUS
 62
       7
100
AcDbLine
 10
93.1667467
 20
80.31459421
 30
0.0
 11
93.24643065
 21
80.38602106
 31
0.0
  0
LINE
  5
4C
100
AcDbEntity
  8
LAYER0003
  6
CONTINUOUS
 62
       7
100
AcDbLine
 10
90.21478941
 20
76.457105
 30
0.0
 11
90.21478941
 21
76.55659258
 31
0.0
  0
LINE
  5
4D
100
AcDbEntity
  8
LAYER0003
  6
CONTINUOUS
 62
       7
100
AcDbLine
 10
88.9926744
 20
78.75374088
 30
0.0
 11
90.17460097
 21
76.70658688
 31
0.0
  0
LINE
  5
4E
100
AcDbEntity
  8
LAYER0003
  6
CONTINUOUS
 62
       7
100
AcDbLine
 10
91.59075145
 20
80.25373973
 30
0.0
 11
93.78273834
 21
76.457105
 31
0.0
  0
LINE
  5
4F
100
AcDbEntity
  8
LAYER0003
  6
CONTINUOUS
 62
       7
100
AcDbLine
 10
91.71479036
 20
76.45710501
 30
0.0
 11
91.71479036
 21
76.95851791
 31
0.0
  0
LINE
  5
50
100
AcDbEntity
  8
LAYER0003
  6
CONTINUOUS
 62
       7
100
AcDbLine
 10
91.67460027
 20
77.10850936
 30
0.0
 11
90.29171292
 21
79.50373961
 31
0.0
  0
LINE
  5
51
100
AcDbEntity
  8
LAYER0003
  6
CONTINUOUS
 62
       7
100
AcDbLine
 10
103.11446388
 20
78.46348046
 30
0.0
 11
103.85287603
 21
78.70722504
 31
0.0
  0
LINE
  5
52
100
AcDbEntity
  8
LAYER0003
  6
CONTINUOUS
 62
       7
100
AcDbLine
 10
102.72867281
 20
79.13863857
 30
0.0
 11
103.11446388
 21
78.46348046
 31
0.0
  0
LINE
  5
53
100
AcDbEntity
  8
LAYER0003
  6
CONTINUOUS
 62
       7
100
AcDbLine
 10
105.2660649
 20
77.50578528
 30
0.0
 11
106.02591982
 21
77.67100959
 31
0.0
  0
LINE
  5
54
100
AcDbEntity
  8
LAYER0003
  6
CONTINUOUS
 62
       7
100
AcDbLine
 10
104.9529617
 20
78.21757114
 30
0.0
 11
105.2660649
 21
77.50578528
 31
0.0
  0
LINE
  5
55
100
AcDbEntity
  8
LAYER0003
  6
CONTINUOUS
 62
       7
100
AcDbLine
 10
104.20279999
 20
78.01280369
 30
0.0
 11
104.9529617
 21
78.21757114
 31
0.0
  0
LINE
  5
56
100
AcDbEntity
  8
LAYER0003
  6
CONTINUOUS
 62
       7
100
AcDbLine
 10
103.85287603
 20
78.70722504
 30
0.0
 11
104.20279999
 21
78.01280369
 31
0.0
  0
LINE
  5
57
100
AcDbEntity
  8
LAYER0003
  6
CONTINUOUS
 62
       7
100
AcDbLine
 10
100.87453623
 20
79.19102523
 30
0.0
 11
101.58343662
 21
79.51062092
 31
0.0
  0
LINE
  5
58
100
AcDbEntity
  8
LAYER0003
  6
CONTINUOUS
 62
       7
100
AcDbLine
 10
100.42028923
 20
79.82215879
 30
0.0
 11
100.87453623
 21
79.19102523
 31
0.0
  0
LINE
  5
59
100
AcDbEntity
  8
LAYER0003
  6
CONTINUOUS
 62
       7
100
AcDbLine
 10
102.00402934
 20
78.85658008
 30
0.0
 11
102.72867281
 21
79.13863857
 31
0.0
  0
LINE
  5
5A
100
AcDbEntity
  8
LAYER0003
  6
CONTINUOUS
 62
       7
100
AcDbLine
 10
101.58343662
 20
79.51062092
 30
0.0
 11
102.00402934
 21
78.85658008
 31
0.0
  0
LINE
  5
5B
100
AcDbEntity
  8
LAYER0003
  6
CONTINUOUS
 62
       7
100
AcDbLine
 10
96.2285926
 20
79.92638846
 30
0.0
 11
96.85555149
 21
80.386388
 31
0.0
  0
LINE
  5
5C
100
AcDbEntity
  8
LAYER0003
  6
CONTINUOUS
 62
       7
100
AcDbLine
 10
95.65305387
 20
80.44928627
 30
0.0
 11
96.2285926
 21
79.92638846
 31
0.0
  0
LINE
  5
5D
100
AcDbEntity
  8
LAYER0003
  6
CONTINUOUS
 62
       7
100
AcDbLine
 10
99.72909143
 20
79.46589927
 30
0.0
 11
100.42028923
 21
79.82215879
 31
0.0
  0
LINE
  5
5E
100
AcDbEntity
  8
LAYER0003
  6
CONTINUOUS
 62
       7
100
AcDbLine
 10
99.24244185
 20
80.0723933
 30
0.0
 11
99.72909143
 21
79.46589927
 31
0.0
  0
LINE
  5
5F
100
AcDbEntity
  8
LAYER0003
  6
CONTINUOUS
 62
       7
100
AcDbLine
 10
98.57083534
 20
79.68044875
 30
0.0
 11
99.24244185
 21
80.0723933
 31
0.0
  0
LINE
  5
60
100
AcDbEntity
  8
LAYER0003
  6
CONTINUOUS
 62
       7
100
AcDbLine
 10
98.05310567
 20
80.26064223
 30
0.0
 11
98.57083534
 21
79.68044875
 31
0.0
  0
LINE
  5
61
100
AcDbEntity
  8
LAYER0003
  6
CONTINUOUS
 62
       7
100
AcDbLine
 10
95.05103206
 20
79.95710487
 30
0.0
 11
95.65305387
 21
80.44928627
 31
0.0
  0
LINE
  5
62
100
AcDbEntity
  8
LAYER0003
  6
CONTINUOUS
 62
       7
100
AcDbLine
 10
94.44891338
 20
80.44916427
 30
0.0
 11
95.05103206
 21
79.95710487
 31
0.0
  0
LINE
  5
63
100
AcDbEntity
  8
LAYER0003
  6
CONTINUOUS
 62
       7
100
AcDbLine
 10
97.40293447
 20
79.83408554
 30
0.0
 11
98.05310567
 21
80.26064223
 31
0.0
  0
LINE
  5
64
100
AcDbEntity
  8
LAYER0003
  6
CONTINUOUS
 62
       7
100
AcDbLine
 10
96.85555149
 20
80.386388
 30
0.0
 11
97.40293447
 21
79.83408554
 31
0.0
  0
LINE
  5
65
100
AcDbEntity
  8
LAYER0003
  6
CONTINUOUS
 62
       7
100
AcDbLine
 10
93.87347525
 20
79.92615027
 30
0.0
 11
94.44891338
 21
80.44916427
 31
0.0
  0
LINE
  5
66
100
AcDbEntity
  8
LAYER0003
  6
CONTINUOUS
 62
       7
100
AcDbLine
 10
93.24643065
 20
80.38602106
 30
0.0
 11
93.87347525
 21
79.92615027
 31
0.0
  0
LINE
  5
67
100
AcDbEntity
  8
LAYER0003
  6
CONTINUOUS
 62
       7
100
AcDbLine
 10
106.02591982
 20
77.67100959
 30
0.0
 11
106.30133797
 21
76.94381485
 31
0.0
  0
LINE
  5
68
100
AcDbEntity
  8
LAYER0003
  6
CONTINUOUS
 62
       7
100
AcDbLine
 10
107.06879248
 20
77.0690447
 30
0.0
 11
107.26460119
 21
76.45710503
 31
0.0
  0
LINE
  5
69
100
AcDbEntity
  8
LAYER0003
  6
CONTINUOUS
 62
       7
100
AcDbLine
 10
106.30133797
 20
76.94381485
 30
0.0
 11
107.06879248
 21
77.0690447
 31
0.0
  0
LINE
  5
6A
100
AcDbEntity
  8
LAYER0003
  6
CONTINUOUS
 62
       7
100
AcDbLine
 10
22.51479045
 20
74.45710499
 30
0.0
 11
22.51479045
 21
-2.94978707
 31
0.0
  0
LINE
  5
6B
100
AcDbEntity
  8
LAYER0003
  6
CONTINUOUS
 62
       7
100
AcDbLine
 10
36.01479042
 20
-13.54289857
 30
0.0
 11
36.01479042
 21
76.45710501
 31
0.0
  0
LINE
  5
6C
100
AcDbEntity
  8
LAYER0003
  6
CONTINUOUS
 62
       7
100
AcDbLine
 10
35.03568261
 20
-13.54289735
 30
0.0
 11
102.41478732
 21
-13.54303925
 31
0.0
  0
LINE
  5
6D
100
AcDbEntity
  8
LAYER0003
  6
CONTINUOUS
 62
       7
100
AcDbLine
 10
102.41478732
 20
-13.54303925
 30
0.0
 11
102.41479038
 21
-7.54289499
 31
0.0
  0
LINE
  5
6E
100
AcDbEntity
  8
LAYER0003
  6
CONTINUOUS
 62
       7
100
AcDbLine
 10
112.51479039
 20
5.20896762
 30
0.0
 11
112.51478693
 21
76.45710501
 31
0.0
  0
LINE
  5
6F
100
AcDbEntity
  8
LAYER0003
  6
CONTINUOUS
 62
       7
100
AcDbLine
 10
112.51478802
 20
-7.54289386
 30
0.0
 11
102.41479038
 21
-7.54289499
 31
0.0
  0
LINE
  5
70
100
AcDbEntity
  8
LAYER0003
  6
CONTINUOUS
 62
       7
100
AcDbLine
 10
102.50095349
 20
-6.04289827
 30
0.0
 11
114.01479017
 21
-6.04289827
 31
0.0
  0
LINE
  5
71
100
AcDbEntity
  8
LAYER0003
  6
CONTINUOUS
 62
       7
100
AcDbLine
 10
114.01479017
 20
-6.04289827
 30
0.0
 11
114.01479017
 21
-7.54289386
 31
0.0
  0
LINE
  5
72
100
AcDbEntity
  8
LAYER0003
  6
CONTINUOUS
 62
       7
100
AcDbLine
 10
117.0147906
 20
-7.54289499
 30
0.0
 11
117.01478881
 21
-2.16421542
 31
0.0
  0
LINE
  5
73
100
AcDbEntity
  8
LAYER0003
  6
CONTINUOUS
 62
       7
100
AcDbLine
 10
117.01478881
 20
-2.16421542
 30
0.0
 11
110.35320234
 21
4.49737104
 31
0.0
  0
LINE
  5
74
100
AcDbEntity
  8
LAYER0003
  6
CONTINUOUS
 62
       7
100
AcDbLine
 10
111.91819024
 20
5.0537059
 30
0.0
 11
118.51479274
 21
-1.5428966
 31
0.0
  0
LINE
  5
75
100
AcDbEntity
  8
LAYER0003
  6
CONTINUOUS
 62
       7
100
AcDbLine
 10
118.51479274
 20
-1.5428966
 30
0.0
 11
118.51479274
 21
-7.54289386
 31
0.0
  0
LINE
  5
76
100
AcDbEntity
  8
LAYER0003
  6
CONTINUOUS
 62
       7
100
AcDbLine
 10
24.51479037
 20
76.45710501
 30
0.0
 11
112.51478693
 21
76.45710501
 31
0.0
  0
LINE
  5
77
100
AcDbEntity
  8
LAYER0003
  6
CONTINUOUS
 62
       7
100
AcDbLine
 10
101.81479205
 20
-12.84289417
 30
0.0
 11
101.71479036
 21
-12.84289417
 31
0.0
  0
LINE
  5
78
100
AcDbEntity
  8
LAYER0003
  6
CONTINUOUS
 62
       7
100
AcDbLine
 10
37.01479037
 20
-13.54289857
 30
0.0
 11
37.01479037
 21
76.45710501
 31
0.0
  0
LINE
  5
79
100
AcDbEntity
  8
LAYER0003
  6
CONTINUOUS
 62
       7
100
AcDbLine
 10
117.71666476
 20
74.21371805
 30
0.0
 11
117.70618219
 21
74.21262343
 31
0.0
  0
LINE
  5
7A
100
AcDbEntity
  8
LAYER0003
  6
CONTINUOUS
 62
       7
100
AcDbLine
 10
117.70618219
 20
74.21262343
 30
0.0
 11
117.69571211
 21
74.21148477
 31
0.0
  0
LINE
  5
7B
100
AcDbEntity
  8
LAYER0003
  6
CONTINUOUS
 62
       7
100
AcDbLine
 10
117.69571211
 20
74.21148477
 30
0.0
 11
117.68526704
 21
74.21025803
 31
0.0
  0
LINE
  5
7C
100
AcDbEntity
  8
LAYER0003
  6
CONTINUOUS
 62
       7
100
AcDbLine
 10
117.68526704
 20
74.21025803
 30
0.0
 11
117.67485947
 21
74.20889916
 31
0.0
  0
LINE
  5
7D
100
AcDbEntity
  8
LAYER0003
  6
CONTINUOUS
 62
       7
100
AcDbLine
 10
117.67485947
 20
74.20889916
 30
0.0
 11
117.66450192
 21
74.20736414
 31
0.0
  0
LINE
  5
7E
100
AcDbEntity
  8
LAYER0003
  6
CONTINUOUS
 62
       7
100
AcDbLine
 10
117.66450192
 20
74.20736414
 30
0.0
 11
117.65420686
 21
74.20560892
 31
0.0
  0
LINE
  5
7F
100
AcDbEntity
  8
LAYER0003
  6
CONTINUOUS
 62
       7
100
AcDbLine
 10
117.65420686
 20
74.20560892
 30
0.0
 11
117.64398683
 21
74.20358945
 31
0.0
  0
LINE
  5
80
100
AcDbEntity
  8
LAYER0003
  6
CONTINUOUS
 62
       7
100
AcDbLine
 10
117.64398683
 20
74.20358945
 30
0.0
 11
117.6338543
 21
74.2012617
 31
0.0
  0
LINE
  5
81
100
AcDbEntity
  8
LAYER0003
  6
CONTINUOUS
 62
       7
100
AcDbLine
 10
117.6338543
 20
74.2012617
 30
0.0
 11
117.62382179
 21
74.19858163
 31
0.0
  0
LINE
  5
82
100
AcDbEntity
  8
LAYER0003
  6
CONTINUOUS
 62
       7
100
AcDbLine
 10
117.62382179
 20
74.19858163
 30
0.0
 11
117.61390179
 21
74.1955052
 31
0.0
  0
LINE
  5
83
100
AcDbEntity
  8
LAYER0003
  6
CONTINUOUS
 62
       7
100
AcDbLine
 10
117.61390179
 20
74.1955052
 30
0.0
 11
117.60410674
 21
74.19199401
 31
0.0
  0
LINE
  5
84
100
AcDbEntity
  8
LAYER0003
  6
CONTINUOUS
 62
       7
100
AcDbLine
 10
117.60410674
 20
74.19199401
 30
0.0
 11
117.59444855
 21
74.18805014
 31
0.0
  0
LINE
  5
85
100
AcDbEntity
  8
LAYER0003
  6
CONTINUOUS
 62
       7
100
AcDbLine
 10
117.59444855
 20
74.18805014
 30
0.0
 11
117.58493886
 21
74.1836933
 31
0.0
  0
LINE
  5
86
100
AcDbEntity
  8
LAYER0003
  6
CONTINUOUS
 62
       7
100
AcDbLine
 10
117.58493886
 20
74.1836933
 30
0.0
 11
117.57558937
 21
74.17894328
 31
0.0
  0
LINE
  5
87
100
AcDbEntity
  8
LAYER0003
  6
CONTINUOUS
 62
       7
100
AcDbLine
 10
117.57558937
 20
74.17894328
 30
0.0
 11
117.56641173
 21
74.17381986
 31
0.0
  0
LINE
  5
88
100
AcDbEntity
  8
LAYER0003
  6
CONTINUOUS
 62
       7
100
AcDbLine
 10
117.56641173
 20
74.17381986
 30
0.0
 11
117.55741764
 21
74.16834283
 31
0.0
  0
LINE
  5
89
100
AcDbEntity
  8
LAYER0003
  6
CONTINUOUS
 62
       7
100
AcDbLine
 10
117.55741764
 20
74.16834283
 30
0.0
 11
117.54861874
 21
74.16253198
 31
0.0
  0
LINE
  5
8A
100
AcDbEntity
  8
LAYER0003
  6
CONTINUOUS
 62
       7
100
AcDbLine
 10
117.54861874
 20
74.16253198
 30
0.0
 11
117.54002672
 21
74.15640709
 31
0.0
  0
LINE
  5
8B
100
AcDbEntity
  8
LAYER0003
  6
CONTINUOUS
 62
       7
100
AcDbLine
 10
117.54002672
 20
74.15640709
 30
0.0
 11
117.53165326
 21
74.14998794
 31
0.0
  0
LINE
  5
8C
100
AcDbEntity
  8
LAYER0003
  6
CONTINUOUS
 62
       7
100
AcDbLine
 10
117.53165326
 20
74.14998794
 30
0.0
 11
117.52351
 21
74.14329434
 31
0.0
  0
LINE
  5
8D
100
AcDbEntity
  8
LAYER0003
  6
CONTINUOUS
 62
       7
100
AcDbLine
 10
117.52351
 20
74.14329434
 30
0.0
 11
117.51560862
 21
74.13634605
 31
0.0
  0
LINE
  5
8E
100
AcDbEntity
  8
LAYER0003
  6
CONTINUOUS
 62
       7
100
AcDbLine
 10
117.51560862
 20
74.13634605
 30
0.0
 11
117.50796029
 21
74.12916035
 31
0.0
  0
LINE
  5
8F
100
AcDbEntity
  8
LAYER0003
  6
CONTINUOUS
 62
       7
100
AcDbLine
 10
117.50796029
 20
74.12916035
 30
0.0
 11
117.50057353
 21
74.12174221
 31
0.0
  0
LINE
  5
90
100
AcDbEntity
  8
LAYER0003
  6
CONTINUOUS
 62
       7
100
AcDbLine
 10
117.50057353
 20
74.12174221
 30
0.0
 11
117.49345612
 21
74.11409286
 31
0.0
  0
LINE
  5
91
100
AcDbEntity
  8
LAYER0003
  6
CONTINUOUS
 62
       7
100
AcDbLine
 10
117.49345612
 20
74.11409286
 30
0.0
 11
117.48661582
 21
74.10621352
 31
0.0
  0
LINE
  5
92
100
AcDbEntity
  8
LAYER0003
  6
CONTINUOUS
 62
       7
100
AcDbLine
 10
117.48661582
 20
74.10621352
 30
0.0
 11
117.48006041
 21
74.09810542
 31
0.0
  0
LINE
  5
93
100
AcDbEntity
  8
LAYER0003
  6
CONTINUOUS
 62
       7
100
AcDbLine
 10
117.48006041
 20
74.09810542
 30
0.0
 11
117.47379761
 21
74.0897698
 31
0.0
  0
LINE
  5
94
100
AcDbEntity
  8
LAYER0003
  6
CONTINUOUS
 62
       7
100
AcDbLine
 10
117.47379761
 20
74.0897698
 30
0.0
 11
117.46783329
 21
74.08121135
 31
0.0
  0
LINE
  5
95
100
AcDbEntity
  8
LAYER0003
  6
CONTINUOUS
 62
       7
100
AcDbLine
 10
117.46783329
 20
74.08121135
 30
0.0
 11
117.46216921
 21
74.07244216
 31
0.0
  0
LINE
  5
96
100
AcDbEntity
  8
LAYER0003
  6
CONTINUOUS
 62
       7
100
AcDbLine
 10
117.46216921
 20
74.07244216
 30
0.0
 11
117.45680656
 21
74.06347528
 31
0.0
  0
LINE
  5
97
100
AcDbEntity
  8
LAYER0003
  6
CONTINUOUS
 62
       7
100
AcDbLine
 10
117.45680656
 20
74.06347528
 30
0.0
 11
117.45174659
 21
74.0543238
 31
0.0
  0
LINE
  5
98
100
AcDbEntity
  8
LAYER0003
  6
CONTINUOUS
 62
       7
100
AcDbLine
 10
117.45174659
 20
74.0543238
 30
0.0
 11
117.4469905
 21
74.04500077
 31
0.0
  0
LINE
  5
99
100
AcDbEntity
  8
LAYER0003
  6
CONTINUOUS
 62
       7
100
AcDbLine
 10
117.4469905
 20
74.04500077
 30
0.0
 11
117.44253962
 21
74.03551926
 31
0.0
  0
LINE
  5
9A
100
AcDbEntity
  8
LAYER0003
  6
CONTINUOUS
 62
       7
100
AcDbLine
 10
117.44253962
 20
74.03551926
 30
0.0
 11
117.43840371
 21
74.02589174
 31
0.0
  0
LINE
  5
9B
100
AcDbEntity
  8
LAYER0003
  6
CONTINUOUS
 62
       7
100
AcDbLine
 10
117.43840371
 20
74.02589174
 30
0.0
 11
117.43460623
 21
74.01612982
 31
0.0
  0
LINE
  5
9C
100
AcDbEntity
  8
LAYER0003
  6
CONTINUOUS
 62
       7
100
AcDbLine
 10
117.43460623
 20
74.01612982
 30
0.0
 11
117.43117192
 21
74.00624497
 31
0.0
  0
LINE
  5
9D
100
AcDbEntity
  8
LAYER0003
  6
CONTINUOUS
 62
       7
100
AcDbLine
 10
117.43117192
 20
74.00624497
 30
0.0
 11
117.42812551
 21
73.9962487
 31
0.0
  0
LINE
  5
9E
100
AcDbEntity
  8
LAYER0003
  6
CONTINUOUS
 62
       7
100
AcDbLine
 10
117.42812551
 20
73.9962487
 30
0.0
 11
117.42549174
 21
73.98615249
 31
0.0
  0
LINE
  5
9F
100
AcDbEntity
  8
LAYER0003
  6
CONTINUOUS
 62
       7
100
AcDbLine
 10
117.42549174
 20
73.98615249
 30
0.0
 11
117.42329507
 21
73.97596785
 31
0.0
  0
LINE
  5
A0
100
AcDbEntity
  8
LAYER0003
  6
CONTINUOUS
 62
       7
100
AcDbLine
 10
117.42329507
 20
73.97596785
 30
0.0
 11
117.42152961
 21
73.96570667
 31
0.0
  0
LINE
  5
A1
100
AcDbEntity
  8
LAYER0003
  6
CONTINUOUS
 62
       7
100
AcDbLine
 10
117.42152961
 20
73.96570667
 30
0.0
 11
117.42012931
 21
73.95538163
 31
0.0
  0
LINE
  5
A2
100
AcDbEntity
  8
LAYER0003
  6
CONTINUOUS
 62
       7
100
AcDbLine
 10
117.42012931
 20
73.95538163
 30
0.0
 11
117.41902118
 21
73.9450055
 31
0.0
  0
LINE
  5
A3
100
AcDbEntity
  8
LAYER0003
  6
CONTINUOUS
 62
       7
100
AcDbLine
 10
117.41902118
 20
73.9450055
 30
0.0
 11
117.41813215
 21
73.93459105
 31
0.0
  0
LINE
  5
A4
100
AcDbEntity
  8
LAYER0003
  6
CONTINUOUS
 62
       7
100
AcDbLine
 10
117.41813215
 20
73.93459105
 30
0.0
 11
117.41738921
 21
73.92415106
 31
0.0
  0
LINE
  5
A5
100
AcDbEntity
  8
LAYER0003
  6
CONTINUOUS
 62
       7
100
AcDbLine
 10
117.41738921
 20
73.92415106
 30
0.0
 11
117.41671928
 21
73.91370133
 31
0.0
  0
LINE
  5
A6
100
AcDbEntity
  8
LAYER0003
  6
CONTINUOUS
 62
       7
100
AcDbLine
 10
117.71666476
 20
74.21371805
 30
0.0
 11
117.72394525
 21
74.21326793
 31
0.0
  0
LINE
  5
A7
100
AcDbEntity
  8
LAYER0003
  6
CONTINUOUS
 62
       7
100
AcDbLine
 10
117.72394525
 20
74.21326793
 30
0.0
 11
117.7312212
 21
74.21279237
 31
0.0
  0
LINE
  5
A8
100
AcDbEntity
  8
LAYER0003
  6
CONTINUOUS
 62
       7
100
AcDbLine
 10
117.7312212
 20
74.21279237
 30
0.0
 11
117.7384881
 21
74.21226592
 31
0.0
  0
LINE
  5
A9
100
AcDbEntity
  8
LAYER0003
  6
CONTINUOUS
 62
       7
100
AcDbLine
 10
117.7384881
 20
74.21226592
 30
0.0
 11
117.74574137
 21
74.21166313
 31
0.0
  0
LINE
  5
AA
100
AcDbEntity
  8
LAYER0003
  6
CONTINUOUS
 62
       7
100
AcDbLine
 10
117.74574137
 20
74.21166313
 30
0.0
 11
117.75297651
 21
74.21095855
 31
0.0
  0
LINE
  5
AB
100
AcDbEntity
  8
LAYER0003
  6
CONTINUOUS
 62
       7
100
AcDbLine
 10
117.75297651
 20
74.21095855
 30
0.0
 11
117.76018899
 21
74.21012674
 31
0.0
  0
LINE
  5
AC
100
AcDbEntity
  8
LAYER0003
  6
CONTINUOUS
 62
       7
100
AcDbLine
 10
117.76018899
 20
74.21012674
 30
0.0
 11
117.76737425
 21
74.20914225
 31
0.0
  0
LINE
  5
AD
100
AcDbEntity
  8
LAYER0003
  6
CONTINUOUS
 62
       7
100
AcDbLine
 10
117.76737425
 20
74.20914225
 30
0.0
 11
117.77452777
 21
74.20797964
 31
0.0
  0
LINE
  5
AE
100
AcDbEntity
  8
LAYER0003
  6
CONTINUOUS
 62
       7
100
AcDbLine
 10
117.77452777
 20
74.20797964
 30
0.0
 11
117.781645
 21
74.20661354
 31
0.0
  0
LINE
  5
AF
100
AcDbEntity
  8
LAYER0003
  6
CONTINUOUS
 62
       7
100
AcDbLine
 10
117.781645
 20
74.20661354
 30
0.0
 11
117.78872201
 21
74.20502959
 31
0.0
  0
LINE
  5
B0
100
AcDbEntity
  8
LAYER0003
  6
CONTINUOUS
 62
       7
100
AcDbLine
 10
117.78872201
 20
74.20502959
 30
0.0
 11
117.79575594
 21
74.20323473
 31
0.0
  0
LINE
  5
B1
100
AcDbEntity
  8
LAYER0003
  6
CONTINUOUS
 62
       7
100
AcDbLine
 10
117.79575594
 20
74.20323473
 30
0.0
 11
117.80274405
 21
74.20123835
 31
0.0
  0
LINE
  5
B2
100
AcDbEntity
  8
LAYER0003
  6
CONTINUOUS
 62
       7
100
AcDbLine
 10
117.80274405
 20
74.20123835
 30
0.0
 11
117.80968365
 21
74.19904984
 31
0.0
  0
LINE
  5
B3
100
AcDbEntity
  8
LAYER0003
  6
CONTINUOUS
 62
       7
100
AcDbLine
 10
117.80968365
 20
74.19904984
 30
0.0
 11
117.81657199
 21
74.1966786
 31
0.0
  0
LINE
  5
B4
100
AcDbEntity
  8
LAYER0003
  6
CONTINUOUS
 62
       7
100
AcDbLine
 10
117.81657199
 20
74.1966786
 30
0.0
 11
117.82340637
 21
74.19413401
 31
0.0
  0
LINE
  5
B5
100
AcDbEntity
  8
LAYER0003
  6
CONTINUOUS
 62
       7
100
AcDbLine
 10
117.82340637
 20
74.19413401
 30
0.0
 11
117.83018406
 21
74.19142547
 31
0.0
  0
LINE
  5
B6
100
AcDbEntity
  8
LAYER0003
  6
CONTINUOUS
 62
       7
100
AcDbLine
 10
117.83018406
 20
74.19142547
 30
0.0
 11
117.83690233
 21
74.18856237
 31
0.0
  0
LINE
  5
B7
100
AcDbEntity
  8
LAYER0003
  6
CONTINUOUS
 62
       7
100
AcDbLine
 10
117.83690233
 20
74.18856237
 30
0.0
 11
117.84355834
 21
74.18555382
 31
0.0
  0
LINE
  5
B8
100
AcDbEntity
  8
LAYER0003
  6
CONTINUOUS
 62
       7
100
AcDbLine
 10
117.84355834
 20
74.18555382
 30
0.0
 11
117.85014631
 21
74.18240243
 31
0.0
  0
LINE
  5
B9
100
AcDbEntity
  8
LAYER0003
  6
CONTINUOUS
 62
       7
100
AcDbLine
 10
117.85014631
 20
74.18240243
 30
0.0
 11
117.85665751
 21
74.17910432
 31
0.0
  0
LINE
  5
BA
100
AcDbEntity
  8
LAYER0003
  6
CONTINUOUS
 62
       7
100
AcDbLine
 10
117.85665751
 20
74.17910432
 30
0.0
 11
117.86308307
 21
74.17565533
 31
0.0
  0
LINE
  5
BB
100
AcDbEntity
  8
LAYER0003
  6
CONTINUOUS
 62
       7
100
AcDbLine
 10
117.86308307
 20
74.17565533
 30
0.0
 11
117.86941417
 21
74.17205129
 31
0.0
  0
LINE
  5
BC
100
AcDbEntity
  8
LAYER0003
  6
CONTINUOUS
 62
       7
100
AcDbLine
 10
117.86941417
 20
74.17205129
 30
0.0
 11
117.87564195
 21
74.16828802
 31
0.0
  0
LINE
  5
BD
100
AcDbEntity
  8
LAYER0003
  6
CONTINUOUS
 62
       7
100
AcDbLine
 10
117.87564195
 20
74.16828802
 30
0.0
 11
117.88175754
 21
74.16436137
 31
0.0
  0
LINE
  5
BE
100
AcDbEntity
  8
LAYER0003
  6
CONTINUOUS
 62
       7
100
AcDbLine
 10
117.88175754
 20
74.16436137
 30
0.0
 11
117.88775212
 21
74.16026716
 31
0.0
  0
LINE
  5
BF
100
AcDbEntity
  8
LAYER0003
  6
CONTINUOUS
 62
       7
100
AcDbLine
 10
117.88775212
 20
74.16026716
 30
0.0
 11
117.89361681
 21
74.15600123
 31
0.0
  0
LINE
  5
C0
100
AcDbEntity
  8
LAYER0003
  6
CONTINUOUS
 62
       7
100
AcDbLine
 10
117.89361681
 20
74.15600123
 30
0.0
 11
117.89934454
 21
74.15156113
 31
0.0
  0
LINE
  5
C1
100
AcDbEntity
  8
LAYER0003
  6
CONTINUOUS
 62
       7
100
AcDbLine
 10
117.89934454
 20
74.15156113
 30
0.0
 11
117.90494346
 21
74.14695933
 31
0.0
  0
LINE
  5
C2
100
AcDbEntity
  8
LAYER0003
  6
CONTINUOUS
 62
       7
100
AcDbLine
 10
117.90494346
 20
74.14695933
 30
0.0
 11
117.91042964
 21
74.14221599
 31
0.0
  0
LINE
  5
C3
100
AcDbEntity
  8
LAYER0003
  6
CONTINUOUS
 62
       7
100
AcDbLine
 10
117.91042964
 20
74.14221599
 30
0.0
 11
117.91581917
 21
74.13735132
 31
0.0
  0
LINE
  5
C4
100
AcDbEntity
  8
LAYER0003
  6
CONTINUOUS
 62
       7
100
AcDbLine
 10
117.91581917
 20
74.13735132
 30
0.0
 11
117.92112816
 21
74.13238556
 31
0.0
  0
LINE
  5
C5
100
AcDbEntity
  8
LAYER0003
  6
CONTINUOUS
 62
       7
100
AcDbLine
 10
117.92112816
 20
74.13238556
 30
0.0
 11
117.92637272
 21
74.12733891
 31
0.0
  0
LINE
  5
C6
100
AcDbEntity
  8
LAYER0003
  6
CONTINUOUS
 62
       7
100
AcDbLine
 10
117.92637272
 20
74.12733891
 30
0.0
 11
117.93156896
 21
74.1222316
 31
0.0
  0
LINE
  5
C7
100
AcDbEntity
  8
LAYER0003
  6
CONTINUOUS
 62
       7
100
AcDbLine
 10
117.93156896
 20
74.1222316
 30
0.0
 11
117.93673299
 21
74.11708384
 31
0.0
  0
LINE
  5
C8
100
AcDbEntity
  8
LAYER0003
  6
CONTINUOUS
 62
       7
100
AcDbLine
 10
117.93673299
 20
74.11708384
 30
0.0
 11
117.94187346
 21
74.1119182
 31
0.0
  0
LINE
  5
C9
100
AcDbEntity
  8
LAYER0003
  6
CONTINUOUS
 62
       7
100
AcDbLine
 10
90.21478941
 20
76.55659258
 30
0.0
 11
90.21436399
 21
76.56290908
 31
0.0
  0
LINE
  5
CA
100
AcDbEntity
  8
LAYER0003
  6
CONTINUOUS
 62
       7
100
AcDbLine
 10
90.21436399
 20
76.56290908
 30
0.0
 11
90.21392341
 21
76.56922152
 31
0.0
  0
LINE
  5
CB
100
AcDbEntity
  8
LAYER0003
  6
CONTINUOUS
 62
       7
100
AcDbLine
 10
90.21392341
 20
76.56922152
 30
0.0
 11
90.21345251
 21
76.57552584
 31
0.0
  0
LINE
  5
CC
100
AcDbEntity
  8
LAYER0003
  6
CONTINUOUS
 62
       7
100
AcDbLine
 10
90.21345251
 20
76.57552584
 30
0.0
 11
90.21293612
 21
76.58181796
 31
0.0
  0
LINE
  5
CD
100
AcDbEntity
  8
LAYER0003
  6
CONTINUOUS
 62
       7
100
AcDbLine
 10
90.21293612
 20
76.58181796
 30
0.0
 11
90.21235908
 21
76.58809384
 31
0.0
  0
LINE
  5
CE
100
AcDbEntity
  8
LAYER0003
  6
CONTINUOUS
 62
       7
100
AcDbLine
 10
90.21235908
 20
76.58809384
 30
0.0
 11
90.2117062
 21
76.5943494
 31
0.0
  0
LINE
  5
CF
100
AcDbEntity
  8
LAYER0003
  6
CONTINUOUS
 62
       7
100
AcDbLine
 10
90.2117062
 20
76.5943494
 30
0.0
 11
90.21096236
 21
76.60058058
 31
0.0
  0
LINE
  5
D0
100
AcDbEntity
  8
LAYER0003
  6
CONTINUOUS
 62
       7
100
AcDbLine
 10
90.21096236
 20
76.60058058
 30
0.0
 11
90.21011236
 21
76.60678333
 31
0.0
  0
LINE
  5
D1
100
AcDbEntity
  8
LAYER0003
  6
CONTINUOUS
 62
       7
100
AcDbLine
 10
90.21011236
 20
76.60678333
 30
0.0
 11
90.20914106
 21
76.61295357
 31
0.0
  0
LINE
  5
D2
100
AcDbEntity
  8
LAYER0003
  6
CONTINUOUS
 62
       7
100
AcDbLine
 10
90.20914106
 20
76.61295357
 30
0.0
 11
90.2080333
 21
76.61908724
 31
0.0
  0
LINE
  5
D3
100
AcDbEntity
  8
LAYER0003
  6
CONTINUOUS
 62
       7
100
AcDbLine
 10
90.2080333
 20
76.61908724
 30
0.0
 11
90.20677389
 21
76.62518029
 31
0.0
  0
LINE
  5
D4
100
AcDbEntity
  8
LAYER0003
  6
CONTINUOUS
 62
       7
100
AcDbLine
 10
90.20677389
 20
76.62518029
 30
0.0
 11
90.20534769
 21
76.63122865
 31
0.0
  0
LINE
  5
D5
100
AcDbEntity
  8
LAYER0003
  6
CONTINUOUS
 62
       7
100
AcDbLine
 10
90.20534769
 20
76.63122865
 30
0.0
 11
90.20374016
 21
76.63722842
 31
0.0
  0
LINE
  5
D6
100
AcDbEntity
  8
LAYER0003
  6
CONTINUOUS
 62
       7
100
AcDbLine
 10
90.20374016
 20
76.63722842
 30
0.0
 11
90.20195129
 21
76.64317961
 31
0.0
  0
LINE
  5
D7
100
AcDbEntity
  8
LAYER0003
  6
CONTINUOUS
 62
       7
100
AcDbLine
 10
90.20195129
 20
76.64317961
 30
0.0
 11
90.19999562
 21
76.64908611
 31
0.0
  0
LINE
  5
D8
100
AcDbEntity
  8
LAYER0003
  6
CONTINUOUS
 62
       7
100
AcDbLine
 10
90.19999562
 20
76.64908611
 30
0.0
 11
90.19788833
 21
76.65495197
 31
0.0
  0
LINE
  5
D9
100
AcDbEntity
  8
LAYER0003
  6
CONTINUOUS
 62
       7
100
AcDbLine
 10
90.19788833
 20
76.65495197
 30
0.0
 11
90.19564455
 21
76.66078128
 31
0.0
  0
LINE
  5
DA
100
AcDbEntity
  8
LAYER0003
  6
CONTINUOUS
 62
       7
100
AcDbLine
 10
90.19564455
 20
76.66078128
 30
0.0
 11
90.19327946
 21
76.66657808
 31
0.0
  0
LINE
  5
DB
100
AcDbEntity
  8
LAYER0003
  6
CONTINUOUS
 62
       7
100
AcDbLine
 10
90.19327946
 20
76.66657808
 30
0.0
 11
90.19080824
 21
76.67234644
 31
0.0
  0
LINE
  5
DC
100
AcDbEntity
  8
LAYER0003
  6
CONTINUOUS
 62
       7
100
AcDbLine
 10
90.19080824
 20
76.67234644
 30
0.0
 11
90.18824602
 21
76.67809042
 31
0.0
  0
LINE
  5
DD
100
AcDbEntity
  8
LAYER0003
  6
CONTINUOUS
 62
       7
100
AcDbLine
 10
90.18824602
 20
76.67809042
 30
0.0
 11
90.18560799
 21
76.68381409
 31
0.0
  0
LINE
  5
DE
100
AcDbEntity
  8
LAYER0003
  6
CONTINUOUS
 62
       7
100
AcDbLine
 10
90.18560799
 20
76.68381409
 30
0.0
 11
90.18290931
 21
76.6895215
 31
0.0
  0
LINE
  5
DF
100
AcDbEntity
  8
LAYER0003
  6
CONTINUOUS
 62
       7
100
AcDbLine
 10
90.18290931
 20
76.6895215
 30
0.0
 11
90.18016514
 21
76.69521673
 31
0.0
  0
LINE
  5
E0
100
AcDbEntity
  8
LAYER0003
  6
CONTINUOUS
 62
       7
100
AcDbLine
 10
90.18016514
 20
76.69521673
 30
0.0
 11
90.17739064
 21
76.70090384
 31
0.0
  0
LINE
  5
E1
100
AcDbEntity
  8
LAYER0003
  6
CONTINUOUS
 62
       7
100
AcDbLine
 10
90.17739064
 20
76.70090384
 30
0.0
 11
90.17460097
 21
76.70658688
 31
0.0
  0
ARC
  5
E2
100
AcDbEntity
  8
LAYER0003
  6
CONTINUOUS
 62
       7
100
AcDbCircle
 10
90.941233
 20
79.87873826
 30
0.0
 40
2.24999994
100
AcDbArc
 50
30.0000069
 51
209.99992365
  0
ARC
  5
E3
100
AcDbEntity
  8
LAYER0003
  6
CONTINUOUS
 62
       7
100
AcDbCircle
 10
90.941233
 20
79.87873826
 30
0.0
 40
0.75000021
100
AcDbArc
 50
30.00012094
 51
209.99987079
  0
ARC
  5
E4
100
AcDbEntity
  8
LAYER0003
  6
CONTINUOUS
 62
       7
100
AcDbCircle
 10
24.51479037
 20
74.45710509
 30
0.0
 40
1.99999992
100
AcDbArc
 50
90.0
 51
180.00000286
  0
ARC
  5
E5
100
AcDbEntity
  8
LAYER0003
  6
CONTINUOUS
 62
       7
100
AcDbCircle
 10
115.51479038
 20
-7.54289499
 30
0.0
 40
13.1
100
AcDbArc
 50
103.23865399
 51
180.0
  0
ARC
  5
E6
100
AcDbEntity
  8
LAYER0003
  6
CONTINUOUS
 62
       7
100
AcDbCircle
 10
115.51479038
 20
-7.54289499
 30
0.0
 40
1.50000022
100
AcDbArc
 50
179.99995684
 51
360.0
  0
ARC
  5
E7
100
AcDbEntity
  8
LAYER0003
  6
CONTINUOUS
 62
       7
100
AcDbCircle
 10
115.51479038
 20
-7.54289499
 30
0.0
 40
3.00000236
100
AcDbArc
 50
179.99997842
 51
360.00002158
  0
ELLIPSE
  5
E8
100
AcDbEntity
  8
LAYER0003
  6
CONTINUOUS
 62
       7
100
AcDbEllipse
 10
119.61508786
 20
71.75711643
 30
0.0
 11
-0.2734361415895705
 21
0.1235843222999904
 31
0.0
210
0.0
220
0.0
230
1.0
 40
0.99977559
 41
1.995368554493488
 42
4.2878173670287536
  0
ELLIPSE
  5
E9
100
AcDbEntity
  8
LAYER0003
  6
CONTINUOUS
 62
       7
100
AcDbEllipse
 10
91.41477894
 20
76.95851026
 30
0.0
 11
0.289789574364363
 21
0.0776488824257058
 31
0.0
210
0.0
220
0.0
230
1.0
 40
0.99995919
 41
6.0214012164222126
 42
6.5449694639552414
  0
LINE
  5
EA
100
AcDbEntity
  8
LAYER0003
  6
CENTER
 62
       7
100
AcDbLine
 10
-32.98268859
 20
31.45710501
 30
0.0
 11
-62.52093357
 21
31.45710501
 31
0.0
  0
LINE
  5
EB
100
AcDbEntity
  8
LAYER0003
  6
CENTER
 62
       7
100
AcDbLine
 10
-49.98778433
 20
84.65441308
 30
0.0
 11
-49.98778433
 21
-15.54289499
 31
0.0
  0
LINE
  5
EC
100
AcDbEntity
  8
LAYER0003
  6
CENTER
 62
       7
100
AcDbLine
 10
17.24852511
 20
31.45710501
 30
0.0
 11
116.7412493
 21
31.45710501
 31
0.0
  0
LINE
  5
ED
100
AcDbEntity
  8
LAYER0002
  6
CONTINUOUS
 62
       7
100
AcDbLine
 10
-58.98778433
 20
72.20014289
 30
0.0
 11
-54.98778433
 21
72.20014289
 31
0.0
  0
LINE
  5
EE
100
AcDbEntity
  8
LAYER0002
  6
CONTINUOUS
 62
       7
100
AcDbLine
 10
-58.98778433
 20
73.40014289
 30
0.0
 11
-54.98778433
 21
73.40014289
 31
0.0
  0
LINE
  5
EF
100
AcDbEntity
  8
LAYER0002
  6
CONTINUOUS
 62
       7
100
AcDbLine
 10
-54.98778433
 20
72.20014289
 30
0.0
 11
-54.98778433
 21
73.40014289
 31
0.0
  0
ARC
  5
F0
100
AcDbEntity
  8
LAYER0002
  6
CONTINUOUS
 62
       7
100
AcDbCircle
 10
35.03568577
 20
-12.04289735
 30
0.0
 40
1.5
100
AcDbArc
 50
228.06246071
 51
269.9998793
  0
LINE
  5
F1
100
AcDbEntity
  8
LAYER0001
  6
CONTINUOUS
 62
       7
100
AcDbLine
 10
-43.0863023
 20
6.95300316
 30
0.0
 11
-43.07132181
 21
7.13263381
 31
0.0
  0
LINE
  5
F2
100
AcDbEntity
  8
LAYER0001
  6
CONTINUOUS
 62
       7
100
AcDbLine
 10
-43.60827861
 20
8.40237861
 30
0.0
 11
-43.74367534
 21
8.52092008
 31
0.0
  0
LINE
  5
F3
100
AcDbEntity
  8
LAYER0001
  6
CONTINUOUS
 62
       7
100
AcDbLine
 10
-45.37460573
 20
8.95406934
 30
0.0
 11
-45.56746991
 21
8.91929216
 31
0.0
  0
LINE
  5
F4
100
AcDbEntity
  8
LAYER0001
  6
CONTINUOUS
 62
       7
100
AcDbLine
 10
-46.77161423
 20
8.13332026
 30
0.0
 11
-46.86536207
 21
7.9845263
 31
0.0
  0
LINE
  5
F5
100
AcDbEntity
  8
LAYER0001
  6
CONTINUOUS
 62
       7
100
AcDbLine
 10
-47.06257894
 20
6.95300316
 30
0.0
 11
-47.02841147
 21
6.77872464
 31
0.0
  0
LINE
  5
F6
100
AcDbEntity
  8
LAYER0001
  6
CONTINUOUS
 62
       7
100
AcDbLine
 10
-48.24182217
 20
6.29660768
 30
0.0
 11
-48.1559119
 21
6.44966631
 31
0.0
  0
LINE
  5
F7
100
AcDbEntity
  8
LAYER0001
  6
CONTINUOUS
 62
       7
100
AcDbLine
 10
-48.05789967
 20
7.66271606
 30
0.0
 11
-48.11900742
 21
7.82737108
 31
0.0
  0
LINE
  5
F8
100
AcDbEntity
  8
LAYER0001
  6
CONTINUOUS
 62
       7
100
AcDbLine
 10
-49.88622517
 20
8.97187071
 30
0.0
 11
-50.08931746
 21
8.97187071
 31
0.0
  0
LINE
  5
F9
100
AcDbEntity
  8
LAYER0001
  6
CONTINUOUS
 62
       7
100
AcDbLine
 10
-50.08931746
 20
8.97187071
 30
0.0
 11
-50.28833614
 21
8.95406934
 31
0.0
  0
LINE
  5
FA
100
AcDbEntity
  8
LAYER0001
  6
CONTINUOUS
 62
       7
100
AcDbLine
 10
-51.5169578
 20
6.01773444
 30
0.0
 11
-51.38787765
 21
5.893641
 31
0.0
  0
LINE
  5
FB
100
AcDbEntity
  8
LAYER0001
  6
CONTINUOUS
 62
       7
100
AcDbLine
 10
-52.90365898
 20
7.31435244
 30
0.0
 11
-52.92834457
 21
7.4914227
 31
0.0
  0
LINE
  5
FC
100
AcDbEntity
  8
LAYER0001
  6
CONTINUOUS
 62
       7
100
AcDbLine
 10
-55.39475727
 20
8.91929216
 30
0.0
 11
-55.58043775
 21
8.86840063
 31
0.0
  0
LINE
  5
FD
100
AcDbEntity
  8
LAYER0001
  6
CONTINUOUS
 62
       7
100
AcDbLine
 10
-56.69242313
 20
7.9845263
 30
0.0
 11
-56.77032793
 21
7.82737108
 31
0.0
  0
LINE
  5
FE
100
AcDbEntity
  8
LAYER0001
  6
CONTINUOUS
 62
       7
100
AcDbLine
 10
-43.37722621
 20
8.13332026
 30
0.0
 11
-43.48580792
 21
8.27289152
 31
0.0
  0
LINE
  5
FF
100
AcDbEntity
  8
LAYER0001
  6
CONTINUOUS
 62
       7
100
AcDbLine
 10
-46.17974777
 20
5.68044344
 30
0.0
 11
-46.01617339
 21
5.59306049
 31
0.0
  0
LINE
  5
100
100
AcDbEntity
  8
LAYER0001
  6
CONTINUOUS
 62
       7
100
AcDbLine
 10
-48.03393636
 20
6.77872464
 30
0.0
 11
-47.99979081
 21
6.95300316
 31
0.0
  0
LINE
  5
101
100
AcDbEntity
  8
LAYER0001
  6
CONTINUOUS
 62
       7
100
AcDbLine
 10
-49.49432967
 20
8.91929216
 30
0.0
 11
-49.68716922
 21
8.95406934
 31
0.0
  0
LINE
  5
102
100
AcDbEntity
  8
LAYER0001
  6
CONTINUOUS
 62
       7
100
AcDbLine
 10
-51.85679128
 20
7.82737108
 30
0.0
 11
-51.91793329
 21
7.66271606
 31
0.0
  0
LINE
  5
103
100
AcDbEntity
  8
LAYER0001
  6
CONTINUOUS
 62
       7
100
AcDbLine
 10
-51.63262415
 20
6.15234353
 30
0.0
 11
-51.5169578
 21
6.01773444
 31
0.0
  0
LINE
  5
104
100
AcDbEntity
  8
LAYER0001
  6
CONTINUOUS
 62
       7
100
AcDbLine
 10
-54.13263169
 20
5.51963554
 30
0.0
 11
-53.95956957
 21
5.59306049
 31
0.0
  0
LINE
  5
105
100
AcDbEntity
  8
LAYER0001
  6
CONTINUOUS
 62
       7
100
AcDbLine
 10
-56.83145397
 20
7.66271606
 30
0.0
 11
-56.87484051
 21
7.4914227
 31
0.0
  0
LINE
  5
106
100
AcDbEntity
  8
LAYER0001
  6
CONTINUOUS
 62
       7
100
AcDbLine
 10
22.50703898
 20
9.89873099
 30
0.0
 11
16.05254924
 21
3.3577349
 31
0.0
  0
LINE
  5
107
100
AcDbEntity
  8
LAYER0001
  6
CONTINUOUS
 62
       7
100
AcDbLine
 10
-50.61627311
 20
4.06931937
 30
0.0
 11
-49.35960563
 21
4.06931937
 31
0.0
  0
LINE
  5
108
100
AcDbEntity
  8
LAYER0001
  6
CONTINUOUS
 62
       7
100
AcDbLine
 10
-44.21779286
 20
8.8022562
 30
0.0
 11
-44.39526477
 21
8.86840063
 31
0.0
  0
LINE
  5
109
100
AcDbEntity
  8
LAYER0001
  6
CONTINUOUS
 62
       7
100
AcDbLine
 10
-45.75316759
 20
8.86840063
 30
0.0
 11
-45.93073715
 21
8.8022562
 31
0.0
  0
LINE
  5
10A
100
AcDbEntity
  8
LAYER0001
  6
CONTINUOUS
 62
       7
100
AcDbLine
 10
-45.27578668
 20
5.39171462
 30
0.0
 11
-45.07397574
 21
5.38272757
 31
0.0
  0
LINE
  5
10B
100
AcDbEntity
  8
LAYER0001
  6
CONTINUOUS
 62
       7
100
AcDbLine
 10
-47.99979081
 20
6.95300316
 30
0.0
 11
-47.98481991
 21
7.13263381
 31
0.0
  0
LINE
  5
10C
100
AcDbEntity
  8
LAYER0001
  6
CONTINUOUS
 62
       7
100
AcDbLine
 10
-51.45403432
 20
8.40237861
 30
0.0
 11
-51.57652781
 21
8.27289152
 31
0.0
  0
LINE
  5
10D
100
AcDbEntity
  8
LAYER0001
  6
CONTINUOUS
 62
       7
100
AcDbLine
 10
-51.24634574
 20
5.7809238
 30
0.0
 11
-51.0933241
 21
5.68044344
 31
0.0
  0
LINE
  5
10E
100
AcDbEntity
  8
LAYER0001
  6
CONTINUOUS
 62
       7
100
AcDbLine
 10
-50.92977479
 20
5.59306049
 30
0.0
 11
-50.75665985
 21
5.51963554
 31
0.0
  0
LINE
  5
10F
100
AcDbEntity
  8
LAYER0001
  6
CONTINUOUS
 62
       7
100
AcDbLine
 10
-54.04496531
 20
8.8022562
 30
0.0
 11
-54.22244856
 21
8.86840063
 31
0.0
  0
LINE
  5
110
100
AcDbEntity
  8
LAYER0001
  6
CONTINUOUS
 62
       7
100
AcDbLine
 10
-54.60081668
 20
8.95406934
 30
0.0
 11
-54.79977834
 21
8.97187071
 31
0.0
  0
LINE
  5
111
100
AcDbEntity
  8
LAYER0001
  6
CONTINUOUS
 62
       7
100
AcDbLine
 10
-54.79977834
 20
8.97187071
 30
0.0
 11
-55.00284289
 21
8.97187071
 31
0.0
  0
LINE
  5
112
100
AcDbEntity
  8
LAYER0001
  6
CONTINUOUS
 62
       7
100
AcDbLine
 10
-55.2019054
 20
8.95406934
 30
0.0
 11
-55.39475727
 21
8.91929216
 31
0.0
  0
LINE
  5
113
100
AcDbEntity
  8
LAYER0001
  6
CONTINUOUS
 62
       7
100
AcDbLine
 10
-51.88131217
 20
-1.36414742
 30
0.0
 11
-51.88131217
 21
-5.49226754
 31
0.0
  0
LINE
  5
114
100
AcDbEntity
  8
LAYER0001
  6
CONTINUOUS
 62
       7
100
AcDbLine
 10
-44.13239963
 20
5.59306049
 30
0.0
 11
-43.96890046
 21
5.68044344
 31
0.0
  0
LINE
  5
115
100
AcDbEntity
  8
LAYER0001
  6
CONTINUOUS
 62
       7
100
AcDbLine
 10
-43.20558129
 20
7.82737108
 30
0.0
 11
-43.28349636
 21
7.9845263
 31
0.0
  0
LINE
  5
116
100
AcDbEntity
  8
LAYER0001
  6
CONTINUOUS
 62
       7
100
AcDbLine
 10
-47.00443326
 20
7.66271606
 30
0.0
 11
-47.04783342
 21
7.4914227
 31
0.0
  0
LINE
  5
117
100
AcDbEntity
  8
LAYER0001
  6
CONTINUOUS
 62
       7
100
AcDbLine
 10
-46.71910797
 20
6.15234353
 30
0.0
 11
-46.60343173
 21
6.01773444
 31
0.0
  0
LINE
  5
118
100
AcDbEntity
  8
LAYER0001
  6
CONTINUOUS
 62
       7
100
AcDbLine
 10
-45.84302848
 20
5.51963554
 30
0.0
 11
-45.66127467
 21
5.46102919
 31
0.0
  0
LINE
  5
119
100
AcDbEntity
  8
LAYER0001
  6
CONTINUOUS
 62
       7
100
AcDbLine
 10
-49.58991241
 20
5.41810202
 30
0.0
 11
-49.40054101
 21
5.46102919
 31
0.0
  0
LINE
  5
11A
100
AcDbEntity
  8
LAYER0001
  6
CONTINUOUS
 62
       7
100
AcDbLine
 10
-50.57494129
 20
5.46102919
 30
0.0
 11
-50.38558115
 21
5.41810202
 31
0.0
  0
LINE
  5
11B
100
AcDbEntity
  8
LAYER0001
  6
CONTINUOUS
 62
       7
100
AcDbLine
 10
-53.95956957
 20
5.59306049
 30
0.0
 11
-53.79607093
 21
5.68044344
 31
0.0
  0
LINE
  5
11C
100
AcDbEntity
  8
LAYER0001
  6
CONTINUOUS
 62
       7
100
AcDbLine
 10
-53.5016105
 20
5.893641
 30
0.0
 11
-53.37257191
 21
6.01773444
 31
0.0
  0
LINE
  5
11D
100
AcDbEntity
  8
LAYER0001
  6
CONTINUOUS
 62
       7
100
AcDbLine
 10
-53.87656472
 20
8.72172033
 30
0.0
 11
-54.04496531
 21
8.8022562
 31
0.0
  0
LINE
  5
11E
100
AcDbEntity
  8
LAYER0001
  6
CONTINUOUS
 62
       7
100
AcDbLine
 10
-56.36764352
 20
8.40237861
 30
0.0
 11
-56.49012019
 21
8.27289152
 31
0.0
  0
LINE
  5
11F
100
AcDbEntity
  8
LAYER0001
  6
CONTINUOUS
 62
       7
100
AcDbLine
 10
-56.30149421
 20
5.893641
 30
0.0
 11
-56.15997411
 21
5.7809238
 31
0.0
  0
LINE
  5
120
100
AcDbEntity
  8
LAYER0001
  6
CONTINUOUS
 62
       7
100
AcDbLine
 10
-58.07876333
 20
9.89873099
 30
0.0
 11
-41.8977355
 21
9.89873099
 31
0.0
  0
LINE
  5
121
100
AcDbEntity
  8
LAYER0001
  6
CONTINUOUS
 62
       7
100
AcDbLine
 10
-49.35960563
 20
4.77098197
 30
0.0
 11
-50.61627311
 21
4.77098197
 31
0.0
  0
LINE
  5
122
100
AcDbEntity
  8
LAYER0001
  6
CONTINUOUS
 62
       7
100
AcDbLine
 10
-43.6744214
 20
5.893641
 30
0.0
 11
-43.54536733
 21
6.01773444
 31
0.0
  0
LINE
  5
123
100
AcDbEntity
  8
LAYER0001
  6
CONTINUOUS
 62
       7
100
AcDbLine
 10
-43.89103524
 20
8.62765447
 30
0.0
 11
-44.04939537
 21
8.72172033
 31
0.0
  0
LINE
  5
124
100
AcDbEntity
  8
LAYER0001
  6
CONTINUOUS
 62
       7
100
AcDbLine
 10
-47.04783342
 20
7.4914227
 30
0.0
 11
-47.07252782
 21
7.31435244
 31
0.0
  0
LINE
  5
125
100
AcDbEntity
  8
LAYER0001
  6
CONTINUOUS
 62
       7
100
AcDbLine
 10
-48.72921612
 20
5.7809238
 30
0.0
 11
-48.58772443
 21
5.893641
 31
0.0
  0
LINE
  5
126
100
AcDbEntity
  8
LAYER0001
  6
CONTINUOUS
 62
       7
100
AcDbLine
 10
-48.11900742
 20
7.82737108
 30
0.0
 11
-48.19689015
 21
7.9845263
 31
0.0
  0
LINE
  5
127
100
AcDbEntity
  8
LAYER0001
  6
CONTINUOUS
 62
       7
100
AcDbLine
 10
-48.19689015
 20
7.9845263
 30
0.0
 11
-48.29058796
 21
8.13332026
 31
0.0
  0
LINE
  5
128
100
AcDbEntity
  8
LAYER0001
  6
CONTINUOUS
 62
       7
100
AcDbLine
 10
-48.29058796
 20
8.13332026
 30
0.0
 11
-48.39914103
 21
8.27289152
 31
0.0
  0
LINE
  5
129
100
AcDbEntity
  8
LAYER0001
  6
CONTINUOUS
 62
       7
100
AcDbLine
 10
-52.91360434
 20
6.95300316
 30
0.0
 11
-52.89862872
 21
7.13263381
 31
0.0
  0
LINE
  5
12A
100
AcDbEntity
  8
LAYER0001
  6
CONTINUOUS
 62
       7
100
AcDbLine
 10
-52.97172889
 20
7.66271606
 30
0.0
 11
-53.0328503
 21
7.82737108
 31
0.0
  0
LINE
  5
12B
100
AcDbEntity
  8
LAYER0001
  6
CONTINUOUS
 62
       7
100
AcDbLine
 10
-53.11074723
 20
7.9845263
 30
0.0
 11
-53.20445807
 21
8.13332026
 31
0.0
  0
LINE
  5
12C
100
AcDbEntity
  8
LAYER0001
  6
CONTINUOUS
 62
       7
100
AcDbLine
 10
-53.43547506
 20
8.40237861
 30
0.0
 11
-53.57085799
 21
8.52092008
 31
0.0
  0
LINE
  5
12D
100
AcDbEntity
  8
LAYER0001
  6
CONTINUOUS
 62
       7
100
AcDbLine
 10
-55.58043775
 20
8.86840063
 30
0.0
 11
-55.75798612
 21
8.8022562
 31
0.0
  0
LINE
  5
12E
100
AcDbEntity
  8
LAYER0001
  6
CONTINUOUS
 62
       7
100
AcDbLine
 10
-56.49012019
 20
8.27289152
 30
0.0
 11
-56.59870029
 21
8.13332026
 31
0.0
  0
LINE
  5
12F
100
AcDbEntity
  8
LAYER0001
  6
CONTINUOUS
 62
       7
100
AcDbLine
 10
-56.8995268
 20
7.31435244
 30
0.0
 11
-56.90455714
 21
7.13263381
 31
0.0
  0
LINE
  5
130
100
AcDbEntity
  8
LAYER0001
  6
CONTINUOUS
 62
       7
100
AcDbLine
 10
-56.90455714
 20
7.13263381
 30
0.0
 11
-56.88958123
 21
6.95300316
 31
0.0
  0
LINE
  5
131
100
AcDbEntity
  8
LAYER0001
  6
CONTINUOUS
 62
       7
100
AcDbLine
 10
-58.97793325
 20
9.89159964
 30
0.0
 11
-40.99732534
 21
9.89159964
 31
0.0
  0
LINE
  5
132
100
AcDbEntity
  8
LAYER0001
  6
CONTINUOUS
 62
       7
100
AcDbLine
 10
-41.8977355
 20
-6.40290963
 30
0.0
 11
-58.07876333
 21
-6.40290963
 31
0.0
  0
LINE
  5
133
100
AcDbEntity
  8
LAYER0001
  6
CONTINUOUS
 62
       7
100
AcDbLine
 10
-58.07876333
 20
3.3577349
 30
0.0
 11
-41.89711539
 21
3.3577349
 31
0.0
  0
LINE
  5
134
100
AcDbEntity
  8
LAYER0001
  6
CONTINUOUS
 62
       7
100
AcDbLine
 10
-48.09332632
 20
-5.49226754
 30
0.0
 11
-48.09332632
 21
-1.36414742
 31
0.0
  0
LINE
  5
135
100
AcDbEntity
  8
LAYER0001
  6
CONTINUOUS
 62
       7
100
AcDbLine
 10
-45.07397574
 20
5.38272757
 30
0.0
 11
-44.87232617
 21
5.39171462
 31
0.0
  0
LINE
  5
136
100
AcDbEntity
  8
LAYER0001
  6
CONTINUOUS
 62
       7
100
AcDbLine
 10
-44.67638087
 20
5.41810202
 30
0.0
 11
-44.48710273
 21
5.46102919
 31
0.0
  0
LINE
  5
137
100
AcDbEntity
  8
LAYER0001
  6
CONTINUOUS
 62
       7
100
AcDbLine
 10
-46.97601903
 20
6.61065882
 30
0.0
 11
-46.90636323
 21
6.44966631
 31
0.0
  0
LINE
  5
138
100
AcDbEntity
  8
LAYER0001
  6
CONTINUOUS
 62
       7
100
AcDbLine
 10
-48.45868831
 20
6.01773444
 30
0.0
 11
-48.34306759
 21
6.15234353
 31
0.0
  0
LINE
  5
139
100
AcDbEntity
  8
LAYER0001
  6
CONTINUOUS
 62
       7
100
AcDbLine
 10
-48.39914103
 20
8.27289152
 30
0.0
 11
-48.52158944
 21
8.40237861
 31
0.0
  0
LINE
  5
13A
100
AcDbEntity
  8
LAYER0001
  6
CONTINUOUS
 62
       7
100
AcDbLine
 10
-51.94191082
 20
6.77872464
 30
0.0
 11
-51.88952004
 21
6.61065882
 31
0.0
  0
LINE
  5
13B
100
AcDbEntity
  8
LAYER0001
  6
CONTINUOUS
 62
       7
100
AcDbLine
 10
-50.18954149
 20
5.39171462
 30
0.0
 11
-49.98778433
 21
5.38272757
 31
0.0
  0
LINE
  5
13C
100
AcDbEntity
  8
LAYER0001
  6
CONTINUOUS
 62
       7
100
AcDbLine
 10
-52.89862872
 20
7.13263381
 30
0.0
 11
-52.90365898
 21
7.31435244
 31
0.0
  0
LINE
  5
13D
100
AcDbEntity
  8
LAYER0001
  6
CONTINUOUS
 62
       7
100
AcDbLine
 10
-56.54620736
 20
6.15234353
 30
0.0
 11
-56.43055888
 21
6.01773444
 31
0.0
  0
LINE
  5
13E
100
AcDbEntity
  8
LAYER0001
  6
CONTINUOUS
 62
       7
100
AcDbLine
 10
-56.79543082
 20
-1.36414742
 30
0.0
 11
-56.79543082
 21
-5.49226754
 31
0.0
  0
LINE
  5
13F
100
AcDbEntity
  8
LAYER0001
  6
CONTINUOUS
 62
       7
100
AcDbLine
 10
-43.12046773
 20
6.77872464
 30
0.0
 11
-43.0863023
 21
6.95300316
 31
0.0
  0
LINE
  5
140
100
AcDbEntity
  8
LAYER0001
  6
CONTINUOUS
 62
       7
100
AcDbLine
 10
-43.07132181
 20
7.13263381
 30
0.0
 11
-43.07635375
 21
7.31435244
 31
0.0
  0
LINE
  5
141
100
AcDbEntity
  8
LAYER0001
  6
CONTINUOUS
 62
       7
100
AcDbLine
 10
-44.97249811
 20
8.97187071
 30
0.0
 11
-45.17553663
 21
8.97187071
 31
0.0
  0
LINE
  5
142
100
AcDbEntity
  8
LAYER0001
  6
CONTINUOUS
 62
       7
100
AcDbLine
 10
-45.56746991
 20
8.91929216
 30
0.0
 11
-45.75316759
 21
8.86840063
 31
0.0
  0
LINE
  5
143
100
AcDbEntity
  8
LAYER0001
  6
CONTINUOUS
 62
       7
100
AcDbLine
 10
-45.93073715
 20
8.8022562
 30
0.0
 11
-46.09921699
 21
8.72172033
 31
0.0
  0
LINE
  5
144
100
AcDbEntity
  8
LAYER0001
  6
CONTINUOUS
 62
       7
100
AcDbLine
 10
-46.54050215
 20
8.40237861
 30
0.0
 11
-46.66300706
 21
8.27289152
 31
0.0
  0
LINE
  5
145
100
AcDbEntity
  8
LAYER0001
  6
CONTINUOUS
 62
       7
100
AcDbLine
 10
-46.82040567
 20
6.29660768
 30
0.0
 11
-46.71910797
 21
6.15234353
 31
0.0
  0
LINE
  5
146
100
AcDbEntity
  8
LAYER0001
  6
CONTINUOUS
 62
       7
100
AcDbLine
 10
-48.1559119
 20
6.44966631
 30
0.0
 11
-48.08629668
 21
6.61065882
 31
0.0
  0
LINE
  5
147
100
AcDbEntity
  8
LAYER0001
  6
CONTINUOUS
 62
       7
100
AcDbLine
 10
-48.80433285
 20
8.62765447
 30
0.0
 11
-48.96270812
 21
8.72172033
 31
0.0
  0
LINE
  5
148
100
AcDbEntity
  8
LAYER0001
  6
CONTINUOUS
 62
       7
100
AcDbLine
 10
-51.73391466
 20
6.29660768
 30
0.0
 11
-51.63262415
 21
6.15234353
 31
0.0
  0
LINE
  5
149
100
AcDbEntity
  8
LAYER0001
  6
CONTINUOUS
 62
       7
100
AcDbLine
 10
-51.38787765
 20
5.893641
 30
0.0
 11
-51.24634574
 21
5.7809238
 31
0.0
  0
LINE
  5
14A
100
AcDbEntity
  8
LAYER0001
  6
CONTINUOUS
 62
       7
100
AcDbLine
 10
-54.22244856
 20
8.86840063
 30
0.0
 11
-54.40805288
 21
8.91929216
 31
0.0
  0
LINE
  5
14B
100
AcDbEntity
  8
LAYER0001
  6
CONTINUOUS
 62
       7
100
AcDbLine
 10
-55.92644161
 20
8.72172033
 30
0.0
 11
-56.0848435
 21
8.62765447
 31
0.0
  0
LINE
  5
14C
100
AcDbEntity
  8
LAYER0001
  6
CONTINUOUS
 62
       7
100
AcDbLine
 10
-56.23223104
 20
8.52092008
 30
0.0
 11
-56.36764352
 21
8.40237861
 31
0.0
  0
LINE
  5
14D
100
AcDbEntity
  8
LAYER0001
  6
CONTINUOUS
 62
       7
100
AcDbLine
 10
-56.43055888
 20
6.01773444
 30
0.0
 11
-56.30149421
 21
5.893641
 31
0.0
  0
LINE
  5
14E
100
AcDbEntity
  8
LAYER0001
  6
CONTINUOUS
 62
       7
100
AcDbLine
 10
-54.27248403
 20
4.06931937
 30
0.0
 11
-54.27248403
 21
4.77098197
 31
0.0
  0
LINE
  5
14F
100
AcDbEntity
  8
LAYER0001
  6
CONTINUOUS
 62
       7
100
AcDbLine
 10
-56.79543082
 20
-5.49226754
 30
0.0
 11
-53.00775504
 21
-5.49226754
 31
0.0
  0
LINE
  5
150
100
AcDbEntity
  8
LAYER0001
  6
CONTINUOUS
 62
       7
100
AcDbLine
 10
-43.14444388
 20
7.66271606
 30
0.0
 11
-43.20558129
 21
7.82737108
 31
0.0
  0
LINE
  5
151
100
AcDbEntity
  8
LAYER0001
  6
CONTINUOUS
 62
       7
100
AcDbLine
 10
-44.77358031
 20
8.95406934
 30
0.0
 11
-44.97249811
 21
8.97187071
 31
0.0
  0
LINE
  5
152
100
AcDbEntity
  8
LAYER0001
  6
CONTINUOUS
 62
       7
100
AcDbLine
 10
-45.17553663
 20
8.97187071
 30
0.0
 11
-45.37460573
 21
8.95406934
 31
0.0
  0
LINE
  5
153
100
AcDbEntity
  8
LAYER0001
  6
CONTINUOUS
 62
       7
100
AcDbLine
 10
-46.09921699
 20
8.72172033
 30
0.0
 11
-46.25764551
 21
8.62765447
 31
0.0
  0
LINE
  5
154
100
AcDbEntity
  8
LAYER0001
  6
CONTINUOUS
 62
       7
100
AcDbLine
 10
-46.60343173
 20
6.01773444
 30
0.0
 11
-46.47433853
 21
5.893641
 31
0.0
  0
LINE
  5
155
100
AcDbEntity
  8
LAYER0001
  6
CONTINUOUS
 62
       7
100
AcDbLine
 10
-49.98778433
 20
5.38272757
 30
0.0
 11
-49.78598015
 21
5.39171462
 31
0.0
  0
LINE
  5
156
100
AcDbEntity
  8
LAYER0001
  6
CONTINUOUS
 62
       7
100
AcDbLine
 10
-47.98481991
 20
7.13263381
 30
0.0
 11
-47.98984853
 21
7.31435244
 31
0.0
  0
LINE
  5
157
100
AcDbEntity
  8
LAYER0001
  6
CONTINUOUS
 62
       7
100
AcDbLine
 10
-48.52158944
 20
8.40237861
 30
0.0
 11
-48.65697334
 21
8.52092008
 31
0.0
  0
LINE
  5
158
100
AcDbEntity
  8
LAYER0001
  6
CONTINUOUS
 62
       7
100
AcDbLine
 10
-50.84435289
 20
8.8022562
 30
0.0
 11
-51.01280528
 21
8.72172033
 31
0.0
  0
LINE
  5
159
100
AcDbEntity
  8
LAYER0001
  6
CONTINUOUS
 62
       7
100
AcDbLine
 10
-51.96133234
 20
7.4914227
 30
0.0
 11
-51.98602639
 21
7.31435244
 31
0.0
  0
LINE
  5
15A
100
AcDbEntity
  8
LAYER0001
  6
CONTINUOUS
 62
       7
100
AcDbLine
 10
-50.38558115
 20
5.41810202
 30
0.0
 11
-50.18954149
 21
5.39171462
 31
0.0
  0
LINE
  5
15B
100
AcDbEntity
  8
LAYER0001
  6
CONTINUOUS
 62
       7
100
AcDbLine
 10
-53.06976194
 20
6.44966631
 30
0.0
 11
-53.00013255
 21
6.61065882
 31
0.0
  0
LINE
  5
15C
100
AcDbEntity
  8
LAYER0001
  6
CONTINUOUS
 62
       7
100
AcDbLine
 10
-44.48710273
 20
5.46102919
 30
0.0
 11
-44.30545469
 21
5.51963554
 31
0.0
  0
LINE
  5
15D
100
AcDbEntity
  8
LAYER0001
  6
CONTINUOUS
 62
       7
100
AcDbLine
 10
-47.07252782
 20
7.31435244
 30
0.0
 11
-47.07755986
 21
7.13263381
 31
0.0
  0
LINE
  5
15E
100
AcDbEntity
  8
LAYER0001
  6
CONTINUOUS
 62
       7
100
AcDbLine
 10
-45.66127467
 20
5.46102919
 30
0.0
 11
-45.47187353
 21
5.41810202
 31
0.0
  0
LINE
  5
15F
100
AcDbEntity
  8
LAYER0001
  6
CONTINUOUS
 62
       7
100
AcDbLine
 10
-48.88220351
 20
5.68044344
 30
0.0
 11
-48.72921612
 21
5.7809238
 31
0.0
  0
LINE
  5
160
100
AcDbEntity
  8
LAYER0001
  6
CONTINUOUS
 62
       7
100
AcDbLine
 10
-50.48115629
 20
8.91929216
 30
0.0
 11
-50.66681589
 21
8.86840063
 31
0.0
  0
LINE
  5
161
100
AcDbEntity
  8
LAYER0001
  6
CONTINUOUS
 62
       7
100
AcDbLine
 10
-51.77886835
 20
7.9845263
 30
0.0
 11
-51.85679128
 21
7.82737108
 31
0.0
  0
LINE
  5
162
100
AcDbEntity
  8
LAYER0001
  6
CONTINUOUS
 62
       7
100
AcDbLine
 10
-53.25694322
 20
6.15234353
 30
0.0
 11
-53.15568603
 21
6.29660768
 31
0.0
  0
LINE
  5
163
100
AcDbEntity
  8
LAYER0001
  6
CONTINUOUS
 62
       7
100
AcDbLine
 10
-53.00013255
 20
6.61065882
 30
0.0
 11
-52.94775949
 21
6.77872464
 31
0.0
  0
LINE
  5
164
100
AcDbEntity
  8
LAYER0001
  6
CONTINUOUS
 62
       7
100
AcDbLine
 10
-53.20445807
 20
8.13332026
 30
0.0
 11
-53.31302123
 21
8.27289152
 31
0.0
  0
LINE
  5
165
100
AcDbEntity
  8
LAYER0001
  6
CONTINUOUS
 62
       7
100
AcDbLine
 10
-56.0848435
 20
8.62765447
 30
0.0
 11
-56.23223104
 21
8.52092008
 31
0.0
  0
LINE
  5
166
100
AcDbEntity
  8
LAYER0001
  6
CONTINUOUS
 62
       7
100
AcDbLine
 10
-55.48855399
 20
5.46102919
 30
0.0
 11
-55.29916772
 21
5.41810202
 31
0.0
  0
LINE
  5
167
100
AcDbEntity
  8
LAYER0001
  6
CONTINUOUS
 62
       7
100
AcDbLine
 10
-58.07876333
 20
-0.65039254
 30
0.0
 11
-41.89711539
 21
-0.65039254
 31
0.0
  0
LINE
  5
168
100
AcDbEntity
  8
LAYER0001
  6
CONTINUOUS
 62
       7
100
AcDbLine
 10
-44.44548698
 20
4.06931937
 30
0.0
 11
-44.44548698
 21
4.77098197
 31
0.0
  0
LINE
  5
169
100
AcDbEntity
  8
LAYER0001
  6
CONTINUOUS
 62
       7
100
AcDbLine
 10
-49.35960563
 20
4.06931937
 30
0.0
 11
-49.35960563
 21
4.77098197
 31
0.0
  0
LINE
  5
16A
100
AcDbEntity
  8
LAYER0001
  6
CONTINUOUS
 62
       7
100
AcDbLine
 10
-50.61627311
 20
4.77098197
 30
0.0
 11
-50.61627311
 21
4.06931937
 31
0.0
  0
LINE
  5
16B
100
AcDbEntity
  8
LAYER0001
  6
CONTINUOUS
 62
       7
100
AcDbLine
 10
-43.18044791
 20
-5.49226754
 30
0.0
 11
-43.18044791
 21
-1.36414742
 31
0.0
  0
LINE
  5
16C
100
AcDbEntity
  8
LAYER0001
  6
CONTINUOUS
 62
       7
100
AcDbLine
 10
-43.96890046
 20
5.68044344
 30
0.0
 11
-43.81592008
 21
5.7809238
 31
0.0
  0
LINE
  5
16D
100
AcDbEntity
  8
LAYER0001
  6
CONTINUOUS
 62
       7
100
AcDbLine
 10
-44.04939537
 20
8.72172033
 30
0.0
 11
-44.21779286
 21
8.8022562
 31
0.0
  0
LINE
  5
16E
100
AcDbEntity
  8
LAYER0001
  6
CONTINUOUS
 62
       7
100
AcDbLine
 10
-44.39526477
 20
8.86840063
 30
0.0
 11
-44.58084823
 21
8.91929216
 31
0.0
  0
LINE
  5
16F
100
AcDbEntity
  8
LAYER0001
  6
CONTINUOUS
 62
       7
100
AcDbLine
 10
-48.58772443
 20
5.893641
 30
0.0
 11
-48.45868831
 21
6.01773444
 31
0.0
  0
LINE
  5
170
100
AcDbEntity
  8
LAYER0001
  6
CONTINUOUS
 62
       7
100
AcDbLine
 10
-49.30866639
 20
8.86840063
 30
0.0
 11
-49.49432967
 21
8.91929216
 31
0.0
  0
LINE
  5
171
100
AcDbEntity
  8
LAYER0001
  6
CONTINUOUS
 62
       7
100
AcDbLine
 10
-50.66681589
 20
8.86840063
 30
0.0
 11
-50.84435289
 21
8.8022562
 31
0.0
  0
LINE
  5
172
100
AcDbEntity
  8
LAYER0001
  6
CONTINUOUS
 62
       7
100
AcDbLine
 10
-54.90128286
 20
5.38272757
 30
0.0
 11
-54.69958288
 21
5.39171462
 31
0.0
  0
LINE
  5
173
100
AcDbEntity
  8
LAYER0001
  6
CONTINUOUS
 62
       7
100
AcDbLine
 10
-53.31302123
 20
8.27289152
 30
0.0
 11
-53.43547506
 21
8.40237861
 31
0.0
  0
LINE
  5
174
100
AcDbEntity
  8
LAYER0001
  6
CONTINUOUS
 62
       7
100
AcDbLine
 10
-55.75798612
 20
8.8022562
 30
0.0
 11
-55.92644161
 21
8.72172033
 31
0.0
  0
LINE
  5
175
100
AcDbEntity
  8
LAYER0001
  6
CONTINUOUS
 62
       7
100
AcDbLine
 10
-56.15997411
 20
5.7809238
 30
0.0
 11
-56.0069593
 21
5.68044344
 31
0.0
  0
LINE
  5
176
100
AcDbEntity
  8
LAYER0001
  6
CONTINUOUS
 62
       7
100
AcDbLine
 10
-56.0069593
 20
5.68044344
 30
0.0
 11
-55.84341051
 21
5.59306049
 31
0.0
  0
LINE
  5
177
100
AcDbEntity
  8
LAYER0001
  6
CONTINUOUS
 62
       7
100
AcDbLine
 10
-55.84341051
 20
5.59306049
 30
0.0
 11
-55.6702885
 21
5.51963554
 31
0.0
  0
LINE
  5
178
100
AcDbEntity
  8
LAYER0001
  6
CONTINUOUS
 62
       7
100
AcDbLine
 10
-43.18044791
 20
-2.48562936
 30
0.0
 11
-46.96812369
 21
-2.48562936
 31
0.0
  0
LINE
  5
179
100
AcDbEntity
  8
LAYER0001
  6
CONTINUOUS
 62
       7
100
AcDbLine
 10
-48.09394645
 20
-2.48562936
 30
0.0
 11
-51.88131217
 21
-2.48562936
 31
0.0
  0
LINE
  5
17A
100
AcDbEntity
  8
LAYER0001
  6
CONTINUOUS
 62
       7
100
AcDbLine
 10
-43.54536733
 20
6.01773444
 30
0.0
 11
-43.42972077
 21
6.15234353
 31
0.0
  0
LINE
  5
17B
100
AcDbEntity
  8
LAYER0001
  6
CONTINUOUS
 62
       7
100
AcDbLine
 10
-43.2425018
 20
6.44966631
 30
0.0
 11
-43.1728552
 21
6.61065882
 31
0.0
  0
LINE
  5
17C
100
AcDbEntity
  8
LAYER0001
  6
CONTINUOUS
 62
       7
100
AcDbLine
 10
-46.94328895
 20
7.82737108
 30
0.0
 11
-47.00443326
 21
7.66271606
 31
0.0
  0
LINE
  5
17D
100
AcDbEntity
  8
LAYER0001
  6
CONTINUOUS
 62
       7
100
AcDbLine
 10
-54.69958288
 20
5.39171462
 30
0.0
 11
-54.50359996
 21
5.41810202
 31
0.0
  0
LINE
  5
17E
100
AcDbEntity
  8
LAYER0001
  6
CONTINUOUS
 62
       7
100
AcDbLine
 10
-53.15568603
 20
6.29660768
 30
0.0
 11
-53.06976194
 21
6.44966631
 31
0.0
  0
LINE
  5
17F
100
AcDbEntity
  8
LAYER0001
  6
CONTINUOUS
 62
       7
100
AcDbLine
 10
-52.92834457
 20
7.4914227
 30
0.0
 11
-52.97172889
 21
7.66271606
 31
0.0
  0
LINE
  5
180
100
AcDbEntity
  8
LAYER0001
  6
CONTINUOUS
 62
       7
100
AcDbLine
 10
-54.40805288
 20
8.91929216
 30
0.0
 11
-54.60081668
 21
8.95406934
 31
0.0
  0
LINE
  5
181
100
AcDbEntity
  8
LAYER0001
  6
CONTINUOUS
 62
       7
100
AcDbLine
 10
-56.59870029
 20
8.13332026
 30
0.0
 11
-56.69242313
 21
7.9845263
 31
0.0
  0
LINE
  5
182
100
AcDbEntity
  8
LAYER0001
  6
CONTINUOUS
 62
       7
100
AcDbLine
 10
-56.77032793
 20
7.82737108
 30
0.0
 11
-56.83145397
 21
7.66271606
 31
0.0
  0
LINE
  5
183
100
AcDbEntity
  8
LAYER0001
  6
CONTINUOUS
 62
       7
100
AcDbLine
 10
-56.73341282
 20
6.44966631
 30
0.0
 11
-56.64747891
 21
6.29660768
 31
0.0
  0
LINE
  5
184
100
AcDbEntity
  8
LAYER0001
  6
CONTINUOUS
 62
       7
100
AcDbLine
 10
-43.32844462
 20
6.29660768
 30
0.0
 11
-43.2425018
 21
6.44966631
 31
0.0
  0
LINE
  5
185
100
AcDbEntity
  8
LAYER0001
  6
CONTINUOUS
 62
       7
100
AcDbLine
 10
-43.10104708
 20
7.4914227
 30
0.0
 11
-43.14444388
 21
7.66271606
 31
0.0
  0
LINE
  5
186
100
AcDbEntity
  8
LAYER0001
  6
CONTINUOUS
 62
       7
100
AcDbLine
 10
-43.28349636
 20
7.9845263
 30
0.0
 11
-43.37722621
 21
8.13332026
 31
0.0
  0
LINE
  5
187
100
AcDbEntity
  8
LAYER0001
  6
CONTINUOUS
 62
       7
100
AcDbLine
 10
-43.74367534
 20
8.52092008
 30
0.0
 11
-43.89103524
 21
8.62765447
 31
0.0
  0
LINE
  5
188
100
AcDbEntity
  8
LAYER0001
  6
CONTINUOUS
 62
       7
100
AcDbLine
 10
-46.4050611
 20
8.52092008
 30
0.0
 11
-46.54050215
 21
8.40237861
 31
0.0
  0
LINE
  5
189
100
AcDbEntity
  8
LAYER0001
  6
CONTINUOUS
 62
       7
100
AcDbLine
 10
-46.66300706
 20
8.27289152
 30
0.0
 11
-46.77161423
 21
8.13332026
 31
0.0
  0
LINE
  5
18A
100
AcDbEntity
  8
LAYER0001
  6
CONTINUOUS
 62
       7
100
AcDbLine
 10
-46.01617339
 20
5.59306049
 30
0.0
 11
-45.84302848
 21
5.51963554
 31
0.0
  0
LINE
  5
18B
100
AcDbEntity
  8
LAYER0001
  6
CONTINUOUS
 62
       7
100
AcDbLine
 10
-49.40054101
 20
5.46102919
 30
0.0
 11
-49.21882582
 21
5.51963554
 31
0.0
  0
LINE
  5
18C
100
AcDbEntity
  8
LAYER0001
  6
CONTINUOUS
 62
       7
100
AcDbLine
 10
-48.01452674
 20
7.4914227
 30
0.0
 11
-48.05789967
 21
7.66271606
 31
0.0
  0
LINE
  5
18D
100
AcDbEntity
  8
LAYER0001
  6
CONTINUOUS
 62
       7
100
AcDbLine
 10
-51.31860803
 20
8.52092008
 30
0.0
 11
-51.45403432
 21
8.40237861
 31
0.0
  0
LINE
  5
18E
100
AcDbEntity
  8
LAYER0001
  6
CONTINUOUS
 62
       7
100
AcDbLine
 10
-51.88952004
 20
6.61065882
 30
0.0
 11
-51.81986731
 21
6.44966631
 31
0.0
  0
LINE
  5
18F
100
AcDbEntity
  8
LAYER0001
  6
CONTINUOUS
 62
       7
100
AcDbLine
 10
-51.81986731
 20
6.44966631
 30
0.0
 11
-51.73391466
 21
6.29660768
 31
0.0
  0
LINE
  5
190
100
AcDbEntity
  8
LAYER0001
  6
CONTINUOUS
 62
       7
100
AcDbLine
 10
-53.37257191
 20
6.01773444
 30
0.0
 11
-53.25694322
 21
6.15234353
 31
0.0
  0
LINE
  5
191
100
AcDbEntity
  8
LAYER0001
  6
CONTINUOUS
 62
       7
100
AcDbLine
 10
-51.88131217
 20
-5.49226754
 30
0.0
 11
-48.09332632
 21
-5.49226754
 31
0.0
  0
LINE
  5
192
100
AcDbEntity
  8
LAYER0001
  6
CONTINUOUS
 62
       7
100
AcDbLine
 10
-53.00775504
 20
-5.49226754
 30
0.0
 11
-53.00775504
 21
-1.36414742
 31
0.0
  0
LINE
  5
193
100
AcDbEntity
  8
LAYER0001
  6
CONTINUOUS
 62
       7
100
AcDbLine
 10
-44.87232617
 20
5.39171462
 30
0.0
 11
-44.67638087
 21
5.41810202
 31
0.0
  0
LINE
  5
194
100
AcDbEntity
  8
LAYER0001
  6
CONTINUOUS
 62
       7
100
AcDbLine
 10
-46.25764551
 20
8.62765447
 30
0.0
 11
-46.4050611
 21
8.52092008
 31
0.0
  0
LINE
  5
195
100
AcDbEntity
  8
LAYER0001
  6
CONTINUOUS
 62
       7
100
AcDbLine
 10
-46.90636323
 20
6.44966631
 30
0.0
 11
-46.82040567
 21
6.29660768
 31
0.0
  0
LINE
  5
196
100
AcDbEntity
  8
LAYER0001
  6
CONTINUOUS
 62
       7
100
AcDbLine
 10
-46.47433853
 20
5.893641
 30
0.0
 11
-46.33279002
 21
5.7809238
 31
0.0
  0
LINE
  5
197
100
AcDbEntity
  8
LAYER0001
  6
CONTINUOUS
 62
       7
100
AcDbLine
 10
-49.21882582
 20
5.51963554
 30
0.0
 11
-49.04572669
 21
5.59306049
 31
0.0
  0
LINE
  5
198
100
AcDbEntity
  8
LAYER0001
  6
CONTINUOUS
 62
       7
100
AcDbLine
 10
-48.34306759
 20
6.15234353
 30
0.0
 11
-48.24182217
 21
6.29660768
 31
0.0
  0
LINE
  5
199
100
AcDbEntity
  8
LAYER0001
  6
CONTINUOUS
 62
       7
100
AcDbLine
 10
-48.08629668
 20
6.61065882
 30
0.0
 11
-48.03393636
 21
6.77872464
 31
0.0
  0
LINE
  5
19A
100
AcDbEntity
  8
LAYER0001
  6
CONTINUOUS
 62
       7
100
AcDbLine
 10
-50.75665985
 20
5.51963554
 30
0.0
 11
-50.57494129
 21
5.46102919
 31
0.0
  0
LINE
  5
19B
100
AcDbEntity
  8
LAYER0001
  6
CONTINUOUS
 62
       7
100
AcDbLine
 10
-53.79607093
 20
5.68044344
 30
0.0
 11
-53.64309736
 21
5.7809238
 31
0.0
  0
LINE
  5
19C
100
AcDbEntity
  8
LAYER0001
  6
CONTINUOUS
 62
       7
100
AcDbLine
 10
-55.00284289
 20
8.97187071
 30
0.0
 11
-55.2019054
 21
8.95406934
 31
0.0
  0
LINE
  5
19D
100
AcDbEntity
  8
LAYER0001
  6
CONTINUOUS
 62
       7
100
AcDbLine
 10
-56.85542472
 20
6.77872464
 30
0.0
 11
-56.80304834
 21
6.61065882
 31
0.0
  0
LINE
  5
19E
100
AcDbEntity
  8
LAYER0001
  6
CONTINUOUS
 62
       7
100
AcDbLine
 10
-56.64747891
 20
6.29660768
 30
0.0
 11
-56.54620736
 21
6.15234353
 31
0.0
  0
LINE
  5
19F
100
AcDbEntity
  8
LAYER0001
  6
CONTINUOUS
 62
       7
100
AcDbLine
 10
-55.6702885
 20
5.51963554
 30
0.0
 11
-55.48855399
 21
5.46102919
 31
0.0
  0
LINE
  5
1A0
100
AcDbEntity
  8
LAYER0001
  6
CONTINUOUS
 62
       7
100
AcDbLine
 10
-43.07635375
 20
7.31435244
 30
0.0
 11
-43.10104708
 21
7.4914227
 31
0.0
  0
LINE
  5
1A1
100
AcDbEntity
  8
LAYER0001
  6
CONTINUOUS
 62
       7
100
AcDbLine
 10
-47.07755986
 20
7.13263381
 30
0.0
 11
-47.06257894
 21
6.95300316
 31
0.0
  0
LINE
  5
1A2
100
AcDbEntity
  8
LAYER0001
  6
CONTINUOUS
 62
       7
100
AcDbLine
 10
-47.02841147
 20
6.77872464
 30
0.0
 11
-46.97601903
 21
6.61065882
 31
0.0
  0
LINE
  5
1A3
100
AcDbEntity
  8
LAYER0001
  6
CONTINUOUS
 62
       7
100
AcDbLine
 10
-46.33279002
 20
5.7809238
 30
0.0
 11
-46.17974777
 21
5.68044344
 31
0.0
  0
LINE
  5
1A4
100
AcDbEntity
  8
LAYER0001
  6
CONTINUOUS
 62
       7
100
AcDbLine
 10
-47.98984853
 20
7.31435244
 30
0.0
 11
-48.01452674
 21
7.4914227
 31
0.0
  0
LINE
  5
1A5
100
AcDbEntity
  8
LAYER0001
  6
CONTINUOUS
 62
       7
100
AcDbLine
 10
-48.65697334
 20
8.52092008
 30
0.0
 11
-48.80433285
 21
8.62765447
 31
0.0
  0
LINE
  5
1A6
100
AcDbEntity
  8
LAYER0001
  6
CONTINUOUS
 62
       7
100
AcDbLine
 10
-51.57652781
 20
8.27289152
 30
0.0
 11
-51.68512651
 21
8.13332026
 31
0.0
  0
LINE
  5
1A7
100
AcDbEntity
  8
LAYER0001
  6
CONTINUOUS
 62
       7
100
AcDbLine
 10
-51.98602639
 20
7.31435244
 30
0.0
 11
-51.99105839
 21
7.13263381
 31
0.0
  0
LINE
  5
1A8
100
AcDbEntity
  8
LAYER0001
  6
CONTINUOUS
 62
       7
100
AcDbLine
 10
-51.99105839
 20
7.13263381
 30
0.0
 11
-51.97607762
 21
6.95300316
 31
0.0
  0
LINE
  5
1A9
100
AcDbEntity
  8
LAYER0001
  6
CONTINUOUS
 62
       7
100
AcDbLine
 10
-51.97607762
 20
6.95300316
 30
0.0
 11
-51.94191082
 21
6.77872464
 31
0.0
  0
LINE
  5
1AA
100
AcDbEntity
  8
LAYER0001
  6
CONTINUOUS
 62
       7
100
AcDbLine
 10
-51.0933241
 20
5.68044344
 30
0.0
 11
-50.92977479
 21
5.59306049
 31
0.0
  0
LINE
  5
1AB
100
AcDbEntity
  8
LAYER0001
  6
CONTINUOUS
 62
       7
100
AcDbLine
 10
-53.64309736
 20
5.7809238
 30
0.0
 11
-53.5016105
 21
5.893641
 31
0.0
  0
LINE
  5
1AC
100
AcDbEntity
  8
LAYER0001
  6
CONTINUOUS
 62
       7
100
AcDbLine
 10
-53.0328503
 20
7.82737108
 30
0.0
 11
-53.11074723
 21
7.9845263
 31
0.0
  0
LINE
  5
1AD
100
AcDbEntity
  8
LAYER0001
  6
CONTINUOUS
 62
       7
100
AcDbLine
 10
-53.57085799
 20
8.52092008
 30
0.0
 11
-53.71820841
 21
8.62765447
 31
0.0
  0
LINE
  5
1AE
100
AcDbEntity
  8
LAYER0001
  6
CONTINUOUS
 62
       7
100
AcDbLine
 10
-58.07876333
 20
-6.40290963
 30
0.0
 11
-58.07876333
 21
9.89873099
 31
0.0
  0
LINE
  5
1AF
100
AcDbEntity
  8
LAYER0001
  6
CONTINUOUS
 62
       7
100
AcDbLine
 10
-46.96812369
 20
-5.49226754
 30
0.0
 11
-43.18044791
 21
-5.49226754
 31
0.0
  0
LINE
  5
1B0
100
AcDbEntity
  8
LAYER0001
  6
CONTINUOUS
 62
       7
100
AcDbLine
 10
-46.96812369
 20
-1.36414742
 30
0.0
 11
-46.96812369
 21
-5.49226754
 31
0.0
  0
LINE
  5
1B1
100
AcDbEntity
  8
LAYER0001
  6
CONTINUOUS
 62
       7
100
AcDbLine
 10
-44.30545469
 20
5.51963554
 30
0.0
 11
-44.13239963
 21
5.59306049
 31
0.0
  0
LINE
  5
1B2
100
AcDbEntity
  8
LAYER0001
  6
CONTINUOUS
 62
       7
100
AcDbLine
 10
-43.42972077
 20
6.15234353
 30
0.0
 11
-43.32844462
 21
6.29660768
 31
0.0
  0
LINE
  5
1B3
100
AcDbEntity
  8
LAYER0001
  6
CONTINUOUS
 62
       7
100
AcDbLine
 10
-46.86536207
 20
7.9845263
 30
0.0
 11
-46.94328895
 21
7.82737108
 31
0.0
  0
LINE
  5
1B4
100
AcDbEntity
  8
LAYER0001
  6
CONTINUOUS
 62
       7
100
AcDbLine
 10
-49.04572669
 20
5.59306049
 30
0.0
 11
-48.88220351
 21
5.68044344
 31
0.0
  0
LINE
  5
1B5
100
AcDbEntity
  8
LAYER0001
  6
CONTINUOUS
 62
       7
100
AcDbLine
 10
-51.01280528
 20
8.72172033
 30
0.0
 11
-51.17121101
 21
8.62765447
 31
0.0
  0
LINE
  5
1B6
100
AcDbEntity
  8
LAYER0001
  6
CONTINUOUS
 62
       7
100
AcDbLine
 10
-51.17121101
 20
8.62765447
 30
0.0
 11
-51.31860803
 21
8.52092008
 31
0.0
  0
LINE
  5
1B7
100
AcDbEntity
  8
LAYER0001
  6
CONTINUOUS
 62
       7
100
AcDbLine
 10
-51.68512651
 20
8.13332026
 30
0.0
 11
-51.77886835
 21
7.9845263
 31
0.0
  0
LINE
  5
1B8
100
AcDbEntity
  8
LAYER0001
  6
CONTINUOUS
 62
       7
100
AcDbLine
 10
-51.91793329
 20
7.66271606
 30
0.0
 11
-51.96133234
 21
7.4914227
 31
0.0
  0
LINE
  5
1B9
100
AcDbEntity
  8
LAYER0001
  6
CONTINUOUS
 62
       7
100
AcDbLine
 10
-54.3142957
 20
5.46102919
 30
0.0
 11
-54.13263169
 21
5.51963554
 31
0.0
  0
LINE
  5
1BA
100
AcDbEntity
  8
LAYER0001
  6
CONTINUOUS
 62
       7
100
AcDbLine
 10
-55.10309043
 20
5.39171462
 30
0.0
 11
-54.90128286
 21
5.38272757
 31
0.0
  0
LINE
  5
1BB
100
AcDbEntity
  8
LAYER0001
  6
CONTINUOUS
 62
       7
100
AcDbLine
 10
-45.70277457
 20
4.77098197
 30
0.0
 11
-45.70277457
 21
4.06931937
 31
0.0
  0
LINE
  5
1BC
100
AcDbEntity
  8
LAYER0001
  6
CONTINUOUS
 62
       7
100
AcDbLine
 10
-54.27248403
 20
4.77098197
 30
0.0
 11
-55.52977164
 21
4.77098197
 31
0.0
  0
LINE
  5
1BD
100
AcDbEntity
  8
LAYER0001
  6
CONTINUOUS
 62
       7
100
AcDbLine
 10
-43.81592008
 20
5.7809238
 30
0.0
 11
-43.6744214
 21
5.893641
 31
0.0
  0
LINE
  5
1BE
100
AcDbEntity
  8
LAYER0001
  6
CONTINUOUS
 62
       7
100
AcDbLine
 10
-43.1728552
 20
6.61065882
 30
0.0
 11
-43.12046773
 21
6.77872464
 31
0.0
  0
LINE
  5
1BF
100
AcDbEntity
  8
LAYER0001
  6
CONTINUOUS
 62
       7
100
AcDbLine
 10
-44.58084823
 20
8.91929216
 30
0.0
 11
-44.77358031
 21
8.95406934
 31
0.0
  0
LINE
  5
1C0
100
AcDbEntity
  8
LAYER0001
  6
CONTINUOUS
 62
       7
100
AcDbLine
 10
-45.47187353
 20
5.41810202
 30
0.0
 11
-45.27578668
 21
5.39171462
 31
0.0
  0
LINE
  5
1C1
100
AcDbEntity
  8
LAYER0001
  6
CONTINUOUS
 62
       7
100
AcDbLine
 10
-48.96270812
 20
8.72172033
 30
0.0
 11
-49.13113925
 21
8.8022562
 31
0.0
  0
LINE
  5
1C2
100
AcDbEntity
  8
LAYER0001
  6
CONTINUOUS
 62
       7
100
AcDbLine
 10
-49.13113925
 20
8.8022562
 30
0.0
 11
-49.30866639
 21
8.86840063
 31
0.0
  0
LINE
  5
1C3
100
AcDbEntity
  8
LAYER0001
  6
CONTINUOUS
 62
       7
100
AcDbLine
 10
-54.50359996
 20
5.41810202
 30
0.0
 11
-54.3142957
 21
5.46102919
 31
0.0
  0
LINE
  5
1C4
100
AcDbEntity
  8
LAYER0001
  6
CONTINUOUS
 62
       7
100
AcDbLine
 10
-52.94775949
 20
6.77872464
 30
0.0
 11
-52.91360434
 21
6.95300316
 31
0.0
  0
LINE
  5
1C5
100
AcDbEntity
  8
LAYER0001
  6
CONTINUOUS
 62
       7
100
AcDbLine
 10
-56.87484051
 20
7.4914227
 30
0.0
 11
-56.8995268
 21
7.31435244
 31
0.0
  0
LINE
  5
1C6
100
AcDbEntity
  8
LAYER0001
  6
CONTINUOUS
 62
       7
100
AcDbLine
 10
-56.88958123
 20
6.95300316
 30
0.0
 11
-56.85542472
 21
6.77872464
 31
0.0
  0
LINE
  5
1C7
100
AcDbEntity
  8
LAYER0001
  6
CONTINUOUS
 62
       7
100
AcDbLine
 10
-58.97793325
 20
0.13808646
 30
0.0
 11
-40.99732534
 21
0.13808646
 31
0.0
  0
LINE
  5
1C8
100
AcDbEntity
  8
LAYER0001
  6
CONTINUOUS
 62
       7
100
AcDbLine
 10
-45.70277457
 20
4.06931937
 30
0.0
 11
-44.44548698
 21
4.06931937
 31
0.0
  0
LINE
  5
1C9
100
AcDbEntity
  8
LAYER0001
  6
CONTINUOUS
 62
       7
100
AcDbLine
 10
-44.44548698
 20
4.77098197
 30
0.0
 11
-45.70277457
 21
4.77098197
 31
0.0
  0
LINE
  5
1CA
100
AcDbEntity
  8
LAYER0001
  6
CONTINUOUS
 62
       7
100
AcDbLine
 10
-55.52977164
 20
4.77098197
 30
0.0
 11
-55.52977164
 21
4.06931937
 31
0.0
  0
LINE
  5
1CB
100
AcDbEntity
  8
LAYER0001
  6
CONTINUOUS
 62
       7
100
AcDbLine
 10
-53.00775504
 20
-2.48562936
 30
0.0
 11
-56.79543082
 21
-2.48562936
 31
0.0
  0
LINE
  5
1CC
100
AcDbEntity
  8
LAYER0001
  6
CONTINUOUS
 62
       7
100
AcDbLine
 10
-43.18044791
 20
-1.36414742
 30
0.0
 11
-46.96812369
 21
-1.36414742
 31
0.0
  0
LINE
  5
1CD
100
AcDbEntity
  8
LAYER0001
  6
CONTINUOUS
 62
       7
100
AcDbLine
 10
-48.09332632
 20
-1.36414742
 30
0.0
 11
-51.88131217
 21
-1.36414742
 31
0.0
  0
LINE
  5
1CE
100
AcDbEntity
  8
LAYER0001
  6
CONTINUOUS
 62
       7
100
AcDbLine
 10
-53.00775504
 20
-1.36414742
 30
0.0
 11
-56.79543082
 21
-1.36414742
 31
0.0
  0
LINE
  5
1CF
100
AcDbEntity
  8
LAYER0001
  6
CONTINUOUS
 62
       7
100
AcDbLine
 10
-43.48580792
 20
8.27289152
 30
0.0
 11
-43.60827861
 21
8.40237861
 31
0.0
  0
LINE
  5
1D0
100
AcDbEntity
  8
LAYER0001
  6
CONTINUOUS
 62
       7
100
AcDbLine
 10
-49.78598015
 20
5.39171462
 30
0.0
 11
-49.58991241
 21
5.41810202
 31
0.0
  0
LINE
  5
1D1
100
AcDbEntity
  8
LAYER0001
  6
CONTINUOUS
 62
       7
100
AcDbLine
 10
-49.68716922
 20
8.95406934
 30
0.0
 11
-49.88622517
 21
8.97187071
 31
0.0
  0
LINE
  5
1D2
100
AcDbEntity
  8
LAYER0001
  6
CONTINUOUS
 62
       7
100
AcDbLine
 10
-50.28833614
 20
8.95406934
 30
0.0
 11
-50.48115629
 21
8.91929216
 31
0.0
  0
LINE
  5
1D3
100
AcDbEntity
  8
LAYER0001
  6
CONTINUOUS
 62
       7
100
AcDbLine
 10
-53.71820841
 20
8.62765447
 30
0.0
 11
-53.87656472
 21
8.72172033
 31
0.0
  0
LINE
  5
1D4
100
AcDbEntity
  8
LAYER0001
  6
CONTINUOUS
 62
       7
100
AcDbLine
 10
-56.80304834
 20
6.61065882
 30
0.0
 11
-56.73341282
 21
6.44966631
 31
0.0
  0
LINE
  5
1D5
100
AcDbEntity
  8
LAYER0001
  6
CONTINUOUS
 62
       7
100
AcDbLine
 10
-55.29916772
 20
5.41810202
 30
0.0
 11
-55.10309043
 21
5.39171462
 31
0.0
  0
LINE
  5
1D6
100
AcDbEntity
  8
LAYER0001
  6
CONTINUOUS
 62
       7
100
AcDbLine
 10
-41.8977355
 20
9.89873099
 30
0.0
 11
-41.8977355
 21
-6.40290963
 31
0.0
  0
LINE
  5
1D7
100
AcDbEntity
  8
LAYER0001
  6
CONTINUOUS
 62
       7
100
AcDbLine
 10
-55.52977164
 20
4.06931937
 30
0.0
 11
-54.27248403
 21
4.06931937
 31
0.0
  0
LINE
  5
1D8
100
AcDbEntity
  8
LAYER0001
  6
CONTINUOUS
 62
       7
100
AcDbLine
 10
34.03320566
 20
-13.1587081
 30
0.0
 11
22.51479045
 21
-2.81019497
 31
0.0
  0
LINE
  5
1D9
100
AcDbEntity
  8
LAYER0001
  6
CONTINUOUS
 62
       7
100
AcDbLine
 10
16.05254924
 20
3.3577349
 30
0.0
 11
22.51479045
 21
-2.94978707
 31
0.0
  0
TEXT
  5
1DA
100
AcDbEntity
  8
LAYER0002
 62
       7
100
AcDbText
 10
92.72418989
 20
-41.8373449
 30
0.0
 40
5.0
  1
000
 72
       5
 11
107.72418989
 21
-41.8373449
 31
0.0
100
AcDbText
  0
ENDSEC
  0
SECTION
  2
OBJECTS
  0
DICTIONARY
  5
19
100
AcDbDictionary
  3
ACAD_GROUP
350
1A
  3
ACAD_MLINESTYLE
350
1B
  0
DICTIONARY
  5
1A
102
{ACAD_REACTORS
330
19
102
}
100
AcDbDictionary
  0
DICTIONARY
  5
1B
102
{ACAD_REACTORS
330
19
102
}
100
AcDbDictionary
  3
STANDARD
350
1C
  0
MLINESTYLE
  5
1C
102
{ACAD_REACTORS
330
1B
102
}
100
AcDbMlineStyle
  2
STANDARD
 70
       0
  3

 62
       0
 51
90.0
 52
90.0
 71
       2
 49
0.5
 62
     256
  6
BYLAYER
 49
-0.5
 62
     256
  6
BYLAYER
  0
ENDSEC
  0
EOF
