  0
SECTION
  2
HEADER
  9
$ACADVER
  1
AC1014
  9
$ACADMAINTVER
 70
       0
  9
$DWGCODEPAGE
  3
ANSI_932
  9
$INSBASE
 10
0.0
 20
0.0
 30
0.0
  9
$EXTMIN
 10
-131.74149731
 20
-108.63009474
 30
0.0
  9
$EXTMAX
 10
131.74149731
 20
45.94659624
 30
0.0
  9
$LIMMIN
 10
-139.97534089
 20
-113.46061633
  9
$LIMMAX
 10
139.97534089
 20
50.77711783
  9
$ORTHOMODE
 70
       0
  9
$REGENMODE
 70
       1
  9
$FILLMODE
 70
       1
  9
$QTEXTMODE
 70
       0
  9
$MIRRTEXT
 70
       1
  9
$DRAGMODE
 70
       2
  9
$LTSCALE
 40
1.0
  9
$OSMODE
 70
       0
  9
$ATTMODE
 70
       1
  9
$TEXTSIZE
 40
0.2
  9
$TRACEWID
 40
0.05
  9
$TEXTSTYLE
  7
STANDARD
  9
$CLAYER
  8
0
  9
$CELTYPE
  6
CONTINUOUS
  9
$CECOLOR
 62
     256
  9
$CELTSCALE
 40
1.0
  9
$DELOBJ
 70
       1
  9
$DISPSILH
 70
       0
  9
$DIMSCALE
 40
1.0
  9
$DIMASZ
 40
0.18
  9
$DIMEXO
 40
0.0625
  9
$DIMDLI
 40
0.38
  9
$DIMRND
 40
0.0
  9
$DIMDLE
 40
0.0
  9
$DIMEXE
 40
0.18
  9
$DIMTP
 40
0.0
  9
$DIMTM
 40
0.0
  9
$DIMTXT
 40
0.18
  9
$DIMCEN
 40
0.09
  9
$DIMTSZ
 40
0.0
  9
$DIMTOL
 70
       0
  9
$DIMLIM
 70
       0
  9
$DIMTIH
 70
       1
  9
$DIMTOH
 70
       1
  9
$DIMSE1
 70
       0
  9
$DIMSE2
 70
       0
  9
$DIMTAD
 70
       0
  9
$DIMZIN
 70
       0
  9
$DIMBLK
  1

  9
$DIMASO
 70
       1
  9
$DIMSHO
 70
       1
  9
$DIMPOST
  1

  9
$DIMAPOST
  1

  9
$DIMALT
 70
       0
  9
$DIMALTD
 70
       2
  9
$DIMALTF
 40
25.4
  9
$DIMLFAC
 40
1.0
  9
$DIMTOFL
 70
       0
  9
$DIMTVP
 40
0.0
  9
$DIMTIX
 70
       0
  9
$DIMSOXD
 70
       0
  9
$DIMSAH
 70
       0
  9
$DIMBLK1
  1

  9
$DIMBLK2
  1

  9
$DIMSTYLE
  2
STANDARD
  9
$DIMCLRD
 70
       0
  9
$DIMCLRE
 70
       0
  9
$DIMCLRT
 70
       0
  9
$DIMTFAC
 40
1.0
  9
$DIMGAP
 40
0.09
  9
$DIMJUST
 70
       0
  9
$DIMSD1
 70
       0
  9
$DIMSD2
 70
       0
  9
$DIMTOLJ
 70
       1
  9
$DIMTZIN
 70
       0
  9
$DIMALTZ
 70
       0
  9
$DIMALTTZ
 70
       0
  9
$DIMFIT
 70
       3
  9
$DIMUPT
 70
       0
  9
$DIMUNIT
 70
       2
  9
$DIMDEC
 70
       4
  9
$DIMTDEC
 70
       4
  9
$DIMALTU
 70
       2
  9
$DIMALTTD
 70
       2
  9
$DIMTXSTY
  7
STANDARD
  9
$DIMAUNIT
 70
       0
  9
$LUNITS
 70
       2
  9
$LUPREC
 70
       4
  9
$SKETCHINC
 40
0.1
  9
$FILLETRAD
 40
0.0
  9
$AUNITS
 70
       0
  9
$AUPREC
 70
       0
  9
$MENU
  1
acad
  9
$ELEVATION
 40
0.0
  9
$PELEVATION
 40
0.0
  9
$THICKNESS
 40
0.0
  9
$LIMCHECK
 70
       0
  9
$BLIPMODE
 70
       1
  9
$CHAMFERA
 40
0.0
  9
$CHAMFERB
 40
0.0
  9
$CHAMFERC
 40
0.0
  9
$CHAMFERD
 40
0.0
  9
$SKPOLY
 70
       0
  9
$TDCREATE
 40
0.000000000
  9
$TDUPDATE
 40
0.000000000
  9
$TDINDWG
 40
0.0000000000
  9
$TDUSRTIMER
 40
0.0000000000
  9
$USRTIMER
 70
       1
  9
$ANGBASE
 50
0.0
  9
$ANGDIR
 70
       0
  9
$PDMODE
 70
       0
  9
$PDSIZE
 40
1.0
  9
$PLINEWID
 40
0.0
  9
$COORDS
 70
       1
  9
$SPLFRAME
 70
       0
  9
$SPLINETYPE
 70
       6
  9
$SPLINESEGS
 70
       8
  9
$ATTDIA
 70
       0
  9
$ATTREQ
 70
       1
  9
$HANDLING
 70
       1
  9
$HANDSEED
  5
1B5
  9
$SURFTAB1
 70
       6
  9
$SURFTAB2
 70
       6
  9
$SURFTYPE
 70
       6
  9
$SURFU
 70
       6
  9
$SURFV
 70
       6
  9
$UCSNAME
  2

  9
$UCSORG
 10
0.0
 20
0.0
 30
0.0
  9
$UCSXDIR
 10
1.0
 20
0.0
 30
0.0
  9
$UCSYDIR
 10
0.0
 20
1.0
 30
0.0
  9
$PUCSNAME
  2

  9
$PUCSORG
 10
0.0
 20
0.0
 30
0.0
  9
$PUCSXDIR
 10
1.0
 20
0.0
 30
0.0
  9
$PUCSYDIR
 10
0.0
 20
1.0
 30
0.0
  9
$USERI1
 70
       0
  9
$USERI2
 70
       0
  9
$USERI3
 70
       0
  9
$USERI4
 70
       0
  9
$USERI5
 70
       0
  9
$USERR1
 40
0.0
  9
$USERR2
 40
0.0
  9
$USERR3
 40
0.0
  9
$USERR4
 40
0.0
  9
$USERR5
 40
0.0
  9
$WORLDVIEW
 70
       1
  9
$SHADEDGE
 70
       3
  9
$SHADEDIF
 70
      70
  9
$TILEMODE
 70
       1
  9
$MAXACTVP
 70
      16
  9
$PINSBASE
 10
0.0
 20
0.0
 30
0.0
  9
$PLIMCHECK
 70
       0
  9
$PEXTMIN
 10
1.00000000E+20
 20
1.00000000E+20
 30
1.00000000E+20
  9
$PEXTMAX
 10
-1.00000000E+20
 20
-1.00000000E+20
 30
-1.00000000E+20
  9
$PLIMMIN
 10
0.0
 20
0.0
  9
$PLIMMAX
 10
12.0
 20
9.0
  9
$UNITMODE
 70
       0
  9
$VISRETAIN
 70
       0
  9
$PLINEGEN
 70
       1
  9
$PSLTSCALE
 70
       0
  9
$TREEDEPTH
 70
    3020
  9
$PICKSTYLE
 70
       1
  9
$CMLSTYLE
  2
STANDARD
  9
$CMLJUST
 70
       0
  9
$CMLSCALE
 40
1.0
  9
$PROXYGRAPHICS
 70
       0
  9
$MEASUREMENT
 70
       0
  0
ENDSEC
  0
SECTION
  2
CLASSES
  0
CLASS
  1
LWPOLYLINE
  2
AcDbPolyline
  3
"AutoCAD"
 90
        0
280
       0
281
       1
  0
CLASS
  1
IMAGE
  2
AcDbRasterImage
  3
ISM
 90
      127
280
       0
281
       1
  0
CLASS
  1
OLE2FRAME
  2
AcDbOle2Frame
  3
""
 90
        0
280
       0
281
       1
  0
CLASS
  1
HATCH
  2
AcDbHatch
  3
"ACAD_SEDONA"
 90
        0
280
       0
281
       1
  0
CLASS
  1
DICTIONARYVAR
  2
AcDbDictionaryVar
  3
"AutoCAD"
 90
        0
280
       0
281
       0
  0
CLASS
  1
RASTERVARIABLES
  2
AcDbRasterVariables
  3
ISM
 90
        0
280
       0
281
       0
  0
CLASS
  1
IMAGEDEF
  2
AcDbRasterImageDef
  3
ISM
 90
        0
280
       0
281
       0
  0
CLASS
  1
IMAGEDEF_REACTOR
  2
AcDbRasterImageDefReactor
  3
ISM
 90
        1
280
       0
281
       0
  0
CLASS
  1
IDBUFFER
  2
AcDbIdBuffer
  3
"Acad"
 90
        0
280
       0
281
       0
  0
CLASS
  1
SPATIAL_FILTER
  2
AcDbSpatialFilter
  3
"Acad"
 90
        0
280
       0
281
       0
  0
CLASS
  1
XRECORD
  2
AcDbXrecord
  3
"<Built In>"
 90
        0
280
       0
281
       0
  0
CLASS
  1
SORTENTSTABLE
  2
AcDbSortentsTable
  3
"AutoCAD"
 90
        0
280
       0
281
       0
  0
CLASS
  1
LAYER_INDEX
  2
AcDbLayerIndex
  3
"Acad"
 90
        0
280
       0
281
       0
  0
CLASS
  1
SPATIAL_INDEX
  2
AcDbSpatialIndex
  3
"Acad"
 90
        0
280
       0
281
       0
  0
CLASS
  1
OBJECT_PTR
  2
CAseDLPNTableRecord
  3
"ASE-LPNTableRecord"
 90
        1
280
       0
281
       0
  0
CLASS
  1
LAYOUT
  2
AcDbLayout
  3
"AutoCAD 2000"
 90
        1
280
       0
281
       0
  0
CLASS
  1
PLOTSETTINGS
  2
AcDbPlotSettings
  3
"AutoCAD 2000"
 90
        1
280
       0
281
       0
  0
CLASS
  1
ACDBDICTIONARYWDFLT
  2
AcDbDictionaryWithDefault
  3
"AutoCAD 2000"
 90
        1
280
       0
281
       0
  0
CLASS
  1
ACDBPLACEHOLDER
  2
AcDbPlaceHolder
  3
"AutoCAD 2000"
 90
        1
280
       0
281
       0
  0
CLASS
  1
VBA_PROJECT
  2
AcDbVbaProject
  3
"acadvba"
 90
        1
280
       0
281
       0
  0
CLASS
  1
WIPEOUT
  2
AcDbWipeout
  3
WipeOut|AutoCAD Express Tool|expresstools@autodesk.com
 90
      127
280
       0
281
       1
  0
CLASS
  1
WIPEOUTVARIABLES
  2
AcDbWipeoutVariables
  3
WipeOut|AutoCAD Express Tool|expresstools@autodesk.com
 90
        0
280
       0
281
       0
  0
CLASS
  1
RTEXT
  2
RText
  3
RText|AutoCAD Express Tool|expresstools@autodesk.com
 90
        0
280
       0
281
       1
  0
CLASS
  1
ARCALIGNEDTEXT
  2
AcDbArcAlignedText
  3
ATEXT|AutoCAD Express Tool|expresstools@autodesk.com
 90
        0
280
       0
281
       1
  0
ENDSEC
  0
SECTION
  2
TABLES
  0
TABLE
  2
VPORT
  5
7
100
AcDbSymbolTable
 70
       1
  0
VPORT
  5
15
100
AcDbSymbolTableRecord
100
AcDbViewportTableRecord
  2
*ACTIVE
 70
       0
 10
0.0
 20
0.0
 11
1.0
 21
1.0
 12
0.0
 22
-31.34174925
 13
0.0
 23
0.0
 14
1.0
 24
1.0
 15
0.0
 25
0.0
 16
0.0
 26
0.0
 36
1.0
 17
0.0
 27
0.0
 37
0.0
 40
164.23773416
 41
1.70454545
 42
50.0
 43
0.0
 44
0.0
 50
0.0
 51
0.0
 71
       0
 72
     100
 73
       1
 74
       1
 75
       0
 76
       0
 77
       0
 78
       0
  0
ENDTAB
  0
TABLE
  2
LTYPE
  5
4
100
AcDbSymbolTable
 70
      30
  0
LTYPE
  5
11
100
AcDbSymbolTableRecord
100
AcDbLinetypeTableRecord
  2
BYBLOCK
 70
      64
  3

 72
      65
 73
       0
 40
0.0
  0
LTYPE
  5
12
100
AcDbSymbolTableRecord
100
AcDbLinetypeTableRecord
  2
BYLAYER
 70
      64
  3

 72
      65
 73
       0
 40
0.0
  0
LTYPE
  5
13
100
AcDbSymbolTableRecord
100
AcDbLinetypeTableRecord
  2
CONTINUOUS
 70
      64
  3
Solid line
 72
      65
 73
       0
 40
0.0
  0
LTYPE
  5
1D
100
AcDbSymbolTableRecord
100
AcDbLinetypeTableRecord
  2
HIDDENX2
 70
      64
  3
CADPAC LINETYPE
 72
      65
 73
       2
 40
11.88
 49
8.91
 74
       0
 49
-2.97
 74
       0
  0
LTYPE
  5
1E
100
AcDbSymbolTableRecord
100
AcDbLinetypeTableRecord
  2
HIDDEN
 70
      64
  3
CADPAC LINETYPE
 72
      65
 73
       2
 40
8.91
 49
5.94
 74
       0
 49
-2.97
 74
       0
  0
LTYPE
  5
1F
100
AcDbSymbolTableRecord
100
AcDbLinetypeTableRecord
  2
HIDDEN2
 70
      64
  3
CADPAC LINETYPE
 72
      65
 73
       2
 40
7.425
 49
4.455
 74
       0
 49
-2.97
 74
       0
  0
LTYPE
  5
20
100
AcDbSymbolTableRecord
100
AcDbLinetypeTableRecord
  2
DASHED
 70
      64
  3
CADPAC LINETYPE
 72
      65
 73
       2
 40
8.91
 49
5.94
 74
       0
 49
-2.97
 74
       0
  0
LTYPE
  5
21
100
AcDbSymbolTableRecord
100
AcDbLinetypeTableRecord
  2
DASHED2
 70
      64
  3
CADPAC LINETYPE
 72
      65
 73
       2
 40
6.6825
 49
4.455
 74
       0
 49
-2.2275
 74
       0
  0
LTYPE
  5
22
100
AcDbSymbolTableRecord
100
AcDbLinetypeTableRecord
  2
DASHEDX2
 70
      64
  3
CADPAC LINETYPE
 72
      65
 73
       2
 40
13.365
 49
8.91
 74
       0
 49
-4.455
 74
       0
  0
LTYPE
  5
23
100
AcDbSymbolTableRecord
100
AcDbLinetypeTableRecord
  2
DOTX2
 70
      64
  3
CADPAC LINETYPE
 72
      65
 73
       2
 40
3.7125
 49
0.0
 74
       0
 49
-3.7125
 74
       0
  0
LTYPE
  5
24
100
AcDbSymbolTableRecord
100
AcDbLinetypeTableRecord
  2
DOT
 70
      64
  3
CADPAC LINETYPE
 72
      65
 73
       2
 40
2.97
 49
0.0
 74
       0
 49
-2.97
 74
       0
  0
LTYPE
  5
25
100
AcDbSymbolTableRecord
100
AcDbLinetypeTableRecord
  2
DOT2
 70
      64
  3
CADPAC LINETYPE
 72
      65
 73
       2
 40
2.2275
 49
0.0
 74
       0
 49
-2.2275
 74
       0
  0
LTYPE
  5
26
100
AcDbSymbolTableRecord
100
AcDbLinetypeTableRecord
  2
CENTERX2
 70
      64
  3
CADPAC LINETYPE
 72
      65
 73
       4
 40
17.82
 49
7.425
 74
       0
 49
-3.7125
 74
       0
 49
2.97
 74
       0
 49
-3.7125
 74
       0
  0
LTYPE
  5
27
100
AcDbSymbolTableRecord
100
AcDbLinetypeTableRecord
  2
CENTER
 70
      64
  3
CADPAC LINETYPE
 72
      65
 73
       4
 40
13.662
 49
5.94
 74
       0
 49
-2.97
 74
       0
 49
1.782
 74
       0
 49
-2.97
 74
       0
  0
LTYPE
  5
28
100
AcDbSymbolTableRecord
100
AcDbLinetypeTableRecord
  2
CENTER2
 70
      64
  3
CADPAC LINETYPE
 72
      65
 73
       4
 40
9.504
 49
4.455
 74
       0
 49
-2.2275
 74
       0
 49
0.594
 74
       0
 49
-2.2275
 74
       0
  0
LTYPE
  5
29
100
AcDbSymbolTableRecord
100
AcDbLinetypeTableRecord
  2
DASHDOTX2
 70
      64
  3
CADPAC LINETYPE
 72
      65
 73
       4
 40
14.85
 49
7.425
 74
       0
 49
-3.7125
 74
       0
 49
0.0
 74
       0
 49
-3.7125
 74
       0
  0
LTYPE
  5
2A
100
AcDbSymbolTableRecord
100
AcDbLinetypeTableRecord
  2
DASHDOT
 70
      64
  3
CADPAC LINETYPE
 72
      65
 73
       4
 40
11.88
 49
5.94
 74
       0
 49
-2.97
 74
       0
 49
0.0
 74
       0
 49
-2.97
 74
       0
  0
LTYPE
  5
2B
100
AcDbSymbolTableRecord
100
AcDbLinetypeTableRecord
  2
DASHDOT2
 70
      64
  3
CADPAC LINETYPE
 72
      65
 73
       4
 40
8.91
 49
4.455
 74
       0
 49
-2.2275
 74
       0
 49
0.0
 74
       0
 49
-2.2275
 74
       0
  0
LTYPE
  5
2C
100
AcDbSymbolTableRecord
100
AcDbLinetypeTableRecord
  2
DIVIDEX2
 70
      64
  3
CADPAC LINETYPE
 72
      65
 73
       6
 40
18.5625
 49
7.425
 74
       0
 49
-3.7125
 74
       0
 49
0.0
 74
       0
 49
-3.7125
 74
       0
 49
0.0
 74
       0
 49
-3.7125
 74
       0
  0
LTYPE
  5
2D
100
AcDbSymbolTableRecord
100
AcDbLinetypeTableRecord
  2
DIVIDE
 70
      64
  3
CADPAC LINETYPE
 72
      65
 73
       6
 40
14.85
 49
5.94
 74
       0
 49
-2.97
 74
       0
 49
0.0
 74
       0
 49
-2.97
 74
       0
 49
0.0
 74
       0
 49
-2.97
 74
       0
  0
LTYPE
  5
2E
100
AcDbSymbolTableRecord
100
AcDbLinetypeTableRecord
  2
DIVIDE2
 70
      64
  3
CADPAC LINETYPE
 72
      65
 73
       6
 40
11.1375
 49
4.455
 74
       0
 49
-2.2275
 74
       0
 49
0.0
 74
       0
 49
-2.2275
 74
       0
 49
0.0
 74
       0
 49
-2.2275
 74
       0
  0
LTYPE
  5
2F
100
AcDbSymbolTableRecord
100
AcDbLinetypeTableRecord
  2
BORDERX2
 70
      64
  3
CADPAC LINETYPE
 72
      65
 73
       6
 40
25.9875
 49
7.425
 74
       0
 49
-3.7125
 74
       0
 49
7.425
 74
       0
 49
-3.7125
 74
       0
 49
0.0
 74
       0
 49
-3.7125
 74
       0
  0
LTYPE
  5
30
100
AcDbSymbolTableRecord
100
AcDbLinetypeTableRecord
  2
BORDER
 70
      64
  3
CADPAC LINETYPE
 72
      65
 73
       6
 40
20.79
 49
5.94
 74
       0
 49
-2.97
 74
       0
 49
5.94
 74
       0
 49
-2.97
 74
       0
 49
0.0
 74
       0
 49
-2.97
 74
       0
  0
LTYPE
  5
31
100
AcDbSymbolTableRecord
100
AcDbLinetypeTableRecord
  2
BORDER2
 70
      64
  3
CADPAC LINETYPE
 72
      65
 73
       6
 40
15.5925
 49
4.455
 74
       0
 49
-2.2275
 74
       0
 49
4.455
 74
       0
 49
-2.2275
 74
       0
 49
0.0
 74
       0
 49
-2.2275
 74
       0
  0
LTYPE
  5
32
100
AcDbSymbolTableRecord
100
AcDbLinetypeTableRecord
  2
PHANTOMX2
 70
      64
  3
CADPAC LINETYPE
 72
      65
 73
       6
 40
22.275
 49
7.425
 74
       0
 49
-2.97
 74
       0
 49
2.97
 74
       0
 49
-2.97
 74
       0
 49
2.97
 74
       0
 49
-2.97
 74
       0
  0
LTYPE
  5
33
100
AcDbSymbolTableRecord
100
AcDbLinetypeTableRecord
  2
PHANTOM
 70
      64
  3
CADPAC LINETYPE
 72
      65
 73
       6
 40
18.414
 49
5.94
 74
       0
 49
-2.97
 74
       0
 49
1.782
 74
       0
 49
-2.97
 74
       0
 49
1.782
 74
       0
 49
-2.97
 74
       0
  0
LTYPE
  5
34
100
AcDbSymbolTableRecord
100
AcDbLinetypeTableRecord
  2
PHANTOM2
 70
      64
  3
CADPAC LINETYPE
 72
      65
 73
       6
 40
15.741
 49
4.455
 74
       0
 49
-2.97
 74
       0
 49
1.188
 74
       0
 49
-2.97
 74
       0
 49
1.188
 74
       0
 49
-2.97
 74
       0
  0
LTYPE
  5
35
100
AcDbSymbolTableRecord
100
AcDbLinetypeTableRecord
  2
ACAD_ISO06W100
 70
      64
  3
CADPAC LINETYPE
 72
      65
 73
       8
 40
20.0475
 49
7.425
 74
       0
 49
-3.7125
 74
       0
 49
0.0
 74
       0
 49
-2.97
 74
       0
 49
0.0
 74
       0
 49
-2.97
 74
       0
 49
0.0
 74
       0
 49
-2.97
 74
       0
  0
LTYPE
  5
36
100
AcDbSymbolTableRecord
100
AcDbLinetypeTableRecord
  2
ACAD_ISO13W100
 70
      64
  3
CADPAC LINETYPE
 72
      65
 73
       8
 40
23.76
 49
5.94
 74
       0
 49
-2.97
 74
       0
 49
5.94
 74
       0
 49
-2.97
 74
       0
 49
0.0
 74
       0
 49
-2.97
 74
       0
 49
0.0
 74
       0
 49
-2.97
 74
       0
  0
LTYPE
  5
37
100
AcDbSymbolTableRecord
100
AcDbLinetypeTableRecord
  2
ACAD_ISO14W100
 70
      64
  3
CADPAC LINETYPE
 72
      65
 73
       8
 40
17.82
 49
5.94
 74
       0
 49
-2.97
 74
       0
 49
0.0
 74
       0
 49
-2.97
 74
       0
 49
0.0
 74
       0
 49
-2.97
 74
       0
 49
0.0
 74
       0
 49
-2.97
 74
       0
  0
ENDTAB
  0
TABLE
  2
LAYER
  5
2
100
AcDbSymbolTable
 70
       1
  0
LAYER
  5
14
100
AcDbSymbolTableRecord
100
AcDbLayerTableRecord
  2
0
 70
       0
 62
       7
  6
CONTINUOUS
  0
ENDTAB
  0
TABLE
  2
STYLE
  5
3
100
AcDbSymbolTable
 70
       1
  0
STYLE
  5
17
100
AcDbSymbolTableRecord
100
AcDbTextStyleTableRecord
  2
STANDARD
 70
       0
 40
0.0
 41
0.8
 50
0.0
 71
       0
 42
5.0
  3
txt.shx
  4
bigfont.shx
  0
ENDTAB
  0
TABLE
  2
VIEW
  5
5
100
AcDbSymbolTable
 70
       1
  0
VIEW
  5
38
100
AcDbSymbolTableRecord
100
AcDbViewTableRecord
  2
QQQQ
 70
       0
 40
164.23773416
 10
0.0
 20
-31.34174925
 41
279.95068178
 11
0.0
 21
0.0
 31
1.0
 12
100.0
 22
100.0
 32
0.0
 42
50.0
 43
0.0
 44
0.0
 50
0.0
 71
       0
  0
ENDTAB
  0
TABLE
  2
UCS
  5
6
100
AcDbSymbolTable
 70
       0
  0
ENDTAB
  0
TABLE
  2
APPID
  5
8
100
AcDbSymbolTable
 70
       1
  0
APPID
  5
16
100
AcDbSymbolTableRecord
100
AcDbRegAppTableRecord
  2
ACAD
 70
       0
  0
ENDTAB
  0
TABLE
  2
DIMSTYLE
  5
9
100
AcDbSymbolTable
 70
       1
  0
DIMSTYLE
105
18
100
AcDbSymbolTableRecord
100
AcDbDimStyleTableRecord
  2
STANDARD
 70
       0
  3

  4

  5

  6

  7

 40
1.0
 41
0.18
 42
0.0625
 43
0.38
 44
0.18
 45
0.0
 46
0.0
 47
0.0
 48
0.0
 71
       0
 72
       0
 73
       1
 74
       1
 75
       0
 76
       0
 77
       0
 78
       0
140
0.18
141
0.09
142
0.0
143
25.4
144
1.0
145
0.0
146
1.0
147
0.09
170
       0
171
       2
172
       0
173
       0
174
       0
175
       0
176
       0
177
       0
178
       0
270
       2
271
       4
272
       4
273
       2
274
       2
275
       0
280
       0
281
       0
282
       0
283
       1
284
       0
285
       0
286
       0
287
       0
288
       0
340
17
  0
ENDTAB
  0
TABLE
  2
BLOCK_RECORD
  5
1
100
AcDbSymbolTable
 70
       0
  0
BLOCK_RECORD
  5
A
100
AcDbSymbolTableRecord
100
AcDbBlockTableRecord
  2
*MODEL_SPACE
  0
BLOCK_RECORD
  5
B
100
AcDbSymbolTableRecord
100
AcDbBlockTableRecord
  2
*PAPER_SPACE
  0
ENDTAB
  0
ENDSEC
  0
SECTION
  2
BLOCKS
  0
BLOCK
  5
D
100
AcDbEntity
  8
0
100
AcDbBlockBegin
  2
*MODEL_SPACE
 70
       0
 10
0.0
 20
0.0
 30
0.0
  3
*MODEL_SPACE
  1

  0
ENDBLK
  5
E
100
AcDbEntity
  8
0
100
AcDbBlockEnd
  0
BLOCK
  5
F
100
AcDbEntity
 67
       1
  8
0
100
AcDbBlockBegin
  2
*PAPER_SPACE
 70
       0
 10
0.0
 20
0.0
 30
0.0
  3
*PAPER_SPACE
  1

  0
ENDBLK
  5
10
100
AcDbEntity
 67
       1
  8
0
100
AcDbBlockEnd
  0
ENDSEC
  0
SECTION
  2
ENTITIES
  0
LINE
  5
39
100
AcDbEntity
  8
0
  6
CONTINUOUS
 62
       3
100
AcDbLine
 10
-103.78769841
 20
34.59338295
 30
0.0
 11
-105.23769874
 21
34.59338295
 31
0.0
  0
LINE
  5
3A
100
AcDbEntity
  8
0
  6
CONTINUOUS
 62
       3
100
AcDbLine
 10
-105.23769874
 20
-29.00661891
 30
0.0
 11
-103.78769841
 21
-29.00661891
 31
0.0
  0
LINE
  5
3B
100
AcDbEntity
  8
0
  6
CONTINUOUS
 62
       3
100
AcDbLine
 10
-103.78769841
 20
34.59338295
 30
0.0
 11
-102.78769825
 21
34.59338295
 31
0.0
  0
LINE
  5
3C
100
AcDbEntity
  8
0
  6
CONTINUOUS
 62
       3
100
AcDbLine
 10
-102.78769825
 20
34.59338295
 30
0.0
 11
-102.78769825
 21
-29.00661891
 31
0.0
  0
LINE
  5
3D
100
AcDbEntity
  8
0
  6
CONTINUOUS
 62
       3
100
AcDbLine
 10
-102.78769825
 20
-29.00661891
 30
0.0
 11
-103.78769841
 21
-29.00661891
 31
0.0
  0
LINE
  5
3E
100
AcDbEntity
  8
0
  6
CONTINUOUS
 62
       3
100
AcDbLine
 10
-105.58769908
 20
-29.00661891
 30
0.0
 11
-105.58769908
 21
34.59338295
 31
0.0
  0
LINE
  5
3F
100
AcDbEntity
  8
0
  6
CONTINUOUS
 62
       3
100
AcDbLine
 10
-105.58769908
 20
34.59338295
 30
0.0
 11
-105.23769874
 21
34.59338295
 31
0.0
  0
LINE
  5
40
100
AcDbEntity
  8
0
  6
CONTINUOUS
 62
       3
100
AcDbLine
 10
-105.23769874
 20
-29.00661891
 30
0.0
 11
-105.58769908
 21
-29.00661891
 31
0.0
  0
LINE
  5
41
100
AcDbEntity
  8
0
  6
CONTINUOUS
 62
       3
100
AcDbLine
 10
-105.93769755
 20
34.59338295
 30
0.0
 11
-105.58769908
 21
34.59338295
 31
0.0
  0
LINE
  5
42
100
AcDbEntity
  8
0
  6
CONTINUOUS
 62
       3
100
AcDbLine
 10
-105.93769755
 20
-29.00661891
 30
0.0
 11
-105.58769908
 21
-29.00661891
 31
0.0
  0
LINE
  5
43
100
AcDbEntity
  8
0
  6
CONTINUOUS
 62
       3
100
AcDbLine
 10
-123.48769831
 20
-33.33161948
 30
0.0
 11
-123.48769831
 21
34.59338295
 31
0.0
  0
LINE
  5
44
100
AcDbEntity
  8
0
  6
CONTINUOUS
 62
       3
100
AcDbLine
 10
-122.48769831
 20
-32.30661703
 30
0.0
 11
-106.83769789
 21
-32.30661703
 31
0.0
  0
LINE
  5
45
100
AcDbEntity
  8
0
  6
CONTINUOUS
 62
       3
100
AcDbLine
 10
-122.48769831
 20
33.59338092
 30
0.0
 11
-122.48769831
 21
0.59338122
 31
0.0
  0
LINE
  5
46
100
AcDbEntity
  8
0
  6
CONTINUOUS
 62
       3
100
AcDbLine
 10
-122.48769831
 20
0.59338122
 30
0.0
 11
-106.83769789
 21
0.59338122
 31
0.0
  0
LINE
  5
47
100
AcDbEntity
  8
0
  6
CONTINUOUS
 62
       3
100
AcDbLine
 10
-106.83769789
 20
0.59338122
 30
0.0
 11
-106.83769789
 21
33.59338092
 31
0.0
  0
LINE
  5
48
100
AcDbEntity
  8
0
  6
CONTINUOUS
 62
       3
100
AcDbLine
 10
-106.83769789
 20
33.59338092
 30
0.0
 11
-122.48769831
 21
33.59338092
 31
0.0
  0
LINE
  5
49
100
AcDbEntity
  8
0
  6
CONTINUOUS
 62
       3
100
AcDbLine
 10
-106.83769789
 20
-10.40661884
 30
0.0
 11
-122.48769831
 21
-10.40661884
 31
0.0
  0
LINE
  5
4A
100
AcDbEntity
  8
0
  6
CONTINUOUS
 62
       3
100
AcDbLine
 10
-106.08769823
 20
-33.30661905
 30
0.0
 11
-106.08769823
 21
-29.00661891
 31
0.0
  0
LINE
  5
4B
100
AcDbEntity
  8
0
  6
CONTINUOUS
 62
       3
100
AcDbLine
 10
-106.83769789
 20
-32.30661703
 30
0.0
 11
-106.83769789
 21
-10.40661884
 31
0.0
  0
LINE
  5
4C
100
AcDbEntity
  8
0
  6
CONTINUOUS
 62
       3
100
AcDbLine
 10
-122.48769831
 20
-10.40661884
 30
0.0
 11
-122.48769831
 21
-32.30661703
 31
0.0
  0
LINE
  5
4D
100
AcDbEntity
  8
0
  6
CONTINUOUS
 62
       3
100
AcDbLine
 10
-106.08769823
 20
-33.30661905
 30
0.0
 11
-123.48769831
 21
-33.30661905
 31
0.0
  0
LINE
  5
4E
100
AcDbEntity
  8
0
  6
CONTINUOUS
 62
       3
100
AcDbLine
 10
-105.93769755
 20
34.59338295
 30
0.0
 11
-123.48769831
 21
34.59338295
 31
0.0
  0
LINE
  5
4F
100
AcDbEntity
  8
0
  6
CONTINUOUS
 62
       3
100
AcDbLine
 10
-106.08769823
 20
-29.00661891
 30
0.0
 11
-105.93769755
 21
-29.00661891
 31
0.0
  0
LINE
  5
50
100
AcDbEntity
  8
0
  6
CONTINUOUS
 62
       3
100
AcDbLine
 10
-123.5876983
 20
-33.33161948
 30
0.0
 11
-123.5876983
 21
4.31838129
 31
0.0
  0
LINE
  5
51
100
AcDbEntity
  8
0
  6
CONTINUOUS
 62
       3
100
AcDbLine
 10
-123.5876983
 20
4.31838129
 30
0.0
 11
-123.5876983
 21
4.41838112
 31
0.0
  0
LINE
  5
52
100
AcDbEntity
  8
0
  6
CONTINUOUS
 62
       3
100
AcDbLine
 10
-105.23769874
 20
37.16838183
 30
0.0
 11
-103.08769774
 21
37.16838183
 31
0.0
  0
LINE
  5
53
100
AcDbEntity
  8
0
  6
CONTINUOUS
 62
       3
100
AcDbLine
 10
-105.23769874
 20
34.66838049
 30
0.0
 11
-103.08769774
 21
34.66838049
 31
0.0
  0
LINE
  5
54
100
AcDbEntity
  8
0
  6
CONTINUOUS
 62
       3
100
AcDbLine
 10
-102.08769757
 20
-29.08161832
 30
0.0
 11
-102.08769757
 21
-33.33161948
 31
0.0
  0
LINE
  5
55
100
AcDbEntity
  8
0
  6
CONTINUOUS
 62
       3
100
AcDbLine
 10
-102.08769757
 20
-33.33161948
 30
0.0
 11
-103.08769774
 21
-33.33161948
 31
0.0
  0
LINE
  5
56
100
AcDbEntity
  8
0
  6
CONTINUOUS
 62
       3
100
AcDbLine
 10
-103.08769774
 20
-29.08161832
 30
0.0
 11
-102.08769757
 21
-29.08161832
 31
0.0
  0
LINE
  5
57
100
AcDbEntity
  8
0
  6
CONTINUOUS
 62
       3
100
AcDbLine
 10
-105.58769908
 20
37.16838183
 30
0.0
 11
-105.23769874
 21
37.16838183
 31
0.0
  0
LINE
  5
58
100
AcDbEntity
  8
0
  6
CONTINUOUS
 62
       3
100
AcDbLine
 10
-105.23769874
 20
34.66838049
 30
0.0
 11
-105.58769908
 21
34.66838049
 31
0.0
  0
LINE
  5
59
100
AcDbEntity
  8
0
  6
CONTINUOUS
 62
       3
100
AcDbLine
 10
-105.58769908
 20
34.66838049
 30
0.0
 11
-105.58769908
 21
37.16838183
 31
0.0
  0
LINE
  5
5A
100
AcDbEntity
  8
0
  6
CONTINUOUS
 62
       3
100
AcDbLine
 10
-103.08769774
 20
37.16838183
 30
0.0
 11
-102.08769757
 21
37.16838183
 31
0.0
  0
LINE
  5
5B
100
AcDbEntity
  8
0
  6
CONTINUOUS
 62
       3
100
AcDbLine
 10
-102.08769757
 20
37.16838183
 30
0.0
 11
-102.08769757
 21
34.66838049
 31
0.0
  0
LINE
  5
5C
100
AcDbEntity
  8
0
  6
CONTINUOUS
 62
       3
100
AcDbLine
 10
-102.08769757
 20
34.66838049
 30
0.0
 11
-103.08769774
 21
34.66838049
 31
0.0
  0
LINE
  5
5D
100
AcDbEntity
  8
0
  6
CONTINUOUS
 62
       3
100
AcDbLine
 10
-105.58769908
 20
-29.08161832
 30
0.0
 11
-105.58769908
 21
-33.33161948
 31
0.0
  0
LINE
  5
5E
100
AcDbEntity
  8
0
  6
CONTINUOUS
 62
       3
100
AcDbLine
 10
-103.08769774
 20
-29.08161832
 30
0.0
 11
-105.58769908
 21
-29.08161832
 31
0.0
  0
LINE
  5
5F
100
AcDbEntity
  8
0
  6
CONTINUOUS
 62
       3
100
AcDbLine
 10
-103.08769774
 20
-33.33161948
 30
0.0
 11
-105.58769908
 21
-33.33161948
 31
0.0
  0
LINE
  5
60
100
AcDbEntity
  8
0
  6
CONTINUOUS
 62
       3
100
AcDbLine
 10
-105.58769908
 20
34.66838049
 30
0.0
 11
-105.93769755
 21
34.66838049
 31
0.0
  0
LINE
  5
61
100
AcDbEntity
  8
0
  6
CONTINUOUS
 62
       3
100
AcDbLine
 10
-105.93769755
 20
37.16838183
 30
0.0
 11
-105.58769908
 21
37.16838183
 31
0.0
  0
LINE
  5
62
100
AcDbEntity
  8
0
  6
CONTINUOUS
 62
       3
100
AcDbLine
 10
-123.5876983
 20
34.66838049
 30
0.0
 11
-123.5876983
 21
37.16838183
 31
0.0
  0
LINE
  5
63
100
AcDbEntity
  8
0
  6
CONTINUOUS
 62
       3
100
AcDbLine
 10
-123.5876983
 20
34.66838049
 30
0.0
 11
-105.93769755
 21
34.66838049
 31
0.0
  0
LINE
  5
64
100
AcDbEntity
  8
0
  6
CONTINUOUS
 62
       3
100
AcDbLine
 10
-123.5876983
 20
37.16838183
 30
0.0
 11
-105.93769755
 21
37.16838183
 31
0.0
  0
LINE
  5
65
100
AcDbEntity
  8
0
  6
CONTINUOUS
 62
       3
100
AcDbLine
 10
-123.5876983
 20
34.66838049
 30
0.0
 11
-123.5876983
 21
4.41838112
 31
0.0
  0
LINE
  5
66
100
AcDbEntity
  8
0
  6
CONTINUOUS
 62
       3
100
AcDbLine
 10
-105.58769908
 20
-33.33161948
 30
0.0
 11
-123.5876983
 21
-33.33161948
 31
0.0
  0
LINE
  5
67
100
AcDbEntity
  8
0
  6
CONTINUOUS
 62
       3
100
AcDbLine
 10
-102.08769757
 20
-29.08161832
 30
0.0
 11
-102.08769757
 21
34.66838049
 31
0.0
  0
LINE
  5
68
100
AcDbEntity
  8
0
  6
CONTINUOUS
 62
       3
100
AcDbLine
 10
-69.51487621
 20
-33.33161948
 30
0.0
 11
-69.51487621
 21
37.16838183
 31
0.0
  0
LINE
  5
69
100
AcDbEntity
  8
0
  6
CONTINUOUS
 62
       3
100
AcDbLine
 10
-64.81487488
 20
34.66838049
 30
0.0
 11
-64.81487488
 21
-0.83161881
 31
0.0
  0
LINE
  5
6A
100
AcDbEntity
  8
0
  6
CONTINUOUS
 62
       3
100
AcDbLine
 10
-64.81487488
 20
-0.83161881
 30
0.0
 11
-46.56487515
 21
-0.83161881
 31
0.0
  0
ARC
  5
6B
100
AcDbEntity
  8
0
  6
CONTINUOUS
 62
       3
100
AcDbCircle
 10
-45.06487578
 20
-0.83161882
 30
0.0
 40
1.5
100
AcDbArc
 50
0.0
 51
180.0
  0
LINE
  5
6C
100
AcDbEntity
  8
0
  6
CONTINUOUS
 62
       3
100
AcDbLine
 10
-43.56487652
 20
-0.83161881
 30
0.0
 11
-25.3148758
 21
-0.83161881
 31
0.0
  0
LINE
  5
6D
100
AcDbEntity
  8
0
  6
CONTINUOUS
 62
       3
100
AcDbLine
 10
-25.3148758
 20
-0.83161881
 30
0.0
 11
-25.3148758
 21
34.66838049
 31
0.0
  0
LINE
  5
6E
100
AcDbEntity
  8
0
  6
CONTINUOUS
 62
       3
100
AcDbLine
 10
-25.3148758
 20
34.66838049
 30
0.0
 11
-64.81487488
 21
34.66838049
 31
0.0
  0
LINE
  5
6F
100
AcDbEntity
  8
0
  6
CONTINUOUS
 62
       3
100
AcDbLine
 10
-60.56487744
 20
-11.83161875
 30
0.0
 11
-60.56487744
 21
-23.83161885
 31
0.0
  0
LINE
  5
70
100
AcDbEntity
  8
0
  6
CONTINUOUS
 62
       3
100
AcDbLine
 10
-60.56487744
 20
-23.83161885
 30
0.0
 11
-28.56487569
 21
-23.83161885
 31
0.0
  0
LINE
  5
71
100
AcDbEntity
  8
0
  6
CONTINUOUS
 62
       3
100
AcDbLine
 10
-28.56487569
 20
-23.83161885
 30
0.0
 11
-28.56487569
 21
-11.83161875
 31
0.0
  0
LINE
  5
72
100
AcDbEntity
  8
0
  6
CONTINUOUS
 62
       3
100
AcDbLine
 10
-28.56487569
 20
-11.83161875
 30
0.0
 11
-60.56487744
 21
-11.83161875
 31
0.0
  0
LINE
  5
73
100
AcDbEntity
  8
0
  6
CONTINUOUS
 62
       3
100
AcDbLine
 10
-23.81487573
 20
34.66838049
 30
0.0
 11
-23.81487573
 21
-30.83161814
 31
0.0
  0
LINE
  5
74
100
AcDbEntity
  8
0
  6
CONTINUOUS
 62
       3
100
AcDbLine
 10
-23.81487573
 20
-30.83161814
 30
0.0
 11
-5.81487639
 21
-30.83161814
 31
0.0
  0
ARC
  5
75
100
AcDbEntity
  8
0
  6
CONTINUOUS
 62
       3
100
AcDbCircle
 10
-4.31487578
 20
-30.83161882
 30
0.0
 40
1.5
100
AcDbArc
 50
0.0
 51
180.0
  0
LINE
  5
76
100
AcDbEntity
  8
0
  6
CONTINUOUS
 62
       3
100
AcDbLine
 10
-2.81487589
 20
-30.83161814
 30
0.0
 11
15.18512333
 21
-30.83161814
 31
0.0
  0
LINE
  5
77
100
AcDbEntity
  8
0
  6
CONTINUOUS
 62
       3
100
AcDbLine
 10
15.18512333
 20
-30.83161814
 30
0.0
 11
15.18512333
 21
34.66838049
 31
0.0
  0
LINE
  5
78
100
AcDbEntity
  8
0
  6
CONTINUOUS
 62
       3
100
AcDbLine
 10
15.18512333
 20
34.66838049
 30
0.0
 11
-23.81487573
 21
34.66838049
 31
0.0
  0
LINE
  5
79
100
AcDbEntity
  8
0
  6
CONTINUOUS
 62
       3
100
AcDbLine
 10
-66.3148742
 20
-29.08161832
 30
0.0
 11
-68.51487418
 21
-29.08161832
 31
0.0
  0
LINE
  5
7A
100
AcDbEntity
  8
0
  6
CONTINUOUS
 62
       3
100
AcDbLine
 10
-66.3148742
 20
-29.08161832
 30
0.0
 11
-66.3148742
 21
34.66838049
 31
0.0
  0
LINE
  5
7B
100
AcDbEntity
  8
0
  6
CONTINUOUS
 62
       3
100
AcDbLine
 10
-68.51487418
 20
34.66838049
 30
0.0
 11
-66.3148742
 21
34.66838049
 31
0.0
  0
LINE
  5
7C
100
AcDbEntity
  8
0
  6
CONTINUOUS
 62
       3
100
AcDbLine
 10
17.18512366
 20
37.16838183
 30
0.0
 11
-69.51487621
 21
37.16838183
 31
0.0
  0
LINE
  5
7D
100
AcDbEntity
  8
0
  6
CONTINUOUS
 62
       3
100
AcDbLine
 10
17.18512366
 20
-33.33161948
 30
0.0
 11
17.18512366
 21
37.16838183
 31
0.0
  0
LINE
  5
7E
100
AcDbEntity
  8
0
  6
CONTINUOUS
 62
       3
100
AcDbLine
 10
-69.51487621
 20
-33.33161948
 30
0.0
 11
17.18512366
 21
-33.33161948
 31
0.0
  0
LINE
  5
7F
100
AcDbEntity
  8
0
  6
CONTINUOUS
 62
       3
100
AcDbLine
 10
-68.51487418
 20
34.66838049
 30
0.0
 11
-69.51487621
 21
34.66838049
 31
0.0
  0
LINE
  5
80
100
AcDbEntity
  8
0
  6
CONTINUOUS
 62
       3
100
AcDbLine
 10
-69.51487621
 20
-29.08161832
 30
0.0
 11
-68.51487418
 21
-29.08161832
 31
0.0
  0
LINE
  5
81
100
AcDbEntity
  8
0
  6
CONTINUOUS
 62
       3
100
AcDbLine
 10
47.18512379
 20
-36.08161539
 30
0.0
 11
43.78512374
 21
-36.08161539
 31
0.0
  0
LINE
  5
82
100
AcDbEntity
  8
0
  6
CONTINUOUS
 62
       3
100
AcDbLine
 10
43.78512374
 20
-34.08161507
 30
0.0
 11
43.78512374
 21
-36.08161539
 31
0.0
  0
LINE
  5
83
100
AcDbEntity
  8
0
  6
CONTINUOUS
 62
       3
100
AcDbLine
 10
47.18512379
 20
-34.08161507
 30
0.0
 11
47.18512379
 21
-36.08161539
 31
0.0
  0
LINE
  5
84
100
AcDbEntity
  8
0
  6
CONTINUOUS
 62
       3
100
AcDbLine
 10
46.18512386
 20
-13.78161602
 30
0.0
 11
44.78512379
 21
-13.78161602
 31
0.0
  0
LINE
  5
85
100
AcDbEntity
  8
0
  6
CONTINUOUS
 62
       3
100
AcDbLine
 10
47.18512379
 20
-15.78161635
 30
0.0
 11
46.18512386
 21
-13.78161602
 31
0.0
  0
LINE
  5
86
100
AcDbEntity
  8
0
  6
CONTINUOUS
 62
       3
100
AcDbLine
 10
44.78512379
 20
-13.78161602
 30
0.0
 11
44.78512379
 21
-15.78161635
 31
0.0
  0
LINE
  5
87
100
AcDbEntity
  8
0
  6
CONTINUOUS
 62
       3
100
AcDbLine
 10
47.18512379
 20
-38.08161572
 30
0.0
 11
43.78512374
 21
-38.08161572
 31
0.0
  0
LINE
  5
88
100
AcDbEntity
  8
0
  6
CONTINUOUS
 62
       3
100
AcDbLine
 10
43.78512374
 20
-36.08161539
 30
0.0
 11
43.78512374
 21
-38.08161572
 31
0.0
  0
LINE
  5
89
100
AcDbEntity
  8
0
  6
CONTINUOUS
 62
       3
100
AcDbLine
 10
47.18512379
 20
-36.08161539
 30
0.0
 11
47.18512379
 21
-38.08161572
 31
0.0
  0
LINE
  5
8A
100
AcDbEntity
  8
0
  6
CONTINUOUS
 62
       3
100
AcDbLine
 10
23.18512335
 20
-5.52661673
 30
0.0
 11
17.18512423
 21
-5.52661673
 31
0.0
  0
LINE
  5
8B
100
AcDbEntity
  8
0
  6
CONTINUOUS
 62
       3
100
AcDbLine
 10
17.18512423
 20
-4.77661661
 30
0.0
 11
17.18512423
 21
-5.52661673
 31
0.0
  0
LINE
  5
8C
100
AcDbEntity
  8
0
  6
CONTINUOUS
 62
       3
100
AcDbLine
 10
19.68512371
 20
-4.77661661
 30
0.0
 11
17.18512423
 21
-4.77661661
 31
0.0
  0
LINE
  5
8D
100
AcDbEntity
  8
0
  6
CONTINUOUS
 62
       3
100
AcDbLine
 10
19.68512371
 20
29.41838323
 30
0.0
 11
19.68512371
 21
-4.77661661
 31
0.0
  0
ARC
  5
8E
100
AcDbEntity
  8
0
  6
CONTINUOUS
 62
       3
100
AcDbCircle
 10
22.18512374
 20
29.41838338
 30
0.0
 40
2.5
100
AcDbArc
 50
90.0
 51
180.0
  0
LINE
  5
8F
100
AcDbEntity
  8
0
  6
CONTINUOUS
 62
       3
100
AcDbLine
 10
30.68512365
 20
31.91838271
 30
0.0
 11
22.18512318
 21
31.91838271
 31
0.0
  0
LINE
  5
90
100
AcDbEntity
  8
0
  6
CONTINUOUS
 62
       3
100
AcDbLine
 10
30.68512365
 20
35.41838422
 30
0.0
 11
30.68512365
 21
31.91838271
 31
0.0
  0
ARC
  5
91
100
AcDbEntity
  8
0
  6
CONTINUOUS
 62
       3
100
AcDbCircle
 10
33.18512374
 20
35.41838338
 30
0.0
 40
2.5
100
AcDbArc
 50
90.0
 51
180.0
  0
LINE
  5
92
100
AcDbEntity
  8
0
  6
CONTINUOUS
 62
       3
100
AcDbLine
 10
47.18512379
 20
37.91838183
 30
0.0
 11
33.18512406
 21
37.91838183
 31
0.0
  0
LINE
  5
93
100
AcDbEntity
  8
0
  6
CONTINUOUS
 62
       3
100
AcDbLine
 10
47.18512379
 20
19.61838312
 30
0.0
 11
47.18512379
 21
37.91838183
 31
0.0
  0
LINE
  5
94
100
AcDbEntity
  8
0
  6
CONTINUOUS
 62
       3
100
AcDbLine
 10
46.18512386
 20
17.61838279
 30
0.0
 11
47.18512379
 21
19.61838312
 31
0.0
  0
LINE
  5
95
100
AcDbEntity
  8
0
  6
CONTINUOUS
 62
       3
100
AcDbLine
 10
44.78512379
 20
17.61838279
 30
0.0
 11
46.18512386
 21
17.61838279
 31
0.0
  0
LINE
  5
96
100
AcDbEntity
  8
0
  6
CONTINUOUS
 62
       3
100
AcDbLine
 10
44.78512379
 20
19.61838312
 30
0.0
 11
44.78512379
 21
17.61838279
 31
0.0
  0
LINE
  5
97
100
AcDbEntity
  8
0
  6
CONTINUOUS
 62
       3
100
AcDbLine
 10
43.78512374
 20
19.61838312
 30
0.0
 11
44.78512379
 21
19.61838312
 31
0.0
  0
LINE
  5
98
100
AcDbEntity
  8
0
  6
CONTINUOUS
 62
       3
100
AcDbLine
 10
43.78512374
 20
-15.78161635
 30
0.0
 11
43.78512374
 21
19.61838312
 31
0.0
  0
LINE
  5
99
100
AcDbEntity
  8
0
  6
CONTINUOUS
 62
       3
100
AcDbLine
 10
47.18512379
 20
-34.08161507
 30
0.0
 11
47.18512379
 21
-15.78161635
 31
0.0
  0
LINE
  5
9A
100
AcDbEntity
  8
0
  6
CONTINUOUS
 62
       3
100
AcDbLine
 10
41.18512374
 20
-24.27661747
 30
0.0
 11
41.18512374
 21
-34.08161507
 31
0.0
  0
LINE
  5
9B
100
AcDbEntity
  8
0
  6
CONTINUOUS
 62
       3
100
AcDbLine
 10
41.18512374
 20
-24.27661747
 30
0.0
 11
19.68512371
 21
-24.27661747
 31
0.0
  0
LINE
  5
9C
100
AcDbEntity
  8
0
  6
CONTINUOUS
 62
       3
100
AcDbLine
 10
19.68512371
 20
-10.77661619
 30
0.0
 11
19.68512371
 21
-24.27661747
 31
0.0
  0
LINE
  5
9D
100
AcDbEntity
  8
0
  6
CONTINUOUS
 62
       3
100
AcDbLine
 10
19.68512371
 20
-10.77661619
 30
0.0
 11
17.18512423
 21
-10.77661619
 31
0.0
  0
LINE
  5
9E
100
AcDbEntity
  8
0
  6
CONTINUOUS
 62
       3
100
AcDbLine
 10
17.18512423
 20
-10.02661653
 30
0.0
 11
17.18512423
 21
-10.77661619
 31
0.0
  0
LINE
  5
9F
100
AcDbEntity
  8
0
  6
CONTINUOUS
 62
       3
100
AcDbLine
 10
23.18512335
 20
-10.02661653
 30
0.0
 11
17.18512423
 21
-10.02661653
 31
0.0
  0
LINE
  5
A0
100
AcDbEntity
  8
0
  6
CONTINUOUS
 62
       3
100
AcDbLine
 10
23.18512335
 20
-10.02661653
 30
0.0
 11
23.18512335
 21
-5.52661673
 31
0.0
  0
LINE
  5
A1
100
AcDbEntity
  8
0
  6
CONTINUOUS
 62
       3
100
AcDbLine
 10
47.18512379
 20
-15.78161635
 30
0.0
 11
43.78512374
 21
-15.78161635
 31
0.0
  0
LINE
  5
A2
100
AcDbEntity
  8
0
  6
CONTINUOUS
 62
       3
100
AcDbLine
 10
41.18512374
 20
-34.08161507
 30
0.0
 11
47.18512379
 21
-34.08161507
 31
0.0
  0
LINE
  5
A3
100
AcDbEntity
  8
0
  6
CONTINUOUS
 62
       3
100
AcDbLine
 10
18.68512354
 20
-6.77661647
 30
0.0
 11
18.68512354
 21
-8.7766168
 31
0.0
  0
LINE
  5
A4
100
AcDbEntity
  8
0
  6
CONTINUOUS
 62
       3
100
AcDbLine
 10
18.68512354
 20
-8.7766168
 30
0.0
 11
23.18512335
 21
-8.7766168
 31
0.0
  0
LINE
  5
A5
100
AcDbEntity
  8
0
  6
CONTINUOUS
 62
       3
100
AcDbLine
 10
23.18512335
 20
-6.77661647
 30
0.0
 11
18.68512354
 21
-6.77661647
 31
0.0
  0
LINE
  5
A6
100
AcDbEntity
  8
0
  6
CONTINUOUS
 62
       3
100
AcDbLine
 10
17.18512423
 20
-5.52661673
 30
0.0
 11
17.18512423
 21
-10.02661653
 31
0.0
  0
LINE
  5
A7
100
AcDbEntity
  8
0
  6
CONTINUOUS
 62
       3
100
AcDbLine
 10
19.68512371
 20
19.61338378
 30
0.0
 11
17.18512423
 21
19.61338378
 31
0.0
  0
LINE
  5
A8
100
AcDbEntity
  8
0
  6
CONTINUOUS
 62
       3
100
AcDbLine
 10
17.18512423
 20
-4.77661661
 30
0.0
 11
17.18512423
 21
19.61338378
 31
0.0
  0
LINE
  5
A9
100
AcDbEntity
  8
0
  6
CONTINUOUS
 62
       3
100
AcDbLine
 10
19.68512371
 20
-15.77661701
 30
0.0
 11
17.18512423
 21
-15.77661701
 31
0.0
  0
LINE
  5
AA
100
AcDbEntity
  8
0
  6
CONTINUOUS
 62
       3
100
AcDbLine
 10
17.18512423
 20
-15.77661701
 30
0.0
 11
17.18512423
 21
-10.77661619
 31
0.0
  0
ARC
  5
AB
100
AcDbEntity
  8
0
  6
CONTINUOUS
 62
       3
100
AcDbCircle
 10
33.18512374
 20
-31.58161662
 30
0.0
 40
2.5
100
AcDbArc
 50
180.0
 51
270.0
  0
LINE
  5
AC
100
AcDbEntity
  8
0
  6
CONTINUOUS
 62
       3
100
AcDbLine
 10
30.68512365
 20
-31.58161745
 30
0.0
 11
30.68512365
 21
-28.08161595
 31
0.0
  0
LINE
  5
AD
100
AcDbEntity
  8
0
  6
CONTINUOUS
 62
       3
100
AcDbLine
 10
30.68512365
 20
-28.08161595
 30
0.0
 11
22.18512318
 21
-28.08161595
 31
0.0
  0
ARC
  5
AE
100
AcDbEntity
  8
0
  6
CONTINUOUS
 62
       3
100
AcDbCircle
 10
22.18512374
 20
-25.58161662
 30
0.0
 40
2.5
100
AcDbArc
 50
180.0
 51
270.0
  0
LINE
  5
AF
100
AcDbEntity
  8
0
  6
CONTINUOUS
 62
       3
100
AcDbLine
 10
19.68512371
 20
-25.58161647
 30
0.0
 11
19.68512371
 21
-24.27661747
 31
0.0
  0
LINE
  5
B0
100
AcDbEntity
  8
0
  6
CONTINUOUS
 62
       3
100
AcDbLine
 10
41.18512374
 20
-34.08161507
 30
0.0
 11
33.18512406
 21
-34.08161507
 31
0.0
  0
LINE
  5
B1
100
AcDbEntity
  8
0
  6
CONTINUOUS
 62
       3
100
AcDbLine
 10
-109.44218058
 20
-4.38161883
 30
0.0
 11
-116.23321623
 21
-4.38161883
 31
0.0
  0
LINE
  5
B2
100
AcDbEntity
  8
0
  6
CONTINUOUS
 62
       3
100
AcDbLine
 10
-114.24416825
 20
-1.18610067
 30
0.0
 11
-111.43122856
 21
-1.18610067
 31
0.0
  0
ARC
  5
B3
100
AcDbEntity
  8
0
  6
CONTINUOUS
 62
       3
100
AcDbCircle
 10
-111.43122864
 20
-1.48610069
 30
0.0
 40
0.3
100
AcDbArc
 50
45.0
 51
90.0
  0
LINE
  5
B4
100
AcDbEntity
  8
0
  6
CONTINUOUS
 62
       3
100
AcDbLine
 10
-111.21909656
 20
-1.27396862
 30
0.0
 11
-109.23004858
 21
-3.26301706
 31
0.0
  0
ARC
  5
B5
100
AcDbEntity
  8
0
  6
CONTINUOUS
 62
       3
100
AcDbCircle
 10
-114.24416796
 20
-1.48610069
 30
0.0
 40
0.3
100
AcDbArc
 50
90.0
 51
135.0
  0
LINE
  5
B6
100
AcDbEntity
  8
0
  6
CONTINUOUS
 62
       3
100
AcDbLine
 10
-116.44534869
 20
-3.26301706
 30
0.0
 11
-114.45630025
 21
-1.27396862
 31
0.0
  0
ARC
  5
B7
100
AcDbEntity
  8
0
  6
CONTINUOUS
 62
       3
100
AcDbCircle
 10
-109.44218017
 20
-3.47514916
 30
0.0
 40
0.3
100
AcDbArc
 50
0.0
 51
45.0
  0
ARC
  5
B8
100
AcDbEntity
  8
0
  6
CONTINUOUS
 62
       3
100
AcDbCircle
 10
-116.23321643
 20
-3.47514916
 30
0.0
 40
0.3
100
AcDbArc
 50
135.0
 51
180.0
  0
LINE
  5
B9
100
AcDbEntity
  8
0
  6
CONTINUOUS
 62
       3
100
AcDbLine
 10
-109.14218016
 20
-3.47514906
 30
0.0
 11
-109.14218016
 21
-4.38161883
 31
0.0
  0
LINE
  5
BA
100
AcDbEntity
  8
0
  6
CONTINUOUS
 62
       3
100
AcDbLine
 10
-109.14218016
 20
-4.38161883
 30
0.0
 11
-109.44218058
 21
-4.38161883
 31
0.0
  0
LINE
  5
BB
100
AcDbEntity
  8
0
  6
CONTINUOUS
 62
       3
100
AcDbLine
 10
-116.53321665
 20
-4.38161883
 30
0.0
 11
-116.53321665
 21
-3.47514906
 31
0.0
  0
LINE
  5
BC
100
AcDbEntity
  8
0
  6
CONTINUOUS
 62
       3
100
AcDbLine
 10
-116.23321623
 20
-4.38161883
 30
0.0
 11
-116.53321665
 21
-4.38161883
 31
0.0
  0
LINE
  5
BD
100
AcDbEntity
  8
0
  6
CONTINUOUS
 62
       3
100
AcDbLine
 10
-116.23321623
 20
-5.38161899
 30
0.0
 11
-109.44218058
 21
-5.38161899
 31
0.0
  0
LINE
  5
BE
100
AcDbEntity
  8
0
  6
CONTINUOUS
 62
       3
100
AcDbLine
 10
-116.53321665
 20
-6.28808876
 30
0.0
 11
-116.53321665
 21
-5.38161899
 31
0.0
  0
LINE
  5
BF
100
AcDbEntity
  8
0
  6
CONTINUOUS
 62
       3
100
AcDbLine
 10
-116.53321665
 20
-5.38161899
 30
0.0
 11
-116.23321623
 21
-5.38161899
 31
0.0
  0
LINE
  5
C0
100
AcDbEntity
  8
0
  6
CONTINUOUS
 62
       3
100
AcDbLine
 10
-109.14218016
 20
-5.38161899
 30
0.0
 11
-109.14218016
 21
-6.28808876
 31
0.0
  0
LINE
  5
C1
100
AcDbEntity
  8
0
  6
CONTINUOUS
 62
       3
100
AcDbLine
 10
-109.44218058
 20
-5.38161899
 30
0.0
 11
-109.14218016
 21
-5.38161899
 31
0.0
  0
LINE
  5
C2
100
AcDbEntity
  8
0
  6
CONTINUOUS
 62
       3
100
AcDbLine
 10
-109.23004858
 20
-6.50022076
 30
0.0
 11
-111.21909656
 21
-8.48926873
 31
0.0
  0
ARC
  5
C3
100
AcDbEntity
  8
0
  6
CONTINUOUS
 62
       3
100
AcDbCircle
 10
-116.23321643
 20
-6.28808848
 30
0.0
 40
0.3
100
AcDbArc
 50
180.0
 51
225.0
  0
LINE
  5
C4
100
AcDbEntity
  8
0
  6
CONTINUOUS
 62
       3
100
AcDbLine
 10
-114.45630025
 20
-8.48926873
 30
0.0
 11
-116.44534869
 21
-6.50022076
 31
0.0
  0
ARC
  5
C5
100
AcDbEntity
  8
0
  6
CONTINUOUS
 62
       3
100
AcDbCircle
 10
-109.44218017
 20
-6.28808848
 30
0.0
 40
0.3
100
AcDbArc
 50
315.0
 51
360.0
  0
LINE
  5
C6
100
AcDbEntity
  8
0
  6
CONTINUOUS
 62
       3
100
AcDbLine
 10
-111.43122856
 20
-8.57713716
 30
0.0
 11
-114.24416825
 21
-8.57713716
 31
0.0
  0
ARC
  5
C7
100
AcDbEntity
  8
0
  6
CONTINUOUS
 62
       3
100
AcDbCircle
 10
-111.43122864
 20
-8.27713695
 30
0.0
 40
0.3
100
AcDbArc
 50
270.0
 51
315.0
  0
ARC
  5
C8
100
AcDbEntity
  8
0
  6
CONTINUOUS
 62
       3
100
AcDbCircle
 10
-114.24416796
 20
-8.27713695
 30
0.0
 40
0.3
100
AcDbArc
 50
225.0
 51
270.0
  0
LINE
  5
C9
100
AcDbEntity
  8
0
  6
CONTINUOUS
 62
       3
100
AcDbLine
 10
-109.14218016
 20
-4.38161883
 30
0.0
 11
-109.14218016
 21
-5.38161899
 31
0.0
  0
LINE
  5
CA
100
AcDbEntity
  8
0
  6
CONTINUOUS
 62
       3
100
AcDbLine
 10
-116.53321665
 20
-5.38161899
 30
0.0
 11
-116.53321665
 21
-4.38161883
 31
0.0
  0
ARC
  5
CB
100
AcDbEntity
  8
0
  6
CONTINUOUS
 62
       3
100
AcDbCircle
 10
-112.8376983
 20
-4.88161882
 30
0.0
 40
4.0
100
AcDbArc
 50
112.5
 51
157.5
  0
ARC
  5
CC
100
AcDbEntity
  8
0
  6
CONTINUOUS
 62
       3
100
AcDbCircle
 10
-112.8376983
 20
-4.88161882
 30
0.0
 40
4.0
100
AcDbArc
 50
157.5
 51
202.5
  0
ARC
  5
CD
100
AcDbEntity
  8
0
  6
CONTINUOUS
 62
       3
100
AcDbCircle
 10
-112.8376983
 20
-4.88161882
 30
0.0
 40
4.0
100
AcDbArc
 50
202.5
 51
247.5
  0
ARC
  5
CE
100
AcDbEntity
  8
0
  6
CONTINUOUS
 62
       3
100
AcDbCircle
 10
-112.8376983
 20
-4.88161882
 30
0.0
 40
4.0
100
AcDbArc
 50
247.5
 51
292.5
  0
ARC
  5
CF
100
AcDbEntity
  8
0
  6
CONTINUOUS
 62
       3
100
AcDbCircle
 10
-112.8376983
 20
-4.88161882
 30
0.0
 40
4.0
100
AcDbArc
 50
292.5
 51
337.5
  0
ARC
  5
D0
100
AcDbEntity
  8
0
  6
CONTINUOUS
 62
       3
100
AcDbCircle
 10
-112.8376983
 20
-4.88161882
 30
0.0
 40
4.0
100
AcDbArc
 50
337.5
 51
382.5
  0
ARC
  5
D1
100
AcDbEntity
  8
0
  6
CONTINUOUS
 62
       3
100
AcDbCircle
 10
-112.8376983
 20
-4.88161882
 30
0.0
 40
4.0
100
AcDbArc
 50
22.5
 51
67.5
  0
ARC
  5
D2
100
AcDbEntity
  8
0
  6
CONTINUOUS
 62
       3
100
AcDbCircle
 10
-112.8376983
 20
-4.88161882
 30
0.0
 40
4.0
100
AcDbArc
 50
67.5
 51
112.5
  0
LINE
  5
D3
100
AcDbEntity
  8
0
  6
CONTINUOUS
 62
       3
100
AcDbLine
 10
-76.51487486
 20
-5.38161965
 30
0.0
 11
-75.3148769
 21
-5.38161965
 31
0.0
  0
LINE
  5
D4
100
AcDbEntity
  8
0
  6
CONTINUOUS
 62
       3
100
AcDbLine
 10
-75.3148769
 20
-4.38161949
 30
0.0
 11
-75.3148769
 21
-5.38161965
 31
0.0
  0
LINE
  5
D5
100
AcDbEntity
  8
0
  6
CONTINUOUS
 62
       3
100
AcDbLine
 10
-75.3148769
 20
-4.38161949
 30
0.0
 11
-76.51487486
 21
-4.38161949
 31
0.0
  0
LINE
  5
D6
100
AcDbEntity
  8
0
  6
CONTINUOUS
 62
       3
100
AcDbLine
 10
-76.81487621
 20
-4.38161949
 30
0.0
 11
-76.81487621
 21
-3.47514972
 31
0.0
  0
LINE
  5
D7
100
AcDbEntity
  8
0
  6
CONTINUOUS
 62
       3
100
AcDbLine
 10
-76.51487486
 20
-4.38161949
 30
0.0
 11
-76.81487621
 21
-4.38161949
 31
0.0
  0
LINE
  5
D8
100
AcDbEntity
  8
0
  6
CONTINUOUS
 62
       3
100
AcDbLine
 10
-76.81487621
 20
-6.28808942
 30
0.0
 11
-76.81487621
 21
-5.38161965
 31
0.0
  0
LINE
  5
D9
100
AcDbEntity
  8
0
  6
CONTINUOUS
 62
       3
100
AcDbLine
 10
-76.81487621
 20
-5.38161965
 30
0.0
 11
-76.51487486
 21
-5.38161965
 31
0.0
  0
LINE
  5
DA
100
AcDbEntity
  8
0
  6
CONTINUOUS
 62
       3
100
AcDbLine
 10
-76.81487621
 20
-3.47514972
 30
0.0
 11
-76.81487621
 21
-1.48610128
 31
0.0
  0
LINE
  5
DB
100
AcDbEntity
  8
0
  6
CONTINUOUS
 62
       3
100
AcDbLine
 10
-76.81487621
 20
-8.27713739
 30
0.0
 11
-76.81487621
 21
-6.28808942
 31
0.0
  0
LINE
  5
DC
100
AcDbEntity
  8
0
  6
CONTINUOUS
 62
       3
100
AcDbLine
 10
-69.51487621
 20
-8.57713781
 30
0.0
 11
-76.51487486
 21
-8.57713781
 31
0.0
  0
LINE
  5
DD
100
AcDbEntity
  8
0
  6
CONTINUOUS
 62
       3
100
AcDbLine
 10
-76.51487486
 20
-1.18610132
 30
0.0
 11
-69.51487621
 21
-1.18610132
 31
0.0
  0
ARC
  5
DE
100
AcDbEntity
  8
0
  6
CONTINUOUS
 62
       3
100
AcDbCircle
 10
-76.51487547
 20
-8.27713761
 30
0.0
 40
0.3
100
AcDbArc
 50
180.0
 51
270.0
  0
ARC
  5
DF
100
AcDbEntity
  8
0
  6
CONTINUOUS
 62
       3
100
AcDbCircle
 10
-76.51487547
 20
-1.48610135
 30
0.0
 40
0.3
100
AcDbArc
 50
90.0
 51
180.0
  0
LINE
  5
E0
100
AcDbEntity
  8
0
  6
CONTINUOUS
 62
       3
100
AcDbLine
 10
107.4619042
 20
-36.0816176
 30
0.0
 11
104.71190422
 21
-38.08161793
 31
0.0
  0
LINE
  5
E1
100
AcDbEntity
  8
0
  6
CONTINUOUS
 62
       3
100
AcDbLine
 10
104.71190422
 20
-38.08161793
 30
0.0
 11
99.81190439
 21
-38.08161793
 31
0.0
  0
LINE
  5
E2
100
AcDbEntity
  8
0
  6
CONTINUOUS
 62
       3
100
AcDbLine
 10
99.81190439
 20
-38.08161793
 30
0.0
 11
97.06190394
 21
-36.0816176
 31
0.0
  0
LINE
  5
E3
100
AcDbEntity
  8
0
  6
CONTINUOUS
 62
       3
100
AcDbLine
 10
107.4619042
 20
-34.08161727
 30
0.0
 11
107.4619042
 21
-36.0816176
 31
0.0
  0
LINE
  5
E4
100
AcDbEntity
  8
0
  6
CONTINUOUS
 62
       3
100
AcDbLine
 10
97.06190394
 20
-36.0816176
 30
0.0
 11
97.06190394
 21
-34.08161727
 31
0.0
  0
LINE
  5
E5
100
AcDbEntity
  8
0
  6
CONTINUOUS
 62
       3
100
AcDbLine
 10
111.66190428
 20
-5.13161895
 30
0.0
 11
115.0619041
 21
-5.13161895
 31
0.0
  0
LINE
  5
E6
100
AcDbEntity
  8
0
  6
CONTINUOUS
 62
       3
100
AcDbLine
 10
111.66190428
 20
-5.63161903
 30
0.0
 11
111.66190428
 21
-5.13161895
 31
0.0
  0
LINE
  5
E7
100
AcDbEntity
  8
0
  6
CONTINUOUS
 62
       3
100
AcDbLine
 10
115.0619041
 20
-5.63161903
 30
0.0
 11
111.66190428
 21
-5.63161903
 31
0.0
  0
LINE
  5
E8
100
AcDbEntity
  8
0
  6
CONTINUOUS
 62
       3
100
AcDbLine
 10
115.0619041
 20
-5.13161895
 30
0.0
 11
115.0619041
 21
-5.63161903
 31
0.0
  0
LINE
  5
E9
100
AcDbEntity
  8
0
  6
CONTINUOUS
 62
       3
100
AcDbLine
 10
111.66190428
 20
7.51838098
 30
0.0
 11
115.0619041
 21
7.51838098
 31
0.0
  0
LINE
  5
EA
100
AcDbEntity
  8
0
  6
CONTINUOUS
 62
       3
100
AcDbLine
 10
111.66190428
 20
7.01838136
 30
0.0
 11
111.66190428
 21
7.51838098
 31
0.0
  0
LINE
  5
EB
100
AcDbEntity
  8
0
  6
CONTINUOUS
 62
       3
100
AcDbLine
 10
115.0619041
 20
7.01838136
 30
0.0
 11
111.66190428
 21
7.01838136
 31
0.0
  0
LINE
  5
EC
100
AcDbEntity
  8
0
  6
CONTINUOUS
 62
       3
100
AcDbLine
 10
115.0619041
 20
7.51838098
 30
0.0
 11
115.0619041
 21
7.01838136
 31
0.0
  0
LINE
  5
ED
100
AcDbEntity
  8
0
  6
CONTINUOUS
 62
       3
100
AcDbLine
 10
96.26190437
 20
-12.08161925
 30
0.0
 11
102.76190404
 21
-12.08161925
 31
0.0
  0
LINE
  5
EE
100
AcDbEntity
  8
0
  6
CONTINUOUS
 62
       3
100
AcDbLine
 10
96.26190437
 20
15.91838161
 30
0.0
 11
96.26190437
 21
-12.08161925
 31
0.0
  0
LINE
  5
EF
100
AcDbEntity
  8
0
  6
CONTINUOUS
 62
       3
100
AcDbLine
 10
102.76190404
 20
15.91838161
 30
0.0
 11
96.26190437
 21
15.91838161
 31
0.0
  0
LINE
  5
F0
100
AcDbEntity
  8
0
  6
CONTINUOUS
 62
       3
100
AcDbLine
 10
102.76190404
 20
18.9183821
 30
0.0
 11
102.76190404
 21
15.91838161
 31
0.0
  0
LINE
  5
F1
100
AcDbEntity
  8
0
  6
CONTINUOUS
 62
       3
100
AcDbLine
 10
110.76190442
 20
18.9183821
 30
0.0
 11
102.76190404
 21
18.9183821
 31
0.0
  0
LINE
  5
F2
100
AcDbEntity
  8
0
  6
CONTINUOUS
 62
       3
100
AcDbLine
 10
110.76190442
 20
15.91838161
 30
0.0
 11
110.76190442
 21
18.9183821
 31
0.0
  0
LINE
  5
F3
100
AcDbEntity
  8
0
  6
CONTINUOUS
 62
       3
100
AcDbLine
 10
117.26190408
 20
15.91838161
 30
0.0
 11
110.76190442
 21
15.91838161
 31
0.0
  0
LINE
  5
F4
100
AcDbEntity
  8
0
  6
CONTINUOUS
 62
       3
100
AcDbLine
 10
117.26190408
 20
-12.08161925
 30
0.0
 11
117.26190408
 21
15.91838161
 31
0.0
  0
LINE
  5
F5
100
AcDbEntity
  8
0
  6
CONTINUOUS
 62
       3
100
AcDbLine
 10
110.76190442
 20
-12.08161925
 30
0.0
 11
117.26190408
 21
-12.08161925
 31
0.0
  0
LINE
  5
F6
100
AcDbEntity
  8
0
  6
CONTINUOUS
 62
       3
100
AcDbLine
 10
110.76190442
 20
-15.08161975
 30
0.0
 11
110.76190442
 21
-12.08161925
 31
0.0
  0
LINE
  5
F7
100
AcDbEntity
  8
0
  6
CONTINUOUS
 62
       3
100
AcDbLine
 10
110.76190442
 20
-15.08161975
 30
0.0
 11
102.76190404
 21
-15.08161975
 31
0.0
  0
LINE
  5
F8
100
AcDbEntity
  8
0
  6
CONTINUOUS
 62
       3
100
AcDbLine
 10
102.76190404
 20
-12.08161925
 30
0.0
 11
102.76190404
 21
-15.08161975
 31
0.0
  0
LINE
  5
F9
100
AcDbEntity
  8
0
  6
CONTINUOUS
 62
       3
100
AcDbLine
 10
101.86190417
 20
0.71838112
 30
0.0
 11
101.86190417
 21
1.2183812
 31
0.0
  0
LINE
  5
FA
100
AcDbEntity
  8
0
  6
CONTINUOUS
 62
       3
100
AcDbLine
 10
101.86190417
 20
1.2183812
 30
0.0
 11
98.46190436
 21
1.2183812
 31
0.0
  0
LINE
  5
FB
100
AcDbEntity
  8
0
  6
CONTINUOUS
 62
       3
100
AcDbLine
 10
98.46190436
 20
1.2183812
 30
0.0
 11
98.46190436
 21
0.71838112
 31
0.0
  0
LINE
  5
FC
100
AcDbEntity
  8
0
  6
CONTINUOUS
 62
       3
100
AcDbLine
 10
98.46190436
 20
0.71838112
 30
0.0
 11
101.86190417
 21
0.71838112
 31
0.0
  0
LINE
  5
FD
100
AcDbEntity
  8
0
  6
CONTINUOUS
 62
       3
100
AcDbLine
 10
101.86190417
 20
7.01838136
 30
0.0
 11
101.86190417
 21
7.51838098
 31
0.0
  0
LINE
  5
FE
100
AcDbEntity
  8
0
  6
CONTINUOUS
 62
       3
100
AcDbLine
 10
101.86190417
 20
7.51838098
 30
0.0
 11
98.46190436
 21
7.51838098
 31
0.0
  0
LINE
  5
FF
100
AcDbEntity
  8
0
  6
CONTINUOUS
 62
       3
100
AcDbLine
 10
98.46190436
 20
7.51838098
 30
0.0
 11
98.46190436
 21
7.01838136
 31
0.0
  0
LINE
  5
100
100
AcDbEntity
  8
0
  6
CONTINUOUS
 62
       3
100
AcDbLine
 10
98.46190436
 20
7.01838136
 30
0.0
 11
101.86190417
 21
7.01838136
 31
0.0
  0
LINE
  5
101
100
AcDbEntity
  8
0
  6
CONTINUOUS
 62
       3
100
AcDbLine
 10
101.86190417
 20
11.11838138
 30
0.0
 11
101.86190417
 21
11.61838146
 31
0.0
  0
LINE
  5
102
100
AcDbEntity
  8
0
  6
CONTINUOUS
 62
       3
100
AcDbLine
 10
101.86190417
 20
11.61838146
 30
0.0
 11
98.46190436
 21
11.61838146
 31
0.0
  0
LINE
  5
103
100
AcDbEntity
  8
0
  6
CONTINUOUS
 62
       3
100
AcDbLine
 10
98.46190436
 20
11.61838146
 30
0.0
 11
98.46190436
 21
11.11838138
 31
0.0
  0
LINE
  5
104
100
AcDbEntity
  8
0
  6
CONTINUOUS
 62
       3
100
AcDbLine
 10
98.46190436
 20
11.11838138
 30
0.0
 11
101.86190417
 21
11.11838138
 31
0.0
  0
LINE
  5
105
100
AcDbEntity
  8
0
  6
CONTINUOUS
 62
       3
100
AcDbLine
 10
101.86190417
 20
-5.63161903
 30
0.0
 11
101.86190417
 21
-5.13161895
 31
0.0
  0
LINE
  5
106
100
AcDbEntity
  8
0
  6
CONTINUOUS
 62
       3
100
AcDbLine
 10
101.86190417
 20
-5.13161895
 30
0.0
 11
98.46190436
 21
-5.13161895
 31
0.0
  0
LINE
  5
107
100
AcDbEntity
  8
0
  6
CONTINUOUS
 62
       3
100
AcDbLine
 10
98.46190436
 20
-5.13161895
 30
0.0
 11
98.46190436
 21
-5.63161903
 31
0.0
  0
LINE
  5
108
100
AcDbEntity
  8
0
  6
CONTINUOUS
 62
       3
100
AcDbLine
 10
98.46190436
 20
-5.63161903
 30
0.0
 11
101.86190417
 21
-5.63161903
 31
0.0
  0
LINE
  5
109
100
AcDbEntity
  8
0
  6
CONTINUOUS
 62
       3
100
AcDbLine
 10
111.66190428
 20
1.2183812
 30
0.0
 11
115.0619041
 21
1.2183812
 31
0.0
  0
LINE
  5
10A
100
AcDbEntity
  8
0
  6
CONTINUOUS
 62
       3
100
AcDbLine
 10
111.66190428
 20
0.71838112
 30
0.0
 11
111.66190428
 21
1.2183812
 31
0.0
  0
LINE
  5
10B
100
AcDbEntity
  8
0
  6
CONTINUOUS
 62
       3
100
AcDbLine
 10
115.0619041
 20
0.71838112
 30
0.0
 11
111.66190428
 21
0.71838112
 31
0.0
  0
LINE
  5
10C
100
AcDbEntity
  8
0
  6
CONTINUOUS
 62
       3
100
AcDbLine
 10
115.0619041
 20
1.2183812
 30
0.0
 11
115.0619041
 21
0.71838112
 31
0.0
  0
LINE
  5
10D
100
AcDbEntity
  8
0
  6
CONTINUOUS
 62
       3
100
AcDbLine
 10
111.66190428
 20
11.61838146
 30
0.0
 11
115.0619041
 21
11.61838146
 31
0.0
  0
LINE
  5
10E
100
AcDbEntity
  8
0
  6
CONTINUOUS
 62
       3
100
AcDbLine
 10
111.66190428
 20
11.11838138
 30
0.0
 11
111.66190428
 21
11.61838146
 31
0.0
  0
LINE
  5
10F
100
AcDbEntity
  8
0
  6
CONTINUOUS
 62
       3
100
AcDbLine
 10
115.0619041
 20
11.11838138
 30
0.0
 11
111.66190428
 21
11.11838138
 31
0.0
  0
LINE
  5
110
100
AcDbEntity
  8
0
  6
CONTINUOUS
 62
       3
100
AcDbLine
 10
115.0619041
 20
11.61838146
 30
0.0
 11
115.0619041
 21
11.11838138
 31
0.0
  0
LINE
  5
111
100
AcDbEntity
  8
0
  6
CONTINUOUS
 62
       3
100
AcDbLine
 10
109.08690423
 20
16.91838084
 30
0.0
 11
109.08690423
 21
17.91838194
 31
0.0
  0
LINE
  5
112
100
AcDbEntity
  8
0
  6
CONTINUOUS
 62
       3
100
AcDbLine
 10
109.08690423
 20
17.91838194
 30
0.0
 11
104.43690422
 21
17.91838194
 31
0.0
  0
LINE
  5
113
100
AcDbEntity
  8
0
  6
CONTINUOUS
 62
       3
100
AcDbLine
 10
104.43690422
 20
17.91838194
 30
0.0
 11
104.43690422
 21
16.91838084
 31
0.0
  0
LINE
  5
114
100
AcDbEntity
  8
0
  6
CONTINUOUS
 62
       3
100
AcDbLine
 10
104.43690422
 20
16.91838084
 30
0.0
 11
109.08690423
 21
16.91838084
 31
0.0
  0
LINE
  5
115
100
AcDbEntity
  8
0
  6
CONTINUOUS
 62
       3
100
AcDbLine
 10
109.08690423
 20
-13.08161849
 30
0.0
 11
104.43690422
 21
-13.08161849
 31
0.0
  0
LINE
  5
116
100
AcDbEntity
  8
0
  6
CONTINUOUS
 62
       3
100
AcDbLine
 10
104.43690422
 20
-13.08161849
 30
0.0
 11
104.43690422
 21
-14.08161958
 31
0.0
  0
LINE
  5
117
100
AcDbEntity
  8
0
  6
CONTINUOUS
 62
       3
100
AcDbLine
 10
104.43690422
 20
-14.08161958
 30
0.0
 11
109.08690423
 21
-14.08161958
 31
0.0
  0
LINE
  5
118
100
AcDbEntity
  8
0
  6
CONTINUOUS
 62
       3
100
AcDbLine
 10
109.08690423
 20
-14.08161958
 30
0.0
 11
109.08690423
 21
-13.08161849
 31
0.0
  0
LINE
  5
119
100
AcDbEntity
  8
0
  6
CONTINUOUS
 62
       3
100
AcDbLine
 10
103.7619042
 20
-23.58161834
 30
0.0
 11
102.76190404
 21
-23.58161834
 31
0.0
  0
LINE
  5
11A
100
AcDbEntity
  8
0
  6
CONTINUOUS
 62
       3
100
AcDbLine
 10
103.7619042
 20
-23.58161834
 30
0.0
 11
103.7619042
 21
-15.08161975
 31
0.0
  0
LINE
  5
11B
100
AcDbEntity
  8
0
  6
CONTINUOUS
 62
       3
100
AcDbLine
 10
102.76190404
 20
-15.08161975
 30
0.0
 11
102.76190404
 21
-23.58161834
 31
0.0
  0
LINE
  5
11C
100
AcDbEntity
  8
0
  6
CONTINUOUS
 62
       3
100
AcDbLine
 10
110.76190442
 20
-23.58161834
 30
0.0
 11
109.76190425
 21
-23.58161834
 31
0.0
  0
LINE
  5
11D
100
AcDbEntity
  8
0
  6
CONTINUOUS
 62
       3
100
AcDbLine
 10
109.76190425
 20
-15.08161975
 30
0.0
 11
109.76190425
 21
-23.58161834
 31
0.0
  0
LINE
  5
11E
100
AcDbEntity
  8
0
  6
CONTINUOUS
 62
       3
100
AcDbLine
 10
110.76190442
 20
-23.58161834
 30
0.0
 11
110.76190442
 21
-15.08161975
 31
0.0
  0
LINE
  5
11F
100
AcDbEntity
  8
0
  6
CONTINUOUS
 62
       3
100
AcDbLine
 10
96.76190445
 20
-25.08161952
 30
0.0
 11
95.2619042
 21
-25.08161952
 31
0.0
  0
LINE
  5
120
100
AcDbEntity
  8
0
  6
CONTINUOUS
 62
       3
100
AcDbLine
 10
96.76190445
 20
-23.58161834
 30
0.0
 11
95.2619042
 21
-23.58161834
 31
0.0
  0
LINE
  5
121
100
AcDbEntity
  8
0
  6
CONTINUOUS
 62
       3
100
AcDbLine
 10
96.76190445
 20
-23.58161834
 30
0.0
 11
96.76190445
 21
-25.08161952
 31
0.0
  0
LINE
  5
122
100
AcDbEntity
  8
0
  6
CONTINUOUS
 62
       3
100
AcDbLine
 10
95.2619042
 20
-23.58161834
 30
0.0
 11
95.2619042
 21
-25.08161952
 31
0.0
  0
LINE
  5
123
100
AcDbEntity
  8
0
  6
CONTINUOUS
 62
       3
100
AcDbLine
 10
96.76190445
 20
18.41838109
 30
0.0
 11
102.76190404
 21
18.41838109
 31
0.0
  0
LINE
  5
124
100
AcDbEntity
  8
0
  6
CONTINUOUS
 62
       3
100
AcDbLine
 10
96.76190445
 20
-14.58161873
 30
0.0
 11
102.76190404
 21
-14.58161873
 31
0.0
  0
LINE
  5
125
100
AcDbEntity
  8
0
  6
CONTINUOUS
 62
       3
100
AcDbLine
 10
96.76190445
 20
-23.58161834
 30
0.0
 11
96.76190445
 21
-14.58161873
 31
0.0
  0
LINE
  5
126
100
AcDbEntity
  8
0
  6
CONTINUOUS
 62
       3
100
AcDbLine
 10
96.76190445
 20
26.91838155
 30
0.0
 11
95.2619042
 21
26.91838155
 31
0.0
  0
LINE
  5
127
100
AcDbEntity
  8
0
  6
CONTINUOUS
 62
       3
100
AcDbLine
 10
96.76190445
 20
26.91838155
 30
0.0
 11
96.76190445
 21
18.41838109
 31
0.0
  0
LINE
  5
128
100
AcDbEntity
  8
0
  6
CONTINUOUS
 62
       3
100
AcDbLine
 10
95.2619042
 20
26.91838155
 30
0.0
 11
95.2619042
 21
-23.58161834
 31
0.0
  0
LINE
  5
129
100
AcDbEntity
  8
0
  6
CONTINUOUS
 62
       3
100
AcDbLine
 10
110.76190442
 20
18.41838109
 30
0.0
 11
116.761904
 21
18.41838109
 31
0.0
  0
LINE
  5
12A
100
AcDbEntity
  8
0
  6
CONTINUOUS
 62
       3
100
AcDbLine
 10
116.761904
 20
18.41838109
 30
0.0
 11
116.761904
 21
27.4183807
 31
0.0
  0
LINE
  5
12B
100
AcDbEntity
  8
0
  6
CONTINUOUS
 62
       3
100
AcDbLine
 10
118.26190425
 20
27.4183807
 30
0.0
 11
116.761904
 21
27.4183807
 31
0.0
  0
LINE
  5
12C
100
AcDbEntity
  8
0
  6
CONTINUOUS
 62
       3
100
AcDbLine
 10
116.761904
 20
-14.58161873
 30
0.0
 11
116.761904
 21
-23.08161919
 31
0.0
  0
LINE
  5
12D
100
AcDbEntity
  8
0
  6
CONTINUOUS
 62
       3
100
AcDbLine
 10
116.761904
 20
-23.08161919
 30
0.0
 11
118.26190425
 21
-23.08161919
 31
0.0
  0
LINE
  5
12E
100
AcDbEntity
  8
0
  6
CONTINUOUS
 62
       3
100
AcDbLine
 10
110.76190442
 20
-14.58161873
 30
0.0
 11
116.761904
 21
-14.58161873
 31
0.0
  0
LINE
  5
12F
100
AcDbEntity
  8
0
  6
CONTINUOUS
 62
       3
100
AcDbLine
 10
118.26190425
 20
27.4183807
 30
0.0
 11
118.26190425
 21
-23.08161919
 31
0.0
  0
LINE
  5
130
100
AcDbEntity
  8
0
  6
CONTINUOUS
 62
       3
100
AcDbLine
 10
110.76190442
 20
27.4183807
 30
0.0
 11
109.76190425
 21
27.4183807
 31
0.0
  0
LINE
  5
131
100
AcDbEntity
  8
0
  6
CONTINUOUS
 62
       3
100
AcDbLine
 10
109.76190425
 20
27.4183807
 30
0.0
 11
109.76190425
 21
18.9183821
 31
0.0
  0
LINE
  5
132
100
AcDbEntity
  8
0
  6
CONTINUOUS
 62
       3
100
AcDbLine
 10
110.76190442
 20
27.4183807
 30
0.0
 11
110.76190442
 21
18.9183821
 31
0.0
  0
LINE
  5
133
100
AcDbEntity
  8
0
  6
CONTINUOUS
 62
       3
100
AcDbLine
 10
116.761904
 20
28.91838188
 30
0.0
 11
116.761904
 21
27.4183807
 31
0.0
  0
LINE
  5
134
100
AcDbEntity
  8
0
  6
CONTINUOUS
 62
       3
100
AcDbLine
 10
118.26190425
 20
28.91838188
 30
0.0
 11
116.761904
 21
28.91838188
 31
0.0
  0
LINE
  5
135
100
AcDbEntity
  8
0
  6
CONTINUOUS
 62
       3
100
AcDbLine
 10
118.26190425
 20
28.91838188
 30
0.0
 11
118.26190425
 21
27.4183807
 31
0.0
  0
LINE
  5
136
100
AcDbEntity
  8
0
  6
CONTINUOUS
 62
       3
100
AcDbLine
 10
103.7619042
 20
-25.08161952
 30
0.0
 11
102.76190404
 21
-25.08161952
 31
0.0
  0
LINE
  5
137
100
AcDbEntity
  8
0
  6
CONTINUOUS
 62
       3
100
AcDbLine
 10
103.7619042
 20
-23.58161834
 30
0.0
 11
103.7619042
 21
-25.08161952
 31
0.0
  0
LINE
  5
138
100
AcDbEntity
  8
0
  6
CONTINUOUS
 62
       3
100
AcDbLine
 10
102.76190404
 20
-25.08161952
 30
0.0
 11
102.76190404
 21
-23.58161834
 31
0.0
  0
LINE
  5
139
100
AcDbEntity
  8
0
  6
CONTINUOUS
 62
       3
100
AcDbLine
 10
110.76190442
 20
-25.08161952
 30
0.0
 11
109.76190425
 21
-25.08161952
 31
0.0
  0
LINE
  5
13A
100
AcDbEntity
  8
0
  6
CONTINUOUS
 62
       3
100
AcDbLine
 10
109.76190425
 20
-25.08161952
 30
0.0
 11
109.76190425
 21
-23.58161834
 31
0.0
  0
LINE
  5
13B
100
AcDbEntity
  8
0
  6
CONTINUOUS
 62
       3
100
AcDbLine
 10
110.76190442
 20
-23.58161834
 30
0.0
 11
110.76190442
 21
-25.08161952
 31
0.0
  0
LINE
  5
13C
100
AcDbEntity
  8
0
  6
CONTINUOUS
 62
       3
100
AcDbLine
 10
103.7619042
 20
27.4183807
 30
0.0
 11
102.76190404
 21
27.4183807
 31
0.0
  0
LINE
  5
13D
100
AcDbEntity
  8
0
  6
CONTINUOUS
 62
       3
100
AcDbLine
 10
103.7619042
 20
18.9183821
 30
0.0
 11
103.7619042
 21
27.4183807
 31
0.0
  0
LINE
  5
13E
100
AcDbEntity
  8
0
  6
CONTINUOUS
 62
       3
100
AcDbLine
 10
102.76190404
 20
18.9183821
 30
0.0
 11
102.76190404
 21
27.4183807
 31
0.0
  0
LINE
  5
13F
100
AcDbEntity
  8
0
  6
CONTINUOUS
 62
       3
100
AcDbLine
 10
103.7619042
 20
28.91838188
 30
0.0
 11
102.76190404
 21
28.91838188
 31
0.0
  0
LINE
  5
140
100
AcDbEntity
  8
0
  6
CONTINUOUS
 62
       3
100
AcDbLine
 10
103.7619042
 20
27.4183807
 30
0.0
 11
103.7619042
 21
28.91838188
 31
0.0
  0
LINE
  5
141
100
AcDbEntity
  8
0
  6
CONTINUOUS
 62
       3
100
AcDbLine
 10
102.76190404
 20
28.91838188
 30
0.0
 11
102.76190404
 21
27.4183807
 31
0.0
  0
LINE
  5
142
100
AcDbEntity
  8
0
  6
CONTINUOUS
 62
       3
100
AcDbLine
 10
110.76190442
 20
28.91838188
 30
0.0
 11
109.76190425
 21
28.91838188
 31
0.0
  0
LINE
  5
143
100
AcDbEntity
  8
0
  6
CONTINUOUS
 62
       3
100
AcDbLine
 10
109.76190425
 20
28.91838188
 30
0.0
 11
109.76190425
 21
27.4183807
 31
0.0
  0
LINE
  5
144
100
AcDbEntity
  8
0
  6
CONTINUOUS
 62
       3
100
AcDbLine
 10
110.76190442
 20
27.4183807
 30
0.0
 11
110.76190442
 21
28.91838188
 31
0.0
  0
CIRCLE
  5
145
100
AcDbEntity
  8
0
  6
CONTINUOUS
 62
       3
100
AcDbCircle
 10
99.76190423
 20
-18.68161882
 30
0.0
 40
2.8
  0
CIRCLE
  5
146
100
AcDbEntity
  8
0
  6
CONTINUOUS
 62
       3
100
AcDbCircle
 10
113.76190423
 20
-18.68161882
 30
0.0
 40
2.8
  0
CIRCLE
  5
147
100
AcDbEntity
  8
0
  6
CONTINUOUS
 62
       3
100
AcDbCircle
 10
99.76190423
 20
22.51838118
 30
0.0
 40
2.8
  0
CIRCLE
  5
148
100
AcDbEntity
  8
0
  6
CONTINUOUS
 62
       3
100
AcDbCircle
 10
113.76190423
 20
22.51838118
 30
0.0
 40
2.8
  0
LINE
  5
149
100
AcDbEntity
  8
0
  6
CONTINUOUS
 62
       3
100
AcDbLine
 10
102.76190404
 20
-21.93161835
 30
0.0
 11
96.76190445
 21
-21.93161835
 31
0.0
  0
LINE
  5
14A
100
AcDbEntity
  8
0
  6
CONTINUOUS
 62
       3
100
AcDbLine
 10
96.76190445
 20
-15.43161822
 30
0.0
 11
102.76190404
 21
-15.43161822
 31
0.0
  0
LINE
  5
14B
100
AcDbEntity
  8
0
  6
CONTINUOUS
 62
       3
100
AcDbLine
 10
110.76190442
 20
-15.43161822
 30
0.0
 11
116.761904
 21
-15.43161822
 31
0.0
  0
LINE
  5
14C
100
AcDbEntity
  8
0
  6
CONTINUOUS
 62
       3
100
AcDbLine
 10
116.761904
 20
-21.93161835
 30
0.0
 11
110.76190442
 21
-21.93161835
 31
0.0
  0
LINE
  5
14D
100
AcDbEntity
  8
0
  6
CONTINUOUS
 62
       3
100
AcDbLine
 10
110.76190442
 20
19.26838058
 30
0.0
 11
116.761904
 21
19.26838058
 31
0.0
  0
LINE
  5
14E
100
AcDbEntity
  8
0
  6
CONTINUOUS
 62
       3
100
AcDbLine
 10
116.761904
 20
25.76838071
 30
0.0
 11
110.76190442
 21
25.76838071
 31
0.0
  0
LINE
  5
14F
100
AcDbEntity
  8
0
  6
CONTINUOUS
 62
       3
100
AcDbLine
 10
102.76190404
 20
25.76838071
 30
0.0
 11
96.76190445
 21
25.76838071
 31
0.0
  0
LINE
  5
150
100
AcDbEntity
  8
0
  6
CONTINUOUS
 62
       3
100
AcDbLine
 10
96.76190445
 20
19.26838058
 30
0.0
 11
102.76190404
 21
19.26838058
 31
0.0
  0
LINE
  5
151
100
AcDbEntity
  8
0
  6
CONTINUOUS
 62
       3
100
AcDbLine
 10
110.76190442
 20
-23.08161919
 30
0.0
 11
116.761904
 21
-23.08161919
 31
0.0
  0
LINE
  5
152
100
AcDbEntity
  8
0
  6
CONTINUOUS
 62
       3
100
AcDbLine
 10
102.76190404
 20
-23.08161919
 30
0.0
 11
96.76190445
 21
-23.08161919
 31
0.0
  0
LINE
  5
153
100
AcDbEntity
  8
0
  6
CONTINUOUS
 62
       3
100
AcDbLine
 10
109.76190425
 20
-23.08161919
 30
0.0
 11
103.7619042
 21
-23.08161919
 31
0.0
  0
LINE
  5
154
100
AcDbEntity
  8
0
  6
CONTINUOUS
 62
       3
100
AcDbLine
 10
102.76190404
 20
26.91838155
 30
0.0
 11
96.76190445
 21
26.91838155
 31
0.0
  0
LINE
  5
155
100
AcDbEntity
  8
0
  6
CONTINUOUS
 62
       3
100
AcDbLine
 10
110.76190442
 20
26.91838155
 30
0.0
 11
116.761904
 21
26.91838155
 31
0.0
  0
LINE
  5
156
100
AcDbEntity
  8
0
  6
CONTINUOUS
 62
       3
100
AcDbLine
 10
103.7619042
 20
26.91838155
 30
0.0
 11
109.76190425
 21
26.91838155
 31
0.0
  0
LINE
  5
157
100
AcDbEntity
  8
0
  6
CONTINUOUS
 62
       3
100
AcDbLine
 10
96.76190445
 20
-32.58161796
 30
0.0
 11
95.2619042
 21
-32.58161796
 31
0.0
  0
LINE
  5
158
100
AcDbEntity
  8
0
  6
CONTINUOUS
 62
       3
100
AcDbLine
 10
96.76190445
 20
-34.08161727
 30
0.0
 11
95.2619042
 21
-34.08161727
 31
0.0
  0
LINE
  5
159
100
AcDbEntity
  8
0
  6
CONTINUOUS
 62
       3
100
AcDbLine
 10
96.76190445
 20
-34.08161727
 30
0.0
 11
96.76190445
 21
-32.58161796
 31
0.0
  0
LINE
  5
15A
100
AcDbEntity
  8
0
  6
CONTINUOUS
 62
       3
100
AcDbLine
 10
95.2619042
 20
-32.58161796
 30
0.0
 11
95.2619042
 21
-34.08161727
 31
0.0
  0
LINE
  5
15B
100
AcDbEntity
  8
0
  6
CONTINUOUS
 62
       3
100
AcDbLine
 10
96.76190445
 20
-32.58161796
 30
0.0
 11
96.76190445
 21
-25.08161952
 31
0.0
  0
LINE
  5
15C
100
AcDbEntity
  8
0
  6
CONTINUOUS
 62
       3
100
AcDbLine
 10
95.2619042
 20
-25.08161952
 30
0.0
 11
95.2619042
 21
-32.58161796
 31
0.0
  0
LINE
  5
15D
100
AcDbEntity
  8
0
  6
CONTINUOUS
 62
       3
100
AcDbLine
 10
110.76190442
 20
-32.58161796
 30
0.0
 11
109.76190425
 21
-32.58161796
 31
0.0
  0
LINE
  5
15E
100
AcDbEntity
  8
0
  6
CONTINUOUS
 62
       3
100
AcDbLine
 10
110.76190442
 20
-34.08161727
 30
0.0
 11
109.76190425
 21
-34.08161727
 31
0.0
  0
LINE
  5
15F
100
AcDbEntity
  8
0
  6
CONTINUOUS
 62
       3
100
AcDbLine
 10
109.76190425
 20
-32.58161796
 30
0.0
 11
109.76190425
 21
-34.08161727
 31
0.0
  0
LINE
  5
160
100
AcDbEntity
  8
0
  6
CONTINUOUS
 62
       3
100
AcDbLine
 10
110.76190442
 20
-34.08161727
 30
0.0
 11
110.76190442
 21
-32.58161796
 31
0.0
  0
LINE
  5
161
100
AcDbEntity
  8
0
  6
CONTINUOUS
 62
       3
100
AcDbLine
 10
109.76190425
 20
-25.08161952
 30
0.0
 11
109.76190425
 21
-32.58161796
 31
0.0
  0
LINE
  5
162
100
AcDbEntity
  8
0
  6
CONTINUOUS
 62
       3
100
AcDbLine
 10
110.76190442
 20
-32.58161796
 30
0.0
 11
110.76190442
 21
-25.08161952
 31
0.0
  0
LINE
  5
163
100
AcDbEntity
  8
0
  6
CONTINUOUS
 62
       3
100
AcDbLine
 10
103.7619042
 20
-32.58161796
 30
0.0
 11
102.76190404
 21
-32.58161796
 31
0.0
  0
LINE
  5
164
100
AcDbEntity
  8
0
  6
CONTINUOUS
 62
       3
100
AcDbLine
 10
103.7619042
 20
-34.08161727
 30
0.0
 11
102.76190404
 21
-34.08161727
 31
0.0
  0
LINE
  5
165
100
AcDbEntity
  8
0
  6
CONTINUOUS
 62
       3
100
AcDbLine
 10
103.7619042
 20
-34.08161727
 30
0.0
 11
103.7619042
 21
-32.58161796
 31
0.0
  0
LINE
  5
166
100
AcDbEntity
  8
0
  6
CONTINUOUS
 62
       3
100
AcDbLine
 10
102.76190404
 20
-32.58161796
 30
0.0
 11
102.76190404
 21
-34.08161727
 31
0.0
  0
LINE
  5
167
100
AcDbEntity
  8
0
  6
CONTINUOUS
 62
       3
100
AcDbLine
 10
103.7619042
 20
-32.58161796
 30
0.0
 11
103.7619042
 21
-25.08161952
 31
0.0
  0
LINE
  5
168
100
AcDbEntity
  8
0
  6
CONTINUOUS
 62
       3
100
AcDbLine
 10
102.76190404
 20
-25.08161952
 30
0.0
 11
102.76190404
 21
-32.58161796
 31
0.0
  0
LINE
  5
169
100
AcDbEntity
  8
0
  6
CONTINUOUS
 62
       3
100
AcDbLine
 10
103.7619042
 20
36.41838031
 30
0.0
 11
102.76190404
 21
36.41838031
 31
0.0
  0
LINE
  5
16A
100
AcDbEntity
  8
0
  6
CONTINUOUS
 62
       3
100
AcDbLine
 10
103.7619042
 20
28.91838188
 30
0.0
 11
103.7619042
 21
36.41838031
 31
0.0
  0
LINE
  5
16B
100
AcDbEntity
  8
0
  6
CONTINUOUS
 62
       3
100
AcDbLine
 10
102.76190404
 20
36.41838031
 30
0.0
 11
102.76190404
 21
28.91838188
 31
0.0
  0
LINE
  5
16C
100
AcDbEntity
  8
0
  6
CONTINUOUS
 62
       3
100
AcDbLine
 10
110.76190442
 20
36.41838031
 30
0.0
 11
109.76190425
 21
36.41838031
 31
0.0
  0
LINE
  5
16D
100
AcDbEntity
  8
0
  6
CONTINUOUS
 62
       3
100
AcDbLine
 10
109.76190425
 20
36.41838031
 30
0.0
 11
109.76190425
 21
28.91838188
 31
0.0
  0
LINE
  5
16E
100
AcDbEntity
  8
0
  6
CONTINUOUS
 62
       3
100
AcDbLine
 10
110.76190442
 20
28.91838188
 30
0.0
 11
110.76190442
 21
36.41838031
 31
0.0
  0
LINE
  5
16F
100
AcDbEntity
  8
0
  6
CONTINUOUS
 62
       3
100
AcDbLine
 10
118.26190425
 20
36.41838031
 30
0.0
 11
116.761904
 21
36.41838031
 31
0.0
  0
LINE
  5
170
100
AcDbEntity
  8
0
  6
CONTINUOUS
 62
       3
100
AcDbLine
 10
116.761904
 20
36.41838031
 30
0.0
 11
116.761904
 21
28.91838188
 31
0.0
  0
LINE
  5
171
100
AcDbEntity
  8
0
  6
CONTINUOUS
 62
       3
100
AcDbLine
 10
118.26190425
 20
36.41838031
 30
0.0
 11
118.26190425
 21
28.91838188
 31
0.0
  0
LINE
  5
172
100
AcDbEntity
  8
0
  6
CONTINUOUS
 62
       3
100
AcDbLine
 10
103.7619042
 20
37.91837963
 30
0.0
 11
102.76190404
 21
37.91837963
 31
0.0
  0
LINE
  5
173
100
AcDbEntity
  8
0
  6
CONTINUOUS
 62
       3
100
AcDbLine
 10
103.7619042
 20
36.41838031
 30
0.0
 11
103.7619042
 21
37.91837963
 31
0.0
  0
LINE
  5
174
100
AcDbEntity
  8
0
  6
CONTINUOUS
 62
       3
100
AcDbLine
 10
102.76190404
 20
37.91837963
 30
0.0
 11
102.76190404
 21
36.41838031
 31
0.0
  0
LINE
  5
175
100
AcDbEntity
  8
0
  6
CONTINUOUS
 62
       3
100
AcDbLine
 10
110.76190442
 20
37.91837963
 30
0.0
 11
109.76190425
 21
37.91837963
 31
0.0
  0
LINE
  5
176
100
AcDbEntity
  8
0
  6
CONTINUOUS
 62
       3
100
AcDbLine
 10
109.76190425
 20
37.91837963
 30
0.0
 11
109.76190425
 21
36.41838031
 31
0.0
  0
LINE
  5
177
100
AcDbEntity
  8
0
  6
CONTINUOUS
 62
       3
100
AcDbLine
 10
110.76190442
 20
36.41838031
 30
0.0
 11
110.76190442
 21
37.91837963
 31
0.0
  0
LINE
  5
178
100
AcDbEntity
  8
0
  6
CONTINUOUS
 62
       3
100
AcDbLine
 10
118.26190425
 20
37.91837963
 30
0.0
 11
116.761904
 21
37.91837963
 31
0.0
  0
LINE
  5
179
100
AcDbEntity
  8
0
  6
CONTINUOUS
 62
       3
100
AcDbLine
 10
116.761904
 20
37.91837963
 30
0.0
 11
116.761904
 21
36.41838031
 31
0.0
  0
LINE
  5
17A
100
AcDbEntity
  8
0
  6
CONTINUOUS
 62
       3
100
AcDbLine
 10
118.26190425
 20
37.91837963
 30
0.0
 11
118.26190425
 21
36.41838031
 31
0.0
  0
CIRCLE
  5
17B
100
AcDbEntity
  8
0
  6
CONTINUOUS
 62
       3
100
AcDbCircle
 10
106.76190423
 20
-27.18161882
 30
0.0
 40
2.8
  0
CIRCLE
  5
17C
100
AcDbEntity
  8
0
  6
CONTINUOUS
 62
       3
100
AcDbCircle
 10
99.76190423
 20
-27.18161882
 30
0.0
 40
2.8
  0
CIRCLE
  5
17D
100
AcDbEntity
  8
0
  6
CONTINUOUS
 62
       3
100
AcDbCircle
 10
106.76190423
 20
31.01838118
 30
0.0
 40
2.8
  0
CIRCLE
  5
17E
100
AcDbEntity
  8
0
  6
CONTINUOUS
 62
       3
100
AcDbCircle
 10
113.76190423
 20
31.01838118
 30
0.0
 40
2.8
  0
LINE
  5
17F
100
AcDbEntity
  8
0
  6
CONTINUOUS
 62
       3
100
AcDbLine
 10
96.76190445
 20
-23.93161868
 30
0.0
 11
102.76190404
 21
-23.93161868
 31
0.0
  0
LINE
  5
180
100
AcDbEntity
  8
0
  6
CONTINUOUS
 62
       3
100
AcDbLine
 10
102.76190404
 20
-30.43161882
 30
0.0
 11
96.76190445
 21
-30.43161882
 31
0.0
  0
LINE
  5
181
100
AcDbEntity
  8
0
  6
CONTINUOUS
 62
       3
100
AcDbLine
 10
103.7619042
 20
-23.93161868
 30
0.0
 11
109.76190425
 21
-23.93161868
 31
0.0
  0
LINE
  5
182
100
AcDbEntity
  8
0
  6
CONTINUOUS
 62
       3
100
AcDbLine
 10
109.76190425
 20
-30.43161882
 30
0.0
 11
103.7619042
 21
-30.43161882
 31
0.0
  0
LINE
  5
183
100
AcDbEntity
  8
0
  6
CONTINUOUS
 62
       3
100
AcDbLine
 10
109.76190425
 20
34.26838117
 30
0.0
 11
103.7619042
 21
34.26838117
 31
0.0
  0
LINE
  5
184
100
AcDbEntity
  8
0
  6
CONTINUOUS
 62
       3
100
AcDbLine
 10
103.7619042
 20
27.76838104
 30
0.0
 11
109.76190425
 21
27.76838104
 31
0.0
  0
LINE
  5
185
100
AcDbEntity
  8
0
  6
CONTINUOUS
 62
       3
100
AcDbLine
 10
116.761904
 20
34.26838117
 30
0.0
 11
110.76190442
 21
34.26838117
 31
0.0
  0
LINE
  5
186
100
AcDbEntity
  8
0
  6
CONTINUOUS
 62
       3
100
AcDbLine
 10
110.76190442
 20
27.76838104
 30
0.0
 11
116.761904
 21
27.76838104
 31
0.0
  0
LINE
  5
187
100
AcDbEntity
  8
0
  6
CONTINUOUS
 62
       3
100
AcDbLine
 10
102.76190404
 20
-31.58161966
 30
0.0
 11
96.76190445
 21
-31.58161966
 31
0.0
  0
LINE
  5
188
100
AcDbEntity
  8
0
  6
CONTINUOUS
 62
       3
100
AcDbLine
 10
109.76190425
 20
-31.58161966
 30
0.0
 11
103.7619042
 21
-31.58161966
 31
0.0
  0
LINE
  5
189
100
AcDbEntity
  8
0
  6
CONTINUOUS
 62
       3
100
AcDbLine
 10
110.76190442
 20
35.41838201
 30
0.0
 11
116.761904
 21
35.41838201
 31
0.0
  0
LINE
  5
18A
100
AcDbEntity
  8
0
  6
CONTINUOUS
 62
       3
100
AcDbLine
 10
103.7619042
 20
35.41838201
 30
0.0
 11
109.76190425
 21
35.41838201
 31
0.0
  0
LINE
  5
18B
100
AcDbEntity
  8
0
  6
CONTINUOUS
 62
       3
100
AcDbLine
 10
101.36190409
 20
30.06191562
 30
0.0
 11
101.36190409
 21
32.7748471
 31
0.0
  0
ARC
  5
18C
100
AcDbEntity
  8
0
  6
CONTINUOUS
 62
       3
100
AcDbCircle
 10
99.26190423
 20
31.41838118
 30
0.0
 40
2.5
100
AcDbArc
 50
32.85988038
 51
147.14011962
  0
LINE
  5
18D
100
AcDbEntity
  8
0
  6
CONTINUOUS
 62
       3
100
AcDbLine
 10
97.16190377
 20
32.7748471
 30
0.0
 11
97.16190377
 21
30.06191562
 31
0.0
  0
ARC
  5
18E
100
AcDbEntity
  8
0
  6
CONTINUOUS
 62
       3
100
AcDbCircle
 10
99.26190423
 20
31.41838118
 30
0.0
 40
2.5
100
AcDbArc
 50
212.85988038
 51
327.14011962
  0
LINE
  5
18F
100
AcDbEntity
  8
0
  6
CONTINUOUS
 62
       3
100
AcDbLine
 10
95.2619042
 20
37.91837963
 30
0.0
 11
102.76190404
 21
37.91837963
 31
0.0
  0
LINE
  5
190
100
AcDbEntity
  8
0
  6
CONTINUOUS
 62
       3
100
AcDbLine
 10
95.2619042
 20
26.91838155
 30
0.0
 11
95.2619042
 21
37.91837963
 31
0.0
  0
LINE
  5
191
100
AcDbEntity
  8
0
  6
CONTINUOUS
 62
       3
100
AcDbLine
 10
116.36190468
 20
-28.93808474
 30
0.0
 11
116.36190468
 21
-26.22515326
 31
0.0
  0
ARC
  5
192
100
AcDbEntity
  8
0
  6
CONTINUOUS
 62
       3
100
AcDbCircle
 10
114.26190423
 20
-27.58161882
 30
0.0
 40
2.5
100
AcDbArc
 50
32.85988038
 51
147.14011962
  0
LINE
  5
193
100
AcDbEntity
  8
0
  6
CONTINUOUS
 62
       3
100
AcDbLine
 10
112.16190437
 20
-26.22515326
 30
0.0
 11
112.16190437
 21
-28.93808474
 31
0.0
  0
ARC
  5
194
100
AcDbEntity
  8
0
  6
CONTINUOUS
 62
       3
100
AcDbCircle
 10
114.26190423
 20
-27.58161882
 30
0.0
 40
2.5
100
AcDbArc
 50
212.85988038
 51
327.14011962
  0
LINE
  5
195
100
AcDbEntity
  8
0
  6
CONTINUOUS
 62
       3
100
AcDbLine
 10
118.26190425
 20
-34.08161727
 30
0.0
 11
110.76190442
 21
-34.08161727
 31
0.0
  0
LINE
  5
196
100
AcDbEntity
  8
0
  6
CONTINUOUS
 62
       3
100
AcDbLine
 10
118.26190425
 20
-23.08161919
 30
0.0
 11
118.26190425
 21
-34.08161727
 31
0.0
  0
LINE
  5
197
100
AcDbEntity
  8
0
  6
CONTINUOUS
 62
       3
100
AcDbLine
 10
102.76190404
 20
-34.08161727
 30
0.0
 11
96.76190445
 21
-34.08161727
 31
0.0
  0
LINE
  5
198
100
AcDbEntity
  8
0
  6
CONTINUOUS
 62
       3
100
AcDbLine
 10
109.76190425
 20
-34.08161727
 30
0.0
 11
103.7619042
 21
-34.08161727
 31
0.0
  0
LINE
  5
199
100
AcDbEntity
  8
0
  6
CONTINUOUS
 62
       3
100
AcDbLine
 10
110.76190442
 20
37.91837963
 30
0.0
 11
116.761904
 21
37.91837963
 31
0.0
  0
LINE
  5
19A
100
AcDbEntity
  8
0
  6
CONTINUOUS
 62
       3
100
AcDbLine
 10
103.7619042
 20
37.91837963
 30
0.0
 11
109.76190425
 21
37.91837963
 31
0.0
  0
LINE
  5
19B
100
AcDbEntity
  8
0
  6
CENTER
 62
       4
100
AcDbLine
 10
-126.67451664
 20
1.91838183
 30
0.0
 11
-99.33540888
 21
1.91838183
 31
0.0
  0
LINE
  5
19C
100
AcDbEntity
  8
0
  6
CENTER
 62
       4
100
AcDbLine
 10
-112.83769757
 20
41.26385239
 30
0.0
 11
-112.83769757
 21
-36.90574462
 31
0.0
  0
LINE
  5
19D
100
AcDbEntity
  8
0
  6
CENTER
 62
       4
100
AcDbLine
 10
-75.90858166
 20
1.91838183
 30
0.0
 11
53.8856627
 21
1.91838183
 31
0.0
  0
LINE
  5
19E
100
AcDbEntity
  8
0
  6
CENTER
 62
       4
100
AcDbLine
 10
88.65251968
 20
1.91837963
 30
0.0
 11
126.67451664
 21
1.91837963
 31
0.0
  0
LINE
  5
19F
100
AcDbEntity
  8
0
  6
CENTER
 62
       4
100
AcDbLine
 10
106.7619042
 20
42.97396757
 30
0.0
 11
106.7619042
 21
-42.97396757
 31
0.0
  0
ARC
  5
1A0
100
AcDbEntity
  8
0
  6
DIVIDE
 62
       8
100
AcDbCircle
 10
48.58512372
 20
-8.83161746
 30
0.0
 40
2.0
100
AcDbArc
 50
270.0
 51
360.0
  0
LINE
  5
1A1
100
AcDbEntity
  8
0
  6
DIVIDE
 62
       8
100
AcDbLine
 10
50.58512371
 20
12.56838299
 30
0.0
 11
50.58512371
 21
-8.83161791
 31
0.0
  0
ARC
  5
1A2
100
AcDbEntity
  8
0
  6
DIVIDE
 62
       8
100
AcDbCircle
 10
48.58512372
 20
12.56838254
 30
0.0
 40
2.0
100
AcDbArc
 50
0.0
 51
90.0
  0
LINE
  5
1A3
100
AcDbEntity
  8
0
  6
DIVIDE
 62
       8
100
AcDbLine
 10
44.78512378
 20
14.56838238
 30
0.0
 11
48.58512373
 21
14.56838238
 31
0.0
  0
ARC
  5
1A4
100
AcDbEntity
  8
0
  6
DIVIDE
 62
       8
100
AcDbCircle
 10
44.78512372
 20
15.56838254
 30
0.0
 40
1.0
100
AcDbArc
 50
180.0
 51
270.0
  0
LINE
  5
1A5
100
AcDbEntity
  8
0
  6
DIVIDE
 62
       8
100
AcDbLine
 10
43.78512362
 20
19.36838261
 30
0.0
 11
43.78512362
 21
15.56838255
 31
0.0
  0
LINE
  5
1A6
100
AcDbEntity
  8
0
  6
DIVIDE
 62
       8
100
AcDbLine
 10
44.58512365
 20
19.36838261
 30
0.0
 11
43.78512362
 21
19.36838261
 31
0.0
  0
LINE
  5
1A7
100
AcDbEntity
  8
0
  6
DIVIDE
 62
       8
100
AcDbLine
 10
44.58512365
 20
17.36838228
 30
0.0
 11
44.58512365
 21
19.36838261
 31
0.0
  0
LINE
  5
1A8
100
AcDbEntity
  8
0
  6
DIVIDE
 62
       8
100
AcDbLine
 10
46.08512367
 20
15.36838289
 30
0.0
 11
44.58512365
 21
17.36838228
 31
0.0
  0
LINE
  5
1A9
100
AcDbEntity
  8
0
  6
DIVIDE
 62
       8
100
AcDbLine
 10
50.38512381
 20
15.36838289
 30
0.0
 11
46.08512367
 21
15.36838289
 31
0.0
  0
ARC
  5
1AA
100
AcDbEntity
  8
0
  6
DIVIDE
 62
       8
100
AcDbCircle
 10
50.38512372
 20
14.36838254
 30
0.0
 40
1.0
100
AcDbArc
 50
0.0
 51
90.0
  0
LINE
  5
1AB
100
AcDbEntity
  8
0
  6
DIVIDE
 62
       8
100
AcDbLine
 10
51.38512374
 20
-10.63161765
 30
0.0
 11
51.38512374
 21
14.36838272
 31
0.0
  0
ARC
  5
1AC
100
AcDbEntity
  8
0
  6
DIVIDE
 62
       8
100
AcDbCircle
 10
50.38512372
 20
-10.63161746
 30
0.0
 40
1.0
100
AcDbArc
 50
270.0
 51
360.0
  0
LINE
  5
1AD
100
AcDbEntity
  8
0
  6
DIVIDE
 62
       8
100
AcDbLine
 10
46.08512367
 20
-11.63161781
 30
0.0
 11
50.38512381
 21
-11.63161781
 31
0.0
  0
LINE
  5
1AE
100
AcDbEntity
  8
0
  6
DIVIDE
 62
       8
100
AcDbLine
 10
44.58512365
 20
-13.63161721
 30
0.0
 11
46.08512367
 21
-11.63161781
 31
0.0
  0
LINE
  5
1AF
100
AcDbEntity
  8
0
  6
DIVIDE
 62
       8
100
AcDbLine
 10
44.58512365
 20
-15.63161754
 30
0.0
 11
44.58512365
 21
-13.63161721
 31
0.0
  0
LINE
  5
1B0
100
AcDbEntity
  8
0
  6
DIVIDE
 62
       8
100
AcDbLine
 10
43.78512362
 20
-15.63161754
 30
0.0
 11
44.58512365
 21
-15.63161754
 31
0.0
  0
LINE
  5
1B1
100
AcDbEntity
  8
0
  6
DIVIDE
 62
       8
100
AcDbLine
 10
43.78512362
 20
-11.83161747
 30
0.0
 11
43.78512362
 21
-15.63161754
 31
0.0
  0
ARC
  5
1B2
100
AcDbEntity
  8
0
  6
DIVIDE
 62
       8
100
AcDbCircle
 10
44.78512372
 20
-11.83161746
 30
0.0
 40
1.0
100
AcDbArc
 50
90.0
 51
180.0
  0
LINE
  5
1B3
100
AcDbEntity
  8
0
  6
DIVIDE
 62
       8
100
AcDbLine
 10
48.58512373
 20
-10.83161731
 30
0.0
 11
44.78512378
 21
-10.83161731
 31
0.0
  0
TEXT
  5
1B4
100
AcDbEntity
  8
0
 62
       7
100
AcDbText
 10
116.51538462
 20
-105.65746606
 30
0.0
 40
5.0
  1
000
 41
0.8
 72
       5
 11
128.51538462
 21
-105.65746606
 31
0.0
100
AcDbText
  0
ENDSEC
  0
SECTION
  2
OBJECTS
  0
DICTIONARY
  5
19
100
AcDbDictionary
  3
ACAD_GROUP
350
1A
  3
ACAD_MLINESTYLE
350
1B
  0
DICTIONARY
  5
1A
102
{ACAD_REACTORS
330
19
102
}
100
AcDbDictionary
  0
DICTIONARY
  5
1B
102
{ACAD_REACTORS
330
19
102
}
100
AcDbDictionary
  3
STANDARD
350
1C
  0
MLINESTYLE
  5
1C
102
{ACAD_REACTORS
330
1B
102
}
100
AcDbMlineStyle
  2
STANDARD
 70
       0
  3

 62
       0
 51
90.0
 52
90.0
 71
       2
 49
0.5
 62
     256
  6
BYLAYER
 49
-0.5
 62
     256
  6
BYLAYER
  0
ENDSEC
  0
EOF
