  0
SECTION
  2
HEADER
  9
$ACADVER
  1
AC1014
  9
$ACADMAINTVER
 70
       0
  9
$DWGCODEPAGE
  3
ANSI_932
  9
$INSBASE
 10
0.0
 20
0.0
 30
0.0
  9
$EXTMIN
 10
-77.68527909
 20
-70.73428009
 30
0.0
  9
$EXTMAX
 10
77.68527909
 20
55.58597859
 30
0.0
  9
$LIMMIN
 10
-82.54060904
 20
-74.68178817
  9
$LIMMAX
 10
82.54060904
 20
59.53348668
  9
$ORTHOMODE
 70
       0
  9
$REGENMODE
 70
       1
  9
$FILLMODE
 70
       1
  9
$QTEXTMODE
 70
       0
  9
$MIRRTEXT
 70
       1
  9
$DRAGMODE
 70
       2
  9
$LTSCALE
 40
1.0
  9
$OSMODE
 70
       0
  9
$ATTMODE
 70
       1
  9
$TEXTSIZE
 40
0.2
  9
$TRACEWID
 40
0.05
  9
$TEXTSTYLE
  7
STANDARD
  9
$CLAYER
  8
0
  9
$CELTYPE
  6
CONTINUOUS
  9
$CECOLOR
 62
     256
  9
$CELTSCALE
 40
1.0
  9
$DELOBJ
 70
       1
  9
$DISPSILH
 70
       0
  9
$DIMSCALE
 40
1.0
  9
$DIMASZ
 40
0.18
  9
$DIMEXO
 40
0.0625
  9
$DIMDLI
 40
0.38
  9
$DIMRND
 40
0.0
  9
$DIMDLE
 40
0.0
  9
$DIMEXE
 40
0.18
  9
$DIMTP
 40
0.0
  9
$DIMTM
 40
0.0
  9
$DIMTXT
 40
0.18
  9
$DIMCEN
 40
0.09
  9
$DIMTSZ
 40
0.0
  9
$DIMTOL
 70
       0
  9
$DIMLIM
 70
       0
  9
$DIMTIH
 70
       1
  9
$DIMTOH
 70
       1
  9
$DIMSE1
 70
       0
  9
$DIMSE2
 70
       0
  9
$DIMTAD
 70
       0
  9
$DIMZIN
 70
       0
  9
$DIMBLK
  1

  9
$DIMASO
 70
       1
  9
$DIMSHO
 70
       1
  9
$DIMPOST
  1

  9
$DIMAPOST
  1

  9
$DIMALT
 70
       0
  9
$DIMALTD
 70
       2
  9
$DIMALTF
 40
25.4
  9
$DIMLFAC
 40
1.0
  9
$DIMTOFL
 70
       0
  9
$DIMTVP
 40
0.0
  9
$DIMTIX
 70
       0
  9
$DIMSOXD
 70
       0
  9
$DIMSAH
 70
       0
  9
$DIMBLK1
  1

  9
$DIMBLK2
  1

  9
$DIMSTYLE
  2
STANDARD
  9
$DIMCLRD
 70
       0
  9
$DIMCLRE
 70
       0
  9
$DIMCLRT
 70
       0
  9
$DIMTFAC
 40
1.0
  9
$DIMGAP
 40
0.09
  9
$DIMJUST
 70
       0
  9
$DIMSD1
 70
       0
  9
$DIMSD2
 70
       0
  9
$DIMTOLJ
 70
       1
  9
$DIMTZIN
 70
       0
  9
$DIMALTZ
 70
       0
  9
$DIMALTTZ
 70
       0
  9
$DIMFIT
 70
       3
  9
$DIMUPT
 70
       0
  9
$DIMUNIT
 70
       2
  9
$DIMDEC
 70
       4
  9
$DIMTDEC
 70
       4
  9
$DIMALTU
 70
       2
  9
$DIMALTTD
 70
       2
  9
$DIMTXSTY
  7
STANDARD
  9
$DIMAUNIT
 70
       0
  9
$LUNITS
 70
       2
  9
$LUPREC
 70
       4
  9
$SKETCHINC
 40
0.1
  9
$FILLETRAD
 40
0.0
  9
$AUNITS
 70
       0
  9
$AUPREC
 70
       0
  9
$MENU
  1
acad
  9
$ELEVATION
 40
0.0
  9
$PELEVATION
 40
0.0
  9
$THICKNESS
 40
0.0
  9
$LIMCHECK
 70
       0
  9
$BLIPMODE
 70
       1
  9
$CHAMFERA
 40
0.0
  9
$CHAMFERB
 40
0.0
  9
$CHAMFERC
 40
0.0
  9
$CHAMFERD
 40
0.0
  9
$SKPOLY
 70
       0
  9
$TDCREATE
 40
0.000000000
  9
$TDUPDATE
 40
0.000000000
  9
$TDINDWG
 40
0.0000000000
  9
$TDUSRTIMER
 40
0.0000000000
  9
$USRTIMER
 70
       1
  9
$ANGBASE
 50
0.0
  9
$ANGDIR
 70
       0
  9
$PDMODE
 70
       0
  9
$PDSIZE
 40
1.0
  9
$PLINEWID
 40
0.0
  9
$COORDS
 70
       1
  9
$SPLFRAME
 70
       0
  9
$SPLINETYPE
 70
       6
  9
$SPLINESEGS
 70
       8
  9
$ATTDIA
 70
       0
  9
$ATTREQ
 70
       1
  9
$HANDLING
 70
       1
  9
$HANDSEED
  5
454
  9
$SURFTAB1
 70
       6
  9
$SURFTAB2
 70
       6
  9
$SURFTYPE
 70
       6
  9
$SURFU
 70
       6
  9
$SURFV
 70
       6
  9
$UCSNAME
  2

  9
$UCSORG
 10
0.0
 20
0.0
 30
0.0
  9
$UCSXDIR
 10
1.0
 20
0.0
 30
0.0
  9
$UCSYDIR
 10
0.0
 20
1.0
 30
0.0
  9
$PUCSNAME
  2

  9
$PUCSORG
 10
0.0
 20
0.0
 30
0.0
  9
$PUCSXDIR
 10
1.0
 20
0.0
 30
0.0
  9
$PUCSYDIR
 10
0.0
 20
1.0
 30
0.0
  9
$USERI1
 70
       0
  9
$USERI2
 70
       0
  9
$USERI3
 70
       0
  9
$USERI4
 70
       0
  9
$USERI5
 70
       0
  9
$USERR1
 40
0.0
  9
$USERR2
 40
0.0
  9
$USERR3
 40
0.0
  9
$USERR4
 40
0.0
  9
$USERR5
 40
0.0
  9
$WORLDVIEW
 70
       1
  9
$SHADEDGE
 70
       3
  9
$SHADEDIF
 70
      70
  9
$TILEMODE
 70
       1
  9
$MAXACTVP
 70
      16
  9
$PINSBASE
 10
0.0
 20
0.0
 30
0.0
  9
$PLIMCHECK
 70
       0
  9
$PEXTMIN
 10
1.00000000E+20
 20
1.00000000E+20
 30
1.00000000E+20
  9
$PEXTMAX
 10
-1.00000000E+20
 20
-1.00000000E+20
 30
-1.00000000E+20
  9
$PLIMMIN
 10
0.0
 20
0.0
  9
$PLIMMAX
 10
12.0
 20
9.0
  9
$UNITMODE
 70
       0
  9
$VISRETAIN
 70
       0
  9
$PLINEGEN
 70
       1
  9
$PSLTSCALE
 70
       0
  9
$TREEDEPTH
 70
    3020
  9
$PICKSTYLE
 70
       1
  9
$CMLSTYLE
  2
STANDARD
  9
$CMLJUST
 70
       0
  9
$CMLSCALE
 40
1.0
  9
$PROXYGRAPHICS
 70
       0
  9
$MEASUREMENT
 70
       0
  0
ENDSEC
  0
SECTION
  2
CLASSES
  0
CLASS
  1
LWPOLYLINE
  2
AcDbPolyline
  3
"AutoCAD"
 90
        0
280
       0
281
       1
  0
CLASS
  1
IMAGE
  2
AcDbRasterImage
  3
ISM
 90
      127
280
       0
281
       1
  0
CLASS
  1
OLE2FRAME
  2
AcDbOle2Frame
  3
""
 90
        0
280
       0
281
       1
  0
CLASS
  1
HATCH
  2
AcDbHatch
  3
"ACAD_SEDONA"
 90
        0
280
       0
281
       1
  0
CLASS
  1
DICTIONARYVAR
  2
AcDbDictionaryVar
  3
"AutoCAD"
 90
        0
280
       0
281
       0
  0
CLASS
  1
RASTERVARIABLES
  2
AcDbRasterVariables
  3
ISM
 90
        0
280
       0
281
       0
  0
CLASS
  1
IMAGEDEF
  2
AcDbRasterImageDef
  3
ISM
 90
        0
280
       0
281
       0
  0
CLASS
  1
IMAGEDEF_REACTOR
  2
AcDbRasterImageDefReactor
  3
ISM
 90
        1
280
       0
281
       0
  0
CLASS
  1
IDBUFFER
  2
AcDbIdBuffer
  3
"Acad"
 90
        0
280
       0
281
       0
  0
CLASS
  1
SPATIAL_FILTER
  2
AcDbSpatialFilter
  3
"Acad"
 90
        0
280
       0
281
       0
  0
CLASS
  1
XRECORD
  2
AcDbXrecord
  3
"<Built In>"
 90
        0
280
       0
281
       0
  0
CLASS
  1
SORTENTSTABLE
  2
AcDbSortentsTable
  3
"AutoCAD"
 90
        0
280
       0
281
       0
  0
CLASS
  1
LAYER_INDEX
  2
AcDbLayerIndex
  3
"Acad"
 90
        0
280
       0
281
       0
  0
CLASS
  1
SPATIAL_INDEX
  2
AcDbSpatialIndex
  3
"Acad"
 90
        0
280
       0
281
       0
  0
CLASS
  1
OBJECT_PTR
  2
CAseDLPNTableRecord
  3
"ASE-LPNTableRecord"
 90
        1
280
       0
281
       0
  0
CLASS
  1
LAYOUT
  2
AcDbLayout
  3
"AutoCAD 2000"
 90
        1
280
       0
281
       0
  0
CLASS
  1
PLOTSETTINGS
  2
AcDbPlotSettings
  3
"AutoCAD 2000"
 90
        1
280
       0
281
       0
  0
CLASS
  1
ACDBDICTIONARYWDFLT
  2
AcDbDictionaryWithDefault
  3
"AutoCAD 2000"
 90
        1
280
       0
281
       0
  0
CLASS
  1
ACDBPLACEHOLDER
  2
AcDbPlaceHolder
  3
"AutoCAD 2000"
 90
        1
280
       0
281
       0
  0
CLASS
  1
VBA_PROJECT
  2
AcDbVbaProject
  3
"acadvba"
 90
        1
280
       0
281
       0
  0
CLASS
  1
WIPEOUT
  2
AcDbWipeout
  3
WipeOut|AutoCAD Express Tool|expresstools@autodesk.com
 90
      127
280
       0
281
       1
  0
CLASS
  1
WIPEOUTVARIABLES
  2
AcDbWipeoutVariables
  3
WipeOut|AutoCAD Express Tool|expresstools@autodesk.com
 90
        0
280
       0
281
       0
  0
CLASS
  1
RTEXT
  2
RText
  3
RText|AutoCAD Express Tool|expresstools@autodesk.com
 90
        0
280
       0
281
       1
  0
CLASS
  1
ARCALIGNEDTEXT
  2
AcDbArcAlignedText
  3
ATEXT|AutoCAD Express Tool|expresstools@autodesk.com
 90
        0
280
       0
281
       1
  0
ENDSEC
  0
SECTION
  2
TABLES
  0
TABLE
  2
VPORT
  5
7
100
AcDbSymbolTable
 70
       1
  0
VPORT
  5
15
100
AcDbSymbolTableRecord
100
AcDbViewportTableRecord
  2
*ACTIVE
 70
       0
 10
0.0
 20
0.0
 11
1.0
 21
1.0
 12
0.0
 22
-7.57415075
 13
0.0
 23
0.0
 14
1.0
 24
1.0
 15
0.0
 25
0.0
 16
0.0
 26
0.0
 36
1.0
 17
0.0
 27
0.0
 37
0.0
 40
134.21527485
 41
1.2299734
 42
50.0
 43
0.0
 44
0.0
 50
0.0
 51
0.0
 71
       0
 72
     100
 73
       1
 74
       1
 75
       0
 76
       0
 77
       0
 78
       0
  0
ENDTAB
  0
TABLE
  2
LTYPE
  5
4
100
AcDbSymbolTable
 70
      30
  0
LTYPE
  5
11
100
AcDbSymbolTableRecord
100
AcDbLinetypeTableRecord
  2
BYBLOCK
 70
      64
  3

 72
      65
 73
       0
 40
0.0
  0
LTYPE
  5
12
100
AcDbSymbolTableRecord
100
AcDbLinetypeTableRecord
  2
BYLAYER
 70
      64
  3

 72
      65
 73
       0
 40
0.0
  0
LTYPE
  5
13
100
AcDbSymbolTableRecord
100
AcDbLinetypeTableRecord
  2
CONTINUOUS
 70
      64
  3
Solid line
 72
      65
 73
       0
 40
0.0
  0
LTYPE
  5
1D
100
AcDbSymbolTableRecord
100
AcDbLinetypeTableRecord
  2
HIDDENX2
 70
      64
  3
CADPAC LINETYPE
 72
      65
 73
       2
 40
6.25269935
 49
4.68952451
 74
       0
 49
-1.56317484
 74
       0
  0
LTYPE
  5
1E
100
AcDbSymbolTableRecord
100
AcDbLinetypeTableRecord
  2
HIDDEN
 70
      64
  3
CADPAC LINETYPE
 72
      65
 73
       2
 40
4.68952451
 49
3.12634968
 74
       0
 49
-1.56317484
 74
       0
  0
LTYPE
  5
1F
100
AcDbSymbolTableRecord
100
AcDbLinetypeTableRecord
  2
HIDDEN2
 70
      64
  3
CADPAC LINETYPE
 72
      65
 73
       2
 40
3.9079371
 49
2.34476226
 74
       0
 49
-1.56317484
 74
       0
  0
LTYPE
  5
20
100
AcDbSymbolTableRecord
100
AcDbLinetypeTableRecord
  2
DASHED
 70
      64
  3
CADPAC LINETYPE
 72
      65
 73
       2
 40
4.68952451
 49
3.12634968
 74
       0
 49
-1.56317484
 74
       0
  0
LTYPE
  5
21
100
AcDbSymbolTableRecord
100
AcDbLinetypeTableRecord
  2
DASHED2
 70
      64
  3
CADPAC LINETYPE
 72
      65
 73
       2
 40
3.51714339
 49
2.34476226
 74
       0
 49
-1.17238113
 74
       0
  0
LTYPE
  5
22
100
AcDbSymbolTableRecord
100
AcDbLinetypeTableRecord
  2
DASHEDX2
 70
      64
  3
CADPAC LINETYPE
 72
      65
 73
       2
 40
7.03428677
 49
4.68952451
 74
       0
 49
-2.34476226
 74
       0
  0
LTYPE
  5
23
100
AcDbSymbolTableRecord
100
AcDbLinetypeTableRecord
  2
DOTX2
 70
      64
  3
CADPAC LINETYPE
 72
      65
 73
       2
 40
1.95396855
 49
0.0
 74
       0
 49
-1.95396855
 74
       0
  0
LTYPE
  5
24
100
AcDbSymbolTableRecord
100
AcDbLinetypeTableRecord
  2
DOT
 70
      64
  3
CADPAC LINETYPE
 72
      65
 73
       2
 40
1.56317484
 49
0.0
 74
       0
 49
-1.56317484
 74
       0
  0
LTYPE
  5
25
100
AcDbSymbolTableRecord
100
AcDbLinetypeTableRecord
  2
DOT2
 70
      64
  3
CADPAC LINETYPE
 72
      65
 73
       2
 40
1.17238113
 49
0.0
 74
       0
 49
-1.17238113
 74
       0
  0
LTYPE
  5
26
100
AcDbSymbolTableRecord
100
AcDbLinetypeTableRecord
  2
CENTERX2
 70
      64
  3
CADPAC LINETYPE
 72
      65
 73
       4
 40
9.37904903
 49
3.9079371
 74
       0
 49
-1.95396855
 74
       0
 49
1.56317484
 74
       0
 49
-1.95396855
 74
       0
  0
LTYPE
  5
27
100
AcDbSymbolTableRecord
100
AcDbLinetypeTableRecord
  2
CENTER
 70
      64
  3
CADPAC LINETYPE
 72
      65
 73
       4
 40
7.19060425
 49
3.12634968
 74
       0
 49
-1.56317484
 74
       0
 49
0.9379049
 74
       0
 49
-1.56317484
 74
       0
  0
LTYPE
  5
28
100
AcDbSymbolTableRecord
100
AcDbLinetypeTableRecord
  2
CENTER2
 70
      64
  3
CADPAC LINETYPE
 72
      65
 73
       4
 40
5.00215948
 49
2.34476226
 74
       0
 49
-1.17238113
 74
       0
 49
0.31263497
 74
       0
 49
-1.17238113
 74
       0
  0
LTYPE
  5
29
100
AcDbSymbolTableRecord
100
AcDbLinetypeTableRecord
  2
DASHDOTX2
 70
      64
  3
CADPAC LINETYPE
 72
      65
 73
       4
 40
7.81587419
 49
3.9079371
 74
       0
 49
-1.95396855
 74
       0
 49
0.0
 74
       0
 49
-1.95396855
 74
       0
  0
LTYPE
  5
2A
100
AcDbSymbolTableRecord
100
AcDbLinetypeTableRecord
  2
DASHDOT
 70
      64
  3
CADPAC LINETYPE
 72
      65
 73
       4
 40
6.25269935
 49
3.12634968
 74
       0
 49
-1.56317484
 74
       0
 49
0.0
 74
       0
 49
-1.56317484
 74
       0
  0
LTYPE
  5
2B
100
AcDbSymbolTableRecord
100
AcDbLinetypeTableRecord
  2
DASHDOT2
 70
      64
  3
CADPAC LINETYPE
 72
      65
 73
       4
 40
4.68952451
 49
2.34476226
 74
       0
 49
-1.17238113
 74
       0
 49
0.0
 74
       0
 49
-1.17238113
 74
       0
  0
LTYPE
  5
2C
100
AcDbSymbolTableRecord
100
AcDbLinetypeTableRecord
  2
DIVIDEX2
 70
      64
  3
CADPAC LINETYPE
 72
      65
 73
       6
 40
9.76984274
 49
3.9079371
 74
       0
 49
-1.95396855
 74
       0
 49
0.0
 74
       0
 49
-1.95396855
 74
       0
 49
0.0
 74
       0
 49
-1.95396855
 74
       0
  0
LTYPE
  5
2D
100
AcDbSymbolTableRecord
100
AcDbLinetypeTableRecord
  2
DIVIDE
 70
      64
  3
CADPAC LINETYPE
 72
      65
 73
       6
 40
7.81587419
 49
3.12634968
 74
       0
 49
-1.56317484
 74
       0
 49
0.0
 74
       0
 49
-1.56317484
 74
       0
 49
0.0
 74
       0
 49
-1.56317484
 74
       0
  0
LTYPE
  5
2E
100
AcDbSymbolTableRecord
100
AcDbLinetypeTableRecord
  2
DIVIDE2
 70
      64
  3
CADPAC LINETYPE
 72
      65
 73
       6
 40
5.86190564
 49
2.34476226
 74
       0
 49
-1.17238113
 74
       0
 49
0.0
 74
       0
 49
-1.17238113
 74
       0
 49
0.0
 74
       0
 49
-1.17238113
 74
       0
  0
LTYPE
  5
2F
100
AcDbSymbolTableRecord
100
AcDbLinetypeTableRecord
  2
BORDERX2
 70
      64
  3
CADPAC LINETYPE
 72
      65
 73
       6
 40
13.67777983
 49
3.9079371
 74
       0
 49
-1.95396855
 74
       0
 49
3.9079371
 74
       0
 49
-1.95396855
 74
       0
 49
0.0
 74
       0
 49
-1.95396855
 74
       0
  0
LTYPE
  5
30
100
AcDbSymbolTableRecord
100
AcDbLinetypeTableRecord
  2
BORDER
 70
      64
  3
CADPAC LINETYPE
 72
      65
 73
       6
 40
10.94222387
 49
3.12634968
 74
       0
 49
-1.56317484
 74
       0
 49
3.12634968
 74
       0
 49
-1.56317484
 74
       0
 49
0.0
 74
       0
 49
-1.56317484
 74
       0
  0
LTYPE
  5
31
100
AcDbSymbolTableRecord
100
AcDbLinetypeTableRecord
  2
BORDER2
 70
      64
  3
CADPAC LINETYPE
 72
      65
 73
       6
 40
8.2066679
 49
2.34476226
 74
       0
 49
-1.17238113
 74
       0
 49
2.34476226
 74
       0
 49
-1.17238113
 74
       0
 49
0.0
 74
       0
 49
-1.17238113
 74
       0
  0
LTYPE
  5
32
100
AcDbSymbolTableRecord
100
AcDbLinetypeTableRecord
  2
PHANTOMX2
 70
      64
  3
CADPAC LINETYPE
 72
      65
 73
       6
 40
11.72381129
 49
3.9079371
 74
       0
 49
-1.56317484
 74
       0
 49
1.56317484
 74
       0
 49
-1.56317484
 74
       0
 49
1.56317484
 74
       0
 49
-1.56317484
 74
       0
  0
LTYPE
  5
33
100
AcDbSymbolTableRecord
100
AcDbLinetypeTableRecord
  2
PHANTOM
 70
      64
  3
CADPAC LINETYPE
 72
      65
 73
       6
 40
9.691684
 49
3.12634968
 74
       0
 49
-1.56317484
 74
       0
 49
0.9379049
 74
       0
 49
-1.56317484
 74
       0
 49
0.9379049
 74
       0
 49
-1.56317484
 74
       0
  0
LTYPE
  5
34
100
AcDbSymbolTableRecord
100
AcDbLinetypeTableRecord
  2
PHANTOM2
 70
      64
  3
CADPAC LINETYPE
 72
      65
 73
       6
 40
8.28482664
 49
2.34476226
 74
       0
 49
-1.56317484
 74
       0
 49
0.62526994
 74
       0
 49
-1.56317484
 74
       0
 49
0.62526994
 74
       0
 49
-1.56317484
 74
       0
  0
LTYPE
  5
35
100
AcDbSymbolTableRecord
100
AcDbLinetypeTableRecord
  2
ACAD_ISO06W100
 70
      64
  3
CADPAC LINETYPE
 72
      65
 73
       8
 40
10.55143016
 49
3.9079371
 74
       0
 49
-1.95396855
 74
       0
 49
0.0
 74
       0
 49
-1.56317484
 74
       0
 49
0.0
 74
       0
 49
-1.56317484
 74
       0
 49
0.0
 74
       0
 49
-1.56317484
 74
       0
  0
LTYPE
  5
36
100
AcDbSymbolTableRecord
100
AcDbLinetypeTableRecord
  2
ACAD_ISO13W100
 70
      64
  3
CADPAC LINETYPE
 72
      65
 73
       8
 40
12.5053987
 49
3.12634968
 74
       0
 49
-1.56317484
 74
       0
 49
3.12634968
 74
       0
 49
-1.56317484
 74
       0
 49
0.0
 74
       0
 49
-1.56317484
 74
       0
 49
0.0
 74
       0
 49
-1.56317484
 74
       0
  0
LTYPE
  5
37
100
AcDbSymbolTableRecord
100
AcDbLinetypeTableRecord
  2
ACAD_ISO14W100
 70
      64
  3
CADPAC LINETYPE
 72
      65
 73
       8
 40
9.37904903
 49
3.12634968
 74
       0
 49
-1.56317484
 74
       0
 49
0.0
 74
       0
 49
-1.56317484
 74
       0
 49
0.0
 74
       0
 49
-1.56317484
 74
       0
 49
0.0
 74
       0
 49
-1.56317484
 74
       0
  0
ENDTAB
  0
TABLE
  2
LAYER
  5
2
100
AcDbSymbolTable
 70
       2
  0
LAYER
  5
14
100
AcDbSymbolTableRecord
100
AcDbLayerTableRecord
  2
0
 70
       0
 62
       7
  6
CONTINUOUS
  0
LAYER
  5
38
100
AcDbSymbolTableRecord
100
AcDbLayerTableRecord
  2
SLD-0
 70
       0
 62
       7
  6
CONTINUOUS
  0
ENDTAB
  0
TABLE
  2
STYLE
  5
3
100
AcDbSymbolTable
 70
       1
  0
STYLE
  5
17
100
AcDbSymbolTableRecord
100
AcDbTextStyleTableRecord
  2
STANDARD
 70
       0
 40
0.0
 41
0.8
 50
0.0
 71
       0
 42
5.0
  3
txt.shx
  4
bigfont.shx
  0
ENDTAB
  0
TABLE
  2
VIEW
  5
5
100
AcDbSymbolTable
 70
       1
  0
VIEW
  5
39
100
AcDbSymbolTableRecord
100
AcDbViewTableRecord
  2
QQQQ
 70
       0
 40
134.21527485
 10
0.0
 20
-7.57415075
 41
165.08121807
 11
0.0
 21
0.0
 31
1.0
 12
100.0
 22
100.0
 32
0.0
 42
50.0
 43
0.0
 44
0.0
 50
0.0
 71
       0
  0
ENDTAB
  0
TABLE
  2
UCS
  5
6
100
AcDbSymbolTable
 70
       0
  0
ENDTAB
  0
TABLE
  2
APPID
  5
8
100
AcDbSymbolTable
 70
       1
  0
APPID
  5
16
100
AcDbSymbolTableRecord
100
AcDbRegAppTableRecord
  2
ACAD
 70
       0
  0
ENDTAB
  0
TABLE
  2
DIMSTYLE
  5
9
100
AcDbSymbolTable
 70
       1
  0
DIMSTYLE
105
18
100
AcDbSymbolTableRecord
100
AcDbDimStyleTableRecord
  2
STANDARD
 70
       0
  3

  4

  5

  6

  7

 40
1.0
 41
0.18
 42
0.0625
 43
0.38
 44
0.18
 45
0.0
 46
0.0
 47
0.0
 48
0.0
 71
       0
 72
       0
 73
       1
 74
       1
 75
       0
 76
       0
 77
       0
 78
       0
140
0.18
141
0.09
142
0.0
143
25.4
144
1.0
145
0.0
146
1.0
147
0.09
170
       0
171
       2
172
       0
173
       0
174
       0
175
       0
176
       0
177
       0
178
       0
270
       2
271
       4
272
       4
273
       2
274
       2
275
       0
280
       0
281
       0
282
       0
283
       1
284
       0
285
       0
286
       0
287
       0
288
       0
340
17
  0
ENDTAB
  0
TABLE
  2
BLOCK_RECORD
  5
1
100
AcDbSymbolTable
 70
       0
  0
BLOCK_RECORD
  5
A
100
AcDbSymbolTableRecord
100
AcDbBlockTableRecord
  2
*MODEL_SPACE
  0
BLOCK_RECORD
  5
B
100
AcDbSymbolTableRecord
100
AcDbBlockTableRecord
  2
*PAPER_SPACE
  0
ENDTAB
  0
ENDSEC
  0
SECTION
  2
BLOCKS
  0
BLOCK
  5
D
100
AcDbEntity
  8
0
100
AcDbBlockBegin
  2
*MODEL_SPACE
 70
       0
 10
0.0
 20
0.0
 30
0.0
  3
*MODEL_SPACE
  1

  0
ENDBLK
  5
E
100
AcDbEntity
  8
0
100
AcDbBlockEnd
  0
BLOCK
  5
F
100
AcDbEntity
 67
       1
  8
0
100
AcDbBlockBegin
  2
*PAPER_SPACE
 70
       0
 10
0.0
 20
0.0
 30
0.0
  3
*PAPER_SPACE
  1

  0
ENDBLK
  5
10
100
AcDbEntity
 67
       1
  8
0
100
AcDbBlockEnd
  0
ENDSEC
  0
SECTION
  2
ENTITIES
  0
LINE
  5
3A
100
AcDbEntity
  8
SLD-0
  6
CONTINUOUS
 62
       7
100
AcDbLine
 10
-52.22952197
 20
-48.28239653
 30
0.0
 11
-52.22952197
 21
41.71760631
 31
0.0
  0
LINE
  5
3B
100
AcDbEntity
  8
SLD-0
  6
CONTINUOUS
 62
       7
100
AcDbLine
 10
-70.22952197
 20
-48.28239653
 30
0.0
 11
-70.22952197
 21
41.71760631
 31
0.0
  0
LINE
  5
3C
100
AcDbEntity
  8
SLD-0
  6
CONTINUOUS
 62
       7
100
AcDbLine
 10
-52.22952197
 20
-48.28239653
 30
0.0
 11
-70.22952197
 21
-48.28239653
 31
0.0
  0
LINE
  5
3D
100
AcDbEntity
  8
SLD-0
  6
CONTINUOUS
 62
       7
100
AcDbLine
 10
-52.22952197
 20
41.71760631
 30
0.0
 11
-70.22952197
 21
41.71760631
 31
0.0
  0
LINE
  5
3E
100
AcDbEntity
  8
SLD-0
  6
CONTINUOUS
 62
       7
100
AcDbLine
 10
-59.58039898
 20
30.34260853
 30
0.0
 11
-59.03309736
 21
30.34260853
 31
0.0
  0
LINE
  5
3F
100
AcDbEntity
  8
SLD-0
  6
CONTINUOUS
 62
       7
100
AcDbLine
 10
-59.03309736
 20
30.34260853
 30
0.0
 11
-59.03309736
 21
31.49260758
 31
0.0
  0
LINE
  5
40
100
AcDbEntity
  8
SLD-0
  6
CONTINUOUS
 62
       7
100
AcDbLine
 10
-59.58039699
 20
31.49260758
 30
0.0
 11
-59.03309736
 21
31.49260758
 31
0.0
  0
LINE
  5
41
100
AcDbEntity
  8
SLD-0
  6
CONTINUOUS
 62
       7
100
AcDbLine
 10
-63.42594468
 20
31.49260778
 30
0.0
 11
-63.42594468
 21
30.34260693
 31
0.0
  0
LINE
  5
42
100
AcDbEntity
  8
SLD-0
  6
CONTINUOUS
 62
       7
100
AcDbLine
 10
-70.22952197
 20
19.21760574
 30
0.0
 11
-52.22952197
 21
19.21760574
 31
0.0
  0
LINE
  5
43
100
AcDbEntity
  8
SLD-0
  6
CONTINUOUS
 62
       7
100
AcDbLine
 10
-52.22952197
 20
9.91760477
 30
0.0
 11
-70.22952197
 21
9.91760477
 31
0.0
  0
LINE
  5
44
100
AcDbEntity
  8
SLD-0
  6
CONTINUOUS
 62
       7
100
AcDbLine
 10
-68.02952202
 20
10.91760494
 30
0.0
 11
-54.42952184
 21
10.91760494
 31
0.0
  0
LINE
  5
45
100
AcDbEntity
  8
SLD-0
  6
CONTINUOUS
 62
       7
100
AcDbLine
 10
-54.42952184
 20
10.91760494
 30
0.0
 11
-54.42952184
 21
16.21760525
 31
0.0
  0
LINE
  5
46
100
AcDbEntity
  8
SLD-0
  6
CONTINUOUS
 62
       7
100
AcDbLine
 10
-54.42952184
 20
16.21760525
 30
0.0
 11
-68.02952202
 21
16.21760525
 31
0.0
  0
LINE
  5
47
100
AcDbEntity
  8
SLD-0
  6
CONTINUOUS
 62
       7
100
AcDbLine
 10
-68.02952202
 20
16.21760525
 30
0.0
 11
-68.02952202
 21
10.91760494
 31
0.0
  0
LINE
  5
48
100
AcDbEntity
  8
SLD-0
  6
CONTINUOUS
 62
       7
100
AcDbLine
 10
-52.22952197
 20
-17.28239559
 30
0.0
 11
-70.22952197
 21
-17.28239559
 31
0.0
  0
LINE
  5
49
100
AcDbEntity
  8
SLD-0
  6
CONTINUOUS
 62
       7
100
AcDbLine
 10
-70.22952197
 20
-16.7823955
 30
0.0
 11
-52.22952197
 21
-16.7823955
 31
0.0
  0
LINE
  5
4A
100
AcDbEntity
  8
SLD-0
  6
CONTINUOUS
 62
       7
100
AcDbLine
 10
-70.22952197
 20
-23.98239538
 30
0.0
 11
-52.22952197
 21
-23.98239538
 31
0.0
  0
LINE
  5
4B
100
AcDbEntity
  8
SLD-0
  6
CONTINUOUS
 62
       7
100
AcDbLine
 10
-70.22952197
 20
-25.78239605
 30
0.0
 11
-52.22952197
 21
-25.78239605
 31
0.0
  0
LINE
  5
4C
100
AcDbEntity
  8
SLD-0
  6
CONTINUOUS
 62
       7
100
AcDbLine
 10
-63.42952191
 20
19.21760574
 30
0.0
 11
-63.42952191
 21
22.91760504
 31
0.0
  0
LINE
  5
4D
100
AcDbEntity
  8
SLD-0
  6
CONTINUOUS
 62
       7
100
AcDbLine
 10
-63.42952191
 20
22.91760504
 30
0.0
 11
-61.42952192
 21
22.91760504
 31
0.0
  0
LINE
  5
4E
100
AcDbEntity
  8
SLD-0
  6
CONTINUOUS
 62
       7
100
AcDbLine
 10
-61.42952192
 20
22.91760504
 30
0.0
 11
-61.42952192
 21
19.21760574
 31
0.0
  0
LINE
  5
4F
100
AcDbEntity
  8
SLD-0
  6
CONTINUOUS
 62
       7
100
AcDbLine
 10
-63.42952191
 20
-29.48239535
 30
0.0
 11
-61.42952192
 21
-29.48239535
 31
0.0
  0
LINE
  5
50
100
AcDbEntity
  8
SLD-0
  6
CONTINUOUS
 62
       7
100
AcDbLine
 10
-63.42952191
 20
-29.48239535
 30
0.0
 11
-63.42952191
 21
-25.78239605
 31
0.0
  0
LINE
  5
51
100
AcDbEntity
  8
SLD-0
  6
CONTINUOUS
 62
       7
100
AcDbLine
 10
-61.42952192
 20
-25.78239605
 30
0.0
 11
-61.42952192
 21
-29.48239535
 31
0.0
  0
LINE
  5
52
100
AcDbEntity
  8
SLD-0
  6
CONTINUOUS
 62
       7
100
AcDbLine
 10
-64.60452201
 20
-48.28239694
 30
0.0
 11
-64.60452201
 21
-49.5823966
 31
0.0
  0
LINE
  5
53
100
AcDbEntity
  8
SLD-0
  6
CONTINUOUS
 62
       7
100
AcDbLine
 10
-64.60452201
 20
-49.5823966
 30
0.0
 11
-57.85452184
 21
-49.5823966
 31
0.0
  0
LINE
  5
54
100
AcDbEntity
  8
SLD-0
  6
CONTINUOUS
 62
       7
100
AcDbLine
 10
-57.85452184
 20
-49.5823966
 30
0.0
 11
-57.85452184
 21
-48.28239694
 31
0.0
  0
LINE
  5
55
100
AcDbEntity
  8
SLD-0
  6
CONTINUOUS
 62
       7
100
AcDbLine
 10
-55.62952283
 20
-48.28239785
 30
0.0
 11
-55.62952283
 21
-49.38239784
 31
0.0
  0
LINE
  5
56
100
AcDbEntity
  8
SLD-0
  6
CONTINUOUS
 62
       7
100
AcDbLine
 10
-64.82952267
 20
-51.38239435
 30
0.0
 11
-57.62952273
 21
-51.38239596
 31
0.0
  0
LINE
  5
57
100
AcDbEntity
  8
SLD-0
  6
CONTINUOUS
 62
       7
100
AcDbLine
 10
-66.82952193
 20
-49.38239515
 30
0.0
 11
-66.82952173
 21
-48.28239694
 31
0.0
  0
LINE
  5
58
100
AcDbEntity
  8
SLD-0
  6
CONTINUOUS
 62
       7
100
AcDbLine
 10
-61.22952193
 20
23.26760538
 30
0.0
 11
-63.62952204
 21
23.26760538
 31
0.0
  0
LINE
  5
59
100
AcDbEntity
  8
SLD-0
  6
CONTINUOUS
 62
       7
100
AcDbLine
 10
-63.62952204
 20
23.26760538
 30
0.0
 11
-63.62952204
 21
21.15729548
 31
0.0
  0
LINE
  5
5A
100
AcDbEntity
  8
SLD-0
  6
CONTINUOUS
 62
       7
100
AcDbLine
 10
-63.62952204
 20
21.15729548
 30
0.0
 11
-63.62952204
 21
19.65733156
 31
0.0
  0
LINE
  5
5B
100
AcDbEntity
  8
SLD-0
  6
CONTINUOUS
 62
       7
100
AcDbLine
 10
-61.22952193
 20
-29.83239569
 30
0.0
 11
-63.62952204
 21
-29.83239569
 31
0.0
  0
LINE
  5
5C
100
AcDbEntity
  8
SLD-0
  6
CONTINUOUS
 62
       7
100
AcDbLine
 10
-63.62952204
 20
-27.72208579
 30
0.0
 11
-63.62952204
 21
-29.83239569
 31
0.0
  0
LINE
  5
5D
100
AcDbEntity
  8
SLD-0
  6
CONTINUOUS
 62
       7
100
AcDbLine
 10
-63.62952204
 20
-26.22212186
 30
0.0
 11
-63.62952204
 21
-27.72208579
 31
0.0
  0
LINE
  5
5E
100
AcDbEntity
  8
SLD-0
  6
CONTINUOUS
 62
       7
100
AcDbLine
 10
-63.62952204
 20
19.65271033
 30
0.0
 11
-63.42952191
 21
19.65271033
 31
0.0
  0
LINE
  5
5F
100
AcDbEntity
  8
SLD-0
  6
CONTINUOUS
 62
       7
100
AcDbLine
 10
-61.42952192
 20
19.65271033
 30
0.0
 11
-61.22952193
 21
19.65271033
 31
0.0
  0
LINE
  5
60
100
AcDbEntity
  8
SLD-0
  6
CONTINUOUS
 62
       7
100
AcDbLine
 10
-61.22952193
 20
-26.21750064
 30
0.0
 11
-61.42952192
 21
-26.21750064
 31
0.0
  0
LINE
  5
61
100
AcDbEntity
  8
SLD-0
  6
CONTINUOUS
 62
       7
100
AcDbLine
 10
-63.42952191
 20
-26.21750064
 30
0.0
 11
-63.62952204
 21
-26.21750064
 31
0.0
  0
LINE
  5
62
100
AcDbEntity
  8
SLD-0
  6
CONTINUOUS
 62
       7
100
AcDbLine
 10
-67.62952176
 20
19.46760438
 30
0.0
 11
-63.42952191
 21
19.46760438
 31
0.0
  0
LINE
  5
63
100
AcDbEntity
  8
SLD-0
  6
CONTINUOUS
 62
       7
100
AcDbLine
 10
-61.42952192
 20
19.46760438
 30
0.0
 11
-52.22952197
 21
19.46760438
 31
0.0
  0
LINE
  5
64
100
AcDbEntity
  8
SLD-0
  6
CONTINUOUS
 62
       7
100
AcDbLine
 10
-68.82952205
 20
19.64908376
 30
0.0
 11
-67.62952176
 21
19.64908376
 31
0.0
  0
LINE
  5
65
100
AcDbEntity
  8
SLD-0
  6
CONTINUOUS
 62
       7
100
AcDbLine
 10
-70.22952197
 20
19.46760438
 30
0.0
 11
-68.82952205
 21
19.46760438
 31
0.0
  0
LINE
  5
66
100
AcDbEntity
  8
SLD-0
  6
CONTINUOUS
 62
       7
100
AcDbLine
 10
-63.62952204
 20
19.65271033
 30
0.0
 11
-63.62952204
 21
19.65733156
 31
0.0
  0
LINE
  5
67
100
AcDbEntity
  8
SLD-0
  6
CONTINUOUS
 62
       7
100
AcDbLine
 10
-70.22952197
 20
-26.03239469
 30
0.0
 11
-68.82952205
 21
-26.03239469
 31
0.0
  0
LINE
  5
68
100
AcDbEntity
  8
SLD-0
  6
CONTINUOUS
 62
       7
100
AcDbLine
 10
-68.82952205
 20
-26.21387407
 30
0.0
 11
-67.62952176
 21
-26.21387407
 31
0.0
  0
LINE
  5
69
100
AcDbEntity
  8
SLD-0
  6
CONTINUOUS
 62
       7
100
AcDbLine
 10
-67.62952176
 20
-26.03239469
 30
0.0
 11
-63.42952191
 21
-26.03239469
 31
0.0
  0
LINE
  5
6A
100
AcDbEntity
  8
SLD-0
  6
CONTINUOUS
 62
       7
100
AcDbLine
 10
-61.42952192
 20
-26.03239469
 30
0.0
 11
-52.22952197
 21
-26.03239469
 31
0.0
  0
LINE
  5
6B
100
AcDbEntity
  8
SLD-0
  6
CONTINUOUS
 62
       7
100
AcDbLine
 10
-63.62952204
 20
-26.22212186
 30
0.0
 11
-63.62952204
 21
-26.21750064
 31
0.0
  0
LINE
  5
6C
100
AcDbEntity
  8
SLD-0
  6
CONTINUOUS
 62
       7
100
AcDbLine
 10
-68.82952205
 20
19.21760574
 30
0.0
 11
-68.82952205
 21
19.64908376
 31
0.0
  0
LINE
  5
6D
100
AcDbEntity
  8
SLD-0
  6
CONTINUOUS
 62
       7
100
AcDbLine
 10
-67.62952176
 20
19.21760574
 30
0.0
 11
-67.62952176
 21
19.64908376
 31
0.0
  0
LINE
  5
6E
100
AcDbEntity
  8
SLD-0
  6
CONTINUOUS
 62
       7
100
AcDbLine
 10
-68.82952205
 20
-26.21387407
 30
0.0
 11
-68.82952205
 21
-25.78239605
 31
0.0
  0
LINE
  5
6F
100
AcDbEntity
  8
SLD-0
  6
CONTINUOUS
 62
       7
100
AcDbLine
 10
-67.62952176
 20
-26.21387407
 30
0.0
 11
-67.62952176
 21
-25.78239605
 31
0.0
  0
LINE
  5
70
100
AcDbEntity
  8
SLD-0
  6
CONTINUOUS
 62
       7
100
AcDbLine
 10
-63.42594468
 20
-38.05739515
 30
0.0
 11
-63.42594468
 21
-36.90739431
 31
0.0
  0
LINE
  5
71
100
AcDbEntity
  8
SLD-0
  6
CONTINUOUS
 62
       7
100
AcDbLine
 10
-59.58039699
 20
-38.05739495
 30
0.0
 11
-59.03309736
 21
-38.05739495
 31
0.0
  0
LINE
  5
72
100
AcDbEntity
  8
SLD-0
  6
CONTINUOUS
 62
       7
100
AcDbLine
 10
-59.03309736
 20
-36.9073959
 30
0.0
 11
-59.03309736
 21
-38.05739495
 31
0.0
  0
LINE
  5
73
100
AcDbEntity
  8
SLD-0
  6
CONTINUOUS
 62
       7
100
AcDbLine
 10
-59.58039898
 20
-36.9073959
 30
0.0
 11
-59.03309736
 21
-36.9073959
 31
0.0
  0
LINE
  5
74
100
AcDbEntity
  8
SLD-0
  6
CONTINUOUS
 62
       7
100
AcDbLine
 10
43.62880407
 20
-25.78239574
 30
0.0
 11
13.12880373
 21
-25.78239574
 31
0.0
  0
LINE
  5
75
100
AcDbEntity
  8
SLD-0
  6
CONTINUOUS
 62
       7
100
AcDbLine
 10
10.99482854
 20
-25.28239539
 30
0.0
 11
12.26277828
 21
-25.28239551
 31
0.0
  0
LINE
  5
76
100
AcDbEntity
  8
SLD-0
  6
CONTINUOUS
 62
       7
100
AcDbLine
 10
8.49483087
 20
-25.2823953
 30
0.0
 11
9.26277823
 21
-25.28239542
 31
0.0
  0
LINE
  5
77
100
AcDbEntity
  8
SLD-0
  6
CONTINUOUS
 62
       7
100
AcDbLine
 10
5.99482948
 20
-25.28239521
 30
0.0
 11
6.76277818
 21
-25.28239533
 31
0.0
  0
LINE
  5
78
100
AcDbEntity
  8
SLD-0
  6
CONTINUOUS
 62
       7
100
AcDbLine
 10
2.9948308
 20
-25.28239512
 30
0.0
 11
4.26277813
 21
-25.28239524
 31
0.0
  0
LINE
  5
79
100
AcDbEntity
  8
SLD-0
  6
CONTINUOUS
 62
       7
100
AcDbLine
 10
0.62880348
 20
-24.28239515
 30
0.0
 11
0.62880202
 21
-23.98239538
 31
0.0
  0
LINE
  5
7A
100
AcDbEntity
  8
SLD-0
  6
CONTINUOUS
 62
       7
100
AcDbLine
 10
0.82880168
 20
-23.98239538
 30
0.0
 11
0.62880202
 21
-23.98239538
 31
0.0
  0
LINE
  5
7B
100
AcDbEntity
  8
SLD-0
  6
CONTINUOUS
 62
       7
100
AcDbLine
 10
0.82880168
 20
-23.98239538
 30
0.0
 11
0.82880168
 21
-17.28239559
 31
0.0
  0
LINE
  5
7C
100
AcDbEntity
  8
SLD-0
  6
CONTINUOUS
 62
       7
100
AcDbLine
 10
0.82880168
 20
-17.28239559
 30
0.0
 11
0.62880202
 21
-17.28239559
 31
0.0
  0
LINE
  5
7D
100
AcDbEntity
  8
SLD-0
  6
CONTINUOUS
 62
       7
100
AcDbLine
 10
0.62880202
 20
-17.28239559
 30
0.0
 11
0.62880202
 21
-16.7823955
 31
0.0
  0
LINE
  5
7E
100
AcDbEntity
  8
SLD-0
  6
CONTINUOUS
 62
       7
100
AcDbLine
 10
0.82880168
 20
-16.7823955
 30
0.0
 11
0.62880202
 21
-16.7823955
 31
0.0
  0
LINE
  5
7F
100
AcDbEntity
  8
SLD-0
  6
CONTINUOUS
 62
       7
100
AcDbLine
 10
0.82880168
 20
-16.7823955
 30
0.0
 11
0.82880168
 21
9.91760477
 31
0.0
  0
LINE
  5
80
100
AcDbEntity
  8
SLD-0
  6
CONTINUOUS
 62
       7
100
AcDbLine
 10
0.82880168
 20
9.91760477
 30
0.0
 11
0.62880202
 21
9.91760477
 31
0.0
  0
LINE
  5
81
100
AcDbEntity
  8
SLD-0
  6
CONTINUOUS
 62
       7
100
AcDbLine
 10
0.62880202
 20
9.91760477
 30
0.0
 11
0.62880202
 21
17.71760456
 31
0.0
  0
LINE
  5
82
100
AcDbEntity
  8
SLD-0
  6
CONTINUOUS
 62
       7
100
AcDbLine
 10
4.26277727
 20
18.71760546
 30
0.0
 11
2.99482815
 21
18.71760558
 31
0.0
  0
LINE
  5
83
100
AcDbEntity
  8
SLD-0
  6
CONTINUOUS
 62
       7
100
AcDbLine
 10
6.76277866
 20
18.71760537
 30
0.0
 11
5.9948282
 21
18.71760549
 31
0.0
  0
LINE
  5
84
100
AcDbEntity
  8
SLD-0
  6
CONTINUOUS
 62
       7
100
AcDbLine
 10
9.26277633
 20
18.71760528
 30
0.0
 11
8.49482825
 21
18.7176054
 31
0.0
  0
LINE
  5
85
100
AcDbEntity
  8
SLD-0
  6
CONTINUOUS
 62
       7
100
AcDbLine
 10
12.26277874
 20
18.71760519
 30
0.0
 11
10.99482831
 21
18.71760531
 31
0.0
  0
LINE
  5
86
100
AcDbEntity
  8
SLD-0
  6
CONTINUOUS
 62
       7
100
AcDbLine
 10
13.12880295
 20
19.21760522
 30
0.0
 11
43.62880295
 21
19.21760611
 31
0.0
  0
LINE
  5
87
100
AcDbEntity
  8
SLD-0
  6
CONTINUOUS
 62
       7
100
AcDbLine
 10
14.62880399
 20
21.15729516
 30
0.0
 11
14.62880399
 21
19.21760542
 31
0.0
  0
LINE
  5
88
100
AcDbEntity
  8
SLD-0
  6
CONTINUOUS
 62
       7
100
AcDbLine
 10
14.62880389
 20
-25.78239563
 30
0.0
 11
14.62880389
 21
-27.72208537
 31
0.0
  0
LINE
  5
89
100
AcDbEntity
  8
SLD-0
  6
CONTINUOUS
 62
       7
100
AcDbLine
 10
62.7288027
 20
-22.18239471
 30
0.0
 11
60.38130942
 21
-19.26870184
 31
0.0
  0
LINE
  5
8A
100
AcDbEntity
  8
SLD-0
  6
CONTINUOUS
 62
       7
100
AcDbLine
 10
62.7288027
 20
-23.88239555
 30
0.0
 11
62.7288027
 21
-22.18239471
 31
0.0
  0
LINE
  5
8B
100
AcDbEntity
  8
SLD-0
  6
CONTINUOUS
 62
       7
100
AcDbLine
 10
64.42880353
 20
-23.88239555
 30
0.0
 11
62.7288027
 21
-23.88239555
 31
0.0
  0
LINE
  5
8C
100
AcDbEntity
  8
SLD-0
  6
CONTINUOUS
 62
       7
100
AcDbLine
 10
64.42880353
 20
-43.88239697
 30
0.0
 11
59.52880441
 21
-43.88239697
 31
0.0
  0
LINE
  5
8D
100
AcDbEntity
  8
SLD-0
  6
CONTINUOUS
 62
       7
100
AcDbLine
 10
59.8288039
 20
-37.88239598
 30
0.0
 11
59.52880441
 21
-37.88239598
 31
0.0
  0
LINE
  5
8E
100
AcDbEntity
  8
SLD-0
  6
CONTINUOUS
 62
       7
100
AcDbLine
 10
59.8288039
 20
-37.88239598
 30
0.0
 11
59.8288039
 21
-29.08239603
 31
0.0
  0
LINE
  5
8F
100
AcDbEntity
  8
SLD-0
  6
CONTINUOUS
 62
       7
100
AcDbLine
 10
59.8288039
 20
-29.08239603
 30
0.0
 11
59.52880441
 21
-29.08239603
 31
0.0
  0
LINE
  5
90
100
AcDbEntity
  8
SLD-0
  6
CONTINUOUS
 62
       7
100
AcDbLine
 10
59.8288039
 20
-23.98239538
 30
0.0
 11
59.52880441
 21
-23.98239538
 31
0.0
  0
LINE
  5
91
100
AcDbEntity
  8
SLD-0
  6
CONTINUOUS
 62
       7
100
AcDbLine
 10
59.8288039
 20
-23.98239538
 30
0.0
 11
59.8288039
 21
-22.78239556
 31
0.0
  0
LINE
  5
92
100
AcDbEntity
  8
SLD-0
  6
CONTINUOUS
 62
       7
100
AcDbLine
 10
58.7288039
 20
-22.78239556
 30
0.0
 11
59.8288039
 21
-22.78239556
 31
0.0
  0
LINE
  5
93
100
AcDbEntity
  8
SLD-0
  6
CONTINUOUS
 62
       7
100
AcDbLine
 10
58.7288039
 20
-20.28239608
 30
0.0
 11
58.7288039
 21
-22.78239556
 31
0.0
  0
LINE
  5
94
100
AcDbEntity
  8
SLD-0
  6
CONTINUOUS
 62
       7
100
AcDbLine
 10
59.42880271
 20
-20.28239608
 30
0.0
 11
58.7288039
 21
-20.28239608
 31
0.0
  0
LINE
  5
95
100
AcDbEntity
  8
SLD-0
  6
CONTINUOUS
 62
       7
100
AcDbLine
 10
59.49385811
 20
-19.53881728
 30
0.0
 11
59.42880271
 21
-20.28239608
 31
0.0
  0
LINE
  5
96
100
AcDbEntity
  8
SLD-0
  6
CONTINUOUS
 62
       7
100
AcDbLine
 10
65.22880404
 20
-23.88239555
 30
0.0
 11
65.22880404
 21
-43.88239697
 31
0.0
  0
LINE
  5
97
100
AcDbEntity
  8
SLD-0
  6
CONTINUOUS
 62
       7
100
AcDbLine
 10
65.22880404
 20
-43.88239697
 30
0.0
 11
64.42880353
 21
-43.88239697
 31
0.0
  0
LINE
  5
98
100
AcDbEntity
  8
SLD-0
  6
CONTINUOUS
 62
       7
100
AcDbLine
 10
64.42880353
 20
-23.88239555
 30
0.0
 11
65.22880404
 21
-23.88239555
 31
0.0
  0
LINE
  5
99
100
AcDbEntity
  8
SLD-0
  6
CONTINUOUS
 62
       7
100
AcDbLine
 10
59.52880441
 20
-29.08239603
 30
0.0
 11
58.7288039
 21
-29.08239603
 31
0.0
  0
LINE
  5
9A
100
AcDbEntity
  8
SLD-0
  6
CONTINUOUS
 62
       7
100
AcDbLine
 10
58.7288039
 20
-29.08239603
 30
0.0
 11
58.7288039
 21
-23.98239538
 31
0.0
  0
LINE
  5
9B
100
AcDbEntity
  8
SLD-0
  6
CONTINUOUS
 62
       7
100
AcDbLine
 10
58.7288039
 20
-23.98239538
 30
0.0
 11
59.52880441
 21
-23.98239538
 31
0.0
  0
LINE
  5
9C
100
AcDbEntity
  8
SLD-0
  6
CONTINUOUS
 62
       7
100
AcDbLine
 10
59.52880441
 20
-43.88239697
 30
0.0
 11
58.7288039
 21
-43.88239697
 31
0.0
  0
LINE
  5
9D
100
AcDbEntity
  8
SLD-0
  6
CONTINUOUS
 62
       7
100
AcDbLine
 10
58.7288039
 20
-43.88239697
 30
0.0
 11
58.7288039
 21
-37.88239598
 31
0.0
  0
LINE
  5
9E
100
AcDbEntity
  8
SLD-0
  6
CONTINUOUS
 62
       7
100
AcDbLine
 10
58.7288039
 20
-37.88239598
 30
0.0
 11
59.52880441
 21
-37.88239598
 31
0.0
  0
LINE
  5
9F
100
AcDbEntity
  8
SLD-0
  6
CONTINUOUS
 62
       7
100
AcDbLine
 10
64.42880353
 20
-43.88239697
 30
0.0
 11
64.42880353
 21
-49.38239694
 31
0.0
  0
LINE
  5
A0
100
AcDbEntity
  8
SLD-0
  6
CONTINUOUS
 62
       7
100
AcDbLine
 10
65.22880404
 20
-43.88239697
 30
0.0
 11
65.22880404
 21
-49.38239694
 31
0.0
  0
LINE
  5
A1
100
AcDbEntity
  8
SLD-0
  6
CONTINUOUS
 62
       7
100
AcDbLine
 10
65.22880404
 20
-51.38239354
 30
0.0
 11
64.42880353
 21
-51.38239354
 31
0.0
  0
LINE
  5
A2
100
AcDbEntity
  8
SLD-0
  6
CONTINUOUS
 62
       7
100
AcDbLine
 10
64.42880353
 20
-51.38239354
 30
0.0
 11
64.42880353
 21
-49.38239694
 31
0.0
  0
LINE
  5
A3
100
AcDbEntity
  8
SLD-0
  6
CONTINUOUS
 62
       7
100
AcDbLine
 10
65.22880404
 20
-49.38239694
 30
0.0
 11
65.22880404
 21
-51.38239354
 31
0.0
  0
LINE
  5
A4
100
AcDbEntity
  8
SLD-0
  6
CONTINUOUS
 62
       7
100
AcDbLine
 10
17.42880328
 20
34.71760362
 30
0.0
 11
17.42880328
 21
27.21760519
 31
0.0
  0
LINE
  5
A5
100
AcDbEntity
  8
SLD-0
  6
CONTINUOUS
 62
       7
100
AcDbLine
 10
15.62880261
 20
34.71760362
 30
0.0
 11
17.42880328
 21
34.71760362
 31
0.0
  0
LINE
  5
A6
100
AcDbEntity
  8
SLD-0
  6
CONTINUOUS
 62
       7
100
AcDbLine
 10
15.62880261
 20
34.71760362
 30
0.0
 11
15.62880261
 21
27.21760519
 31
0.0
  0
LINE
  5
A7
100
AcDbEntity
  8
SLD-0
  6
CONTINUOUS
 62
       7
100
AcDbLine
 10
15.62880261
 20
27.21760519
 30
0.0
 11
17.42880328
 21
27.21760519
 31
0.0
  0
LINE
  5
A8
100
AcDbEntity
  8
SLD-0
  6
CONTINUOUS
 62
       7
100
AcDbLine
 10
17.42880328
 20
-33.7823955
 30
0.0
 11
17.42880328
 21
-41.28239393
 31
0.0
  0
LINE
  5
A9
100
AcDbEntity
  8
SLD-0
  6
CONTINUOUS
 62
       7
100
AcDbLine
 10
15.62880261
 20
-33.7823955
 30
0.0
 11
17.42880328
 21
-33.7823955
 31
0.0
  0
LINE
  5
AA
100
AcDbEntity
  8
SLD-0
  6
CONTINUOUS
 62
       7
100
AcDbLine
 10
15.62880261
 20
-33.7823955
 30
0.0
 11
15.62880261
 21
-41.28239393
 31
0.0
  0
LINE
  5
AB
100
AcDbEntity
  8
SLD-0
  6
CONTINUOUS
 62
       7
100
AcDbLine
 10
15.62880261
 20
-41.28239393
 30
0.0
 11
17.42880328
 21
-41.28239393
 31
0.0
  0
LINE
  5
AC
100
AcDbEntity
  8
SLD-0
  6
CONTINUOUS
 62
       7
100
AcDbLine
 10
43.62880348
 20
-26.03239469
 30
0.0
 11
43.62880348
 21
19.46760438
 31
0.0
  0
LINE
  5
AD
100
AcDbEntity
  8
SLD-0
  6
CONTINUOUS
 62
       7
100
AcDbLine
 10
43.62880348
 20
19.46760438
 30
0.0
 11
16.1184585
 21
19.65733156
 31
0.0
  0
LINE
  5
AE
100
AcDbEntity
  8
SLD-0
  6
CONTINUOUS
 62
       7
100
AcDbLine
 10
14.62880399
 20
21.15729516
 30
0.0
 11
14.62880399
 21
35.71760533
 31
0.0
  0
LINE
  5
AF
100
AcDbEntity
  8
SLD-0
  6
CONTINUOUS
 62
       7
100
AcDbLine
 10
14.62880399
 20
35.71760533
 30
0.0
 11
15.15393022
 21
36.2427297
 31
0.0
  0
LINE
  5
B0
100
AcDbEntity
  8
SLD-0
  6
CONTINUOUS
 62
       7
100
AcDbLine
 10
15.15393022
 20
36.2427297
 30
0.0
 11
15.36606129
 21
36.0306005
 31
0.0
  0
LINE
  5
B1
100
AcDbEntity
  8
SLD-0
  6
CONTINUOUS
 62
       7
100
AcDbLine
 10
15.36606129
 20
36.0306005
 30
0.0
 11
20.31580981
 21
40.98034529
 31
0.0
  0
LINE
  5
B2
100
AcDbEntity
  8
SLD-0
  6
CONTINUOUS
 62
       7
100
AcDbLine
 10
20.31580981
 20
40.98034529
 30
0.0
 11
20.10367688
 21
41.19247822
 31
0.0
  0
LINE
  5
B3
100
AcDbEntity
  8
SLD-0
  6
CONTINUOUS
 62
       7
100
AcDbLine
 10
20.10367688
 20
41.19247822
 30
0.0
 11
20.62880311
 21
41.71760631
 31
0.0
  0
LINE
  5
B4
100
AcDbEntity
  8
SLD-0
  6
CONTINUOUS
 62
       7
100
AcDbLine
 10
20.62880311
 20
41.71760631
 30
0.0
 11
22.72880327
 21
41.71760631
 31
0.0
  0
LINE
  5
B5
100
AcDbEntity
  8
SLD-0
  6
CONTINUOUS
 62
       7
100
AcDbLine
 10
23.57267093
 20
40.81747932
 30
0.0
 11
22.72880327
 21
41.71760631
 31
0.0
  0
LINE
  5
B6
100
AcDbEntity
  8
SLD-0
  6
CONTINUOUS
 62
       7
100
AcDbLine
 10
23.57267093
 20
40.81747932
 30
0.0
 11
43.88493479
 21
40.81747932
 31
0.0
  0
LINE
  5
B7
100
AcDbEntity
  8
SLD-0
  6
CONTINUOUS
 62
       7
100
AcDbLine
 10
44.72880315
 20
41.71760631
 30
0.0
 11
43.88493479
 21
40.81747932
 31
0.0
  0
LINE
  5
B8
100
AcDbEntity
  8
SLD-0
  6
CONTINUOUS
 62
       7
100
AcDbLine
 10
44.72880315
 20
41.71760631
 30
0.0
 11
58.70255891
 21
41.71760631
 31
0.0
  0
LINE
  5
B9
100
AcDbEntity
  8
SLD-0
  6
CONTINUOUS
 62
       7
100
AcDbLine
 10
58.70255891
 20
41.71760631
 30
0.0
 11
62.90255923
 21
38.77673177
 31
0.0
  0
LINE
  5
BA
100
AcDbEntity
  8
SLD-0
  6
CONTINUOUS
 62
       7
100
AcDbLine
 10
62.90255923
 20
38.77673177
 30
0.0
 11
64.62880287
 21
24.71760539
 31
0.0
  0
LINE
  5
BB
100
AcDbEntity
  8
SLD-0
  6
CONTINUOUS
 62
       7
100
AcDbLine
 10
64.62880287
 20
24.71760539
 30
0.0
 11
64.62880287
 21
11.71760493
 31
0.0
  0
LINE
  5
BC
100
AcDbEntity
  8
SLD-0
  6
CONTINUOUS
 62
       7
100
AcDbLine
 10
64.62880287
 20
11.71760493
 30
0.0
 11
61.28764951
 21
11.71760493
 31
0.0
  0
LINE
  5
BD
100
AcDbEntity
  8
SLD-0
  6
CONTINUOUS
 62
       7
100
AcDbLine
 10
61.28764951
 20
11.71760493
 30
0.0
 11
59.72880365
 21
14.417605
 31
0.0
  0
LINE
  5
BE
100
AcDbEntity
  8
SLD-0
  6
CONTINUOUS
 62
       7
100
AcDbLine
 10
59.72880365
 20
14.417605
 30
0.0
 11
58.62880272
 21
14.417605
 31
0.0
  0
LINE
  5
BF
100
AcDbEntity
  8
SLD-0
  6
CONTINUOUS
 62
       7
100
AcDbLine
 10
58.62880272
 20
14.417605
 30
0.0
 11
58.62880272
 21
-48.28239653
 31
0.0
  0
LINE
  5
C0
100
AcDbEntity
  8
SLD-0
  6
CONTINUOUS
 62
       7
100
AcDbLine
 10
58.62880272
 20
-48.28239653
 30
0.0
 11
44.72880305
 21
-48.28239653
 31
0.0
  0
LINE
  5
C1
100
AcDbEntity
  8
SLD-0
  6
CONTINUOUS
 62
       7
100
AcDbLine
 10
43.88493469
 20
-47.38226953
 30
0.0
 11
44.72880305
 21
-48.28239653
 31
0.0
  0
LINE
  5
C2
100
AcDbEntity
  8
SLD-0
  6
CONTINUOUS
 62
       7
100
AcDbLine
 10
43.88493469
 20
-47.38226953
 30
0.0
 11
23.57267083
 21
-47.38226953
 31
0.0
  0
LINE
  5
C3
100
AcDbEntity
  8
SLD-0
  6
CONTINUOUS
 62
       7
100
AcDbLine
 10
22.72880317
 20
-48.28239653
 30
0.0
 11
23.57267083
 21
-47.38226953
 31
0.0
  0
LINE
  5
C4
100
AcDbEntity
  8
SLD-0
  6
CONTINUOUS
 62
       7
100
AcDbLine
 10
22.72880317
 20
-48.28239653
 30
0.0
 11
20.62880301
 21
-48.28239653
 31
0.0
  0
LINE
  5
C5
100
AcDbEntity
  8
SLD-0
  6
CONTINUOUS
 62
       7
100
AcDbLine
 10
20.62880301
 20
-48.28239653
 30
0.0
 11
20.10367678
 21
-47.75726843
 31
0.0
  0
LINE
  5
C6
100
AcDbEntity
  8
SLD-0
  6
CONTINUOUS
 62
       7
100
AcDbLine
 10
20.10367678
 20
-47.75726843
 30
0.0
 11
20.31580971
 21
-47.5451355
 31
0.0
  0
LINE
  5
C7
100
AcDbEntity
  8
SLD-0
  6
CONTINUOUS
 62
       7
100
AcDbLine
 10
20.31580971
 20
-47.5451355
 30
0.0
 11
15.36606119
 21
-42.59539071
 31
0.0
  0
LINE
  5
C8
100
AcDbEntity
  8
SLD-0
  6
CONTINUOUS
 62
       7
100
AcDbLine
 10
15.36606119
 20
-42.59539071
 30
0.0
 11
15.15393013
 21
-42.80751991
 31
0.0
  0
LINE
  5
C9
100
AcDbEntity
  8
SLD-0
  6
CONTINUOUS
 62
       7
100
AcDbLine
 10
15.15393013
 20
-42.80751991
 30
0.0
 11
14.62880389
 21
-42.28239554
 31
0.0
  0
LINE
  5
CA
100
AcDbEntity
  8
SLD-0
  6
CONTINUOUS
 62
       7
100
AcDbLine
 10
14.62880389
 20
-42.28239554
 30
0.0
 11
14.62880389
 21
-27.72208537
 31
0.0
  0
LINE
  5
CB
100
AcDbEntity
  8
SLD-0
  6
CONTINUOUS
 62
       7
100
AcDbLine
 10
16.1184589
 20
-26.22212167
 30
0.0
 11
43.62880348
 21
-26.03239469
 31
0.0
  0
LINE
  5
CC
100
AcDbEntity
  8
SLD-0
  6
CONTINUOUS
 62
       7
100
AcDbLine
 10
59.8288039
 20
-23.48239437
 30
0.0
 11
58.62880314
 21
-23.48239437
 31
0.0
  0
LINE
  5
CD
100
AcDbEntity
  8
SLD-0
  6
CONTINUOUS
 62
       7
100
AcDbLine
 10
58.62880314
 20
-20.98239489
 30
0.0
 11
58.7288039
 21
-20.98239489
 31
0.0
  0
LINE
  5
CE
100
AcDbEntity
  8
SLD-0
  6
CONTINUOUS
 62
       7
100
AcDbLine
 10
60.80918855
 20
-43.88239697
 30
0.0
 11
60.57880356
 21
-44.01540846
 31
0.0
  0
LINE
  5
CF
100
AcDbEntity
  8
SLD-0
  6
CONTINUOUS
 62
       7
100
AcDbLine
 10
63.62880261
 20
-43.88239655
 30
0.0
 11
63.62880261
 21
-44.78135753
 31
0.0
  0
LINE
  5
D0
100
AcDbEntity
  8
SLD-0
  6
CONTINUOUS
 62
       7
100
AcDbLine
 10
63.62880261
 20
-44.78135753
 30
0.0
 11
58.62880272
 21
-48.28239653
 31
0.0
  0
ARC
  5
D1
100
AcDbEntity
  8
SLD-0
  6
CONTINUOUS
 62
       7
100
AcDbCircle
 10
-57.62952273
 20
-49.38239606
 30
0.0
 40
1.9999999
100
AcDbArc
 50
270.0
 51
359.99994895
  0
ARC
  5
D2
100
AcDbEntity
  8
SLD-0
  6
CONTINUOUS
 62
       7
100
AcDbCircle
 10
-64.82952273
 20
-49.38239515
 30
0.0
 40
1.99999919
100
AcDbArc
 50
180.0
 51
270.00000177
  0
CIRCLE
  5
D3
100
AcDbEntity
  8
SLD-0
  6
CONTINUOUS
 62
       7
100
AcDbCircle
 10
-61.22952193
 20
30.96760778
 30
0.0
 40
3.75
  0
CIRCLE
  5
D4
100
AcDbEntity
  8
SLD-0
  6
CONTINUOUS
 62
       7
100
AcDbCircle
 10
-61.22952193
 20
-37.53239515
 30
0.0
 40
3.75
  0
ARC
  5
D5
100
AcDbEntity
  8
SLD-0
  6
CONTINUOUS
 62
       7
100
AcDbCircle
 10
13.12880407
 20
-25.28239529
 30
0.0
 40
0.50000045
100
AcDbArc
 50
210.0
 51
269.99996073
  0
ARC
  5
D6
100
AcDbEntity
  8
SLD-0
  6
CONTINUOUS
 62
       7
100
AcDbCircle
 10
12.26277828
 20
-25.78239551
 30
0.0
 40
0.5
100
AcDbArc
 50
30.0
 51
90.0
  0
ARC
  5
D7
100
AcDbEntity
  8
SLD-0
  6
CONTINUOUS
 62
       7
100
AcDbCircle
 10
10.99482909
 20
-25.78239545
 30
0.0
 40
0.50000006
100
AcDbArc
 50
90.00006325
 51
150.0
  0
ARC
  5
D8
100
AcDbEntity
  8
SLD-0
  6
CONTINUOUS
 62
       7
100
AcDbCircle
 10
10.12880363
 20
-25.28239542
 30
0.0
 40
0.5
100
AcDbArc
 50
270.0
 51
330.0
  0
ARC
  5
D9
100
AcDbEntity
  8
SLD-0
  6
CONTINUOUS
 62
       7
100
AcDbCircle
 10
10.12880363
 20
-25.28239542
 30
0.0
 40
0.5
100
AcDbArc
 50
210.0
 51
270.0
  0
ARC
  5
DA
100
AcDbEntity
  8
SLD-0
  6
CONTINUOUS
 62
       7
100
AcDbCircle
 10
9.26277823
 20
-25.78239542
 30
0.0
 40
0.5
100
AcDbArc
 50
30.0
 51
90.0
  0
ARC
  5
DB
100
AcDbEntity
  8
SLD-0
  6
CONTINUOUS
 62
       7
100
AcDbCircle
 10
8.49482904
 20
-25.78239536
 30
0.0
 40
0.50000006
100
AcDbArc
 50
89.99979005
 51
150.0
  0
ARC
  5
DC
100
AcDbEntity
  8
SLD-0
  6
CONTINUOUS
 62
       7
100
AcDbCircle
 10
7.62880358
 20
-25.28239533
 30
0.0
 40
0.5
100
AcDbArc
 50
270.0
 51
330.0
  0
ARC
  5
DD
100
AcDbEntity
  8
SLD-0
  6
CONTINUOUS
 62
       7
100
AcDbCircle
 10
7.62880358
 20
-25.28239533
 30
0.0
 40
0.5
100
AcDbArc
 50
210.0
 51
270.0
  0
ARC
  5
DE
100
AcDbEntity
  8
SLD-0
  6
CONTINUOUS
 62
       7
100
AcDbCircle
 10
6.76277818
 20
-25.78239533
 30
0.0
 40
0.5
100
AcDbArc
 50
30.0
 51
90.0
  0
ARC
  5
DF
100
AcDbEntity
  8
SLD-0
  6
CONTINUOUS
 62
       7
100
AcDbCircle
 10
5.99482898
 20
-25.78239527
 30
0.0
 40
0.50000006
100
AcDbArc
 50
89.99994372
 51
150.0
  0
ARC
  5
E0
100
AcDbEntity
  8
SLD-0
  6
CONTINUOUS
 62
       7
100
AcDbCircle
 10
5.12880353
 20
-25.28239524
 30
0.0
 40
0.5
100
AcDbArc
 50
270.0
 51
330.0
  0
ARC
  5
E1
100
AcDbEntity
  8
SLD-0
  6
CONTINUOUS
 62
       7
100
AcDbCircle
 10
5.12880353
 20
-25.28239524
 30
0.0
 40
0.5
100
AcDbArc
 50
210.0
 51
270.0
  0
ARC
  5
E2
100
AcDbEntity
  8
SLD-0
  6
CONTINUOUS
 62
       7
100
AcDbCircle
 10
4.26277813
 20
-25.78239524
 30
0.0
 40
0.5
100
AcDbArc
 50
30.0
 51
90.0
  0
ARC
  5
E3
100
AcDbEntity
  8
SLD-0
  6
CONTINUOUS
 62
       7
100
AcDbCircle
 10
2.99482893
 20
-25.78239518
 30
0.0
 40
0.50000006
100
AcDbArc
 50
89.99978663
 51
150.0
  0
ARC
  5
E4
100
AcDbEntity
  8
SLD-0
  6
CONTINUOUS
 62
       7
100
AcDbCircle
 10
2.12880348
 20
-25.28239515
 30
0.0
 40
0.5
100
AcDbArc
 50
270.0
 51
330.0
  0
ARC
  5
E5
100
AcDbEntity
  8
SLD-0
  6
CONTINUOUS
 62
       7
100
AcDbCircle
 10
2.12880348
 20
-24.28239515
 30
0.0
 40
1.5
100
AcDbArc
 50
180.0
 51
270.0
  0
ARC
  5
E6
100
AcDbEntity
  8
SLD-0
  6
CONTINUOUS
 62
       7
100
AcDbCircle
 10
2.12880275
 20
17.71760485
 30
0.0
 40
1.50000073
100
AcDbArc
 50
90.0
 51
180.00001081
  0
ARC
  5
E7
100
AcDbEntity
  8
SLD-0
  6
CONTINUOUS
 62
       7
100
AcDbCircle
 10
2.12880275
 20
18.71760558
 30
0.0
 40
0.5
100
AcDbArc
 50
30.0
 51
90.0
  0
ARC
  5
E8
100
AcDbEntity
  8
SLD-0
  6
CONTINUOUS
 62
       7
100
AcDbCircle
 10
2.99482815
 20
19.21760558
 30
0.0
 40
0.5
100
AcDbArc
 50
210.0
 51
270.0
  0
ARC
  5
E9
100
AcDbEntity
  8
SLD-0
  6
CONTINUOUS
 62
       7
100
AcDbCircle
 10
4.26277734
 20
19.21760552
 30
0.0
 40
0.50000006
100
AcDbArc
 50
269.99999154
 51
330.0
  0
ARC
  5
EA
100
AcDbEntity
  8
SLD-0
  6
CONTINUOUS
 62
       7
100
AcDbCircle
 10
5.1288028
 20
18.71760549
 30
0.0
 40
0.5
100
AcDbArc
 50
90.0
 51
150.00000001
  0
ARC
  5
EB
100
AcDbEntity
  8
SLD-0
  6
CONTINUOUS
 62
       7
100
AcDbCircle
 10
5.1288028
 20
18.71760549
 30
0.0
 40
0.5
100
AcDbArc
 50
30.0
 51
90.0
  0
ARC
  5
EC
100
AcDbEntity
  8
SLD-0
  6
CONTINUOUS
 62
       7
100
AcDbCircle
 10
5.9948282
 20
19.21760549
 30
0.0
 40
0.5
100
AcDbArc
 50
210.0
 51
270.0
  0
ARC
  5
ED
100
AcDbEntity
  8
SLD-0
  6
CONTINUOUS
 62
       7
100
AcDbCircle
 10
6.7627774
 20
19.21760543
 30
0.0
 40
0.50000006
100
AcDbArc
 50
270.00014522
 51
330.0
  0
ARC
  5
EE
100
AcDbEntity
  8
SLD-0
  6
CONTINUOUS
 62
       7
100
AcDbCircle
 10
7.62880285
 20
18.7176054
 30
0.0
 40
0.5
100
AcDbArc
 50
90.0
 51
150.0
  0
ARC
  5
EF
100
AcDbEntity
  8
SLD-0
  6
CONTINUOUS
 62
       7
100
AcDbCircle
 10
7.62880285
 20
18.7176054
 30
0.0
 40
0.5
100
AcDbArc
 50
30.0
 51
90.0
  0
ARC
  5
F0
100
AcDbEntity
  8
SLD-0
  6
CONTINUOUS
 62
       7
100
AcDbCircle
 10
8.49482825
 20
19.2176054
 30
0.0
 40
0.5
100
AcDbArc
 50
210.0
 51
270.0
  0
ARC
  5
F1
100
AcDbEntity
  8
SLD-0
  6
CONTINUOUS
 62
       7
100
AcDbCircle
 10
9.26277745
 20
19.21760534
 30
0.0
 40
0.50000006
100
AcDbArc
 50
269.99987201
 51
330.0
  0
ARC
  5
F2
100
AcDbEntity
  8
SLD-0
  6
CONTINUOUS
 62
       7
100
AcDbCircle
 10
10.1288029
 20
18.71760531
 30
0.0
 40
0.5
100
AcDbArc
 50
90.0
 51
150.0
  0
ARC
  5
F3
100
AcDbEntity
  8
SLD-0
  6
CONTINUOUS
 62
       7
100
AcDbCircle
 10
10.1288029
 20
18.71760531
 30
0.0
 40
0.5
100
AcDbArc
 50
30.0
 51
90.0
  0
ARC
  5
F4
100
AcDbEntity
  8
SLD-0
  6
CONTINUOUS
 62
       7
100
AcDbCircle
 10
10.99482831
 20
19.21760531
 30
0.0
 40
0.5
100
AcDbArc
 50
210.0
 51
270.0
  0
ARC
  5
F5
100
AcDbEntity
  8
SLD-0
  6
CONTINUOUS
 62
       7
100
AcDbCircle
 10
12.2627775
 20
19.21760525
 30
0.0
 40
0.50000006
100
AcDbArc
 50
270.00014181
 51
330.0
  0
ARC
  5
F6
100
AcDbEntity
  8
SLD-0
  6
CONTINUOUS
 62
       7
100
AcDbCircle
 10
13.12880295
 20
18.71760522
 30
0.0
 40
0.5
100
AcDbArc
 50
90.0
 51
150.0
  0
ARC
  5
F7
100
AcDbEntity
  8
SLD-0
  6
CONTINUOUS
 62
       7
100
AcDbCircle
 10
59.99195546
 20
-19.58239515
 30
0.0
 40
0.5
100
AcDbArc
 50
38.85757455
 51
175.0
  0
ARC
  5
F8
100
AcDbEntity
  8
SLD-0
  6
CONTINUOUS
 62
       7
100
AcDbCircle
 10
16.12880348
 20
21.15729537
 30
0.0
 40
1.49999949
100
AcDbArc
 50
180.00000799
 51
269.60484761
  0
ARC
  5
F9
100
AcDbEntity
  8
SLD-0
  6
CONTINUOUS
 62
       7
100
AcDbCircle
 10
16.12880347
 20
-27.72208558
 30
0.0
 40
1.49999958
100
AcDbArc
 50
90.39513704
 51
179.99999201
  0
ARC
  5
FA
100
AcDbEntity
  8
SLD-0
  6
CONTINUOUS
 62
       7
100
AcDbCircle
 10
60.32880362
 20
-43.5823954
 30
0.0
 40
0.50000028
100
AcDbArc
 50
216.86989765
 51
299.99997331
  0
LINE
  5
FB
100
AcDbEntity
  8
SLD-0
  6
CONTINUOUS
 62
       7
100
AcDbLine
 10
-60.6295221
 20
27.85877681
 30
0.0
 11
-60.6295221
 21
27.83232004
 31
0.0
  0
LINE
  5
FC
100
AcDbEntity
  8
SLD-0
  6
CONTINUOUS
 62
       7
100
AcDbLine
 10
-60.6295221
 20
27.83232004
 30
0.0
 11
-60.6295221
 21
27.80589054
 31
0.0
  0
LINE
  5
FD
100
AcDbEntity
  8
SLD-0
  6
CONTINUOUS
 62
       7
100
AcDbLine
 10
-60.6295221
 20
27.80589054
 30
0.0
 11
-60.6295221
 21
27.77951559
 31
0.0
  0
LINE
  5
FE
100
AcDbEntity
  8
SLD-0
  6
CONTINUOUS
 62
       7
100
AcDbLine
 10
-60.6295221
 20
27.77951559
 30
0.0
 11
-60.6295221
 21
27.75322245
 31
0.0
  0
LINE
  5
FF
100
AcDbEntity
  8
SLD-0
  6
CONTINUOUS
 62
       7
100
AcDbLine
 10
-60.6295221
 20
27.75322245
 30
0.0
 11
-60.6295221
 21
27.7270384
 31
0.0
  0
LINE
  5
100
100
AcDbEntity
  8
SLD-0
  6
CONTINUOUS
 62
       7
100
AcDbLine
 10
-60.6295221
 20
27.7270384
 30
0.0
 11
-60.6295221
 21
27.70099071
 31
0.0
  0
LINE
  5
101
100
AcDbEntity
  8
SLD-0
  6
CONTINUOUS
 62
       7
100
AcDbLine
 10
-60.6295221
 20
27.70099071
 30
0.0
 11
-60.6295221
 21
27.67510665
 31
0.0
  0
LINE
  5
102
100
AcDbEntity
  8
SLD-0
  6
CONTINUOUS
 62
       7
100
AcDbLine
 10
-60.6295221
 20
27.67510665
 30
0.0
 11
-60.6295221
 21
27.64941349
 31
0.0
  0
LINE
  5
103
100
AcDbEntity
  8
SLD-0
  6
CONTINUOUS
 62
       7
100
AcDbLine
 10
-60.6295221
 20
27.64941349
 30
0.0
 11
-60.6295221
 21
27.62393851
 31
0.0
  0
LINE
  5
104
100
AcDbEntity
  8
SLD-0
  6
CONTINUOUS
 62
       7
100
AcDbLine
 10
-60.6295221
 20
27.62393851
 30
0.0
 11
-60.6295221
 21
27.59870898
 31
0.0
  0
LINE
  5
105
100
AcDbEntity
  8
SLD-0
  6
CONTINUOUS
 62
       7
100
AcDbLine
 10
-60.6295221
 20
27.59870898
 30
0.0
 11
-60.6295221
 21
27.57375216
 31
0.0
  0
LINE
  5
106
100
AcDbEntity
  8
SLD-0
  6
CONTINUOUS
 62
       7
100
AcDbLine
 10
-60.6295221
 20
27.57375216
 30
0.0
 11
-60.6295221
 21
27.54909534
 31
0.0
  0
LINE
  5
107
100
AcDbEntity
  8
SLD-0
  6
CONTINUOUS
 62
       7
100
AcDbLine
 10
-60.6295221
 20
27.54909534
 30
0.0
 11
-60.6295221
 21
27.52476578
 31
0.0
  0
LINE
  5
108
100
AcDbEntity
  8
SLD-0
  6
CONTINUOUS
 62
       7
100
AcDbLine
 10
-60.6295221
 20
27.52476578
 30
0.0
 11
-60.6295221
 21
27.50079075
 31
0.0
  0
LINE
  5
109
100
AcDbEntity
  8
SLD-0
  6
CONTINUOUS
 62
       7
100
AcDbLine
 10
-60.6295221
 20
27.50079075
 30
0.0
 11
-60.6295221
 21
27.47719753
 31
0.0
  0
LINE
  5
10A
100
AcDbEntity
  8
SLD-0
  6
CONTINUOUS
 62
       7
100
AcDbLine
 10
-60.6295221
 20
27.47719753
 30
0.0
 11
-60.6295221
 21
27.45401339
 31
0.0
  0
LINE
  5
10B
100
AcDbEntity
  8
SLD-0
  6
CONTINUOUS
 62
       7
100
AcDbLine
 10
-60.6295221
 20
27.45401339
 30
0.0
 11
-60.6295221
 21
27.4312656
 31
0.0
  0
LINE
  5
10C
100
AcDbEntity
  8
SLD-0
  6
CONTINUOUS
 62
       7
100
AcDbLine
 10
-60.6295221
 20
27.4312656
 30
0.0
 11
-60.6295221
 21
27.40898144
 31
0.0
  0
LINE
  5
10D
100
AcDbEntity
  8
SLD-0
  6
CONTINUOUS
 62
       7
100
AcDbLine
 10
-60.6295221
 20
27.40898144
 30
0.0
 11
-60.6295221
 21
27.38718816
 31
0.0
  0
LINE
  5
10E
100
AcDbEntity
  8
SLD-0
  6
CONTINUOUS
 62
       7
100
AcDbLine
 10
-60.6295221
 20
27.38718816
 30
0.0
 11
-60.6295221
 21
27.36591306
 31
0.0
  0
LINE
  5
10F
100
AcDbEntity
  8
SLD-0
  6
CONTINUOUS
 62
       7
100
AcDbLine
 10
-60.6295221
 20
27.36591306
 30
0.0
 11
-60.6295221
 21
27.34518339
 31
0.0
  0
LINE
  5
110
100
AcDbEntity
  8
SLD-0
  6
CONTINUOUS
 62
       7
100
AcDbLine
 10
-60.6295221
 20
27.34518339
 30
0.0
 11
-60.6295221
 21
27.32501403
 31
0.0
  0
LINE
  5
111
100
AcDbEntity
  8
SLD-0
  6
CONTINUOUS
 62
       7
100
AcDbLine
 10
-60.6295221
 20
27.32501403
 30
0.0
 11
-60.6295221
 21
27.30530898
 31
0.0
  0
LINE
  5
112
100
AcDbEntity
  8
SLD-0
  6
CONTINUOUS
 62
       7
100
AcDbLine
 10
-60.6295221
 20
27.30530898
 30
0.0
 11
-60.6295221
 21
27.28591381
 31
0.0
  0
LINE
  5
113
100
AcDbEntity
  8
SLD-0
  6
CONTINUOUS
 62
       7
100
AcDbLine
 10
-60.6295221
 20
27.28591381
 30
0.0
 11
-60.6295221
 21
27.26667358
 31
0.0
  0
LINE
  5
114
100
AcDbEntity
  8
SLD-0
  6
CONTINUOUS
 62
       7
100
AcDbLine
 10
-61.82952193
 20
33.97644136
 30
0.0
 11
-61.82952193
 21
34.0076275
 31
0.0
  0
LINE
  5
115
100
AcDbEntity
  8
SLD-0
  6
CONTINUOUS
 62
       7
100
AcDbLine
 10
-61.82952193
 20
34.0076275
 30
0.0
 11
-61.82952193
 21
34.03877477
 31
0.0
  0
LINE
  5
116
100
AcDbEntity
  8
SLD-0
  6
CONTINUOUS
 62
       7
100
AcDbLine
 10
-61.82952193
 20
34.03877477
 30
0.0
 11
-61.82952193
 21
34.0698443
 31
0.0
  0
LINE
  5
117
100
AcDbEntity
  8
SLD-0
  6
CONTINUOUS
 62
       7
100
AcDbLine
 10
-61.82952193
 20
34.0698443
 30
0.0
 11
-61.82952193
 21
34.10079723
 31
0.0
  0
LINE
  5
118
100
AcDbEntity
  8
SLD-0
  6
CONTINUOUS
 62
       7
100
AcDbLine
 10
-61.82952193
 20
34.10079723
 30
0.0
 11
-61.82952193
 21
34.13159467
 31
0.0
  0
LINE
  5
119
100
AcDbEntity
  8
SLD-0
  6
CONTINUOUS
 62
       7
100
AcDbLine
 10
-61.82952193
 20
34.13159467
 30
0.0
 11
-61.82952193
 21
34.16219777
 31
0.0
  0
LINE
  5
11A
100
AcDbEntity
  8
SLD-0
  6
CONTINUOUS
 62
       7
100
AcDbLine
 10
-61.82952193
 20
34.16219777
 30
0.0
 11
-61.82952193
 21
34.19256765
 31
0.0
  0
LINE
  5
11B
100
AcDbEntity
  8
SLD-0
  6
CONTINUOUS
 62
       7
100
AcDbLine
 10
-61.82952193
 20
34.19256765
 30
0.0
 11
-61.82952193
 21
34.22266544
 31
0.0
  0
LINE
  5
11C
100
AcDbEntity
  8
SLD-0
  6
CONTINUOUS
 62
       7
100
AcDbLine
 10
-61.82952193
 20
34.22266544
 30
0.0
 11
-61.82952193
 21
34.25245228
 31
0.0
  0
LINE
  5
11D
100
AcDbEntity
  8
SLD-0
  6
CONTINUOUS
 62
       7
100
AcDbLine
 10
-61.82952193
 20
34.25245228
 30
0.0
 11
-61.82952193
 21
34.28188929
 31
0.0
  0
LINE
  5
11E
100
AcDbEntity
  8
SLD-0
  6
CONTINUOUS
 62
       7
100
AcDbLine
 10
-61.82952193
 20
34.28188929
 30
0.0
 11
-61.82952193
 21
34.3109376
 31
0.0
  0
LINE
  5
11F
100
AcDbEntity
  8
SLD-0
  6
CONTINUOUS
 62
       7
100
AcDbLine
 10
-61.82952193
 20
34.3109376
 30
0.0
 11
-61.82952193
 21
34.33955835
 31
0.0
  0
LINE
  5
120
100
AcDbEntity
  8
SLD-0
  6
CONTINUOUS
 62
       7
100
AcDbLine
 10
-61.82952193
 20
34.33955835
 30
0.0
 11
-61.82952193
 21
34.36771266
 31
0.0
  0
LINE
  5
121
100
AcDbEntity
  8
SLD-0
  6
CONTINUOUS
 62
       7
100
AcDbLine
 10
-61.82952193
 20
34.36771266
 30
0.0
 11
-61.82952193
 21
34.39536167
 31
0.0
  0
LINE
  5
122
100
AcDbEntity
  8
SLD-0
  6
CONTINUOUS
 62
       7
100
AcDbLine
 10
-61.82952193
 20
34.39536167
 30
0.0
 11
-61.82952193
 21
34.4224665
 31
0.0
  0
LINE
  5
123
100
AcDbEntity
  8
SLD-0
  6
CONTINUOUS
 62
       7
100
AcDbLine
 10
-61.82952193
 20
34.4224665
 30
0.0
 11
-61.82952193
 21
34.44898829
 31
0.0
  0
LINE
  5
124
100
AcDbEntity
  8
SLD-0
  6
CONTINUOUS
 62
       7
100
AcDbLine
 10
-61.82952193
 20
34.44898829
 30
0.0
 11
-61.82952193
 21
34.47488817
 31
0.0
  0
LINE
  5
125
100
AcDbEntity
  8
SLD-0
  6
CONTINUOUS
 62
       7
100
AcDbLine
 10
-61.82952193
 20
34.47488817
 30
0.0
 11
-61.82952193
 21
34.50012743
 31
0.0
  0
LINE
  5
126
100
AcDbEntity
  8
SLD-0
  6
CONTINUOUS
 62
       7
100
AcDbLine
 10
-61.82952193
 20
34.50012743
 30
0.0
 11
-61.82952193
 21
34.52470498
 31
0.0
  0
LINE
  5
127
100
AcDbEntity
  8
SLD-0
  6
CONTINUOUS
 62
       7
100
AcDbLine
 10
-61.82952193
 20
34.52470498
 30
0.0
 11
-61.82952193
 21
34.54870524
 31
0.0
  0
LINE
  5
128
100
AcDbEntity
  8
SLD-0
  6
CONTINUOUS
 62
       7
100
AcDbLine
 10
-61.82952193
 20
34.54870524
 30
0.0
 11
-61.82952193
 21
34.57222443
 31
0.0
  0
LINE
  5
129
100
AcDbEntity
  8
SLD-0
  6
CONTINUOUS
 62
       7
100
AcDbLine
 10
-61.82952193
 20
34.57222443
 30
0.0
 11
-61.82952193
 21
34.59535875
 31
0.0
  0
LINE
  5
12A
100
AcDbEntity
  8
SLD-0
  6
CONTINUOUS
 62
       7
100
AcDbLine
 10
-61.82952193
 20
34.59535875
 30
0.0
 11
-61.82952193
 21
34.61820442
 31
0.0
  0
LINE
  5
12B
100
AcDbEntity
  8
SLD-0
  6
CONTINUOUS
 62
       7
100
AcDbLine
 10
-61.82952193
 20
34.61820442
 30
0.0
 11
-61.82952193
 21
34.64085766
 31
0.0
  0
LINE
  5
12C
100
AcDbEntity
  8
SLD-0
  6
CONTINUOUS
 62
       7
100
AcDbLine
 10
-61.82952193
 20
34.64085766
 30
0.0
 11
-61.82952193
 21
34.66341469
 31
0.0
  0
LINE
  5
12D
100
AcDbEntity
  8
SLD-0
  6
CONTINUOUS
 62
       7
100
AcDbLine
 10
-61.82952193
 20
27.28381577
 30
0.0
 11
-61.82952193
 21
27.30357166
 31
0.0
  0
LINE
  5
12E
100
AcDbEntity
  8
SLD-0
  6
CONTINUOUS
 62
       7
100
AcDbLine
 10
-61.82952193
 20
27.30357166
 30
0.0
 11
-61.82952193
 21
27.32338506
 31
0.0
  0
LINE
  5
12F
100
AcDbEntity
  8
SLD-0
  6
CONTINUOUS
 62
       7
100
AcDbLine
 10
-61.82952193
 20
27.32338506
 30
0.0
 11
-61.82952193
 21
27.3433135
 31
0.0
  0
LINE
  5
130
100
AcDbEntity
  8
SLD-0
  6
CONTINUOUS
 62
       7
100
AcDbLine
 10
-61.82952193
 20
27.3433135
 30
0.0
 11
-61.82952193
 21
27.36341451
 31
0.0
  0
LINE
  5
131
100
AcDbEntity
  8
SLD-0
  6
CONTINUOUS
 62
       7
100
AcDbLine
 10
-61.82952193
 20
27.36341451
 30
0.0
 11
-61.82952193
 21
27.3837456
 31
0.0
  0
LINE
  5
132
100
AcDbEntity
  8
SLD-0
  6
CONTINUOUS
 62
       7
100
AcDbLine
 10
-61.82952193
 20
27.3837456
 30
0.0
 11
-61.82952193
 21
27.40436429
 31
0.0
  0
LINE
  5
133
100
AcDbEntity
  8
SLD-0
  6
CONTINUOUS
 62
       7
100
AcDbLine
 10
-61.82952193
 20
27.40436429
 30
0.0
 11
-61.82952193
 21
27.4253281
 31
0.0
  0
LINE
  5
134
100
AcDbEntity
  8
SLD-0
  6
CONTINUOUS
 62
       7
100
AcDbLine
 10
-61.82952193
 20
27.4253281
 30
0.0
 11
-61.82952193
 21
27.44669456
 31
0.0
  0
LINE
  5
135
100
AcDbEntity
  8
SLD-0
  6
CONTINUOUS
 62
       7
100
AcDbLine
 10
-61.82952193
 20
27.44669456
 30
0.0
 11
-61.82952193
 21
27.46851067
 31
0.0
  0
LINE
  5
136
100
AcDbEntity
  8
SLD-0
  6
CONTINUOUS
 62
       7
100
AcDbLine
 10
-61.82952193
 20
27.46851067
 30
0.0
 11
-61.82952193
 21
27.49076749
 31
0.0
  0
LINE
  5
137
100
AcDbEntity
  8
SLD-0
  6
CONTINUOUS
 62
       7
100
AcDbLine
 10
-61.82952193
 20
27.49076749
 30
0.0
 11
-61.82952193
 21
27.51343748
 31
0.0
  0
LINE
  5
138
100
AcDbEntity
  8
SLD-0
  6
CONTINUOUS
 62
       7
100
AcDbLine
 10
-61.82952193
 20
27.51343748
 30
0.0
 11
-61.82952193
 21
27.5364931
 31
0.0
  0
LINE
  5
139
100
AcDbEntity
  8
SLD-0
  6
CONTINUOUS
 62
       7
100
AcDbLine
 10
-61.82952193
 20
27.5364931
 30
0.0
 11
-61.82952193
 21
27.5599068
 31
0.0
  0
LINE
  5
13A
100
AcDbEntity
  8
SLD-0
  6
CONTINUOUS
 62
       7
100
AcDbLine
 10
-61.82952193
 20
27.5599068
 30
0.0
 11
-61.82952193
 21
27.58365103
 31
0.0
  0
LINE
  5
13B
100
AcDbEntity
  8
SLD-0
  6
CONTINUOUS
 62
       7
100
AcDbLine
 10
-61.82952193
 20
27.58365103
 30
0.0
 11
-61.82952193
 21
27.60769826
 31
0.0
  0
LINE
  5
13C
100
AcDbEntity
  8
SLD-0
  6
CONTINUOUS
 62
       7
100
AcDbLine
 10
-61.82952193
 20
27.60769826
 30
0.0
 11
-61.82952193
 21
27.63202093
 31
0.0
  0
LINE
  5
13D
100
AcDbEntity
  8
SLD-0
  6
CONTINUOUS
 62
       7
100
AcDbLine
 10
-61.82952193
 20
27.63202093
 30
0.0
 11
-61.82952193
 21
27.6565915
 31
0.0
  0
LINE
  5
13E
100
AcDbEntity
  8
SLD-0
  6
CONTINUOUS
 62
       7
100
AcDbLine
 10
-61.82952193
 20
27.6565915
 30
0.0
 11
-61.82952193
 21
27.68138244
 31
0.0
  0
LINE
  5
13F
100
AcDbEntity
  8
SLD-0
  6
CONTINUOUS
 62
       7
100
AcDbLine
 10
-61.82952193
 20
27.68138244
 30
0.0
 11
-61.82952193
 21
27.70636618
 31
0.0
  0
LINE
  5
140
100
AcDbEntity
  8
SLD-0
  6
CONTINUOUS
 62
       7
100
AcDbLine
 10
-61.82952193
 20
27.70636618
 30
0.0
 11
-61.82952193
 21
27.73151519
 31
0.0
  0
LINE
  5
141
100
AcDbEntity
  8
SLD-0
  6
CONTINUOUS
 62
       7
100
AcDbLine
 10
-61.82952193
 20
27.73151519
 30
0.0
 11
-61.82952193
 21
27.75680193
 31
0.0
  0
LINE
  5
142
100
AcDbEntity
  8
SLD-0
  6
CONTINUOUS
 62
       7
100
AcDbLine
 10
-61.82952193
 20
27.75680193
 30
0.0
 11
-61.82952193
 21
27.78219885
 31
0.0
  0
LINE
  5
143
100
AcDbEntity
  8
SLD-0
  6
CONTINUOUS
 62
       7
100
AcDbLine
 10
-61.82952193
 20
27.78219885
 30
0.0
 11
-61.82952193
 21
27.80767839
 31
0.0
  0
LINE
  5
144
100
AcDbEntity
  8
SLD-0
  6
CONTINUOUS
 62
       7
100
AcDbLine
 10
-61.82952193
 20
27.80767839
 30
0.0
 11
-61.82952193
 21
27.83321303
 31
0.0
  0
LINE
  5
145
100
AcDbEntity
  8
SLD-0
  6
CONTINUOUS
 62
       7
100
AcDbLine
 10
-61.82952193
 20
27.83321303
 30
0.0
 11
-61.82952193
 21
27.85877522
 31
0.0
  0
LINE
  5
146
100
AcDbEntity
  8
SLD-0
  6
CONTINUOUS
 62
       7
100
AcDbLine
 10
-60.62952011
 20
34.65720816
 30
0.0
 11
-60.62952011
 21
34.63362413
 31
0.0
  0
LINE
  5
147
100
AcDbEntity
  8
SLD-0
  6
CONTINUOUS
 62
       7
100
AcDbLine
 10
-60.62952011
 20
34.63362413
 30
0.0
 11
-60.62952011
 21
34.60998898
 31
0.0
  0
LINE
  5
148
100
AcDbEntity
  8
SLD-0
  6
CONTINUOUS
 62
       7
100
AcDbLine
 10
-60.62952011
 20
34.60998898
 30
0.0
 11
-60.62952011
 21
34.58625161
 31
0.0
  0
LINE
  5
149
100
AcDbEntity
  8
SLD-0
  6
CONTINUOUS
 62
       7
100
AcDbLine
 10
-60.62952011
 20
34.58625161
 30
0.0
 11
-60.62952011
 21
34.56236091
 31
0.0
  0
LINE
  5
14A
100
AcDbEntity
  8
SLD-0
  6
CONTINUOUS
 62
       7
100
AcDbLine
 10
-60.62952011
 20
34.56236091
 30
0.0
 11
-60.62952011
 21
34.53826576
 31
0.0
  0
LINE
  5
14B
100
AcDbEntity
  8
SLD-0
  6
CONTINUOUS
 62
       7
100
AcDbLine
 10
-60.62952011
 20
34.53826576
 30
0.0
 11
-60.62952011
 21
34.51391505
 31
0.0
  0
LINE
  5
14C
100
AcDbEntity
  8
SLD-0
  6
CONTINUOUS
 62
       7
100
AcDbLine
 10
-60.62952011
 20
34.51391505
 30
0.0
 11
-60.62952011
 21
34.48925766
 31
0.0
  0
LINE
  5
14D
100
AcDbEntity
  8
SLD-0
  6
CONTINUOUS
 62
       7
100
AcDbLine
 10
-60.62952011
 20
34.48925766
 30
0.0
 11
-60.62952011
 21
34.4642425
 31
0.0
  0
LINE
  5
14E
100
AcDbEntity
  8
SLD-0
  6
CONTINUOUS
 62
       7
100
AcDbLine
 10
-60.62952011
 20
34.4642425
 30
0.0
 11
-60.62952011
 21
34.43881844
 31
0.0
  0
LINE
  5
14F
100
AcDbEntity
  8
SLD-0
  6
CONTINUOUS
 62
       7
100
AcDbLine
 10
-60.62952011
 20
34.43881844
 30
0.0
 11
-60.62952011
 21
34.41293436
 31
0.0
  0
LINE
  5
150
100
AcDbEntity
  8
SLD-0
  6
CONTINUOUS
 62
       7
100
AcDbLine
 10
-60.62952011
 20
34.41293436
 30
0.0
 11
-60.62952011
 21
34.38653917
 31
0.0
  0
LINE
  5
151
100
AcDbEntity
  8
SLD-0
  6
CONTINUOUS
 62
       7
100
AcDbLine
 10
-60.62952011
 20
34.38653917
 30
0.0
 11
-60.62952011
 21
34.35959684
 31
0.0
  0
LINE
  5
152
100
AcDbEntity
  8
SLD-0
  6
CONTINUOUS
 62
       7
100
AcDbLine
 10
-60.62952011
 20
34.35959684
 30
0.0
 11
-60.62952011
 21
34.3321322
 31
0.0
  0
LINE
  5
153
100
AcDbEntity
  8
SLD-0
  6
CONTINUOUS
 62
       7
100
AcDbLine
 10
-60.62952011
 20
34.3321322
 30
0.0
 11
-60.62952011
 21
34.30418543
 31
0.0
  0
LINE
  5
154
100
AcDbEntity
  8
SLD-0
  6
CONTINUOUS
 62
       7
100
AcDbLine
 10
-60.62952011
 20
34.30418543
 30
0.0
 11
-60.62952011
 21
34.27579671
 31
0.0
  0
LINE
  5
155
100
AcDbEntity
  8
SLD-0
  6
CONTINUOUS
 62
       7
100
AcDbLine
 10
-60.62952011
 20
34.27579671
 30
0.0
 11
-60.62952011
 21
34.24700621
 31
0.0
  0
LINE
  5
156
100
AcDbEntity
  8
SLD-0
  6
CONTINUOUS
 62
       7
100
AcDbLine
 10
-60.62952011
 20
34.24700621
 30
0.0
 11
-60.62952011
 21
34.21785412
 31
0.0
  0
LINE
  5
157
100
AcDbEntity
  8
SLD-0
  6
CONTINUOUS
 62
       7
100
AcDbLine
 10
-60.62952011
 20
34.21785412
 30
0.0
 11
-60.62952011
 21
34.1883806
 31
0.0
  0
LINE
  5
158
100
AcDbEntity
  8
SLD-0
  6
CONTINUOUS
 62
       7
100
AcDbLine
 10
-60.62952011
 20
34.1883806
 30
0.0
 11
-60.62952011
 21
34.15862585
 31
0.0
  0
LINE
  5
159
100
AcDbEntity
  8
SLD-0
  6
CONTINUOUS
 62
       7
100
AcDbLine
 10
-60.62952011
 20
34.15862585
 30
0.0
 11
-60.62952011
 21
34.12863003
 31
0.0
  0
LINE
  5
15A
100
AcDbEntity
  8
SLD-0
  6
CONTINUOUS
 62
       7
100
AcDbLine
 10
-60.62952011
 20
34.12863003
 30
0.0
 11
-60.62952011
 21
34.09843332
 31
0.0
  0
LINE
  5
15B
100
AcDbEntity
  8
SLD-0
  6
CONTINUOUS
 62
       7
100
AcDbLine
 10
-60.62952011
 20
34.09843332
 30
0.0
 11
-60.62952011
 21
34.0680759
 31
0.0
  0
LINE
  5
15C
100
AcDbEntity
  8
SLD-0
  6
CONTINUOUS
 62
       7
100
AcDbLine
 10
-60.62952011
 20
34.0680759
 30
0.0
 11
-60.62952011
 21
34.03759795
 31
0.0
  0
LINE
  5
15D
100
AcDbEntity
  8
SLD-0
  6
CONTINUOUS
 62
       7
100
AcDbLine
 10
-60.62952011
 20
34.03759795
 30
0.0
 11
-60.62952011
 21
34.00703964
 31
0.0
  0
LINE
  5
15E
100
AcDbEntity
  8
SLD-0
  6
CONTINUOUS
 62
       7
100
AcDbLine
 10
-60.62952011
 20
34.00703964
 30
0.0
 11
-60.62952011
 21
33.97644116
 31
0.0
  0
LINE
  5
15F
100
AcDbEntity
  8
SLD-0
  6
CONTINUOUS
 62
       7
100
AcDbLine
 10
-60.6295221
 20
29.4378212
 30
0.0
 11
-60.6295221
 21
29.37368454
 31
0.0
  0
LINE
  5
160
100
AcDbEntity
  8
SLD-0
  6
CONTINUOUS
 62
       7
100
AcDbLine
 10
-60.6295221
 20
29.37368454
 30
0.0
 11
-60.6295221
 21
29.30955726
 31
0.0
  0
LINE
  5
161
100
AcDbEntity
  8
SLD-0
  6
CONTINUOUS
 62
       7
100
AcDbLine
 10
-60.6295221
 20
29.30955726
 30
0.0
 11
-60.6295221
 21
29.24544875
 31
0.0
  0
LINE
  5
162
100
AcDbEntity
  8
SLD-0
  6
CONTINUOUS
 62
       7
100
AcDbLine
 10
-60.6295221
 20
29.24544875
 30
0.0
 11
-60.6295221
 21
29.18136837
 31
0.0
  0
LINE
  5
163
100
AcDbEntity
  8
SLD-0
  6
CONTINUOUS
 62
       7
100
AcDbLine
 10
-60.6295221
 20
29.18136837
 30
0.0
 11
-60.6295221
 21
29.11732553
 31
0.0
  0
LINE
  5
164
100
AcDbEntity
  8
SLD-0
  6
CONTINUOUS
 62
       7
100
AcDbLine
 10
-60.6295221
 20
29.11732553
 30
0.0
 11
-60.6295221
 21
29.05332958
 31
0.0
  0
LINE
  5
165
100
AcDbEntity
  8
SLD-0
  6
CONTINUOUS
 62
       7
100
AcDbLine
 10
-60.6295221
 20
29.05332958
 30
0.0
 11
-60.6295221
 21
28.98938993
 31
0.0
  0
LINE
  5
166
100
AcDbEntity
  8
SLD-0
  6
CONTINUOUS
 62
       7
100
AcDbLine
 10
-60.6295221
 20
28.98938993
 30
0.0
 11
-60.6295221
 21
28.92551594
 31
0.0
  0
LINE
  5
167
100
AcDbEntity
  8
SLD-0
  6
CONTINUOUS
 62
       7
100
AcDbLine
 10
-60.6295221
 20
28.92551594
 30
0.0
 11
-60.6295221
 21
28.861717
 31
0.0
  0
LINE
  5
168
100
AcDbEntity
  8
SLD-0
  6
CONTINUOUS
 62
       7
100
AcDbLine
 10
-60.6295221
 20
28.861717
 30
0.0
 11
-60.6295221
 21
28.7980025
 31
0.0
  0
LINE
  5
169
100
AcDbEntity
  8
SLD-0
  6
CONTINUOUS
 62
       7
100
AcDbLine
 10
-60.6295221
 20
28.7980025
 30
0.0
 11
-60.6295221
 21
28.7343818
 31
0.0
  0
LINE
  5
16A
100
AcDbEntity
  8
SLD-0
  6
CONTINUOUS
 62
       7
100
AcDbLine
 10
-60.6295221
 20
28.7343818
 30
0.0
 11
-60.6295221
 21
28.6708643
 31
0.0
  0
LINE
  5
16B
100
AcDbEntity
  8
SLD-0
  6
CONTINUOUS
 62
       7
100
AcDbLine
 10
-60.6295221
 20
28.6708643
 30
0.0
 11
-60.6295221
 21
28.60745937
 31
0.0
  0
LINE
  5
16C
100
AcDbEntity
  8
SLD-0
  6
CONTINUOUS
 62
       7
100
AcDbLine
 10
-60.6295221
 20
28.60745937
 30
0.0
 11
-60.6295221
 21
28.5441764
 31
0.0
  0
LINE
  5
16D
100
AcDbEntity
  8
SLD-0
  6
CONTINUOUS
 62
       7
100
AcDbLine
 10
-60.6295221
 20
28.5441764
 30
0.0
 11
-60.6295221
 21
28.48102476
 31
0.0
  0
LINE
  5
16E
100
AcDbEntity
  8
SLD-0
  6
CONTINUOUS
 62
       7
100
AcDbLine
 10
-60.6295221
 20
28.48102476
 30
0.0
 11
-60.6295221
 21
28.41801384
 31
0.0
  0
LINE
  5
16F
100
AcDbEntity
  8
SLD-0
  6
CONTINUOUS
 62
       7
100
AcDbLine
 10
-60.6295221
 20
28.41801384
 30
0.0
 11
-60.6295221
 21
28.35515302
 31
0.0
  0
LINE
  5
170
100
AcDbEntity
  8
SLD-0
  6
CONTINUOUS
 62
       7
100
AcDbLine
 10
-60.6295221
 20
28.35515302
 30
0.0
 11
-60.6295221
 21
28.29245168
 31
0.0
  0
LINE
  5
171
100
AcDbEntity
  8
SLD-0
  6
CONTINUOUS
 62
       7
100
AcDbLine
 10
-60.6295221
 20
28.29245168
 30
0.0
 11
-60.6295221
 21
28.2299192
 31
0.0
  0
LINE
  5
172
100
AcDbEntity
  8
SLD-0
  6
CONTINUOUS
 62
       7
100
AcDbLine
 10
-60.6295221
 20
28.2299192
 30
0.0
 11
-60.6295221
 21
28.16756497
 31
0.0
  0
LINE
  5
173
100
AcDbEntity
  8
SLD-0
  6
CONTINUOUS
 62
       7
100
AcDbLine
 10
-60.6295221
 20
28.16756497
 30
0.0
 11
-60.6295221
 21
28.10539835
 31
0.0
  0
LINE
  5
174
100
AcDbEntity
  8
SLD-0
  6
CONTINUOUS
 62
       7
100
AcDbLine
 10
-60.6295221
 20
28.10539835
 30
0.0
 11
-60.6295221
 21
28.04342874
 31
0.0
  0
LINE
  5
175
100
AcDbEntity
  8
SLD-0
  6
CONTINUOUS
 62
       7
100
AcDbLine
 10
-60.6295221
 20
28.04342874
 30
0.0
 11
-60.6295221
 21
27.98166552
 31
0.0
  0
LINE
  5
176
100
AcDbEntity
  8
SLD-0
  6
CONTINUOUS
 62
       7
100
AcDbLine
 10
-60.6295221
 20
27.98166552
 30
0.0
 11
-60.6295221
 21
27.92011807
 31
0.0
  0
LINE
  5
177
100
AcDbEntity
  8
SLD-0
  6
CONTINUOUS
 62
       7
100
AcDbLine
 10
-60.6295221
 20
27.92011807
 30
0.0
 11
-60.6295221
 21
27.85877681
 31
0.0
  0
LINE
  5
178
100
AcDbEntity
  8
SLD-0
  6
CONTINUOUS
 62
       7
100
AcDbLine
 10
-59.58039898
 20
30.34260853
 30
0.0
 11
-59.61707108
 21
30.33697846
 31
0.0
  0
LINE
  5
179
100
AcDbEntity
  8
SLD-0
  6
CONTINUOUS
 62
       7
100
AcDbLine
 10
-59.61707108
 20
30.33697846
 30
0.0
 11
-59.65369622
 21
30.33118154
 31
0.0
  0
LINE
  5
17A
100
AcDbEntity
  8
SLD-0
  6
CONTINUOUS
 62
       7
100
AcDbLine
 10
-59.65369622
 20
30.33118154
 30
0.0
 11
-59.69022746
 21
30.32505089
 31
0.0
  0
LINE
  5
17B
100
AcDbEntity
  8
SLD-0
  6
CONTINUOUS
 62
       7
100
AcDbLine
 10
-59.69022746
 20
30.32505089
 30
0.0
 11
-59.72661783
 21
30.31841966
 31
0.0
  0
LINE
  5
17C
100
AcDbEntity
  8
SLD-0
  6
CONTINUOUS
 62
       7
100
AcDbLine
 10
-59.72661783
 20
30.31841966
 30
0.0
 11
-59.76282037
 21
30.31112099
 31
0.0
  0
LINE
  5
17D
100
AcDbEntity
  8
SLD-0
  6
CONTINUOUS
 62
       7
100
AcDbLine
 10
-59.76282037
 20
30.31112099
 30
0.0
 11
-59.79878815
 21
30.30298802
 31
0.0
  0
LINE
  5
17E
100
AcDbEntity
  8
SLD-0
  6
CONTINUOUS
 62
       7
100
AcDbLine
 10
-59.79878815
 20
30.30298802
 30
0.0
 11
-59.83447419
 21
30.29385388
 31
0.0
  0
LINE
  5
17F
100
AcDbEntity
  8
SLD-0
  6
CONTINUOUS
 62
       7
100
AcDbLine
 10
-59.83447419
 20
30.29385388
 30
0.0
 11
-59.86983154
 21
30.28355172
 31
0.0
  0
LINE
  5
180
100
AcDbEntity
  8
SLD-0
  6
CONTINUOUS
 62
       7
100
AcDbLine
 10
-59.86983154
 20
30.28355172
 30
0.0
 11
-59.9048136
 21
30.27192058
 31
0.0
  0
LINE
  5
181
100
AcDbEntity
  8
SLD-0
  6
CONTINUOUS
 62
       7
100
AcDbLine
 10
-59.9048136
 20
30.27192058
 30
0.0
 11
-59.93938019
 21
30.25891047
 31
0.0
  0
LINE
  5
182
100
AcDbEntity
  8
SLD-0
  6
CONTINUOUS
 62
       7
100
AcDbLine
 10
-59.93938019
 20
30.25891047
 30
0.0
 11
-59.9734969
 21
30.24457028
 31
0.0
  0
LINE
  5
183
100
AcDbEntity
  8
SLD-0
  6
CONTINUOUS
 62
       7
100
AcDbLine
 10
-59.9734969
 20
30.24457028
 30
0.0
 11
-60.00712952
 21
30.22895235
 31
0.0
  0
LINE
  5
184
100
AcDbEntity
  8
SLD-0
  6
CONTINUOUS
 62
       7
100
AcDbLine
 10
-60.00712952
 20
30.22895235
 30
0.0
 11
-60.04024381
 21
30.212109
 31
0.0
  0
LINE
  5
185
100
AcDbEntity
  8
SLD-0
  6
CONTINUOUS
 62
       7
100
AcDbLine
 10
-60.04024381
 20
30.212109
 30
0.0
 11
-60.07280557
 21
30.19409258
 31
0.0
  0
LINE
  5
186
100
AcDbEntity
  8
SLD-0
  6
CONTINUOUS
 62
       7
100
AcDbLine
 10
-60.07280557
 20
30.19409258
 30
0.0
 11
-60.10478057
 21
30.1749554
 31
0.0
  0
LINE
  5
187
100
AcDbEntity
  8
SLD-0
  6
CONTINUOUS
 62
       7
100
AcDbLine
 10
-60.10478057
 20
30.1749554
 30
0.0
 11
-60.1361346
 21
30.15474981
 31
0.0
  0
LINE
  5
188
100
AcDbEntity
  8
SLD-0
  6
CONTINUOUS
 62
       7
100
AcDbLine
 10
-60.1361346
 20
30.15474981
 30
0.0
 11
-60.16683344
 21
30.13352814
 31
0.0
  0
LINE
  5
189
100
AcDbEntity
  8
SLD-0
  6
CONTINUOUS
 62
       7
100
AcDbLine
 10
-60.16683344
 20
30.13352814
 30
0.0
 11
-60.19684287
 21
30.11134273
 31
0.0
  0
LINE
  5
18A
100
AcDbEntity
  8
SLD-0
  6
CONTINUOUS
 62
       7
100
AcDbLine
 10
-60.19684287
 20
30.11134273
 30
0.0
 11
-60.22612867
 21
30.0882459
 31
0.0
  0
LINE
  5
18B
100
AcDbEntity
  8
SLD-0
  6
CONTINUOUS
 62
       7
100
AcDbLine
 10
-60.22612867
 20
30.0882459
 30
0.0
 11
-60.25465835
 21
30.06428352
 31
0.0
  0
LINE
  5
18C
100
AcDbEntity
  8
SLD-0
  6
CONTINUOUS
 62
       7
100
AcDbLine
 10
-60.25465835
 20
30.06428352
 30
0.0
 11
-60.28240549
 21
30.03947871
 31
0.0
  0
LINE
  5
18D
100
AcDbEntity
  8
SLD-0
  6
CONTINUOUS
 62
       7
100
AcDbLine
 10
-60.28240549
 20
30.03947871
 30
0.0
 11
-60.30934496
 21
30.01384964
 31
0.0
  0
LINE
  5
18E
100
AcDbEntity
  8
SLD-0
  6
CONTINUOUS
 62
       7
100
AcDbLine
 10
-60.30934496
 20
30.01384964
 30
0.0
 11
-60.33545169
 21
29.98741445
 31
0.0
  0
LINE
  5
18F
100
AcDbEntity
  8
SLD-0
  6
CONTINUOUS
 62
       7
100
AcDbLine
 10
-60.33545169
 20
29.98741445
 30
0.0
 11
-60.36070055
 21
29.9601913
 31
0.0
  0
LINE
  5
190
100
AcDbEntity
  8
SLD-0
  6
CONTINUOUS
 62
       7
100
AcDbLine
 10
-60.36070055
 20
29.9601913
 30
0.0
 11
-60.38506644
 21
29.93219833
 31
0.0
  0
LINE
  5
191
100
AcDbEntity
  8
SLD-0
  6
CONTINUOUS
 62
       7
100
AcDbLine
 10
-60.38506644
 20
29.93219833
 30
0.0
 11
-60.40852427
 21
29.90345371
 31
0.0
  0
LINE
  5
192
100
AcDbEntity
  8
SLD-0
  6
CONTINUOUS
 62
       7
100
AcDbLine
 10
-60.40852427
 20
29.90345371
 30
0.0
 11
-60.43104894
 21
29.87397558
 31
0.0
  0
LINE
  5
193
100
AcDbEntity
  8
SLD-0
  6
CONTINUOUS
 62
       7
100
AcDbLine
 10
-60.43104894
 20
29.87397558
 30
0.0
 11
-60.45261533
 21
29.8437821
 31
0.0
  0
LINE
  5
194
100
AcDbEntity
  8
SLD-0
  6
CONTINUOUS
 62
       7
100
AcDbLine
 10
-60.45261533
 20
29.8437821
 30
0.0
 11
-60.47319834
 21
29.81289142
 31
0.0
  0
LINE
  5
195
100
AcDbEntity
  8
SLD-0
  6
CONTINUOUS
 62
       7
100
AcDbLine
 10
-60.47319834
 20
29.81289142
 30
0.0
 11
-60.49277316
 21
29.78132249
 31
0.0
  0
LINE
  5
196
100
AcDbEntity
  8
SLD-0
  6
CONTINUOUS
 62
       7
100
AcDbLine
 10
-60.49277316
 20
29.78132249
 30
0.0
 11
-60.51132019
 21
29.74910881
 31
0.0
  0
LINE
  5
197
100
AcDbEntity
  8
SLD-0
  6
CONTINUOUS
 62
       7
100
AcDbLine
 10
-60.51132019
 20
29.74910881
 30
0.0
 11
-60.52882434
 21
29.71629642
 31
0.0
  0
LINE
  5
198
100
AcDbEntity
  8
SLD-0
  6
CONTINUOUS
 62
       7
100
AcDbLine
 10
-60.52882434
 20
29.71629642
 30
0.0
 11
-60.54527066
 21
29.68293179
 31
0.0
  0
LINE
  5
199
100
AcDbEntity
  8
SLD-0
  6
CONTINUOUS
 62
       7
100
AcDbLine
 10
-60.54527066
 20
29.68293179
 30
0.0
 11
-60.56064422
 21
29.64906142
 31
0.0
  0
LINE
  5
19A
100
AcDbEntity
  8
SLD-0
  6
CONTINUOUS
 62
       7
100
AcDbLine
 10
-60.56064422
 20
29.64906142
 30
0.0
 11
-60.57493008
 21
29.61473177
 31
0.0
  0
LINE
  5
19B
100
AcDbEntity
  8
SLD-0
  6
CONTINUOUS
 62
       7
100
AcDbLine
 10
-60.57493008
 20
29.61473177
 30
0.0
 11
-60.5881133
 21
29.57998932
 31
0.0
  0
LINE
  5
19C
100
AcDbEntity
  8
SLD-0
  6
CONTINUOUS
 62
       7
100
AcDbLine
 10
-60.5881133
 20
29.57998932
 30
0.0
 11
-60.60017893
 21
29.54488054
 31
0.0
  0
LINE
  5
19D
100
AcDbEntity
  8
SLD-0
  6
CONTINUOUS
 62
       7
100
AcDbLine
 10
-60.60017893
 20
29.54488054
 30
0.0
 11
-60.61111204
 21
29.50945192
 31
0.0
  0
LINE
  5
19E
100
AcDbEntity
  8
SLD-0
  6
CONTINUOUS
 62
       7
100
AcDbLine
 10
-60.61111204
 20
29.50945192
 30
0.0
 11
-60.62089768
 21
29.47374992
 31
0.0
  0
LINE
  5
19F
100
AcDbEntity
  8
SLD-0
  6
CONTINUOUS
 62
       7
100
AcDbLine
 10
-60.62089768
 20
29.47374992
 30
0.0
 11
-60.6295221
 21
29.4378212
 31
0.0
  0
LINE
  5
1A0
100
AcDbEntity
  8
SLD-0
  6
CONTINUOUS
 62
       7
100
AcDbLine
 10
-60.62952011
 20
32.39739864
 30
0.0
 11
-60.62007173
 21
32.36165547
 31
0.0
  0
LINE
  5
1A1
100
AcDbEntity
  8
SLD-0
  6
CONTINUOUS
 62
       7
100
AcDbLine
 10
-60.62007173
 20
32.36165547
 30
0.0
 11
-60.61028278
 21
32.32601384
 31
0.0
  0
LINE
  5
1A2
100
AcDbEntity
  8
SLD-0
  6
CONTINUOUS
 62
       7
100
AcDbLine
 10
-60.61028278
 20
32.32601384
 30
0.0
 11
-60.59981269
 21
32.29057525
 31
0.0
  0
LINE
  5
1A3
100
AcDbEntity
  8
SLD-0
  6
CONTINUOUS
 62
       7
100
AcDbLine
 10
-60.59981269
 20
32.29057525
 30
0.0
 11
-60.58832119
 21
32.2554412
 31
0.0
  0
LINE
  5
1A4
100
AcDbEntity
  8
SLD-0
  6
CONTINUOUS
 62
       7
100
AcDbLine
 10
-60.58832119
 20
32.2554412
 30
0.0
 11
-60.57556762
 21
32.22069608
 31
0.0
  0
LINE
  5
1A5
100
AcDbEntity
  8
SLD-0
  6
CONTINUOUS
 62
       7
100
AcDbLine
 10
-60.57556762
 20
32.22069608
 30
0.0
 11
-60.56155469
 21
32.1863826
 31
0.0
  0
LINE
  5
1A6
100
AcDbEntity
  8
SLD-0
  6
CONTINUOUS
 62
       7
100
AcDbLine
 10
-60.56155469
 20
32.1863826
 30
0.0
 11
-60.54632162
 21
32.15253721
 31
0.0
  0
LINE
  5
1A7
100
AcDbEntity
  8
SLD-0
  6
CONTINUOUS
 62
       7
100
AcDbLine
 10
-60.54632162
 20
32.15253721
 30
0.0
 11
-60.52990761
 21
32.11919637
 31
0.0
  0
LINE
  5
1A8
100
AcDbEntity
  8
SLD-0
  6
CONTINUOUS
 62
       7
100
AcDbLine
 10
-60.52990761
 20
32.11919637
 30
0.0
 11
-60.51235188
 21
32.08639652
 31
0.0
  0
LINE
  5
1A9
100
AcDbEntity
  8
SLD-0
  6
CONTINUOUS
 62
       7
100
AcDbLine
 10
-60.51235188
 20
32.08639652
 30
0.0
 11
-60.49369362
 21
32.05417412
 31
0.0
  0
LINE
  5
1AA
100
AcDbEntity
  8
SLD-0
  6
CONTINUOUS
 62
       7
100
AcDbLine
 10
-60.49369362
 20
32.05417412
 30
0.0
 11
-60.47397205
 21
32.02256563
 31
0.0
  0
LINE
  5
1AB
100
AcDbEntity
  8
SLD-0
  6
CONTINUOUS
 62
       7
100
AcDbLine
 10
-60.47397205
 20
32.02256563
 30
0.0
 11
-60.45322638
 21
31.99160749
 31
0.0
  0
LINE
  5
1AC
100
AcDbEntity
  8
SLD-0
  6
CONTINUOUS
 62
       7
100
AcDbLine
 10
-60.45322638
 20
31.99160749
 30
0.0
 11
-60.43149581
 21
31.96133616
 31
0.0
  0
LINE
  5
1AD
100
AcDbEntity
  8
SLD-0
  6
CONTINUOUS
 62
       7
100
AcDbLine
 10
-60.43149581
 20
31.96133616
 30
0.0
 11
-60.40881955
 21
31.93178808
 31
0.0
  0
LINE
  5
1AE
100
AcDbEntity
  8
SLD-0
  6
CONTINUOUS
 62
       7
100
AcDbLine
 10
-60.40881955
 20
31.93178808
 30
0.0
 11
-60.38523599
 21
31.90299883
 31
0.0
  0
LINE
  5
1AF
100
AcDbEntity
  8
SLD-0
  6
CONTINUOUS
 62
       7
100
AcDbLine
 10
-60.38523599
 20
31.90299883
 30
0.0
 11
-60.36077412
 21
31.87499391
 31
0.0
  0
LINE
  5
1B0
100
AcDbEntity
  8
SLD-0
  6
CONTINUOUS
 62
       7
100
AcDbLine
 10
-60.36077412
 20
31.87499391
 30
0.0
 11
-60.33545696
 21
31.84779242
 31
0.0
  0
LINE
  5
1B1
100
AcDbEntity
  8
SLD-0
  6
CONTINUOUS
 62
       7
100
AcDbLine
 10
-60.33545696
 20
31.84779242
 30
0.0
 11
-60.30930742
 21
31.82141335
 31
0.0
  0
LINE
  5
1B2
100
AcDbEntity
  8
SLD-0
  6
CONTINUOUS
 62
       7
100
AcDbLine
 10
-60.30930742
 20
31.82141335
 30
0.0
 11
-60.28234843
 21
31.7958757
 31
0.0
  0
LINE
  5
1B3
100
AcDbEntity
  8
SLD-0
  6
CONTINUOUS
 62
       7
100
AcDbLine
 10
-60.28234843
 20
31.7958757
 30
0.0
 11
-60.25460292
 21
31.77119846
 31
0.0
  0
LINE
  5
1B4
100
AcDbEntity
  8
SLD-0
  6
CONTINUOUS
 62
       7
100
AcDbLine
 10
-60.25460292
 20
31.77119846
 30
0.0
 11
-60.22609381
 21
31.74740063
 31
0.0
  0
LINE
  5
1B5
100
AcDbEntity
  8
SLD-0
  6
CONTINUOUS
 62
       7
100
AcDbLine
 10
-60.22609381
 20
31.74740063
 30
0.0
 11
-60.19684401
 21
31.72450121
 31
0.0
  0
LINE
  5
1B6
100
AcDbEntity
  8
SLD-0
  6
CONTINUOUS
 62
       7
100
AcDbLine
 10
-60.19684401
 20
31.72450121
 30
0.0
 11
-60.16687646
 21
31.70251919
 31
0.0
  0
LINE
  5
1B7
100
AcDbEntity
  8
SLD-0
  6
CONTINUOUS
 62
       7
100
AcDbLine
 10
-60.16687646
 20
31.70251919
 30
0.0
 11
-60.13621408
 21
31.68147356
 31
0.0
  0
LINE
  5
1B8
100
AcDbEntity
  8
SLD-0
  6
CONTINUOUS
 62
       7
100
AcDbLine
 10
-60.13621408
 20
31.68147356
 30
0.0
 11
-60.1048798
 21
31.66138336
 31
0.0
  0
LINE
  5
1B9
100
AcDbEntity
  8
SLD-0
  6
CONTINUOUS
 62
       7
100
AcDbLine
 10
-60.1048798
 20
31.66138336
 30
0.0
 11
-60.0729015
 21
31.64227263
 31
0.0
  0
LINE
  5
1BA
100
AcDbEntity
  8
SLD-0
  6
CONTINUOUS
 62
       7
100
AcDbLine
 10
-60.0729015
 20
31.64227263
 30
0.0
 11
-60.0403184
 21
31.62417709
 31
0.0
  0
LINE
  5
1BB
100
AcDbEntity
  8
SLD-0
  6
CONTINUOUS
 62
       7
100
AcDbLine
 10
-60.0403184
 20
31.62417709
 30
0.0
 11
-60.00717131
 21
31.60713408
 31
0.0
  0
LINE
  5
1BC
100
AcDbEntity
  8
SLD-0
  6
CONTINUOUS
 62
       7
100
AcDbLine
 10
-60.00717131
 20
31.60713408
 30
0.0
 11
-59.97350106
 21
31.59118094
 31
0.0
  0
LINE
  5
1BD
100
AcDbEntity
  8
SLD-0
  6
CONTINUOUS
 62
       7
100
AcDbLine
 10
-59.97350106
 20
31.59118094
 30
0.0
 11
-59.93934846
 21
31.57635502
 31
0.0
  0
LINE
  5
1BE
100
AcDbEntity
  8
SLD-0
  6
CONTINUOUS
 62
       7
100
AcDbLine
 10
-59.93934846
 20
31.57635502
 30
0.0
 11
-59.90475434
 21
31.56269367
 31
0.0
  0
LINE
  5
1BF
100
AcDbEntity
  8
SLD-0
  6
CONTINUOUS
 62
       7
100
AcDbLine
 10
-59.90475434
 20
31.56269367
 30
0.0
 11
-59.8697595
 21
31.55023421
 31
0.0
  0
LINE
  5
1C0
100
AcDbEntity
  8
SLD-0
  6
CONTINUOUS
 62
       7
100
AcDbLine
 10
-59.8697595
 20
31.55023421
 30
0.0
 11
-59.83440477
 21
31.53901401
 31
0.0
  0
LINE
  5
1C1
100
AcDbEntity
  8
SLD-0
  6
CONTINUOUS
 62
       7
100
AcDbLine
 10
-59.83440477
 20
31.53901401
 30
0.0
 11
-59.79873096
 21
31.52907039
 31
0.0
  0
LINE
  5
1C2
100
AcDbEntity
  8
SLD-0
  6
CONTINUOUS
 62
       7
100
AcDbLine
 10
-59.79873096
 20
31.52907039
 30
0.0
 11
-59.7627789
 21
31.52044071
 31
0.0
  0
LINE
  5
1C3
100
AcDbEntity
  8
SLD-0
  6
CONTINUOUS
 62
       7
100
AcDbLine
 10
-59.7627789
 20
31.52044071
 30
0.0
 11
-59.72658983
 21
31.51314236
 31
0.0
  0
LINE
  5
1C4
100
AcDbEntity
  8
SLD-0
  6
CONTINUOUS
 62
       7
100
AcDbLine
 10
-59.72658983
 20
31.51314236
 30
0.0
 11
-59.69020923
 21
31.50699792
 31
0.0
  0
LINE
  5
1C5
100
AcDbEntity
  8
SLD-0
  6
CONTINUOUS
 62
       7
100
AcDbLine
 10
-59.69020923
 20
31.50699792
 30
0.0
 11
-59.65368497
 21
31.50171983
 31
0.0
  0
LINE
  5
1C6
100
AcDbEntity
  8
SLD-0
  6
CONTINUOUS
 62
       7
100
AcDbLine
 10
-59.65368497
 20
31.50171983
 30
0.0
 11
-59.61706492
 21
31.49701931
 31
0.0
  0
LINE
  5
1C7
100
AcDbEntity
  8
SLD-0
  6
CONTINUOUS
 62
       7
100
AcDbLine
 10
-59.61706492
 20
31.49701931
 30
0.0
 11
-59.58039699
 21
31.49260758
 31
0.0
  0
LINE
  5
1C8
100
AcDbEntity
  8
SLD-0
  6
CONTINUOUS
 62
       7
100
AcDbLine
 10
-60.62952011
 20
33.97644116
 30
0.0
 11
-60.62952011
 21
33.91384567
 31
0.0
  0
LINE
  5
1C9
100
AcDbEntity
  8
SLD-0
  6
CONTINUOUS
 62
       7
100
AcDbLine
 10
-60.62952011
 20
33.91384567
 30
0.0
 11
-60.62952011
 21
33.8512447
 31
0.0
  0
LINE
  5
1CA
100
AcDbEntity
  8
SLD-0
  6
CONTINUOUS
 62
       7
100
AcDbLine
 10
-60.62952011
 20
33.8512447
 30
0.0
 11
-60.62952011
 21
33.78863276
 31
0.0
  0
LINE
  5
1CB
100
AcDbEntity
  8
SLD-0
  6
CONTINUOUS
 62
       7
100
AcDbLine
 10
-60.62952011
 20
33.78863276
 30
0.0
 11
-60.62952011
 21
33.72600436
 31
0.0
  0
LINE
  5
1CC
100
AcDbEntity
  8
SLD-0
  6
CONTINUOUS
 62
       7
100
AcDbLine
 10
-60.62952011
 20
33.72600436
 30
0.0
 11
-60.62952011
 21
33.66335402
 31
0.0
  0
LINE
  5
1CD
100
AcDbEntity
  8
SLD-0
  6
CONTINUOUS
 62
       7
100
AcDbLine
 10
-60.62952011
 20
33.66335402
 30
0.0
 11
-60.62952011
 21
33.60067625
 31
0.0
  0
LINE
  5
1CE
100
AcDbEntity
  8
SLD-0
  6
CONTINUOUS
 62
       7
100
AcDbLine
 10
-60.62952011
 20
33.60067625
 30
0.0
 11
-60.62952011
 21
33.53796556
 31
0.0
  0
LINE
  5
1CF
100
AcDbEntity
  8
SLD-0
  6
CONTINUOUS
 62
       7
100
AcDbLine
 10
-60.62952011
 20
33.53796556
 30
0.0
 11
-60.62952011
 21
33.47521648
 31
0.0
  0
LINE
  5
1D0
100
AcDbEntity
  8
SLD-0
  6
CONTINUOUS
 62
       7
100
AcDbLine
 10
-60.62952011
 20
33.47521648
 30
0.0
 11
-60.62952011
 21
33.41242351
 31
0.0
  0
LINE
  5
1D1
100
AcDbEntity
  8
SLD-0
  6
CONTINUOUS
 62
       7
100
AcDbLine
 10
-60.62952011
 20
33.41242351
 30
0.0
 11
-60.62952011
 21
33.34958117
 31
0.0
  0
LINE
  5
1D2
100
AcDbEntity
  8
SLD-0
  6
CONTINUOUS
 62
       7
100
AcDbLine
 10
-60.62952011
 20
33.34958117
 30
0.0
 11
-60.62952011
 21
33.28668398
 31
0.0
  0
LINE
  5
1D3
100
AcDbEntity
  8
SLD-0
  6
CONTINUOUS
 62
       7
100
AcDbLine
 10
-60.62952011
 20
33.28668398
 30
0.0
 11
-60.62952011
 21
33.22372644
 31
0.0
  0
LINE
  5
1D4
100
AcDbEntity
  8
SLD-0
  6
CONTINUOUS
 62
       7
100
AcDbLine
 10
-60.62952011
 20
33.22372644
 30
0.0
 11
-60.62952011
 21
33.16070307
 31
0.0
  0
LINE
  5
1D5
100
AcDbEntity
  8
SLD-0
  6
CONTINUOUS
 62
       7
100
AcDbLine
 10
-60.62952011
 20
33.16070307
 30
0.0
 11
-60.62952011
 21
33.09760839
 31
0.0
  0
LINE
  5
1D6
100
AcDbEntity
  8
SLD-0
  6
CONTINUOUS
 62
       7
100
AcDbLine
 10
-60.62952011
 20
33.09760839
 30
0.0
 11
-60.62952011
 21
33.03443691
 31
0.0
  0
LINE
  5
1D7
100
AcDbEntity
  8
SLD-0
  6
CONTINUOUS
 62
       7
100
AcDbLine
 10
-60.62952011
 20
33.03443691
 30
0.0
 11
-60.62952011
 21
32.97118315
 31
0.0
  0
LINE
  5
1D8
100
AcDbEntity
  8
SLD-0
  6
CONTINUOUS
 62
       7
100
AcDbLine
 10
-60.62952011
 20
32.97118315
 30
0.0
 11
-60.62952011
 21
32.90784162
 31
0.0
  0
LINE
  5
1D9
100
AcDbEntity
  8
SLD-0
  6
CONTINUOUS
 62
       7
100
AcDbLine
 10
-60.62952011
 20
32.90784162
 30
0.0
 11
-60.62952011
 21
32.84440683
 31
0.0
  0
LINE
  5
1DA
100
AcDbEntity
  8
SLD-0
  6
CONTINUOUS
 62
       7
100
AcDbLine
 10
-60.62952011
 20
32.84440683
 30
0.0
 11
-60.62952011
 21
32.78087329
 31
0.0
  0
LINE
  5
1DB
100
AcDbEntity
  8
SLD-0
  6
CONTINUOUS
 62
       7
100
AcDbLine
 10
-60.62952011
 20
32.78087329
 30
0.0
 11
-60.62952011
 21
32.71723554
 31
0.0
  0
LINE
  5
1DC
100
AcDbEntity
  8
SLD-0
  6
CONTINUOUS
 62
       7
100
AcDbLine
 10
-60.62952011
 20
32.71723554
 30
0.0
 11
-60.62952011
 21
32.65348806
 31
0.0
  0
LINE
  5
1DD
100
AcDbEntity
  8
SLD-0
  6
CONTINUOUS
 62
       7
100
AcDbLine
 10
-60.62952011
 20
32.65348806
 30
0.0
 11
-60.62952011
 21
32.58962539
 31
0.0
  0
LINE
  5
1DE
100
AcDbEntity
  8
SLD-0
  6
CONTINUOUS
 62
       7
100
AcDbLine
 10
-60.62952011
 20
32.58962539
 30
0.0
 11
-60.62952011
 21
32.52564209
 31
0.0
  0
LINE
  5
1DF
100
AcDbEntity
  8
SLD-0
  6
CONTINUOUS
 62
       7
100
AcDbLine
 10
-60.62952011
 20
32.52564209
 30
0.0
 11
-60.62952011
 21
32.46154927
 31
0.0
  0
LINE
  5
1E0
100
AcDbEntity
  8
SLD-0
  6
CONTINUOUS
 62
       7
100
AcDbLine
 10
-60.62952011
 20
32.46154927
 30
0.0
 11
-60.62952011
 21
32.39739864
 31
0.0
  0
LINE
  5
1E1
100
AcDbEntity
  8
SLD-0
  6
CONTINUOUS
 62
       7
100
AcDbLine
 10
-61.82952193
 20
32.39739883
 30
0.0
 11
-61.82952193
 21
32.46153529
 31
0.0
  0
LINE
  5
1E2
100
AcDbEntity
  8
SLD-0
  6
CONTINUOUS
 62
       7
100
AcDbLine
 10
-61.82952193
 20
32.46153529
 30
0.0
 11
-61.82952193
 21
32.52566237
 31
0.0
  0
LINE
  5
1E3
100
AcDbEntity
  8
SLD-0
  6
CONTINUOUS
 62
       7
100
AcDbLine
 10
-61.82952193
 20
32.52566237
 30
0.0
 11
-61.82952193
 21
32.58977069
 31
0.0
  0
LINE
  5
1E4
100
AcDbEntity
  8
SLD-0
  6
CONTINUOUS
 62
       7
100
AcDbLine
 10
-61.82952193
 20
32.58977069
 30
0.0
 11
-61.82952193
 21
32.65385087
 31
0.0
  0
LINE
  5
1E5
100
AcDbEntity
  8
SLD-0
  6
CONTINUOUS
 62
       7
100
AcDbLine
 10
-61.82952193
 20
32.65385087
 30
0.0
 11
-61.82952193
 21
32.71789353
 31
0.0
  0
LINE
  5
1E6
100
AcDbEntity
  8
SLD-0
  6
CONTINUOUS
 62
       7
100
AcDbLine
 10
-61.82952193
 20
32.71789353
 30
0.0
 11
-61.82952193
 21
32.78188929
 31
0.0
  0
LINE
  5
1E7
100
AcDbEntity
  8
SLD-0
  6
CONTINUOUS
 62
       7
100
AcDbLine
 10
-61.82952193
 20
32.78188929
 30
0.0
 11
-61.82952193
 21
32.84582877
 31
0.0
  0
LINE
  5
1E8
100
AcDbEntity
  8
SLD-0
  6
CONTINUOUS
 62
       7
100
AcDbLine
 10
-61.82952193
 20
32.84582877
 30
0.0
 11
-61.82952193
 21
32.90970259
 31
0.0
  0
LINE
  5
1E9
100
AcDbEntity
  8
SLD-0
  6
CONTINUOUS
 62
       7
100
AcDbLine
 10
-61.82952193
 20
32.90970259
 30
0.0
 11
-61.82952193
 21
32.97350137
 31
0.0
  0
LINE
  5
1EA
100
AcDbEntity
  8
SLD-0
  6
CONTINUOUS
 62
       7
100
AcDbLine
 10
-61.82952193
 20
32.97350137
 30
0.0
 11
-61.82952193
 21
33.03721573
 31
0.0
  0
LINE
  5
1EB
100
AcDbEntity
  8
SLD-0
  6
CONTINUOUS
 62
       7
100
AcDbLine
 10
-61.82952193
 20
33.03721573
 30
0.0
 11
-61.82952193
 21
33.10083629
 31
0.0
  0
LINE
  5
1EC
100
AcDbEntity
  8
SLD-0
  6
CONTINUOUS
 62
       7
100
AcDbLine
 10
-61.82952193
 20
33.10083629
 30
0.0
 11
-61.82952193
 21
33.16435367
 31
0.0
  0
LINE
  5
1ED
100
AcDbEntity
  8
SLD-0
  6
CONTINUOUS
 62
       7
100
AcDbLine
 10
-61.82952193
 20
33.16435367
 30
0.0
 11
-61.82952193
 21
33.22775849
 31
0.0
  0
LINE
  5
1EE
100
AcDbEntity
  8
SLD-0
  6
CONTINUOUS
 62
       7
100
AcDbLine
 10
-61.82952193
 20
33.22775849
 30
0.0
 11
-61.82952193
 21
33.29104137
 31
0.0
  0
LINE
  5
1EF
100
AcDbEntity
  8
SLD-0
  6
CONTINUOUS
 62
       7
100
AcDbLine
 10
-61.82952193
 20
33.29104137
 30
0.0
 11
-61.82952193
 21
33.35419294
 31
0.0
  0
LINE
  5
1F0
100
AcDbEntity
  8
SLD-0
  6
CONTINUOUS
 62
       7
100
AcDbLine
 10
-61.82952193
 20
33.35419294
 30
0.0
 11
-61.82952193
 21
33.4172038
 31
0.0
  0
LINE
  5
1F1
100
AcDbEntity
  8
SLD-0
  6
CONTINUOUS
 62
       7
100
AcDbLine
 10
-61.82952193
 20
33.4172038
 30
0.0
 11
-61.82952193
 21
33.48006459
 31
0.0
  0
LINE
  5
1F2
100
AcDbEntity
  8
SLD-0
  6
CONTINUOUS
 62
       7
100
AcDbLine
 10
-61.82952193
 20
33.48006459
 30
0.0
 11
-61.82952193
 21
33.54276591
 31
0.0
  0
LINE
  5
1F3
100
AcDbEntity
  8
SLD-0
  6
CONTINUOUS
 62
       7
100
AcDbLine
 10
-61.82952193
 20
33.54276591
 30
0.0
 11
-61.82952193
 21
33.6052984
 31
0.0
  0
LINE
  5
1F4
100
AcDbEntity
  8
SLD-0
  6
CONTINUOUS
 62
       7
100
AcDbLine
 10
-61.82952193
 20
33.6052984
 30
0.0
 11
-61.82952193
 21
33.66765266
 31
0.0
  0
LINE
  5
1F5
100
AcDbEntity
  8
SLD-0
  6
CONTINUOUS
 62
       7
100
AcDbLine
 10
-61.82952193
 20
33.66765266
 30
0.0
 11
-61.82952193
 21
33.72981933
 31
0.0
  0
LINE
  5
1F6
100
AcDbEntity
  8
SLD-0
  6
CONTINUOUS
 62
       7
100
AcDbLine
 10
-61.82952193
 20
33.72981933
 30
0.0
 11
-61.82952193
 21
33.79178902
 31
0.0
  0
LINE
  5
1F7
100
AcDbEntity
  8
SLD-0
  6
CONTINUOUS
 62
       7
100
AcDbLine
 10
-61.82952193
 20
33.79178902
 30
0.0
 11
-61.82952193
 21
33.85355235
 31
0.0
  0
LINE
  5
1F8
100
AcDbEntity
  8
SLD-0
  6
CONTINUOUS
 62
       7
100
AcDbLine
 10
-61.82952193
 20
33.85355235
 30
0.0
 11
-61.82952193
 21
33.91509994
 31
0.0
  0
LINE
  5
1F9
100
AcDbEntity
  8
SLD-0
  6
CONTINUOUS
 62
       7
100
AcDbLine
 10
-61.82952193
 20
33.91509994
 30
0.0
 11
-61.82952193
 21
33.97644136
 31
0.0
  0
LINE
  5
1FA
100
AcDbEntity
  8
SLD-0
  6
CONTINUOUS
 62
       7
100
AcDbLine
 10
-62.87864506
 20
31.49260778
 30
0.0
 11
-62.84197317
 21
31.49823848
 31
0.0
  0
LINE
  5
1FB
100
AcDbEntity
  8
SLD-0
  6
CONTINUOUS
 62
       7
100
AcDbLine
 10
-62.84197317
 20
31.49823848
 30
0.0
 11
-62.80534822
 21
31.50403603
 31
0.0
  0
LINE
  5
1FC
100
AcDbEntity
  8
SLD-0
  6
CONTINUOUS
 62
       7
100
AcDbLine
 10
-62.80534822
 20
31.50403603
 30
0.0
 11
-62.76881715
 21
31.51016726
 31
0.0
  0
LINE
  5
1FD
100
AcDbEntity
  8
SLD-0
  6
CONTINUOUS
 62
       7
100
AcDbLine
 10
-62.76881715
 20
31.51016726
 30
0.0
 11
-62.73242691
 21
31.51679902
 31
0.0
  0
LINE
  5
1FE
100
AcDbEntity
  8
SLD-0
  6
CONTINUOUS
 62
       7
100
AcDbLine
 10
-62.73242691
 20
31.51679902
 30
0.0
 11
-62.69622443
 21
31.52409815
 31
0.0
  0
LINE
  5
1FF
100
AcDbEntity
  8
SLD-0
  6
CONTINUOUS
 62
       7
100
AcDbLine
 10
-62.69622443
 20
31.52409815
 30
0.0
 11
-62.66025665
 21
31.53223149
 31
0.0
  0
LINE
  5
200
100
AcDbEntity
  8
SLD-0
  6
CONTINUOUS
 62
       7
100
AcDbLine
 10
-62.66025665
 20
31.53223149
 30
0.0
 11
-62.62457051
 21
31.54136588
 31
0.0
  0
LINE
  5
201
100
AcDbEntity
  8
SLD-0
  6
CONTINUOUS
 62
       7
100
AcDbLine
 10
-62.62457051
 20
31.54136588
 30
0.0
 11
-62.58921296
 21
31.55166818
 31
0.0
  0
LINE
  5
202
100
AcDbEntity
  8
SLD-0
  6
CONTINUOUS
 62
       7
100
AcDbLine
 10
-62.58921296
 20
31.55166818
 30
0.0
 11
-62.55423059
 21
31.56329932
 31
0.0
  0
LINE
  5
203
100
AcDbEntity
  8
SLD-0
  6
CONTINUOUS
 62
       7
100
AcDbLine
 10
-62.55423059
 20
31.56329932
 30
0.0
 11
-62.51966358
 21
31.57630929
 31
0.0
  0
LINE
  5
204
100
AcDbEntity
  8
SLD-0
  6
CONTINUOUS
 62
       7
100
AcDbLine
 10
-62.51966358
 20
31.57630929
 30
0.0
 11
-62.48554639
 21
31.59064923
 31
0.0
  0
LINE
  5
205
100
AcDbEntity
  8
SLD-0
  6
CONTINUOUS
 62
       7
100
AcDbLine
 10
-62.48554639
 20
31.59064923
 30
0.0
 11
-62.45191329
 21
31.60626685
 31
0.0
  0
LINE
  5
206
100
AcDbEntity
  8
SLD-0
  6
CONTINUOUS
 62
       7
100
AcDbLine
 10
-62.45191329
 20
31.60626685
 30
0.0
 11
-62.41879853
 21
31.62310985
 31
0.0
  0
LINE
  5
207
100
AcDbEntity
  8
SLD-0
  6
CONTINUOUS
 62
       7
100
AcDbLine
 10
-62.41879853
 20
31.62310985
 30
0.0
 11
-62.38623638
 21
31.64112591
 31
0.0
  0
LINE
  5
208
100
AcDbEntity
  8
SLD-0
  6
CONTINUOUS
 62
       7
100
AcDbLine
 10
-62.38623638
 20
31.64112591
 30
0.0
 11
-62.3542611
 21
31.66026274
 31
0.0
  0
LINE
  5
209
100
AcDbEntity
  8
SLD-0
  6
CONTINUOUS
 62
       7
100
AcDbLine
 10
-62.3542611
 20
31.66026274
 30
0.0
 11
-62.32290694
 21
31.68046803
 31
0.0
  0
LINE
  5
20A
100
AcDbEntity
  8
SLD-0
  6
CONTINUOUS
 62
       7
100
AcDbLine
 10
-62.32290694
 20
31.68046803
 30
0.0
 11
-62.29220818
 21
31.70168948
 31
0.0
  0
LINE
  5
20B
100
AcDbEntity
  8
SLD-0
  6
CONTINUOUS
 62
       7
100
AcDbLine
 10
-62.29220818
 20
31.70168948
 30
0.0
 11
-62.26219906
 21
31.72387479
 31
0.0
  0
LINE
  5
20C
100
AcDbEntity
  8
SLD-0
  6
CONTINUOUS
 62
       7
100
AcDbLine
 10
-62.26219906
 20
31.72387479
 30
0.0
 11
-62.23291386
 21
31.74697166
 31
0.0
  0
LINE
  5
20D
100
AcDbEntity
  8
SLD-0
  6
CONTINUOUS
 62
       7
100
AcDbLine
 10
-62.23291386
 20
31.74697166
 30
0.0
 11
-62.20438507
 21
31.77093423
 31
0.0
  0
LINE
  5
20E
100
AcDbEntity
  8
SLD-0
  6
CONTINUOUS
 62
       7
100
AcDbLine
 10
-62.20438507
 20
31.77093423
 30
0.0
 11
-62.17663902
 21
31.79573936
 31
0.0
  0
LINE
  5
20F
100
AcDbEntity
  8
SLD-0
  6
CONTINUOUS
 62
       7
100
AcDbLine
 10
-62.17663902
 20
31.79573936
 30
0.0
 11
-62.1497007
 21
31.82136884
 31
0.0
  0
LINE
  5
210
100
AcDbEntity
  8
SLD-0
  6
CONTINUOUS
 62
       7
100
AcDbLine
 10
-62.1497007
 20
31.82136884
 30
0.0
 11
-62.12359509
 21
31.84780447
 31
0.0
  0
LINE
  5
211
100
AcDbEntity
  8
SLD-0
  6
CONTINUOUS
 62
       7
100
AcDbLine
 10
-62.12359509
 20
31.84780447
 30
0.0
 11
-62.09834715
 21
31.87502806
 31
0.0
  0
LINE
  5
212
100
AcDbEntity
  8
SLD-0
  6
CONTINUOUS
 62
       7
100
AcDbLine
 10
-62.09834715
 20
31.87502806
 30
0.0
 11
-62.07398188
 21
31.90302141
 31
0.0
  0
LINE
  5
213
100
AcDbEntity
  8
SLD-0
  6
CONTINUOUS
 62
       7
100
AcDbLine
 10
-62.07398188
 20
31.90302141
 30
0.0
 11
-62.05052424
 21
31.93176633
 31
0.0
  0
LINE
  5
214
100
AcDbEntity
  8
SLD-0
  6
CONTINUOUS
 62
       7
100
AcDbLine
 10
-62.05052424
 20
31.93176633
 30
0.0
 11
-62.02799923
 21
31.96124462
 31
0.0
  0
LINE
  5
215
100
AcDbEntity
  8
SLD-0
  6
CONTINUOUS
 62
       7
100
AcDbLine
 10
-62.02799923
 20
31.96124462
 30
0.0
 11
-62.00643181
 21
31.99143809
 31
0.0
  0
LINE
  5
216
100
AcDbEntity
  8
SLD-0
  6
CONTINUOUS
 62
       7
100
AcDbLine
 10
-62.00643181
 20
31.99143809
 30
0.0
 11
-61.98584697
 21
32.02232853
 31
0.0
  0
LINE
  5
217
100
AcDbEntity
  8
SLD-0
  6
CONTINUOUS
 62
       7
100
AcDbLine
 10
-61.98584697
 20
32.02232853
 30
0.0
 11
-61.96626941
 21
32.05389695
 31
0.0
  0
LINE
  5
218
100
AcDbEntity
  8
SLD-0
  6
CONTINUOUS
 62
       7
100
AcDbLine
 10
-61.96626941
 20
32.05389695
 30
0.0
 11
-61.94771891
 21
32.08610991
 31
0.0
  0
LINE
  5
219
100
AcDbEntity
  8
SLD-0
  6
CONTINUOUS
 62
       7
100
AcDbLine
 10
-61.94771891
 20
32.08610991
 30
0.0
 11
-61.93021096
 21
32.11892146
 31
0.0
  0
LINE
  5
21A
100
AcDbEntity
  8
SLD-0
  6
CONTINUOUS
 62
       7
100
AcDbLine
 10
-61.93021096
 20
32.11892146
 30
0.0
 11
-61.91376095
 21
32.15228522
 31
0.0
  0
LINE
  5
21B
100
AcDbEntity
  8
SLD-0
  6
CONTINUOUS
 62
       7
100
AcDbLine
 10
-61.91376095
 20
32.15228522
 30
0.0
 11
-61.89838421
 21
32.18615485
 31
0.0
  0
LINE
  5
21C
100
AcDbEntity
  8
SLD-0
  6
CONTINUOUS
 62
       7
100
AcDbLine
 10
-61.89838421
 20
32.18615485
 30
0.0
 11
-61.88409613
 21
32.22048396
 31
0.0
  0
LINE
  5
21D
100
AcDbEntity
  8
SLD-0
  6
CONTINUOUS
 62
       7
100
AcDbLine
 10
-61.88409613
 20
32.22048396
 30
0.0
 11
-61.87091206
 21
32.25522619
 31
0.0
  0
LINE
  5
21E
100
AcDbEntity
  8
SLD-0
  6
CONTINUOUS
 62
       7
100
AcDbLine
 10
-61.87091206
 20
32.25522619
 30
0.0
 11
-61.85884736
 21
32.29033518
 31
0.0
  0
LINE
  5
21F
100
AcDbEntity
  8
SLD-0
  6
CONTINUOUS
 62
       7
100
AcDbLine
 10
-61.85884736
 20
32.29033518
 30
0.0
 11
-61.84791739
 21
32.32576456
 31
0.0
  0
LINE
  5
220
100
AcDbEntity
  8
SLD-0
  6
CONTINUOUS
 62
       7
100
AcDbLine
 10
-61.84791739
 20
32.32576456
 30
0.0
 11
-61.83813752
 21
32.36146796
 31
0.0
  0
LINE
  5
221
100
AcDbEntity
  8
SLD-0
  6
CONTINUOUS
 62
       7
100
AcDbLine
 10
-61.83813752
 20
32.36146796
 30
0.0
 11
-61.82952193
 21
32.39739883
 31
0.0
  0
LINE
  5
222
100
AcDbEntity
  8
SLD-0
  6
CONTINUOUS
 62
       7
100
AcDbLine
 10
-63.42594468
 20
31.49260778
 30
0.0
 11
-63.40416205
 21
31.49260778
 31
0.0
  0
LINE
  5
223
100
AcDbEntity
  8
SLD-0
  6
CONTINUOUS
 62
       7
100
AcDbLine
 10
-63.40416205
 20
31.49260778
 30
0.0
 11
-63.38237716
 21
31.49260778
 31
0.0
  0
LINE
  5
224
100
AcDbEntity
  8
SLD-0
  6
CONTINUOUS
 62
       7
100
AcDbLine
 10
-63.38237716
 20
31.49260778
 30
0.0
 11
-63.36058776
 21
31.49260778
 31
0.0
  0
LINE
  5
225
100
AcDbEntity
  8
SLD-0
  6
CONTINUOUS
 62
       7
100
AcDbLine
 10
-63.36058776
 20
31.49260778
 30
0.0
 11
-63.33879159
 21
31.49260778
 31
0.0
  0
LINE
  5
226
100
AcDbEntity
  8
SLD-0
  6
CONTINUOUS
 62
       7
100
AcDbLine
 10
-63.33879159
 20
31.49260778
 30
0.0
 11
-63.31698639
 21
31.49260778
 31
0.0
  0
LINE
  5
227
100
AcDbEntity
  8
SLD-0
  6
CONTINUOUS
 62
       7
100
AcDbLine
 10
-63.31698639
 20
31.49260778
 30
0.0
 11
-63.29516991
 21
31.49260778
 31
0.0
  0
LINE
  5
228
100
AcDbEntity
  8
SLD-0
  6
CONTINUOUS
 62
       7
100
AcDbLine
 10
-63.29516991
 20
31.49260778
 30
0.0
 11
-63.2733399
 21
31.49260778
 31
0.0
  0
LINE
  5
229
100
AcDbEntity
  8
SLD-0
  6
CONTINUOUS
 62
       7
100
AcDbLine
 10
-63.2733399
 20
31.49260778
 30
0.0
 11
-63.2514951
 21
31.49260778
 31
0.0
  0
LINE
  5
22A
100
AcDbEntity
  8
SLD-0
  6
CONTINUOUS
 62
       7
100
AcDbLine
 10
-63.2514951
 20
31.49260778
 30
0.0
 11
-63.22963612
 21
31.49260778
 31
0.0
  0
LINE
  5
22B
100
AcDbEntity
  8
SLD-0
  6
CONTINUOUS
 62
       7
100
AcDbLine
 10
-63.22963612
 20
31.49260778
 30
0.0
 11
-63.2077638
 21
31.49260778
 31
0.0
  0
LINE
  5
22C
100
AcDbEntity
  8
SLD-0
  6
CONTINUOUS
 62
       7
100
AcDbLine
 10
-63.2077638
 20
31.49260778
 30
0.0
 11
-63.18587897
 21
31.49260778
 31
0.0
  0
LINE
  5
22D
100
AcDbEntity
  8
SLD-0
  6
CONTINUOUS
 62
       7
100
AcDbLine
 10
-63.18587897
 20
31.49260778
 30
0.0
 11
-63.16398247
 21
31.49260778
 31
0.0
  0
LINE
  5
22E
100
AcDbEntity
  8
SLD-0
  6
CONTINUOUS
 62
       7
100
AcDbLine
 10
-63.16398247
 20
31.49260778
 30
0.0
 11
-63.14207513
 21
31.49260778
 31
0.0
  0
LINE
  5
22F
100
AcDbEntity
  8
SLD-0
  6
CONTINUOUS
 62
       7
100
AcDbLine
 10
-63.14207513
 20
31.49260778
 30
0.0
 11
-63.12015778
 21
31.49260778
 31
0.0
  0
LINE
  5
230
100
AcDbEntity
  8
SLD-0
  6
CONTINUOUS
 62
       7
100
AcDbLine
 10
-63.12015778
 20
31.49260778
 30
0.0
 11
-63.09823126
 21
31.49260778
 31
0.0
  0
LINE
  5
231
100
AcDbEntity
  8
SLD-0
  6
CONTINUOUS
 62
       7
100
AcDbLine
 10
-63.09823126
 20
31.49260778
 30
0.0
 11
-63.0762964
 21
31.49260778
 31
0.0
  0
LINE
  5
232
100
AcDbEntity
  8
SLD-0
  6
CONTINUOUS
 62
       7
100
AcDbLine
 10
-63.0762964
 20
31.49260778
 30
0.0
 11
-63.05435404
 21
31.49260778
 31
0.0
  0
LINE
  5
233
100
AcDbEntity
  8
SLD-0
  6
CONTINUOUS
 62
       7
100
AcDbLine
 10
-63.05435404
 20
31.49260778
 30
0.0
 11
-63.03240501
 21
31.49260778
 31
0.0
  0
LINE
  5
234
100
AcDbEntity
  8
SLD-0
  6
CONTINUOUS
 62
       7
100
AcDbLine
 10
-63.03240501
 20
31.49260778
 30
0.0
 11
-63.01045014
 21
31.49260778
 31
0.0
  0
LINE
  5
235
100
AcDbEntity
  8
SLD-0
  6
CONTINUOUS
 62
       7
100
AcDbLine
 10
-63.01045014
 20
31.49260778
 30
0.0
 11
-62.98849027
 21
31.49260778
 31
0.0
  0
LINE
  5
236
100
AcDbEntity
  8
SLD-0
  6
CONTINUOUS
 62
       7
100
AcDbLine
 10
-62.98849027
 20
31.49260778
 30
0.0
 11
-62.96652623
 21
31.49260778
 31
0.0
  0
LINE
  5
237
100
AcDbEntity
  8
SLD-0
  6
CONTINUOUS
 62
       7
100
AcDbLine
 10
-62.96652623
 20
31.49260778
 30
0.0
 11
-62.94455886
 21
31.49260778
 31
0.0
  0
LINE
  5
238
100
AcDbEntity
  8
SLD-0
  6
CONTINUOUS
 62
       7
100
AcDbLine
 10
-62.94455886
 20
31.49260778
 30
0.0
 11
-62.92258898
 21
31.49260778
 31
0.0
  0
LINE
  5
239
100
AcDbEntity
  8
SLD-0
  6
CONTINUOUS
 62
       7
100
AcDbLine
 10
-62.92258898
 20
31.49260778
 30
0.0
 11
-62.90061743
 21
31.49260778
 31
0.0
  0
LINE
  5
23A
100
AcDbEntity
  8
SLD-0
  6
CONTINUOUS
 62
       7
100
AcDbLine
 10
-62.90061743
 20
31.49260778
 30
0.0
 11
-62.87864506
 21
31.49260778
 31
0.0
  0
LINE
  5
23B
100
AcDbEntity
  8
SLD-0
  6
CONTINUOUS
 62
       7
100
AcDbLine
 10
-63.42594468
 20
30.34260693
 30
0.0
 11
-63.40416205
 21
30.34260693
 31
0.0
  0
LINE
  5
23C
100
AcDbEntity
  8
SLD-0
  6
CONTINUOUS
 62
       7
100
AcDbLine
 10
-63.40416205
 20
30.34260693
 30
0.0
 11
-63.38237716
 21
30.34260693
 31
0.0
  0
LINE
  5
23D
100
AcDbEntity
  8
SLD-0
  6
CONTINUOUS
 62
       7
100
AcDbLine
 10
-63.38237716
 20
30.34260693
 30
0.0
 11
-63.36058776
 21
30.34260693
 31
0.0
  0
LINE
  5
23E
100
AcDbEntity
  8
SLD-0
  6
CONTINUOUS
 62
       7
100
AcDbLine
 10
-63.36058776
 20
30.34260693
 30
0.0
 11
-63.33879159
 21
30.34260693
 31
0.0
  0
LINE
  5
23F
100
AcDbEntity
  8
SLD-0
  6
CONTINUOUS
 62
       7
100
AcDbLine
 10
-63.33879159
 20
30.34260693
 30
0.0
 11
-63.31698639
 21
30.34260693
 31
0.0
  0
LINE
  5
240
100
AcDbEntity
  8
SLD-0
  6
CONTINUOUS
 62
       7
100
AcDbLine
 10
-63.31698639
 20
30.34260693
 30
0.0
 11
-63.29516991
 21
30.34260693
 31
0.0
  0
LINE
  5
241
100
AcDbEntity
  8
SLD-0
  6
CONTINUOUS
 62
       7
100
AcDbLine
 10
-63.29516991
 20
30.34260693
 30
0.0
 11
-63.2733399
 21
30.34260693
 31
0.0
  0
LINE
  5
242
100
AcDbEntity
  8
SLD-0
  6
CONTINUOUS
 62
       7
100
AcDbLine
 10
-63.2733399
 20
30.34260693
 30
0.0
 11
-63.2514951
 21
30.34260693
 31
0.0
  0
LINE
  5
243
100
AcDbEntity
  8
SLD-0
  6
CONTINUOUS
 62
       7
100
AcDbLine
 10
-63.2514951
 20
30.34260693
 30
0.0
 11
-63.22963612
 21
30.34260693
 31
0.0
  0
LINE
  5
244
100
AcDbEntity
  8
SLD-0
  6
CONTINUOUS
 62
       7
100
AcDbLine
 10
-63.22963612
 20
30.34260693
 30
0.0
 11
-63.2077638
 21
30.34260693
 31
0.0
  0
LINE
  5
245
100
AcDbEntity
  8
SLD-0
  6
CONTINUOUS
 62
       7
100
AcDbLine
 10
-63.2077638
 20
30.34260693
 30
0.0
 11
-63.18587897
 21
30.34260693
 31
0.0
  0
LINE
  5
246
100
AcDbEntity
  8
SLD-0
  6
CONTINUOUS
 62
       7
100
AcDbLine
 10
-63.18587897
 20
30.34260693
 30
0.0
 11
-63.16398247
 21
30.34260693
 31
0.0
  0
LINE
  5
247
100
AcDbEntity
  8
SLD-0
  6
CONTINUOUS
 62
       7
100
AcDbLine
 10
-63.16398247
 20
30.34260693
 30
0.0
 11
-63.14207513
 21
30.34260693
 31
0.0
  0
LINE
  5
248
100
AcDbEntity
  8
SLD-0
  6
CONTINUOUS
 62
       7
100
AcDbLine
 10
-63.14207513
 20
30.34260693
 30
0.0
 11
-63.12015778
 21
30.34260693
 31
0.0
  0
LINE
  5
249
100
AcDbEntity
  8
SLD-0
  6
CONTINUOUS
 62
       7
100
AcDbLine
 10
-63.12015778
 20
30.34260693
 30
0.0
 11
-63.09823126
 21
30.34260693
 31
0.0
  0
LINE
  5
24A
100
AcDbEntity
  8
SLD-0
  6
CONTINUOUS
 62
       7
100
AcDbLine
 10
-63.09823126
 20
30.34260693
 30
0.0
 11
-63.0762964
 21
30.34260693
 31
0.0
  0
LINE
  5
24B
100
AcDbEntity
  8
SLD-0
  6
CONTINUOUS
 62
       7
100
AcDbLine
 10
-63.0762964
 20
30.34260693
 30
0.0
 11
-63.05435404
 21
30.34260693
 31
0.0
  0
LINE
  5
24C
100
AcDbEntity
  8
SLD-0
  6
CONTINUOUS
 62
       7
100
AcDbLine
 10
-63.05435404
 20
30.34260693
 30
0.0
 11
-63.03240501
 21
30.34260693
 31
0.0
  0
LINE
  5
24D
100
AcDbEntity
  8
SLD-0
  6
CONTINUOUS
 62
       7
100
AcDbLine
 10
-63.03240501
 20
30.34260693
 30
0.0
 11
-63.01045014
 21
30.34260693
 31
0.0
  0
LINE
  5
24E
100
AcDbEntity
  8
SLD-0
  6
CONTINUOUS
 62
       7
100
AcDbLine
 10
-63.01045014
 20
30.34260693
 30
0.0
 11
-62.98849027
 21
30.34260693
 31
0.0
  0
LINE
  5
24F
100
AcDbEntity
  8
SLD-0
  6
CONTINUOUS
 62
       7
100
AcDbLine
 10
-62.98849027
 20
30.34260693
 30
0.0
 11
-62.96652623
 21
30.34260693
 31
0.0
  0
LINE
  5
250
100
AcDbEntity
  8
SLD-0
  6
CONTINUOUS
 62
       7
100
AcDbLine
 10
-62.96652623
 20
30.34260693
 30
0.0
 11
-62.94455886
 21
30.34260693
 31
0.0
  0
LINE
  5
251
100
AcDbEntity
  8
SLD-0
  6
CONTINUOUS
 62
       7
100
AcDbLine
 10
-62.94455886
 20
30.34260693
 30
0.0
 11
-62.92258898
 21
30.34260693
 31
0.0
  0
LINE
  5
252
100
AcDbEntity
  8
SLD-0
  6
CONTINUOUS
 62
       7
100
AcDbLine
 10
-62.92258898
 20
30.34260693
 30
0.0
 11
-62.90061743
 21
30.34260693
 31
0.0
  0
LINE
  5
253
100
AcDbEntity
  8
SLD-0
  6
CONTINUOUS
 62
       7
100
AcDbLine
 10
-62.90061743
 20
30.34260693
 30
0.0
 11
-62.87864506
 21
30.34260693
 31
0.0
  0
LINE
  5
254
100
AcDbEntity
  8
SLD-0
  6
CONTINUOUS
 62
       7
100
AcDbLine
 10
-61.82952193
 20
29.4378196
 30
0.0
 11
-61.8389706
 21
29.47356259
 31
0.0
  0
LINE
  5
255
100
AcDbEntity
  8
SLD-0
  6
CONTINUOUS
 62
       7
100
AcDbLine
 10
-61.8389706
 20
29.47356259
 30
0.0
 11
-61.84875983
 21
29.50920405
 31
0.0
  0
LINE
  5
256
100
AcDbEntity
  8
SLD-0
  6
CONTINUOUS
 62
       7
100
AcDbLine
 10
-61.84875983
 20
29.50920405
 30
0.0
 11
-61.85923018
 21
29.54464246
 31
0.0
  0
LINE
  5
257
100
AcDbEntity
  8
SLD-0
  6
CONTINUOUS
 62
       7
100
AcDbLine
 10
-61.85923018
 20
29.54464246
 30
0.0
 11
-61.87072193
 21
29.57977635
 31
0.0
  0
LINE
  5
258
100
AcDbEntity
  8
SLD-0
  6
CONTINUOUS
 62
       7
100
AcDbLine
 10
-61.87072193
 20
29.57977635
 30
0.0
 11
-61.8834757
 21
29.61452131
 31
0.0
  0
LINE
  5
259
100
AcDbEntity
  8
SLD-0
  6
CONTINUOUS
 62
       7
100
AcDbLine
 10
-61.8834757
 20
29.61452131
 30
0.0
 11
-61.89748877
 21
29.64883465
 31
0.0
  0
LINE
  5
25A
100
AcDbEntity
  8
SLD-0
  6
CONTINUOUS
 62
       7
100
AcDbLine
 10
-61.89748877
 20
29.64883465
 30
0.0
 11
-61.91272194
 21
29.6826799
 31
0.0
  0
LINE
  5
25B
100
AcDbEntity
  8
SLD-0
  6
CONTINUOUS
 62
       7
100
AcDbLine
 10
-61.91272194
 20
29.6826799
 30
0.0
 11
-61.92913601
 21
29.71602062
 31
0.0
  0
LINE
  5
25C
100
AcDbEntity
  8
SLD-0
  6
CONTINUOUS
 62
       7
100
AcDbLine
 10
-61.92913601
 20
29.71602062
 30
0.0
 11
-61.94669177
 21
29.74882035
 31
0.0
  0
LINE
  5
25D
100
AcDbEntity
  8
SLD-0
  6
CONTINUOUS
 62
       7
100
AcDbLine
 10
-61.94669177
 20
29.74882035
 30
0.0
 11
-61.96535003
 21
29.78104264
 31
0.0
  0
LINE
  5
25E
100
AcDbEntity
  8
SLD-0
  6
CONTINUOUS
 62
       7
100
AcDbLine
 10
-61.96535003
 20
29.78104264
 30
0.0
 11
-61.98507158
 21
29.81265102
 31
0.0
  0
LINE
  5
25F
100
AcDbEntity
  8
SLD-0
  6
CONTINUOUS
 62
       7
100
AcDbLine
 10
-61.98507158
 20
29.81265102
 30
0.0
 11
-62.00581722
 21
29.84360906
 31
0.0
  0
LINE
  5
260
100
AcDbEntity
  8
SLD-0
  6
CONTINUOUS
 62
       7
100
AcDbLine
 10
-62.00581722
 20
29.84360906
 30
0.0
 11
-62.02754774
 21
29.87388029
 31
0.0
  0
LINE
  5
261
100
AcDbEntity
  8
SLD-0
  6
CONTINUOUS
 62
       7
100
AcDbLine
 10
-62.02754774
 20
29.87388029
 30
0.0
 11
-62.05022396
 21
29.90342826
 31
0.0
  0
LINE
  5
262
100
AcDbEntity
  8
SLD-0
  6
CONTINUOUS
 62
       7
100
AcDbLine
 10
-62.05022396
 20
29.90342826
 30
0.0
 11
-62.07380747
 21
29.9322174
 31
0.0
  0
LINE
  5
263
100
AcDbEntity
  8
SLD-0
  6
CONTINUOUS
 62
       7
100
AcDbLine
 10
-62.07380747
 20
29.9322174
 30
0.0
 11
-62.09826931
 21
29.96022222
 31
0.0
  0
LINE
  5
264
100
AcDbEntity
  8
SLD-0
  6
CONTINUOUS
 62
       7
100
AcDbLine
 10
-62.09826931
 20
29.96022222
 30
0.0
 11
-62.12358645
 21
29.9874236
 31
0.0
  0
LINE
  5
265
100
AcDbEntity
  8
SLD-0
  6
CONTINUOUS
 62
       7
100
AcDbLine
 10
-62.12358645
 20
29.9874236
 30
0.0
 11
-62.14973596
 21
30.01380257
 31
0.0
  0
LINE
  5
266
100
AcDbEntity
  8
SLD-0
  6
CONTINUOUS
 62
       7
100
AcDbLine
 10
-62.14973596
 20
30.01380257
 30
0.0
 11
-62.17669493
 21
30.03934011
 31
0.0
  0
LINE
  5
267
100
AcDbEntity
  8
SLD-0
  6
CONTINUOUS
 62
       7
100
AcDbLine
 10
-62.17669493
 20
30.03934011
 30
0.0
 11
-62.20444042
 21
30.06401725
 31
0.0
  0
LINE
  5
268
100
AcDbEntity
  8
SLD-0
  6
CONTINUOUS
 62
       7
100
AcDbLine
 10
-62.20444042
 20
30.06401725
 30
0.0
 11
-62.23294951
 21
30.08781497
 31
0.0
  0
LINE
  5
269
100
AcDbEntity
  8
SLD-0
  6
CONTINUOUS
 62
       7
100
AcDbLine
 10
-62.23294951
 20
30.08781497
 30
0.0
 11
-62.26219928
 21
30.11071429
 31
0.0
  0
LINE
  5
26A
100
AcDbEntity
  8
SLD-0
  6
CONTINUOUS
 62
       7
100
AcDbLine
 10
-62.26219928
 20
30.11071429
 30
0.0
 11
-62.2921668
 21
30.13269622
 31
0.0
  0
LINE
  5
26B
100
AcDbEntity
  8
SLD-0
  6
CONTINUOUS
 62
       7
100
AcDbLine
 10
-62.2921668
 20
30.13269622
 30
0.0
 11
-62.32282915
 21
30.15374175
 31
0.0
  0
LINE
  5
26C
100
AcDbEntity
  8
SLD-0
  6
CONTINUOUS
 62
       7
100
AcDbLine
 10
-62.32282915
 20
30.15374175
 30
0.0
 11
-62.35416339
 21
30.17383187
 31
0.0
  0
LINE
  5
26D
100
AcDbEntity
  8
SLD-0
  6
CONTINUOUS
 62
       7
100
AcDbLine
 10
-62.35416339
 20
30.17383187
 30
0.0
 11
-62.38614164
 21
30.19294251
 31
0.0
  0
LINE
  5
26E
100
AcDbEntity
  8
SLD-0
  6
CONTINUOUS
 62
       7
100
AcDbLine
 10
-62.38614164
 20
30.19294251
 30
0.0
 11
-62.41872469
 21
30.21103797
 31
0.0
  0
LINE
  5
26F
100
AcDbEntity
  8
SLD-0
  6
CONTINUOUS
 62
       7
100
AcDbLine
 10
-62.41872469
 20
30.21103797
 30
0.0
 11
-62.45187172
 21
30.22808091
 31
0.0
  0
LINE
  5
270
100
AcDbEntity
  8
SLD-0
  6
CONTINUOUS
 62
       7
100
AcDbLine
 10
-62.45187172
 20
30.22808091
 30
0.0
 11
-62.4855419
 21
30.24403397
 31
0.0
  0
LINE
  5
271
100
AcDbEntity
  8
SLD-0
  6
CONTINUOUS
 62
       7
100
AcDbLine
 10
-62.4855419
 20
30.24403397
 30
0.0
 11
-62.51969443
 21
30.25885983
 31
0.0
  0
LINE
  5
272
100
AcDbEntity
  8
SLD-0
  6
CONTINUOUS
 62
       7
100
AcDbLine
 10
-62.51969443
 20
30.25885983
 30
0.0
 11
-62.55428848
 21
30.27252113
 31
0.0
  0
LINE
  5
273
100
AcDbEntity
  8
SLD-0
  6
CONTINUOUS
 62
       7
100
AcDbLine
 10
-62.55428848
 20
30.27252113
 30
0.0
 11
-62.58928323
 21
30.28498052
 31
0.0
  0
LINE
  5
274
100
AcDbEntity
  8
SLD-0
  6
CONTINUOUS
 62
       7
100
AcDbLine
 10
-62.58928323
 20
30.28498052
 30
0.0
 11
-62.62463788
 21
30.29620068
 31
0.0
  0
LINE
  5
275
100
AcDbEntity
  8
SLD-0
  6
CONTINUOUS
 62
       7
100
AcDbLine
 10
-62.62463788
 20
30.29620068
 30
0.0
 11
-62.6603116
 21
30.30614425
 31
0.0
  0
LINE
  5
276
100
AcDbEntity
  8
SLD-0
  6
CONTINUOUS
 62
       7
100
AcDbLine
 10
-62.6603116
 20
30.30614425
 30
0.0
 11
-62.69626358
 21
30.3147739
 31
0.0
  0
LINE
  5
277
100
AcDbEntity
  8
SLD-0
  6
CONTINUOUS
 62
       7
100
AcDbLine
 10
-62.69626358
 20
30.3147739
 30
0.0
 11
-62.73245256
 21
30.32207221
 31
0.0
  0
LINE
  5
278
100
AcDbEntity
  8
SLD-0
  6
CONTINUOUS
 62
       7
100
AcDbLine
 10
-62.73245256
 20
30.32207221
 30
0.0
 11
-62.76883307
 21
30.32821664
 31
0.0
  0
LINE
  5
279
100
AcDbEntity
  8
SLD-0
  6
CONTINUOUS
 62
       7
100
AcDbLine
 10
-62.76883307
 20
30.32821664
 30
0.0
 11
-62.80535725
 21
30.33349471
 31
0.0
  0
LINE
  5
27A
100
AcDbEntity
  8
SLD-0
  6
CONTINUOUS
 62
       7
100
AcDbLine
 10
-62.80535725
 20
30.33349471
 30
0.0
 11
-62.84197721
 21
30.33819522
 31
0.0
  0
LINE
  5
27B
100
AcDbEntity
  8
SLD-0
  6
CONTINUOUS
 62
       7
100
AcDbLine
 10
-62.84197721
 20
30.33819522
 30
0.0
 11
-62.87864506
 21
30.34260693
 31
0.0
  0
LINE
  5
27C
100
AcDbEntity
  8
SLD-0
  6
CONTINUOUS
 62
       7
100
AcDbLine
 10
-61.82952193
 20
27.85877522
 30
0.0
 11
-61.82952193
 21
27.92137077
 31
0.0
  0
LINE
  5
27D
100
AcDbEntity
  8
SLD-0
  6
CONTINUOUS
 62
       7
100
AcDbLine
 10
-61.82952193
 20
27.92137077
 30
0.0
 11
-61.82952193
 21
27.9839718
 31
0.0
  0
LINE
  5
27E
100
AcDbEntity
  8
SLD-0
  6
CONTINUOUS
 62
       7
100
AcDbLine
 10
-61.82952193
 20
27.9839718
 30
0.0
 11
-61.82952193
 21
28.04658381
 31
0.0
  0
LINE
  5
27F
100
AcDbEntity
  8
SLD-0
  6
CONTINUOUS
 62
       7
100
AcDbLine
 10
-61.82952193
 20
28.04658381
 30
0.0
 11
-61.82952193
 21
28.10921228
 31
0.0
  0
LINE
  5
280
100
AcDbEntity
  8
SLD-0
  6
CONTINUOUS
 62
       7
100
AcDbLine
 10
-61.82952193
 20
28.10921228
 30
0.0
 11
-61.82952193
 21
28.17186269
 31
0.0
  0
LINE
  5
281
100
AcDbEntity
  8
SLD-0
  6
CONTINUOUS
 62
       7
100
AcDbLine
 10
-61.82952193
 20
28.17186269
 30
0.0
 11
-61.82952193
 21
28.23454052
 31
0.0
  0
LINE
  5
282
100
AcDbEntity
  8
SLD-0
  6
CONTINUOUS
 62
       7
100
AcDbLine
 10
-61.82952193
 20
28.23454052
 30
0.0
 11
-61.82952193
 21
28.29725128
 31
0.0
  0
LINE
  5
283
100
AcDbEntity
  8
SLD-0
  6
CONTINUOUS
 62
       7
100
AcDbLine
 10
-61.82952193
 20
28.29725128
 30
0.0
 11
-61.82952193
 21
28.36000043
 31
0.0
  0
LINE
  5
284
100
AcDbEntity
  8
SLD-0
  6
CONTINUOUS
 62
       7
100
AcDbLine
 10
-61.82952193
 20
28.36000043
 30
0.0
 11
-61.82952193
 21
28.42279347
 31
0.0
  0
LINE
  5
285
100
AcDbEntity
  8
SLD-0
  6
CONTINUOUS
 62
       7
100
AcDbLine
 10
-61.82952193
 20
28.42279347
 30
0.0
 11
-61.82952193
 21
28.48563588
 31
0.0
  0
LINE
  5
286
100
AcDbEntity
  8
SLD-0
  6
CONTINUOUS
 62
       7
100
AcDbLine
 10
-61.82952193
 20
28.48563588
 30
0.0
 11
-61.82952193
 21
28.54853314
 31
0.0
  0
LINE
  5
287
100
AcDbEntity
  8
SLD-0
  6
CONTINUOUS
 62
       7
100
AcDbLine
 10
-61.82952193
 20
28.54853314
 30
0.0
 11
-61.82952193
 21
28.61149075
 31
0.0
  0
LINE
  5
288
100
AcDbEntity
  8
SLD-0
  6
CONTINUOUS
 62
       7
100
AcDbLine
 10
-61.82952193
 20
28.61149075
 30
0.0
 11
-61.82952193
 21
28.67451419
 31
0.0
  0
LINE
  5
289
100
AcDbEntity
  8
SLD-0
  6
CONTINUOUS
 62
       7
100
AcDbLine
 10
-61.82952193
 20
28.67451419
 30
0.0
 11
-61.82952193
 21
28.73760894
 31
0.0
  0
LINE
  5
28A
100
AcDbEntity
  8
SLD-0
  6
CONTINUOUS
 62
       7
100
AcDbLine
 10
-61.82952193
 20
28.73760894
 30
0.0
 11
-61.82952193
 21
28.8007805
 31
0.0
  0
LINE
  5
28B
100
AcDbEntity
  8
SLD-0
  6
CONTINUOUS
 62
       7
100
AcDbLine
 10
-61.82952193
 20
28.8007805
 30
0.0
 11
-61.82952193
 21
28.86403434
 31
0.0
  0
LINE
  5
28C
100
AcDbEntity
  8
SLD-0
  6
CONTINUOUS
 62
       7
100
AcDbLine
 10
-61.82952193
 20
28.86403434
 30
0.0
 11
-61.82952193
 21
28.92737595
 31
0.0
  0
LINE
  5
28D
100
AcDbEntity
  8
SLD-0
  6
CONTINUOUS
 62
       7
100
AcDbLine
 10
-61.82952193
 20
28.92737595
 30
0.0
 11
-61.82952193
 21
28.99081082
 31
0.0
  0
LINE
  5
28E
100
AcDbEntity
  8
SLD-0
  6
CONTINUOUS
 62
       7
100
AcDbLine
 10
-61.82952193
 20
28.99081082
 30
0.0
 11
-61.82952193
 21
29.05434443
 31
0.0
  0
LINE
  5
28F
100
AcDbEntity
  8
SLD-0
  6
CONTINUOUS
 62
       7
100
AcDbLine
 10
-61.82952193
 20
29.05434443
 30
0.0
 11
-61.82952193
 21
29.11798227
 31
0.0
  0
LINE
  5
290
100
AcDbEntity
  8
SLD-0
  6
CONTINUOUS
 62
       7
100
AcDbLine
 10
-61.82952193
 20
29.11798227
 30
0.0
 11
-61.82952193
 21
29.18172983
 31
0.0
  0
LINE
  5
291
100
AcDbEntity
  8
SLD-0
  6
CONTINUOUS
 62
       7
100
AcDbLine
 10
-61.82952193
 20
29.18172983
 30
0.0
 11
-61.82952193
 21
29.24559258
 31
0.0
  0
LINE
  5
292
100
AcDbEntity
  8
SLD-0
  6
CONTINUOUS
 62
       7
100
AcDbLine
 10
-61.82952193
 20
29.24559258
 30
0.0
 11
-61.82952193
 21
29.30957598
 31
0.0
  0
LINE
  5
293
100
AcDbEntity
  8
SLD-0
  6
CONTINUOUS
 62
       7
100
AcDbLine
 10
-61.82952193
 20
29.30957598
 30
0.0
 11
-61.82952193
 21
29.37366888
 31
0.0
  0
LINE
  5
294
100
AcDbEntity
  8
SLD-0
  6
CONTINUOUS
 62
       7
100
AcDbLine
 10
-61.82952193
 20
29.37366888
 30
0.0
 11
-61.82952193
 21
29.4378196
 31
0.0
  0
LINE
  5
295
100
AcDbEntity
  8
SLD-0
  6
CONTINUOUS
 62
       7
100
AcDbLine
 10
-61.82952193
 20
-34.42356259
 30
0.0
 11
-61.82952193
 21
-34.48615814
 31
0.0
  0
LINE
  5
296
100
AcDbEntity
  8
SLD-0
  6
CONTINUOUS
 62
       7
100
AcDbLine
 10
-61.82952193
 20
-34.48615814
 30
0.0
 11
-61.82952193
 21
-34.54875918
 31
0.0
  0
LINE
  5
297
100
AcDbEntity
  8
SLD-0
  6
CONTINUOUS
 62
       7
100
AcDbLine
 10
-61.82952193
 20
-34.54875918
 30
0.0
 11
-61.82952193
 21
-34.61137119
 31
0.0
  0
LINE
  5
298
100
AcDbEntity
  8
SLD-0
  6
CONTINUOUS
 62
       7
100
AcDbLine
 10
-61.82952193
 20
-34.61137119
 30
0.0
 11
-61.82952193
 21
-34.67399965
 31
0.0
  0
LINE
  5
299
100
AcDbEntity
  8
SLD-0
  6
CONTINUOUS
 62
       7
100
AcDbLine
 10
-61.82952193
 20
-34.67399965
 30
0.0
 11
-61.82952193
 21
-34.73665006
 31
0.0
  0
LINE
  5
29A
100
AcDbEntity
  8
SLD-0
  6
CONTINUOUS
 62
       7
100
AcDbLine
 10
-61.82952193
 20
-34.73665006
 30
0.0
 11
-61.82952193
 21
-34.7993279
 31
0.0
  0
LINE
  5
29B
100
AcDbEntity
  8
SLD-0
  6
CONTINUOUS
 62
       7
100
AcDbLine
 10
-61.82952193
 20
-34.7993279
 30
0.0
 11
-61.82952193
 21
-34.86203865
 31
0.0
  0
LINE
  5
29C
100
AcDbEntity
  8
SLD-0
  6
CONTINUOUS
 62
       7
100
AcDbLine
 10
-61.82952193
 20
-34.86203865
 30
0.0
 11
-61.82952193
 21
-34.9247878
 31
0.0
  0
LINE
  5
29D
100
AcDbEntity
  8
SLD-0
  6
CONTINUOUS
 62
       7
100
AcDbLine
 10
-61.82952193
 20
-34.9247878
 30
0.0
 11
-61.82952193
 21
-34.98758084
 31
0.0
  0
LINE
  5
29E
100
AcDbEntity
  8
SLD-0
  6
CONTINUOUS
 62
       7
100
AcDbLine
 10
-61.82952193
 20
-34.98758084
 30
0.0
 11
-61.82952193
 21
-35.05042325
 31
0.0
  0
LINE
  5
29F
100
AcDbEntity
  8
SLD-0
  6
CONTINUOUS
 62
       7
100
AcDbLine
 10
-61.82952193
 20
-35.05042325
 30
0.0
 11
-61.82952193
 21
-35.11332052
 31
0.0
  0
LINE
  5
2A0
100
AcDbEntity
  8
SLD-0
  6
CONTINUOUS
 62
       7
100
AcDbLine
 10
-61.82952193
 20
-35.11332052
 30
0.0
 11
-61.82952193
 21
-35.17627812
 31
0.0
  0
LINE
  5
2A1
100
AcDbEntity
  8
SLD-0
  6
CONTINUOUS
 62
       7
100
AcDbLine
 10
-61.82952193
 20
-35.17627812
 30
0.0
 11
-61.82952193
 21
-35.23930156
 31
0.0
  0
LINE
  5
2A2
100
AcDbEntity
  8
SLD-0
  6
CONTINUOUS
 62
       7
100
AcDbLine
 10
-61.82952193
 20
-35.23930156
 30
0.0
 11
-61.82952193
 21
-35.30239632
 31
0.0
  0
LINE
  5
2A3
100
AcDbEntity
  8
SLD-0
  6
CONTINUOUS
 62
       7
100
AcDbLine
 10
-61.82952193
 20
-35.30239632
 30
0.0
 11
-61.82952193
 21
-35.36556787
 31
0.0
  0
LINE
  5
2A4
100
AcDbEntity
  8
SLD-0
  6
CONTINUOUS
 62
       7
100
AcDbLine
 10
-61.82952193
 20
-35.36556787
 30
0.0
 11
-61.82952193
 21
-35.42882171
 31
0.0
  0
LINE
  5
2A5
100
AcDbEntity
  8
SLD-0
  6
CONTINUOUS
 62
       7
100
AcDbLine
 10
-61.82952193
 20
-35.42882171
 30
0.0
 11
-61.82952193
 21
-35.49216332
 31
0.0
  0
LINE
  5
2A6
100
AcDbEntity
  8
SLD-0
  6
CONTINUOUS
 62
       7
100
AcDbLine
 10
-61.82952193
 20
-35.49216332
 30
0.0
 11
-61.82952193
 21
-35.55559819
 31
0.0
  0
LINE
  5
2A7
100
AcDbEntity
  8
SLD-0
  6
CONTINUOUS
 62
       7
100
AcDbLine
 10
-61.82952193
 20
-35.55559819
 30
0.0
 11
-61.82952193
 21
-35.6191318
 31
0.0
  0
LINE
  5
2A8
100
AcDbEntity
  8
SLD-0
  6
CONTINUOUS
 62
       7
100
AcDbLine
 10
-61.82952193
 20
-35.6191318
 30
0.0
 11
-61.82952193
 21
-35.68276964
 31
0.0
  0
LINE
  5
2A9
100
AcDbEntity
  8
SLD-0
  6
CONTINUOUS
 62
       7
100
AcDbLine
 10
-61.82952193
 20
-35.68276964
 30
0.0
 11
-61.82952193
 21
-35.7465172
 31
0.0
  0
LINE
  5
2AA
100
AcDbEntity
  8
SLD-0
  6
CONTINUOUS
 62
       7
100
AcDbLine
 10
-61.82952193
 20
-35.7465172
 30
0.0
 11
-61.82952193
 21
-35.81037996
 31
0.0
  0
LINE
  5
2AB
100
AcDbEntity
  8
SLD-0
  6
CONTINUOUS
 62
       7
100
AcDbLine
 10
-61.82952193
 20
-35.81037996
 30
0.0
 11
-61.82952193
 21
-35.87436335
 31
0.0
  0
LINE
  5
2AC
100
AcDbEntity
  8
SLD-0
  6
CONTINUOUS
 62
       7
100
AcDbLine
 10
-61.82952193
 20
-35.87436335
 30
0.0
 11
-61.82952193
 21
-35.93845626
 31
0.0
  0
LINE
  5
2AD
100
AcDbEntity
  8
SLD-0
  6
CONTINUOUS
 62
       7
100
AcDbLine
 10
-61.82952193
 20
-35.93845626
 30
0.0
 11
-61.82952193
 21
-36.00260698
 31
0.0
  0
LINE
  5
2AE
100
AcDbEntity
  8
SLD-0
  6
CONTINUOUS
 62
       7
100
AcDbLine
 10
-61.82952193
 20
-36.00260698
 30
0.0
 11
-61.8389706
 21
-36.03834996
 31
0.0
  0
LINE
  5
2AF
100
AcDbEntity
  8
SLD-0
  6
CONTINUOUS
 62
       7
100
AcDbLine
 10
-61.8389706
 20
-36.03834996
 30
0.0
 11
-61.84875983
 21
-36.07399142
 31
0.0
  0
LINE
  5
2B0
100
AcDbEntity
  8
SLD-0
  6
CONTINUOUS
 62
       7
100
AcDbLine
 10
-61.84875983
 20
-36.07399142
 30
0.0
 11
-61.85923018
 21
-36.10942983
 31
0.0
  0
LINE
  5
2B1
100
AcDbEntity
  8
SLD-0
  6
CONTINUOUS
 62
       7
100
AcDbLine
 10
-61.85923018
 20
-36.10942983
 30
0.0
 11
-61.87072193
 21
-36.14456372
 31
0.0
  0
LINE
  5
2B2
100
AcDbEntity
  8
SLD-0
  6
CONTINUOUS
 62
       7
100
AcDbLine
 10
-61.87072193
 20
-36.14456372
 30
0.0
 11
-61.8834757
 21
-36.17930869
 31
0.0
  0
LINE
  5
2B3
100
AcDbEntity
  8
SLD-0
  6
CONTINUOUS
 62
       7
100
AcDbLine
 10
-61.8834757
 20
-36.17930869
 30
0.0
 11
-61.89748877
 21
-36.21362202
 31
0.0
  0
LINE
  5
2B4
100
AcDbEntity
  8
SLD-0
  6
CONTINUOUS
 62
       7
100
AcDbLine
 10
-61.89748877
 20
-36.21362202
 30
0.0
 11
-61.91272194
 21
-36.24746728
 31
0.0
  0
LINE
  5
2B5
100
AcDbEntity
  8
SLD-0
  6
CONTINUOUS
 62
       7
100
AcDbLine
 10
-61.91272194
 20
-36.24746728
 30
0.0
 11
-61.92913601
 21
-36.280808
 31
0.0
  0
LINE
  5
2B6
100
AcDbEntity
  8
SLD-0
  6
CONTINUOUS
 62
       7
100
AcDbLine
 10
-61.92913601
 20
-36.280808
 30
0.0
 11
-61.94669177
 21
-36.31360773
 31
0.0
  0
LINE
  5
2B7
100
AcDbEntity
  8
SLD-0
  6
CONTINUOUS
 62
       7
100
AcDbLine
 10
-61.94669177
 20
-36.31360773
 30
0.0
 11
-61.96535003
 21
-36.34583001
 31
0.0
  0
LINE
  5
2B8
100
AcDbEntity
  8
SLD-0
  6
CONTINUOUS
 62
       7
100
AcDbLine
 10
-61.96535003
 20
-36.34583001
 30
0.0
 11
-61.98507158
 21
-36.3774384
 31
0.0
  0
LINE
  5
2B9
100
AcDbEntity
  8
SLD-0
  6
CONTINUOUS
 62
       7
100
AcDbLine
 10
-61.98507158
 20
-36.3774384
 30
0.0
 11
-62.00581722
 21
-36.40839643
 31
0.0
  0
LINE
  5
2BA
100
AcDbEntity
  8
SLD-0
  6
CONTINUOUS
 62
       7
100
AcDbLine
 10
-62.00581722
 20
-36.40839643
 30
0.0
 11
-62.02754774
 21
-36.43866766
 31
0.0
  0
LINE
  5
2BB
100
AcDbEntity
  8
SLD-0
  6
CONTINUOUS
 62
       7
100
AcDbLine
 10
-62.02754774
 20
-36.43866766
 30
0.0
 11
-62.05022396
 21
-36.46821563
 31
0.0
  0
LINE
  5
2BC
100
AcDbEntity
  8
SLD-0
  6
CONTINUOUS
 62
       7
100
AcDbLine
 10
-62.05022396
 20
-36.46821563
 30
0.0
 11
-62.07380747
 21
-36.49700478
 31
0.0
  0
LINE
  5
2BD
100
AcDbEntity
  8
SLD-0
  6
CONTINUOUS
 62
       7
100
AcDbLine
 10
-62.07380747
 20
-36.49700478
 30
0.0
 11
-62.09826931
 21
-36.52500959
 31
0.0
  0
LINE
  5
2BE
100
AcDbEntity
  8
SLD-0
  6
CONTINUOUS
 62
       7
100
AcDbLine
 10
-62.09826931
 20
-36.52500959
 30
0.0
 11
-62.12358645
 21
-36.55221097
 31
0.0
  0
LINE
  5
2BF
100
AcDbEntity
  8
SLD-0
  6
CONTINUOUS
 62
       7
100
AcDbLine
 10
-62.12358645
 20
-36.55221097
 30
0.0
 11
-62.14973596
 21
-36.57858994
 31
0.0
  0
LINE
  5
2C0
100
AcDbEntity
  8
SLD-0
  6
CONTINUOUS
 62
       7
100
AcDbLine
 10
-62.14973596
 20
-36.57858994
 30
0.0
 11
-62.17669493
 21
-36.60412748
 31
0.0
  0
LINE
  5
2C1
100
AcDbEntity
  8
SLD-0
  6
CONTINUOUS
 62
       7
100
AcDbLine
 10
-62.17669493
 20
-36.60412748
 30
0.0
 11
-62.20444042
 21
-36.62880462
 31
0.0
  0
LINE
  5
2C2
100
AcDbEntity
  8
SLD-0
  6
CONTINUOUS
 62
       7
100
AcDbLine
 10
-62.20444042
 20
-36.62880462
 30
0.0
 11
-62.23294951
 21
-36.65260234
 31
0.0
  0
LINE
  5
2C3
100
AcDbEntity
  8
SLD-0
  6
CONTINUOUS
 62
       7
100
AcDbLine
 10
-62.23294951
 20
-36.65260234
 30
0.0
 11
-62.26219928
 21
-36.67550167
 31
0.0
  0
LINE
  5
2C4
100
AcDbEntity
  8
SLD-0
  6
CONTINUOUS
 62
       7
100
AcDbLine
 10
-62.26219928
 20
-36.67550167
 30
0.0
 11
-62.2921668
 21
-36.69748359
 31
0.0
  0
LINE
  5
2C5
100
AcDbEntity
  8
SLD-0
  6
CONTINUOUS
 62
       7
100
AcDbLine
 10
-62.2921668
 20
-36.69748359
 30
0.0
 11
-62.32282915
 21
-36.71852912
 31
0.0
  0
LINE
  5
2C6
100
AcDbEntity
  8
SLD-0
  6
CONTINUOUS
 62
       7
100
AcDbLine
 10
-62.32282915
 20
-36.71852912
 30
0.0
 11
-62.35416339
 21
-36.73861924
 31
0.0
  0
LINE
  5
2C7
100
AcDbEntity
  8
SLD-0
  6
CONTINUOUS
 62
       7
100
AcDbLine
 10
-62.35416339
 20
-36.73861924
 30
0.0
 11
-62.38614164
 21
-36.75772988
 31
0.0
  0
LINE
  5
2C8
100
AcDbEntity
  8
SLD-0
  6
CONTINUOUS
 62
       7
100
AcDbLine
 10
-62.38614164
 20
-36.75772988
 30
0.0
 11
-62.41872469
 21
-36.77582535
 31
0.0
  0
LINE
  5
2C9
100
AcDbEntity
  8
SLD-0
  6
CONTINUOUS
 62
       7
100
AcDbLine
 10
-62.41872469
 20
-36.77582535
 30
0.0
 11
-62.45187172
 21
-36.79286828
 31
0.0
  0
LINE
  5
2CA
100
AcDbEntity
  8
SLD-0
  6
CONTINUOUS
 62
       7
100
AcDbLine
 10
-62.45187172
 20
-36.79286828
 30
0.0
 11
-62.4855419
 21
-36.80882135
 31
0.0
  0
LINE
  5
2CB
100
AcDbEntity
  8
SLD-0
  6
CONTINUOUS
 62
       7
100
AcDbLine
 10
-62.4855419
 20
-36.80882135
 30
0.0
 11
-62.51969443
 21
-36.8236472
 31
0.0
  0
LINE
  5
2CC
100
AcDbEntity
  8
SLD-0
  6
CONTINUOUS
 62
       7
100
AcDbLine
 10
-62.51969443
 20
-36.8236472
 30
0.0
 11
-62.55428848
 21
-36.8373085
 31
0.0
  0
LINE
  5
2CD
100
AcDbEntity
  8
SLD-0
  6
CONTINUOUS
 62
       7
100
AcDbLine
 10
-62.55428848
 20
-36.8373085
 30
0.0
 11
-62.58928323
 21
-36.8497679
 31
0.0
  0
LINE
  5
2CE
100
AcDbEntity
  8
SLD-0
  6
CONTINUOUS
 62
       7
100
AcDbLine
 10
-62.58928323
 20
-36.8497679
 30
0.0
 11
-62.62463788
 21
-36.86098806
 31
0.0
  0
LINE
  5
2CF
100
AcDbEntity
  8
SLD-0
  6
CONTINUOUS
 62
       7
100
AcDbLine
 10
-62.62463788
 20
-36.86098806
 30
0.0
 11
-62.6603116
 21
-36.87093163
 31
0.0
  0
LINE
  5
2D0
100
AcDbEntity
  8
SLD-0
  6
CONTINUOUS
 62
       7
100
AcDbLine
 10
-62.6603116
 20
-36.87093163
 30
0.0
 11
-62.69626358
 21
-36.87956127
 31
0.0
  0
LINE
  5
2D1
100
AcDbEntity
  8
SLD-0
  6
CONTINUOUS
 62
       7
100
AcDbLine
 10
-62.69626358
 20
-36.87956127
 30
0.0
 11
-62.73245256
 21
-36.88685959
 31
0.0
  0
LINE
  5
2D2
100
AcDbEntity
  8
SLD-0
  6
CONTINUOUS
 62
       7
100
AcDbLine
 10
-62.73245256
 20
-36.88685959
 30
0.0
 11
-62.76883307
 21
-36.89300401
 31
0.0
  0
LINE
  5
2D3
100
AcDbEntity
  8
SLD-0
  6
CONTINUOUS
 62
       7
100
AcDbLine
 10
-62.76883307
 20
-36.89300401
 30
0.0
 11
-62.80535725
 21
-36.89828208
 31
0.0
  0
LINE
  5
2D4
100
AcDbEntity
  8
SLD-0
  6
CONTINUOUS
 62
       7
100
AcDbLine
 10
-62.80535725
 20
-36.89828208
 30
0.0
 11
-62.84197721
 21
-36.90298259
 31
0.0
  0
LINE
  5
2D5
100
AcDbEntity
  8
SLD-0
  6
CONTINUOUS
 62
       7
100
AcDbLine
 10
-62.84197721
 20
-36.90298259
 30
0.0
 11
-62.87864506
 21
-36.90739431
 31
0.0
  0
LINE
  5
2D6
100
AcDbEntity
  8
SLD-0
  6
CONTINUOUS
 62
       7
100
AcDbLine
 10
-63.42594468
 20
-36.90739431
 30
0.0
 11
-63.40416205
 21
-36.90739431
 31
0.0
  0
LINE
  5
2D7
100
AcDbEntity
  8
SLD-0
  6
CONTINUOUS
 62
       7
100
AcDbLine
 10
-63.40416205
 20
-36.90739431
 30
0.0
 11
-63.38237716
 21
-36.90739431
 31
0.0
  0
LINE
  5
2D8
100
AcDbEntity
  8
SLD-0
  6
CONTINUOUS
 62
       7
100
AcDbLine
 10
-63.38237716
 20
-36.90739431
 30
0.0
 11
-63.36058776
 21
-36.90739431
 31
0.0
  0
LINE
  5
2D9
100
AcDbEntity
  8
SLD-0
  6
CONTINUOUS
 62
       7
100
AcDbLine
 10
-63.36058776
 20
-36.90739431
 30
0.0
 11
-63.33879159
 21
-36.90739431
 31
0.0
  0
LINE
  5
2DA
100
AcDbEntity
  8
SLD-0
  6
CONTINUOUS
 62
       7
100
AcDbLine
 10
-63.33879159
 20
-36.90739431
 30
0.0
 11
-63.31698639
 21
-36.90739431
 31
0.0
  0
LINE
  5
2DB
100
AcDbEntity
  8
SLD-0
  6
CONTINUOUS
 62
       7
100
AcDbLine
 10
-63.31698639
 20
-36.90739431
 30
0.0
 11
-63.29516991
 21
-36.90739431
 31
0.0
  0
LINE
  5
2DC
100
AcDbEntity
  8
SLD-0
  6
CONTINUOUS
 62
       7
100
AcDbLine
 10
-63.29516991
 20
-36.90739431
 30
0.0
 11
-63.2733399
 21
-36.90739431
 31
0.0
  0
LINE
  5
2DD
100
AcDbEntity
  8
SLD-0
  6
CONTINUOUS
 62
       7
100
AcDbLine
 10
-63.2733399
 20
-36.90739431
 30
0.0
 11
-63.2514951
 21
-36.90739431
 31
0.0
  0
LINE
  5
2DE
100
AcDbEntity
  8
SLD-0
  6
CONTINUOUS
 62
       7
100
AcDbLine
 10
-63.2514951
 20
-36.90739431
 30
0.0
 11
-63.22963612
 21
-36.90739431
 31
0.0
  0
LINE
  5
2DF
100
AcDbEntity
  8
SLD-0
  6
CONTINUOUS
 62
       7
100
AcDbLine
 10
-63.22963612
 20
-36.90739431
 30
0.0
 11
-63.2077638
 21
-36.90739431
 31
0.0
  0
LINE
  5
2E0
100
AcDbEntity
  8
SLD-0
  6
CONTINUOUS
 62
       7
100
AcDbLine
 10
-63.2077638
 20
-36.90739431
 30
0.0
 11
-63.18587897
 21
-36.90739431
 31
0.0
  0
LINE
  5
2E1
100
AcDbEntity
  8
SLD-0
  6
CONTINUOUS
 62
       7
100
AcDbLine
 10
-63.18587897
 20
-36.90739431
 30
0.0
 11
-63.16398247
 21
-36.90739431
 31
0.0
  0
LINE
  5
2E2
100
AcDbEntity
  8
SLD-0
  6
CONTINUOUS
 62
       7
100
AcDbLine
 10
-63.16398247
 20
-36.90739431
 30
0.0
 11
-63.14207513
 21
-36.90739431
 31
0.0
  0
LINE
  5
2E3
100
AcDbEntity
  8
SLD-0
  6
CONTINUOUS
 62
       7
100
AcDbLine
 10
-63.14207513
 20
-36.90739431
 30
0.0
 11
-63.12015778
 21
-36.90739431
 31
0.0
  0
LINE
  5
2E4
100
AcDbEntity
  8
SLD-0
  6
CONTINUOUS
 62
       7
100
AcDbLine
 10
-63.12015778
 20
-36.90739431
 30
0.0
 11
-63.09823126
 21
-36.90739431
 31
0.0
  0
LINE
  5
2E5
100
AcDbEntity
  8
SLD-0
  6
CONTINUOUS
 62
       7
100
AcDbLine
 10
-63.09823126
 20
-36.90739431
 30
0.0
 11
-63.0762964
 21
-36.90739431
 31
0.0
  0
LINE
  5
2E6
100
AcDbEntity
  8
SLD-0
  6
CONTINUOUS
 62
       7
100
AcDbLine
 10
-63.0762964
 20
-36.90739431
 30
0.0
 11
-63.05435404
 21
-36.90739431
 31
0.0
  0
LINE
  5
2E7
100
AcDbEntity
  8
SLD-0
  6
CONTINUOUS
 62
       7
100
AcDbLine
 10
-63.05435404
 20
-36.90739431
 30
0.0
 11
-63.03240501
 21
-36.90739431
 31
0.0
  0
LINE
  5
2E8
100
AcDbEntity
  8
SLD-0
  6
CONTINUOUS
 62
       7
100
AcDbLine
 10
-63.03240501
 20
-36.90739431
 30
0.0
 11
-63.01045014
 21
-36.90739431
 31
0.0
  0
LINE
  5
2E9
100
AcDbEntity
  8
SLD-0
  6
CONTINUOUS
 62
       7
100
AcDbLine
 10
-63.01045014
 20
-36.90739431
 30
0.0
 11
-62.98849027
 21
-36.90739431
 31
0.0
  0
LINE
  5
2EA
100
AcDbEntity
  8
SLD-0
  6
CONTINUOUS
 62
       7
100
AcDbLine
 10
-62.98849027
 20
-36.90739431
 30
0.0
 11
-62.96652623
 21
-36.90739431
 31
0.0
  0
LINE
  5
2EB
100
AcDbEntity
  8
SLD-0
  6
CONTINUOUS
 62
       7
100
AcDbLine
 10
-62.96652623
 20
-36.90739431
 30
0.0
 11
-62.94455886
 21
-36.90739431
 31
0.0
  0
LINE
  5
2EC
100
AcDbEntity
  8
SLD-0
  6
CONTINUOUS
 62
       7
100
AcDbLine
 10
-62.94455886
 20
-36.90739431
 30
0.0
 11
-62.92258898
 21
-36.90739431
 31
0.0
  0
LINE
  5
2ED
100
AcDbEntity
  8
SLD-0
  6
CONTINUOUS
 62
       7
100
AcDbLine
 10
-62.92258898
 20
-36.90739431
 30
0.0
 11
-62.90061743
 21
-36.90739431
 31
0.0
  0
LINE
  5
2EE
100
AcDbEntity
  8
SLD-0
  6
CONTINUOUS
 62
       7
100
AcDbLine
 10
-62.90061743
 20
-36.90739431
 30
0.0
 11
-62.87864506
 21
-36.90739431
 31
0.0
  0
LINE
  5
2EF
100
AcDbEntity
  8
SLD-0
  6
CONTINUOUS
 62
       7
100
AcDbLine
 10
-63.42594468
 20
-38.05739515
 30
0.0
 11
-63.40416205
 21
-38.05739515
 31
0.0
  0
LINE
  5
2F0
100
AcDbEntity
  8
SLD-0
  6
CONTINUOUS
 62
       7
100
AcDbLine
 10
-63.40416205
 20
-38.05739515
 30
0.0
 11
-63.38237716
 21
-38.05739515
 31
0.0
  0
LINE
  5
2F1
100
AcDbEntity
  8
SLD-0
  6
CONTINUOUS
 62
       7
100
AcDbLine
 10
-63.38237716
 20
-38.05739515
 30
0.0
 11
-63.36058776
 21
-38.05739515
 31
0.0
  0
LINE
  5
2F2
100
AcDbEntity
  8
SLD-0
  6
CONTINUOUS
 62
       7
100
AcDbLine
 10
-63.36058776
 20
-38.05739515
 30
0.0
 11
-63.33879159
 21
-38.05739515
 31
0.0
  0
LINE
  5
2F3
100
AcDbEntity
  8
SLD-0
  6
CONTINUOUS
 62
       7
100
AcDbLine
 10
-63.33879159
 20
-38.05739515
 30
0.0
 11
-63.31698639
 21
-38.05739515
 31
0.0
  0
LINE
  5
2F4
100
AcDbEntity
  8
SLD-0
  6
CONTINUOUS
 62
       7
100
AcDbLine
 10
-63.31698639
 20
-38.05739515
 30
0.0
 11
-63.29516991
 21
-38.05739515
 31
0.0
  0
LINE
  5
2F5
100
AcDbEntity
  8
SLD-0
  6
CONTINUOUS
 62
       7
100
AcDbLine
 10
-63.29516991
 20
-38.05739515
 30
0.0
 11
-63.2733399
 21
-38.05739515
 31
0.0
  0
LINE
  5
2F6
100
AcDbEntity
  8
SLD-0
  6
CONTINUOUS
 62
       7
100
AcDbLine
 10
-63.2733399
 20
-38.05739515
 30
0.0
 11
-63.2514951
 21
-38.05739515
 31
0.0
  0
LINE
  5
2F7
100
AcDbEntity
  8
SLD-0
  6
CONTINUOUS
 62
       7
100
AcDbLine
 10
-63.2514951
 20
-38.05739515
 30
0.0
 11
-63.22963612
 21
-38.05739515
 31
0.0
  0
LINE
  5
2F8
100
AcDbEntity
  8
SLD-0
  6
CONTINUOUS
 62
       7
100
AcDbLine
 10
-63.22963612
 20
-38.05739515
 30
0.0
 11
-63.2077638
 21
-38.05739515
 31
0.0
  0
LINE
  5
2F9
100
AcDbEntity
  8
SLD-0
  6
CONTINUOUS
 62
       7
100
AcDbLine
 10
-63.2077638
 20
-38.05739515
 30
0.0
 11
-63.18587897
 21
-38.05739515
 31
0.0
  0
LINE
  5
2FA
100
AcDbEntity
  8
SLD-0
  6
CONTINUOUS
 62
       7
100
AcDbLine
 10
-63.18587897
 20
-38.05739515
 30
0.0
 11
-63.16398247
 21
-38.05739515
 31
0.0
  0
LINE
  5
2FB
100
AcDbEntity
  8
SLD-0
  6
CONTINUOUS
 62
       7
100
AcDbLine
 10
-63.16398247
 20
-38.05739515
 30
0.0
 11
-63.14207513
 21
-38.05739515
 31
0.0
  0
LINE
  5
2FC
100
AcDbEntity
  8
SLD-0
  6
CONTINUOUS
 62
       7
100
AcDbLine
 10
-63.14207513
 20
-38.05739515
 30
0.0
 11
-63.12015778
 21
-38.05739515
 31
0.0
  0
LINE
  5
2FD
100
AcDbEntity
  8
SLD-0
  6
CONTINUOUS
 62
       7
100
AcDbLine
 10
-63.12015778
 20
-38.05739515
 30
0.0
 11
-63.09823126
 21
-38.05739515
 31
0.0
  0
LINE
  5
2FE
100
AcDbEntity
  8
SLD-0
  6
CONTINUOUS
 62
       7
100
AcDbLine
 10
-63.09823126
 20
-38.05739515
 30
0.0
 11
-63.0762964
 21
-38.05739515
 31
0.0
  0
LINE
  5
2FF
100
AcDbEntity
  8
SLD-0
  6
CONTINUOUS
 62
       7
100
AcDbLine
 10
-63.0762964
 20
-38.05739515
 30
0.0
 11
-63.05435404
 21
-38.05739515
 31
0.0
  0
LINE
  5
300
100
AcDbEntity
  8
SLD-0
  6
CONTINUOUS
 62
       7
100
AcDbLine
 10
-63.05435404
 20
-38.05739515
 30
0.0
 11
-63.03240501
 21
-38.05739515
 31
0.0
  0
LINE
  5
301
100
AcDbEntity
  8
SLD-0
  6
CONTINUOUS
 62
       7
100
AcDbLine
 10
-63.03240501
 20
-38.05739515
 30
0.0
 11
-63.01045014
 21
-38.05739515
 31
0.0
  0
LINE
  5
302
100
AcDbEntity
  8
SLD-0
  6
CONTINUOUS
 62
       7
100
AcDbLine
 10
-63.01045014
 20
-38.05739515
 30
0.0
 11
-62.98849027
 21
-38.05739515
 31
0.0
  0
LINE
  5
303
100
AcDbEntity
  8
SLD-0
  6
CONTINUOUS
 62
       7
100
AcDbLine
 10
-62.98849027
 20
-38.05739515
 30
0.0
 11
-62.96652623
 21
-38.05739515
 31
0.0
  0
LINE
  5
304
100
AcDbEntity
  8
SLD-0
  6
CONTINUOUS
 62
       7
100
AcDbLine
 10
-62.96652623
 20
-38.05739515
 30
0.0
 11
-62.94455886
 21
-38.05739515
 31
0.0
  0
LINE
  5
305
100
AcDbEntity
  8
SLD-0
  6
CONTINUOUS
 62
       7
100
AcDbLine
 10
-62.94455886
 20
-38.05739515
 30
0.0
 11
-62.92258898
 21
-38.05739515
 31
0.0
  0
LINE
  5
306
100
AcDbEntity
  8
SLD-0
  6
CONTINUOUS
 62
       7
100
AcDbLine
 10
-62.92258898
 20
-38.05739515
 30
0.0
 11
-62.90061743
 21
-38.05739515
 31
0.0
  0
LINE
  5
307
100
AcDbEntity
  8
SLD-0
  6
CONTINUOUS
 62
       7
100
AcDbLine
 10
-62.90061743
 20
-38.05739515
 30
0.0
 11
-62.87864506
 21
-38.05739515
 31
0.0
  0
LINE
  5
308
100
AcDbEntity
  8
SLD-0
  6
CONTINUOUS
 62
       7
100
AcDbLine
 10
-62.87864506
 20
-38.05739515
 30
0.0
 11
-62.84197317
 21
-38.06302585
 31
0.0
  0
LINE
  5
309
100
AcDbEntity
  8
SLD-0
  6
CONTINUOUS
 62
       7
100
AcDbLine
 10
-62.84197317
 20
-38.06302585
 30
0.0
 11
-62.80534822
 21
-38.0688234
 31
0.0
  0
LINE
  5
30A
100
AcDbEntity
  8
SLD-0
  6
CONTINUOUS
 62
       7
100
AcDbLine
 10
-62.80534822
 20
-38.0688234
 30
0.0
 11
-62.76881715
 21
-38.07495463
 31
0.0
  0
LINE
  5
30B
100
AcDbEntity
  8
SLD-0
  6
CONTINUOUS
 62
       7
100
AcDbLine
 10
-62.76881715
 20
-38.07495463
 30
0.0
 11
-62.73242691
 21
-38.08158639
 31
0.0
  0
LINE
  5
30C
100
AcDbEntity
  8
SLD-0
  6
CONTINUOUS
 62
       7
100
AcDbLine
 10
-62.73242691
 20
-38.08158639
 30
0.0
 11
-62.69622443
 21
-38.08888552
 31
0.0
  0
LINE
  5
30D
100
AcDbEntity
  8
SLD-0
  6
CONTINUOUS
 62
       7
100
AcDbLine
 10
-62.69622443
 20
-38.08888552
 30
0.0
 11
-62.66025665
 21
-38.09701886
 31
0.0
  0
LINE
  5
30E
100
AcDbEntity
  8
SLD-0
  6
CONTINUOUS
 62
       7
100
AcDbLine
 10
-62.66025665
 20
-38.09701886
 30
0.0
 11
-62.62457051
 21
-38.10615326
 31
0.0
  0
LINE
  5
30F
100
AcDbEntity
  8
SLD-0
  6
CONTINUOUS
 62
       7
100
AcDbLine
 10
-62.62457051
 20
-38.10615326
 30
0.0
 11
-62.58921296
 21
-38.11645555
 31
0.0
  0
LINE
  5
310
100
AcDbEntity
  8
SLD-0
  6
CONTINUOUS
 62
       7
100
AcDbLine
 10
-62.58921296
 20
-38.11645555
 30
0.0
 11
-62.55423059
 21
-38.12808669
 31
0.0
  0
LINE
  5
311
100
AcDbEntity
  8
SLD-0
  6
CONTINUOUS
 62
       7
100
AcDbLine
 10
-62.55423059
 20
-38.12808669
 30
0.0
 11
-62.51966358
 21
-38.14109666
 31
0.0
  0
LINE
  5
312
100
AcDbEntity
  8
SLD-0
  6
CONTINUOUS
 62
       7
100
AcDbLine
 10
-62.51966358
 20
-38.14109666
 30
0.0
 11
-62.48554639
 21
-38.15543661
 31
0.0
  0
LINE
  5
313
100
AcDbEntity
  8
SLD-0
  6
CONTINUOUS
 62
       7
100
AcDbLine
 10
-62.48554639
 20
-38.15543661
 30
0.0
 11
-62.45191329
 21
-38.17105423
 31
0.0
  0
LINE
  5
314
100
AcDbEntity
  8
SLD-0
  6
CONTINUOUS
 62
       7
100
AcDbLine
 10
-62.45191329
 20
-38.17105423
 30
0.0
 11
-62.41879853
 21
-38.18789722
 31
0.0
  0
LINE
  5
315
100
AcDbEntity
  8
SLD-0
  6
CONTINUOUS
 62
       7
100
AcDbLine
 10
-62.41879853
 20
-38.18789722
 30
0.0
 11
-62.38623638
 21
-38.20591328
 31
0.0
  0
LINE
  5
316
100
AcDbEntity
  8
SLD-0
  6
CONTINUOUS
 62
       7
100
AcDbLine
 10
-62.38623638
 20
-38.20591328
 30
0.0
 11
-62.3542611
 21
-38.22505011
 31
0.0
  0
LINE
  5
317
100
AcDbEntity
  8
SLD-0
  6
CONTINUOUS
 62
       7
100
AcDbLine
 10
-62.3542611
 20
-38.22505011
 30
0.0
 11
-62.32290694
 21
-38.2452554
 31
0.0
  0
LINE
  5
318
100
AcDbEntity
  8
SLD-0
  6
CONTINUOUS
 62
       7
100
AcDbLine
 10
-62.32290694
 20
-38.2452554
 30
0.0
 11
-62.29220818
 21
-38.26647686
 31
0.0
  0
LINE
  5
319
100
AcDbEntity
  8
SLD-0
  6
CONTINUOUS
 62
       7
100
AcDbLine
 10
-62.29220818
 20
-38.26647686
 30
0.0
 11
-62.26219906
 21
-38.28866216
 31
0.0
  0
LINE
  5
31A
100
AcDbEntity
  8
SLD-0
  6
CONTINUOUS
 62
       7
100
AcDbLine
 10
-62.26219906
 20
-38.28866216
 30
0.0
 11
-62.23291386
 21
-38.31175903
 31
0.0
  0
LINE
  5
31B
100
AcDbEntity
  8
SLD-0
  6
CONTINUOUS
 62
       7
100
AcDbLine
 10
-62.23291386
 20
-38.31175903
 30
0.0
 11
-62.20438507
 21
-38.33572161
 31
0.0
  0
LINE
  5
31C
100
AcDbEntity
  8
SLD-0
  6
CONTINUOUS
 62
       7
100
AcDbLine
 10
-62.20438507
 20
-38.33572161
 30
0.0
 11
-62.17663902
 21
-38.36052673
 31
0.0
  0
LINE
  5
31D
100
AcDbEntity
  8
SLD-0
  6
CONTINUOUS
 62
       7
100
AcDbLine
 10
-62.17663902
 20
-38.36052673
 30
0.0
 11
-62.1497007
 21
-38.38615621
 31
0.0
  0
LINE
  5
31E
100
AcDbEntity
  8
SLD-0
  6
CONTINUOUS
 62
       7
100
AcDbLine
 10
-62.1497007
 20
-38.38615621
 30
0.0
 11
-62.12359509
 21
-38.41259184
 31
0.0
  0
LINE
  5
31F
100
AcDbEntity
  8
SLD-0
  6
CONTINUOUS
 62
       7
100
AcDbLine
 10
-62.12359509
 20
-38.41259184
 30
0.0
 11
-62.09834715
 21
-38.43981543
 31
0.0
  0
LINE
  5
320
100
AcDbEntity
  8
SLD-0
  6
CONTINUOUS
 62
       7
100
AcDbLine
 10
-62.09834715
 20
-38.43981543
 30
0.0
 11
-62.07398188
 21
-38.46780879
 31
0.0
  0
LINE
  5
321
100
AcDbEntity
  8
SLD-0
  6
CONTINUOUS
 62
       7
100
AcDbLine
 10
-62.07398188
 20
-38.46780879
 30
0.0
 11
-62.05052424
 21
-38.49655371
 31
0.0
  0
LINE
  5
322
100
AcDbEntity
  8
SLD-0
  6
CONTINUOUS
 62
       7
100
AcDbLine
 10
-62.05052424
 20
-38.49655371
 30
0.0
 11
-62.02799923
 21
-38.526032
 31
0.0
  0
LINE
  5
323
100
AcDbEntity
  8
SLD-0
  6
CONTINUOUS
 62
       7
100
AcDbLine
 10
-62.02799923
 20
-38.526032
 30
0.0
 11
-62.00643181
 21
-38.55622546
 31
0.0
  0
LINE
  5
324
100
AcDbEntity
  8
SLD-0
  6
CONTINUOUS
 62
       7
100
AcDbLine
 10
-62.00643181
 20
-38.55622546
 30
0.0
 11
-61.98584697
 21
-38.5871159
 31
0.0
  0
LINE
  5
325
100
AcDbEntity
  8
SLD-0
  6
CONTINUOUS
 62
       7
100
AcDbLine
 10
-61.98584697
 20
-38.5871159
 30
0.0
 11
-61.96626941
 21
-38.61868432
 31
0.0
  0
LINE
  5
326
100
AcDbEntity
  8
SLD-0
  6
CONTINUOUS
 62
       7
100
AcDbLine
 10
-61.96626941
 20
-38.61868432
 30
0.0
 11
-61.94771891
 21
-38.65089728
 31
0.0
  0
LINE
  5
327
100
AcDbEntity
  8
SLD-0
  6
CONTINUOUS
 62
       7
100
AcDbLine
 10
-61.94771891
 20
-38.65089728
 30
0.0
 11
-61.93021096
 21
-38.68370883
 31
0.0
  0
LINE
  5
328
100
AcDbEntity
  8
SLD-0
  6
CONTINUOUS
 62
       7
100
AcDbLine
 10
-61.93021096
 20
-38.68370883
 30
0.0
 11
-61.91376095
 21
-38.7170726
 31
0.0
  0
LINE
  5
329
100
AcDbEntity
  8
SLD-0
  6
CONTINUOUS
 62
       7
100
AcDbLine
 10
-61.91376095
 20
-38.7170726
 30
0.0
 11
-61.89838421
 21
-38.75094222
 31
0.0
  0
LINE
  5
32A
100
AcDbEntity
  8
SLD-0
  6
CONTINUOUS
 62
       7
100
AcDbLine
 10
-61.89838421
 20
-38.75094222
 30
0.0
 11
-61.88409613
 21
-38.78527133
 31
0.0
  0
LINE
  5
32B
100
AcDbEntity
  8
SLD-0
  6
CONTINUOUS
 62
       7
100
AcDbLine
 10
-61.88409613
 20
-38.78527133
 30
0.0
 11
-61.87091206
 21
-38.82001357
 31
0.0
  0
LINE
  5
32C
100
AcDbEntity
  8
SLD-0
  6
CONTINUOUS
 62
       7
100
AcDbLine
 10
-61.87091206
 20
-38.82001357
 30
0.0
 11
-61.85884736
 21
-38.85512256
 31
0.0
  0
LINE
  5
32D
100
AcDbEntity
  8
SLD-0
  6
CONTINUOUS
 62
       7
100
AcDbLine
 10
-61.85884736
 20
-38.85512256
 30
0.0
 11
-61.84791739
 21
-38.89055193
 31
0.0
  0
LINE
  5
32E
100
AcDbEntity
  8
SLD-0
  6
CONTINUOUS
 62
       7
100
AcDbLine
 10
-61.84791739
 20
-38.89055193
 30
0.0
 11
-61.83813752
 21
-38.92625533
 31
0.0
  0
LINE
  5
32F
100
AcDbEntity
  8
SLD-0
  6
CONTINUOUS
 62
       7
100
AcDbLine
 10
-61.83813752
 20
-38.92625533
 30
0.0
 11
-61.82952193
 21
-38.96218621
 31
0.0
  0
LINE
  5
330
100
AcDbEntity
  8
SLD-0
  6
CONTINUOUS
 62
       7
100
AcDbLine
 10
-61.82952193
 20
-38.96218621
 30
0.0
 11
-61.82952193
 21
-39.02632266
 31
0.0
  0
LINE
  5
331
100
AcDbEntity
  8
SLD-0
  6
CONTINUOUS
 62
       7
100
AcDbLine
 10
-61.82952193
 20
-39.02632266
 30
0.0
 11
-61.82952193
 21
-39.09044974
 31
0.0
  0
LINE
  5
332
100
AcDbEntity
  8
SLD-0
  6
CONTINUOUS
 62
       7
100
AcDbLine
 10
-61.82952193
 20
-39.09044974
 30
0.0
 11
-61.82952193
 21
-39.15455806
 31
0.0
  0
LINE
  5
333
100
AcDbEntity
  8
SLD-0
  6
CONTINUOUS
 62
       7
100
AcDbLine
 10
-61.82952193
 20
-39.15455806
 30
0.0
 11
-61.82952193
 21
-39.21863824
 31
0.0
  0
LINE
  5
334
100
AcDbEntity
  8
SLD-0
  6
CONTINUOUS
 62
       7
100
AcDbLine
 10
-61.82952193
 20
-39.21863824
 30
0.0
 11
-61.82952193
 21
-39.2826809
 31
0.0
  0
LINE
  5
335
100
AcDbEntity
  8
SLD-0
  6
CONTINUOUS
 62
       7
100
AcDbLine
 10
-61.82952193
 20
-39.2826809
 30
0.0
 11
-61.82952193
 21
-39.34667666
 31
0.0
  0
LINE
  5
336
100
AcDbEntity
  8
SLD-0
  6
CONTINUOUS
 62
       7
100
AcDbLine
 10
-61.82952193
 20
-39.34667666
 30
0.0
 11
-61.82952193
 21
-39.41061614
 31
0.0
  0
LINE
  5
337
100
AcDbEntity
  8
SLD-0
  6
CONTINUOUS
 62
       7
100
AcDbLine
 10
-61.82952193
 20
-39.41061614
 30
0.0
 11
-61.82952193
 21
-39.47448996
 31
0.0
  0
LINE
  5
338
100
AcDbEntity
  8
SLD-0
  6
CONTINUOUS
 62
       7
100
AcDbLine
 10
-61.82952193
 20
-39.47448996
 30
0.0
 11
-61.82952193
 21
-39.53828874
 31
0.0
  0
LINE
  5
339
100
AcDbEntity
  8
SLD-0
  6
CONTINUOUS
 62
       7
100
AcDbLine
 10
-61.82952193
 20
-39.53828874
 30
0.0
 11
-61.82952193
 21
-39.6020031
 31
0.0
  0
LINE
  5
33A
100
AcDbEntity
  8
SLD-0
  6
CONTINUOUS
 62
       7
100
AcDbLine
 10
-61.82952193
 20
-39.6020031
 30
0.0
 11
-61.82952193
 21
-39.66562366
 31
0.0
  0
LINE
  5
33B
100
AcDbEntity
  8
SLD-0
  6
CONTINUOUS
 62
       7
100
AcDbLine
 10
-61.82952193
 20
-39.66562366
 30
0.0
 11
-61.82952193
 21
-39.72914104
 31
0.0
  0
LINE
  5
33C
100
AcDbEntity
  8
SLD-0
  6
CONTINUOUS
 62
       7
100
AcDbLine
 10
-61.82952193
 20
-39.72914104
 30
0.0
 11
-61.82952193
 21
-39.79254586
 31
0.0
  0
LINE
  5
33D
100
AcDbEntity
  8
SLD-0
  6
CONTINUOUS
 62
       7
100
AcDbLine
 10
-61.82952193
 20
-39.79254586
 30
0.0
 11
-61.82952193
 21
-39.85582875
 31
0.0
  0
LINE
  5
33E
100
AcDbEntity
  8
SLD-0
  6
CONTINUOUS
 62
       7
100
AcDbLine
 10
-61.82952193
 20
-39.85582875
 30
0.0
 11
-61.82952193
 21
-39.91898031
 31
0.0
  0
LINE
  5
33F
100
AcDbEntity
  8
SLD-0
  6
CONTINUOUS
 62
       7
100
AcDbLine
 10
-61.82952193
 20
-39.91898031
 30
0.0
 11
-61.82952193
 21
-39.98199117
 31
0.0
  0
LINE
  5
340
100
AcDbEntity
  8
SLD-0
  6
CONTINUOUS
 62
       7
100
AcDbLine
 10
-61.82952193
 20
-39.98199117
 30
0.0
 11
-61.82952193
 21
-40.04485196
 31
0.0
  0
LINE
  5
341
100
AcDbEntity
  8
SLD-0
  6
CONTINUOUS
 62
       7
100
AcDbLine
 10
-61.82952193
 20
-40.04485196
 30
0.0
 11
-61.82952193
 21
-40.10755328
 31
0.0
  0
LINE
  5
342
100
AcDbEntity
  8
SLD-0
  6
CONTINUOUS
 62
       7
100
AcDbLine
 10
-61.82952193
 20
-40.10755328
 30
0.0
 11
-61.82952193
 21
-40.17008577
 31
0.0
  0
LINE
  5
343
100
AcDbEntity
  8
SLD-0
  6
CONTINUOUS
 62
       7
100
AcDbLine
 10
-61.82952193
 20
-40.17008577
 30
0.0
 11
-61.82952193
 21
-40.23244004
 31
0.0
  0
LINE
  5
344
100
AcDbEntity
  8
SLD-0
  6
CONTINUOUS
 62
       7
100
AcDbLine
 10
-61.82952193
 20
-40.23244004
 30
0.0
 11
-61.82952193
 21
-40.2946067
 31
0.0
  0
LINE
  5
345
100
AcDbEntity
  8
SLD-0
  6
CONTINUOUS
 62
       7
100
AcDbLine
 10
-61.82952193
 20
-40.2946067
 30
0.0
 11
-61.82952193
 21
-40.35657639
 31
0.0
  0
LINE
  5
346
100
AcDbEntity
  8
SLD-0
  6
CONTINUOUS
 62
       7
100
AcDbLine
 10
-61.82952193
 20
-40.35657639
 30
0.0
 11
-61.82952193
 21
-40.41833972
 31
0.0
  0
LINE
  5
347
100
AcDbEntity
  8
SLD-0
  6
CONTINUOUS
 62
       7
100
AcDbLine
 10
-61.82952193
 20
-40.41833972
 30
0.0
 11
-61.82952193
 21
-40.47988731
 31
0.0
  0
LINE
  5
348
100
AcDbEntity
  8
SLD-0
  6
CONTINUOUS
 62
       7
100
AcDbLine
 10
-61.82952193
 20
-40.47988731
 30
0.0
 11
-61.82952193
 21
-40.54122873
 31
0.0
  0
LINE
  5
349
100
AcDbEntity
  8
SLD-0
  6
CONTINUOUS
 62
       7
100
AcDbLine
 10
-60.62952011
 20
-40.54122853
 30
0.0
 11
-60.62952011
 21
-40.47863305
 31
0.0
  0
LINE
  5
34A
100
AcDbEntity
  8
SLD-0
  6
CONTINUOUS
 62
       7
100
AcDbLine
 10
-60.62952011
 20
-40.47863305
 30
0.0
 11
-60.62952011
 21
-40.41603208
 31
0.0
  0
LINE
  5
34B
100
AcDbEntity
  8
SLD-0
  6
CONTINUOUS
 62
       7
100
AcDbLine
 10
-60.62952011
 20
-40.41603208
 30
0.0
 11
-60.62952011
 21
-40.35342013
 31
0.0
  0
LINE
  5
34C
100
AcDbEntity
  8
SLD-0
  6
CONTINUOUS
 62
       7
100
AcDbLine
 10
-60.62952011
 20
-40.35342013
 30
0.0
 11
-60.62952011
 21
-40.29079173
 31
0.0
  0
LINE
  5
34D
100
AcDbEntity
  8
SLD-0
  6
CONTINUOUS
 62
       7
100
AcDbLine
 10
-60.62952011
 20
-40.29079173
 30
0.0
 11
-60.62952011
 21
-40.22814139
 31
0.0
  0
LINE
  5
34E
100
AcDbEntity
  8
SLD-0
  6
CONTINUOUS
 62
       7
100
AcDbLine
 10
-60.62952011
 20
-40.22814139
 30
0.0
 11
-60.62952011
 21
-40.16546362
 31
0.0
  0
LINE
  5
34F
100
AcDbEntity
  8
SLD-0
  6
CONTINUOUS
 62
       7
100
AcDbLine
 10
-60.62952011
 20
-40.16546362
 30
0.0
 11
-60.62952011
 21
-40.10275294
 31
0.0
  0
LINE
  5
350
100
AcDbEntity
  8
SLD-0
  6
CONTINUOUS
 62
       7
100
AcDbLine
 10
-60.62952011
 20
-40.10275294
 30
0.0
 11
-60.62952011
 21
-40.04000385
 31
0.0
  0
LINE
  5
351
100
AcDbEntity
  8
SLD-0
  6
CONTINUOUS
 62
       7
100
AcDbLine
 10
-60.62952011
 20
-40.04000385
 30
0.0
 11
-60.62952011
 21
-39.97721088
 31
0.0
  0
LINE
  5
352
100
AcDbEntity
  8
SLD-0
  6
CONTINUOUS
 62
       7
100
AcDbLine
 10
-60.62952011
 20
-39.97721088
 30
0.0
 11
-60.62952011
 21
-39.91436854
 31
0.0
  0
LINE
  5
353
100
AcDbEntity
  8
SLD-0
  6
CONTINUOUS
 62
       7
100
AcDbLine
 10
-60.62952011
 20
-39.91436854
 30
0.0
 11
-60.62952011
 21
-39.85147135
 31
0.0
  0
LINE
  5
354
100
AcDbEntity
  8
SLD-0
  6
CONTINUOUS
 62
       7
100
AcDbLine
 10
-60.62952011
 20
-39.85147135
 30
0.0
 11
-60.62952011
 21
-39.78851381
 31
0.0
  0
LINE
  5
355
100
AcDbEntity
  8
SLD-0
  6
CONTINUOUS
 62
       7
100
AcDbLine
 10
-60.62952011
 20
-39.78851381
 30
0.0
 11
-60.62952011
 21
-39.72549044
 31
0.0
  0
LINE
  5
356
100
AcDbEntity
  8
SLD-0
  6
CONTINUOUS
 62
       7
100
AcDbLine
 10
-60.62952011
 20
-39.72549044
 30
0.0
 11
-60.62952011
 21
-39.66239576
 31
0.0
  0
LINE
  5
357
100
AcDbEntity
  8
SLD-0
  6
CONTINUOUS
 62
       7
100
AcDbLine
 10
-60.62952011
 20
-39.66239576
 30
0.0
 11
-60.62952011
 21
-39.59922429
 31
0.0
  0
LINE
  5
358
100
AcDbEntity
  8
SLD-0
  6
CONTINUOUS
 62
       7
100
AcDbLine
 10
-60.62952011
 20
-39.59922429
 30
0.0
 11
-60.62952011
 21
-39.53597052
 31
0.0
  0
LINE
  5
359
100
AcDbEntity
  8
SLD-0
  6
CONTINUOUS
 62
       7
100
AcDbLine
 10
-60.62952011
 20
-39.53597052
 30
0.0
 11
-60.62952011
 21
-39.47262899
 31
0.0
  0
LINE
  5
35A
100
AcDbEntity
  8
SLD-0
  6
CONTINUOUS
 62
       7
100
AcDbLine
 10
-60.62952011
 20
-39.47262899
 30
0.0
 11
-60.62952011
 21
-39.4091942
 31
0.0
  0
LINE
  5
35B
100
AcDbEntity
  8
SLD-0
  6
CONTINUOUS
 62
       7
100
AcDbLine
 10
-60.62952011
 20
-39.4091942
 30
0.0
 11
-60.62952011
 21
-39.34566067
 31
0.0
  0
LINE
  5
35C
100
AcDbEntity
  8
SLD-0
  6
CONTINUOUS
 62
       7
100
AcDbLine
 10
-60.62952011
 20
-39.34566067
 30
0.0
 11
-60.62952011
 21
-39.28202291
 31
0.0
  0
LINE
  5
35D
100
AcDbEntity
  8
SLD-0
  6
CONTINUOUS
 62
       7
100
AcDbLine
 10
-60.62952011
 20
-39.28202291
 30
0.0
 11
-60.62952011
 21
-39.21827544
 31
0.0
  0
LINE
  5
35E
100
AcDbEntity
  8
SLD-0
  6
CONTINUOUS
 62
       7
100
AcDbLine
 10
-60.62952011
 20
-39.21827544
 30
0.0
 11
-60.62952011
 21
-39.15441277
 31
0.0
  0
LINE
  5
35F
100
AcDbEntity
  8
SLD-0
  6
CONTINUOUS
 62
       7
100
AcDbLine
 10
-60.62952011
 20
-39.15441277
 30
0.0
 11
-60.62952011
 21
-39.09042946
 31
0.0
  0
LINE
  5
360
100
AcDbEntity
  8
SLD-0
  6
CONTINUOUS
 62
       7
100
AcDbLine
 10
-60.62952011
 20
-39.09042946
 30
0.0
 11
-60.62952011
 21
-39.02633664
 31
0.0
  0
LINE
  5
361
100
AcDbEntity
  8
SLD-0
  6
CONTINUOUS
 62
       7
100
AcDbLine
 10
-60.62952011
 20
-39.02633664
 30
0.0
 11
-60.62952011
 21
-38.96218601
 31
0.0
  0
LINE
  5
362
100
AcDbEntity
  8
SLD-0
  6
CONTINUOUS
 62
       7
100
AcDbLine
 10
-60.62952011
 20
-38.96218601
 30
0.0
 11
-60.62007173
 21
-38.92644285
 31
0.0
  0
LINE
  5
363
100
AcDbEntity
  8
SLD-0
  6
CONTINUOUS
 62
       7
100
AcDbLine
 10
-60.62007173
 20
-38.92644285
 30
0.0
 11
-60.61028278
 21
-38.89080121
 31
0.0
  0
LINE
  5
364
100
AcDbEntity
  8
SLD-0
  6
CONTINUOUS
 62
       7
100
AcDbLine
 10
-60.61028278
 20
-38.89080121
 30
0.0
 11
-60.59981269
 21
-38.85536263
 31
0.0
  0
LINE
  5
365
100
AcDbEntity
  8
SLD-0
  6
CONTINUOUS
 62
       7
100
AcDbLine
 10
-60.59981269
 20
-38.85536263
 30
0.0
 11
-60.58832119
 21
-38.82022857
 31
0.0
  0
LINE
  5
366
100
AcDbEntity
  8
SLD-0
  6
CONTINUOUS
 62
       7
100
AcDbLine
 10
-60.58832119
 20
-38.82022857
 30
0.0
 11
-60.57556762
 21
-38.78548345
 31
0.0
  0
LINE
  5
367
100
AcDbEntity
  8
SLD-0
  6
CONTINUOUS
 62
       7
100
AcDbLine
 10
-60.57556762
 20
-38.78548345
 30
0.0
 11
-60.56155469
 21
-38.75116997
 31
0.0
  0
LINE
  5
368
100
AcDbEntity
  8
SLD-0
  6
CONTINUOUS
 62
       7
100
AcDbLine
 10
-60.56155469
 20
-38.75116997
 30
0.0
 11
-60.54632162
 21
-38.71732458
 31
0.0
  0
LINE
  5
369
100
AcDbEntity
  8
SLD-0
  6
CONTINUOUS
 62
       7
100
AcDbLine
 10
-60.54632162
 20
-38.71732458
 30
0.0
 11
-60.52990761
 21
-38.68398374
 31
0.0
  0
LINE
  5
36A
100
AcDbEntity
  8
SLD-0
  6
CONTINUOUS
 62
       7
100
AcDbLine
 10
-60.52990761
 20
-38.68398374
 30
0.0
 11
-60.51235188
 21
-38.65118389
 31
0.0
  0
LINE
  5
36B
100
AcDbEntity
  8
SLD-0
  6
CONTINUOUS
 62
       7
100
AcDbLine
 10
-60.51235188
 20
-38.65118389
 30
0.0
 11
-60.49369362
 21
-38.6189615
 31
0.0
  0
LINE
  5
36C
100
AcDbEntity
  8
SLD-0
  6
CONTINUOUS
 62
       7
100
AcDbLine
 10
-60.49369362
 20
-38.6189615
 30
0.0
 11
-60.47397205
 21
-38.587353
 31
0.0
  0
LINE
  5
36D
100
AcDbEntity
  8
SLD-0
  6
CONTINUOUS
 62
       7
100
AcDbLine
 10
-60.47397205
 20
-38.587353
 30
0.0
 11
-60.45322638
 21
-38.55639486
 31
0.0
  0
LINE
  5
36E
100
AcDbEntity
  8
SLD-0
  6
CONTINUOUS
 62
       7
100
AcDbLine
 10
-60.45322638
 20
-38.55639486
 30
0.0
 11
-60.43149581
 21
-38.52612353
 31
0.0
  0
LINE
  5
36F
100
AcDbEntity
  8
SLD-0
  6
CONTINUOUS
 62
       7
100
AcDbLine
 10
-60.43149581
 20
-38.52612353
 30
0.0
 11
-60.40881955
 21
-38.49657545
 31
0.0
  0
LINE
  5
370
100
AcDbEntity
  8
SLD-0
  6
CONTINUOUS
 62
       7
100
AcDbLine
 10
-60.40881955
 20
-38.49657545
 30
0.0
 11
-60.38523599
 21
-38.46778621
 31
0.0
  0
LINE
  5
371
100
AcDbEntity
  8
SLD-0
  6
CONTINUOUS
 62
       7
100
AcDbLine
 10
-60.38523599
 20
-38.46778621
 30
0.0
 11
-60.36077412
 21
-38.43978129
 31
0.0
  0
LINE
  5
372
100
AcDbEntity
  8
SLD-0
  6
CONTINUOUS
 62
       7
100
AcDbLine
 10
-60.36077412
 20
-38.43978129
 30
0.0
 11
-60.33545696
 21
-38.41257979
 31
0.0
  0
LINE
  5
373
100
AcDbEntity
  8
SLD-0
  6
CONTINUOUS
 62
       7
100
AcDbLine
 10
-60.33545696
 20
-38.41257979
 30
0.0
 11
-60.30930742
 21
-38.38620072
 31
0.0
  0
LINE
  5
374
100
AcDbEntity
  8
SLD-0
  6
CONTINUOUS
 62
       7
100
AcDbLine
 10
-60.30930742
 20
-38.38620072
 30
0.0
 11
-60.28234843
 21
-38.36066307
 31
0.0
  0
LINE
  5
375
100
AcDbEntity
  8
SLD-0
  6
CONTINUOUS
 62
       7
100
AcDbLine
 10
-60.28234843
 20
-38.36066307
 30
0.0
 11
-60.25460292
 21
-38.33598583
 31
0.0
  0
LINE
  5
376
100
AcDbEntity
  8
SLD-0
  6
CONTINUOUS
 62
       7
100
AcDbLine
 10
-60.25460292
 20
-38.33598583
 30
0.0
 11
-60.22609381
 21
-38.312188
 31
0.0
  0
LINE
  5
377
100
AcDbEntity
  8
SLD-0
  6
CONTINUOUS
 62
       7
100
AcDbLine
 10
-60.22609381
 20
-38.312188
 30
0.0
 11
-60.19684401
 21
-38.28928858
 31
0.0
  0
LINE
  5
378
100
AcDbEntity
  8
SLD-0
  6
CONTINUOUS
 62
       7
100
AcDbLine
 10
-60.19684401
 20
-38.28928858
 30
0.0
 11
-60.16687646
 21
-38.26730656
 31
0.0
  0
LINE
  5
379
100
AcDbEntity
  8
SLD-0
  6
CONTINUOUS
 62
       7
100
AcDbLine
 10
-60.16687646
 20
-38.26730656
 30
0.0
 11
-60.13621408
 21
-38.24626094
 31
0.0
  0
LINE
  5
37A
100
AcDbEntity
  8
SLD-0
  6
CONTINUOUS
 62
       7
100
AcDbLine
 10
-60.13621408
 20
-38.24626094
 30
0.0
 11
-60.1048798
 21
-38.22617073
 31
0.0
  0
LINE
  5
37B
100
AcDbEntity
  8
SLD-0
  6
CONTINUOUS
 62
       7
100
AcDbLine
 10
-60.1048798
 20
-38.22617073
 30
0.0
 11
-60.0729015
 21
-38.20706
 31
0.0
  0
LINE
  5
37C
100
AcDbEntity
  8
SLD-0
  6
CONTINUOUS
 62
       7
100
AcDbLine
 10
-60.0729015
 20
-38.20706
 30
0.0
 11
-60.0403184
 21
-38.18896446
 31
0.0
  0
LINE
  5
37D
100
AcDbEntity
  8
SLD-0
  6
CONTINUOUS
 62
       7
100
AcDbLine
 10
-60.0403184
 20
-38.18896446
 30
0.0
 11
-60.00717131
 21
-38.17192145
 31
0.0
  0
LINE
  5
37E
100
AcDbEntity
  8
SLD-0
  6
CONTINUOUS
 62
       7
100
AcDbLine
 10
-60.00717131
 20
-38.17192145
 30
0.0
 11
-59.97350106
 21
-38.15596832
 31
0.0
  0
LINE
  5
37F
100
AcDbEntity
  8
SLD-0
  6
CONTINUOUS
 62
       7
100
AcDbLine
 10
-59.97350106
 20
-38.15596832
 30
0.0
 11
-59.93934846
 21
-38.1411424
 31
0.0
  0
LINE
  5
380
100
AcDbEntity
  8
SLD-0
  6
CONTINUOUS
 62
       7
100
AcDbLine
 10
-59.93934846
 20
-38.1411424
 30
0.0
 11
-59.90475434
 21
-38.12748104
 31
0.0
  0
LINE
  5
381
100
AcDbEntity
  8
SLD-0
  6
CONTINUOUS
 62
       7
100
AcDbLine
 10
-59.90475434
 20
-38.12748104
 30
0.0
 11
-59.8697595
 21
-38.11502159
 31
0.0
  0
LINE
  5
382
100
AcDbEntity
  8
SLD-0
  6
CONTINUOUS
 62
       7
100
AcDbLine
 10
-59.8697595
 20
-38.11502159
 30
0.0
 11
-59.83440477
 21
-38.10380138
 31
0.0
  0
LINE
  5
383
100
AcDbEntity
  8
SLD-0
  6
CONTINUOUS
 62
       7
100
AcDbLine
 10
-59.83440477
 20
-38.10380138
 30
0.0
 11
-59.79873096
 21
-38.09385777
 31
0.0
  0
LINE
  5
384
100
AcDbEntity
  8
SLD-0
  6
CONTINUOUS
 62
       7
100
AcDbLine
 10
-59.79873096
 20
-38.09385777
 30
0.0
 11
-59.7627789
 21
-38.08522808
 31
0.0
  0
LINE
  5
385
100
AcDbEntity
  8
SLD-0
  6
CONTINUOUS
 62
       7
100
AcDbLine
 10
-59.7627789
 20
-38.08522808
 30
0.0
 11
-59.72658983
 21
-38.07792974
 31
0.0
  0
LINE
  5
386
100
AcDbEntity
  8
SLD-0
  6
CONTINUOUS
 62
       7
100
AcDbLine
 10
-59.72658983
 20
-38.07792974
 30
0.0
 11
-59.69020923
 21
-38.07178529
 31
0.0
  0
LINE
  5
387
100
AcDbEntity
  8
SLD-0
  6
CONTINUOUS
 62
       7
100
AcDbLine
 10
-59.69020923
 20
-38.07178529
 30
0.0
 11
-59.65368497
 21
-38.0665072
 31
0.0
  0
LINE
  5
388
100
AcDbEntity
  8
SLD-0
  6
CONTINUOUS
 62
       7
100
AcDbLine
 10
-59.65368497
 20
-38.0665072
 30
0.0
 11
-59.61706492
 21
-38.06180668
 31
0.0
  0
LINE
  5
389
100
AcDbEntity
  8
SLD-0
  6
CONTINUOUS
 62
       7
100
AcDbLine
 10
-59.61706492
 20
-38.06180668
 30
0.0
 11
-59.58039699
 21
-38.05739495
 31
0.0
  0
LINE
  5
38A
100
AcDbEntity
  8
SLD-0
  6
CONTINUOUS
 62
       7
100
AcDbLine
 10
-59.58039898
 20
-36.9073959
 30
0.0
 11
-59.61707108
 21
-36.90176584
 31
0.0
  0
LINE
  5
38B
100
AcDbEntity
  8
SLD-0
  6
CONTINUOUS
 62
       7
100
AcDbLine
 10
-59.61707108
 20
-36.90176584
 30
0.0
 11
-59.65369622
 21
-36.89596891
 31
0.0
  0
LINE
  5
38C
100
AcDbEntity
  8
SLD-0
  6
CONTINUOUS
 62
       7
100
AcDbLine
 10
-59.65369622
 20
-36.89596891
 30
0.0
 11
-59.69022746
 21
-36.88983826
 31
0.0
  0
LINE
  5
38D
100
AcDbEntity
  8
SLD-0
  6
CONTINUOUS
 62
       7
100
AcDbLine
 10
-59.69022746
 20
-36.88983826
 30
0.0
 11
-59.72661783
 21
-36.88320703
 31
0.0
  0
LINE
  5
38E
100
AcDbEntity
  8
SLD-0
  6
CONTINUOUS
 62
       7
100
AcDbLine
 10
-59.72661783
 20
-36.88320703
 30
0.0
 11
-59.76282037
 21
-36.87590836
 31
0.0
  0
LINE
  5
38F
100
AcDbEntity
  8
SLD-0
  6
CONTINUOUS
 62
       7
100
AcDbLine
 10
-59.76282037
 20
-36.87590836
 30
0.0
 11
-59.79878815
 21
-36.86777539
 31
0.0
  0
LINE
  5
390
100
AcDbEntity
  8
SLD-0
  6
CONTINUOUS
 62
       7
100
AcDbLine
 10
-59.79878815
 20
-36.86777539
 30
0.0
 11
-59.83447419
 21
-36.85864126
 31
0.0
  0
LINE
  5
391
100
AcDbEntity
  8
SLD-0
  6
CONTINUOUS
 62
       7
100
AcDbLine
 10
-59.83447419
 20
-36.85864126
 30
0.0
 11
-59.86983154
 21
-36.8483391
 31
0.0
  0
LINE
  5
392
100
AcDbEntity
  8
SLD-0
  6
CONTINUOUS
 62
       7
100
AcDbLine
 10
-59.86983154
 20
-36.8483391
 30
0.0
 11
-59.9048136
 21
-36.83670795
 31
0.0
  0
LINE
  5
393
100
AcDbEntity
  8
SLD-0
  6
CONTINUOUS
 62
       7
100
AcDbLine
 10
-59.9048136
 20
-36.83670795
 30
0.0
 11
-59.93938019
 21
-36.82369784
 31
0.0
  0
LINE
  5
394
100
AcDbEntity
  8
SLD-0
  6
CONTINUOUS
 62
       7
100
AcDbLine
 10
-59.93938019
 20
-36.82369784
 30
0.0
 11
-59.9734969
 21
-36.80935766
 31
0.0
  0
LINE
  5
395
100
AcDbEntity
  8
SLD-0
  6
CONTINUOUS
 62
       7
100
AcDbLine
 10
-59.9734969
 20
-36.80935766
 30
0.0
 11
-60.00712952
 21
-36.79373972
 31
0.0
  0
LINE
  5
396
100
AcDbEntity
  8
SLD-0
  6
CONTINUOUS
 62
       7
100
AcDbLine
 10
-60.00712952
 20
-36.79373972
 30
0.0
 11
-60.04024381
 21
-36.77689638
 31
0.0
  0
LINE
  5
397
100
AcDbEntity
  8
SLD-0
  6
CONTINUOUS
 62
       7
100
AcDbLine
 10
-60.04024381
 20
-36.77689638
 30
0.0
 11
-60.07280557
 21
-36.75887995
 31
0.0
  0
LINE
  5
398
100
AcDbEntity
  8
SLD-0
  6
CONTINUOUS
 62
       7
100
AcDbLine
 10
-60.07280557
 20
-36.75887995
 30
0.0
 11
-60.10478057
 21
-36.73974277
 31
0.0
  0
LINE
  5
399
100
AcDbEntity
  8
SLD-0
  6
CONTINUOUS
 62
       7
100
AcDbLine
 10
-60.10478057
 20
-36.73974277
 30
0.0
 11
-60.1361346
 21
-36.71953719
 31
0.0
  0
LINE
  5
39A
100
AcDbEntity
  8
SLD-0
  6
CONTINUOUS
 62
       7
100
AcDbLine
 10
-60.1361346
 20
-36.71953719
 30
0.0
 11
-60.16683344
 21
-36.69831552
 31
0.0
  0
LINE
  5
39B
100
AcDbEntity
  8
SLD-0
  6
CONTINUOUS
 62
       7
100
AcDbLine
 10
-60.16683344
 20
-36.69831552
 30
0.0
 11
-60.19684287
 21
-36.6761301
 31
0.0
  0
LINE
  5
39C
100
AcDbEntity
  8
SLD-0
  6
CONTINUOUS
 62
       7
100
AcDbLine
 10
-60.19684287
 20
-36.6761301
 30
0.0
 11
-60.22612867
 21
-36.65303327
 31
0.0
  0
LINE
  5
39D
100
AcDbEntity
  8
SLD-0
  6
CONTINUOUS
 62
       7
100
AcDbLine
 10
-60.22612867
 20
-36.65303327
 30
0.0
 11
-60.25465835
 21
-36.62907089
 31
0.0
  0
LINE
  5
39E
100
AcDbEntity
  8
SLD-0
  6
CONTINUOUS
 62
       7
100
AcDbLine
 10
-60.25465835
 20
-36.62907089
 30
0.0
 11
-60.28240549
 21
-36.60426609
 31
0.0
  0
LINE
  5
39F
100
AcDbEntity
  8
SLD-0
  6
CONTINUOUS
 62
       7
100
AcDbLine
 10
-60.28240549
 20
-36.60426609
 30
0.0
 11
-60.30934496
 21
-36.57863701
 31
0.0
  0
LINE
  5
3A0
100
AcDbEntity
  8
SLD-0
  6
CONTINUOUS
 62
       7
100
AcDbLine
 10
-60.30934496
 20
-36.57863701
 30
0.0
 11
-60.33545169
 21
-36.55220182
 31
0.0
  0
LINE
  5
3A1
100
AcDbEntity
  8
SLD-0
  6
CONTINUOUS
 62
       7
100
AcDbLine
 10
-60.33545169
 20
-36.55220182
 30
0.0
 11
-60.36070055
 21
-36.52497867
 31
0.0
  0
LINE
  5
3A2
100
AcDbEntity
  8
SLD-0
  6
CONTINUOUS
 62
       7
100
AcDbLine
 10
-60.36070055
 20
-36.52497867
 30
0.0
 11
-60.38506644
 21
-36.4969857
 31
0.0
  0
LINE
  5
3A3
100
AcDbEntity
  8
SLD-0
  6
CONTINUOUS
 62
       7
100
AcDbLine
 10
-60.38506644
 20
-36.4969857
 30
0.0
 11
-60.40852427
 21
-36.46824108
 31
0.0
  0
LINE
  5
3A4
100
AcDbEntity
  8
SLD-0
  6
CONTINUOUS
 62
       7
100
AcDbLine
 10
-60.40852427
 20
-36.46824108
 30
0.0
 11
-60.43104894
 21
-36.43876295
 31
0.0
  0
LINE
  5
3A5
100
AcDbEntity
  8
SLD-0
  6
CONTINUOUS
 62
       7
100
AcDbLine
 10
-60.43104894
 20
-36.43876295
 30
0.0
 11
-60.45261533
 21
-36.40856947
 31
0.0
  0
LINE
  5
3A6
100
AcDbEntity
  8
SLD-0
  6
CONTINUOUS
 62
       7
100
AcDbLine
 10
-60.45261533
 20
-36.40856947
 30
0.0
 11
-60.47319834
 21
-36.37767879
 31
0.0
  0
LINE
  5
3A7
100
AcDbEntity
  8
SLD-0
  6
CONTINUOUS
 62
       7
100
AcDbLine
 10
-60.47319834
 20
-36.37767879
 30
0.0
 11
-60.49277316
 21
-36.34610987
 31
0.0
  0
LINE
  5
3A8
100
AcDbEntity
  8
SLD-0
  6
CONTINUOUS
 62
       7
100
AcDbLine
 10
-60.49277316
 20
-36.34610987
 30
0.0
 11
-60.51132019
 21
-36.31389618
 31
0.0
  0
LINE
  5
3A9
100
AcDbEntity
  8
SLD-0
  6
CONTINUOUS
 62
       7
100
AcDbLine
 10
-60.51132019
 20
-36.31389618
 30
0.0
 11
-60.52882434
 21
-36.28108379
 31
0.0
  0
LINE
  5
3AA
100
AcDbEntity
  8
SLD-0
  6
CONTINUOUS
 62
       7
100
AcDbLine
 10
-60.52882434
 20
-36.28108379
 30
0.0
 11
-60.54527066
 21
-36.24771917
 31
0.0
  0
LINE
  5
3AB
100
AcDbEntity
  8
SLD-0
  6
CONTINUOUS
 62
       7
100
AcDbLine
 10
-60.54527066
 20
-36.24771917
 30
0.0
 11
-60.56064422
 21
-36.21384879
 31
0.0
  0
LINE
  5
3AC
100
AcDbEntity
  8
SLD-0
  6
CONTINUOUS
 62
       7
100
AcDbLine
 10
-60.56064422
 20
-36.21384879
 30
0.0
 11
-60.57493008
 21
-36.17951914
 31
0.0
  0
LINE
  5
3AD
100
AcDbEntity
  8
SLD-0
  6
CONTINUOUS
 62
       7
100
AcDbLine
 10
-60.57493008
 20
-36.17951914
 30
0.0
 11
-60.5881133
 21
-36.14477669
 31
0.0
  0
LINE
  5
3AE
100
AcDbEntity
  8
SLD-0
  6
CONTINUOUS
 62
       7
100
AcDbLine
 10
-60.5881133
 20
-36.14477669
 30
0.0
 11
-60.60017893
 21
-36.10966792
 31
0.0
  0
LINE
  5
3AF
100
AcDbEntity
  8
SLD-0
  6
CONTINUOUS
 62
       7
100
AcDbLine
 10
-60.60017893
 20
-36.10966792
 30
0.0
 11
-60.61111204
 21
-36.07423929
 31
0.0
  0
LINE
  5
3B0
100
AcDbEntity
  8
SLD-0
  6
CONTINUOUS
 62
       7
100
AcDbLine
 10
-60.61111204
 20
-36.07423929
 30
0.0
 11
-60.62089768
 21
-36.03853729
 31
0.0
  0
LINE
  5
3B1
100
AcDbEntity
  8
SLD-0
  6
CONTINUOUS
 62
       7
100
AcDbLine
 10
-60.62089768
 20
-36.03853729
 30
0.0
 11
-60.6295221
 21
-36.00260857
 31
0.0
  0
LINE
  5
3B2
100
AcDbEntity
  8
SLD-0
  6
CONTINUOUS
 62
       7
100
AcDbLine
 10
-60.6295221
 20
-36.00260857
 30
0.0
 11
-60.6295221
 21
-35.93847191
 31
0.0
  0
LINE
  5
3B3
100
AcDbEntity
  8
SLD-0
  6
CONTINUOUS
 62
       7
100
AcDbLine
 10
-60.6295221
 20
-35.93847191
 30
0.0
 11
-60.6295221
 21
-35.87434463
 31
0.0
  0
LINE
  5
3B4
100
AcDbEntity
  8
SLD-0
  6
CONTINUOUS
 62
       7
100
AcDbLine
 10
-60.6295221
 20
-35.87434463
 30
0.0
 11
-60.6295221
 21
-35.81023612
 31
0.0
  0
LINE
  5
3B5
100
AcDbEntity
  8
SLD-0
  6
CONTINUOUS
 62
       7
100
AcDbLine
 10
-60.6295221
 20
-35.81023612
 30
0.0
 11
-60.6295221
 21
-35.74615575
 31
0.0
  0
LINE
  5
3B6
100
AcDbEntity
  8
SLD-0
  6
CONTINUOUS
 62
       7
100
AcDbLine
 10
-60.6295221
 20
-35.74615575
 30
0.0
 11
-60.6295221
 21
-35.6821129
 31
0.0
  0
LINE
  5
3B7
100
AcDbEntity
  8
SLD-0
  6
CONTINUOUS
 62
       7
100
AcDbLine
 10
-60.6295221
 20
-35.6821129
 30
0.0
 11
-60.6295221
 21
-35.61811696
 31
0.0
  0
LINE
  5
3B8
100
AcDbEntity
  8
SLD-0
  6
CONTINUOUS
 62
       7
100
AcDbLine
 10
-60.6295221
 20
-35.61811696
 30
0.0
 11
-60.6295221
 21
-35.5541773
 31
0.0
  0
LINE
  5
3B9
100
AcDbEntity
  8
SLD-0
  6
CONTINUOUS
 62
       7
100
AcDbLine
 10
-60.6295221
 20
-35.5541773
 30
0.0
 11
-60.6295221
 21
-35.49030331
 31
0.0
  0
LINE
  5
3BA
100
AcDbEntity
  8
SLD-0
  6
CONTINUOUS
 62
       7
100
AcDbLine
 10
-60.6295221
 20
-35.49030331
 30
0.0
 11
-60.6295221
 21
-35.42650438
 31
0.0
  0
LINE
  5
3BB
100
AcDbEntity
  8
SLD-0
  6
CONTINUOUS
 62
       7
100
AcDbLine
 10
-60.6295221
 20
-35.42650438
 30
0.0
 11
-60.6295221
 21
-35.36278987
 31
0.0
  0
LINE
  5
3BC
100
AcDbEntity
  8
SLD-0
  6
CONTINUOUS
 62
       7
100
AcDbLine
 10
-60.6295221
 20
-35.36278987
 30
0.0
 11
-60.6295221
 21
-35.29916918
 31
0.0
  0
LINE
  5
3BD
100
AcDbEntity
  8
SLD-0
  6
CONTINUOUS
 62
       7
100
AcDbLine
 10
-60.6295221
 20
-35.29916918
 30
0.0
 11
-60.6295221
 21
-35.23565167
 31
0.0
  0
LINE
  5
3BE
100
AcDbEntity
  8
SLD-0
  6
CONTINUOUS
 62
       7
100
AcDbLine
 10
-60.6295221
 20
-35.23565167
 30
0.0
 11
-60.6295221
 21
-35.17224675
 31
0.0
  0
LINE
  5
3BF
100
AcDbEntity
  8
SLD-0
  6
CONTINUOUS
 62
       7
100
AcDbLine
 10
-60.6295221
 20
-35.17224675
 30
0.0
 11
-60.6295221
 21
-35.10896377
 31
0.0
  0
LINE
  5
3C0
100
AcDbEntity
  8
SLD-0
  6
CONTINUOUS
 62
       7
100
AcDbLine
 10
-60.6295221
 20
-35.10896377
 30
0.0
 11
-60.6295221
 21
-35.04581214
 31
0.0
  0
LINE
  5
3C1
100
AcDbEntity
  8
SLD-0
  6
CONTINUOUS
 62
       7
100
AcDbLine
 10
-60.6295221
 20
-35.04581214
 30
0.0
 11
-60.6295221
 21
-34.98280122
 31
0.0
  0
LINE
  5
3C2
100
AcDbEntity
  8
SLD-0
  6
CONTINUOUS
 62
       7
100
AcDbLine
 10
-60.6295221
 20
-34.98280122
 30
0.0
 11
-60.6295221
 21
-34.9199404
 31
0.0
  0
LINE
  5
3C3
100
AcDbEntity
  8
SLD-0
  6
CONTINUOUS
 62
       7
100
AcDbLine
 10
-60.6295221
 20
-34.9199404
 30
0.0
 11
-60.6295221
 21
-34.85723906
 31
0.0
  0
LINE
  5
3C4
100
AcDbEntity
  8
SLD-0
  6
CONTINUOUS
 62
       7
100
AcDbLine
 10
-60.6295221
 20
-34.85723906
 30
0.0
 11
-60.6295221
 21
-34.79470658
 31
0.0
  0
LINE
  5
3C5
100
AcDbEntity
  8
SLD-0
  6
CONTINUOUS
 62
       7
100
AcDbLine
 10
-60.6295221
 20
-34.79470658
 30
0.0
 11
-60.6295221
 21
-34.73235234
 31
0.0
  0
LINE
  5
3C6
100
AcDbEntity
  8
SLD-0
  6
CONTINUOUS
 62
       7
100
AcDbLine
 10
-60.6295221
 20
-34.73235234
 30
0.0
 11
-60.6295221
 21
-34.67018573
 31
0.0
  0
LINE
  5
3C7
100
AcDbEntity
  8
SLD-0
  6
CONTINUOUS
 62
       7
100
AcDbLine
 10
-60.6295221
 20
-34.67018573
 30
0.0
 11
-60.6295221
 21
-34.60821612
 31
0.0
  0
LINE
  5
3C8
100
AcDbEntity
  8
SLD-0
  6
CONTINUOUS
 62
       7
100
AcDbLine
 10
-60.6295221
 20
-34.60821612
 30
0.0
 11
-60.6295221
 21
-34.54645289
 31
0.0
  0
LINE
  5
3C9
100
AcDbEntity
  8
SLD-0
  6
CONTINUOUS
 62
       7
100
AcDbLine
 10
-60.6295221
 20
-34.54645289
 30
0.0
 11
-60.6295221
 21
-34.48490544
 31
0.0
  0
LINE
  5
3CA
100
AcDbEntity
  8
SLD-0
  6
CONTINUOUS
 62
       7
100
AcDbLine
 10
-60.6295221
 20
-34.48490544
 30
0.0
 11
-60.6295221
 21
-34.42356419
 31
0.0
  0
LINE
  5
3CB
100
AcDbEntity
  8
SLD-0
  6
CONTINUOUS
 62
       7
100
AcDbLine
 10
-60.62952011
 20
-41.22199553
 30
0.0
 11
-60.62952011
 21
-41.1984115
 31
0.0
  0
LINE
  5
3CC
100
AcDbEntity
  8
SLD-0
  6
CONTINUOUS
 62
       7
100
AcDbLine
 10
-60.62952011
 20
-41.1984115
 30
0.0
 11
-60.62952011
 21
-41.17477636
 31
0.0
  0
LINE
  5
3CD
100
AcDbEntity
  8
SLD-0
  6
CONTINUOUS
 62
       7
100
AcDbLine
 10
-60.62952011
 20
-41.17477636
 30
0.0
 11
-60.62952011
 21
-41.15103899
 31
0.0
  0
LINE
  5
3CE
100
AcDbEntity
  8
SLD-0
  6
CONTINUOUS
 62
       7
100
AcDbLine
 10
-60.62952011
 20
-41.15103899
 30
0.0
 11
-60.62952011
 21
-41.12714828
 31
0.0
  0
LINE
  5
3CF
100
AcDbEntity
  8
SLD-0
  6
CONTINUOUS
 62
       7
100
AcDbLine
 10
-60.62952011
 20
-41.12714828
 30
0.0
 11
-60.62952011
 21
-41.10305313
 31
0.0
  0
LINE
  5
3D0
100
AcDbEntity
  8
SLD-0
  6
CONTINUOUS
 62
       7
100
AcDbLine
 10
-60.62952011
 20
-41.10305313
 30
0.0
 11
-60.62952011
 21
-41.07870242
 31
0.0
  0
LINE
  5
3D1
100
AcDbEntity
  8
SLD-0
  6
CONTINUOUS
 62
       7
100
AcDbLine
 10
-60.62952011
 20
-41.07870242
 30
0.0
 11
-60.62952011
 21
-41.05404504
 31
0.0
  0
LINE
  5
3D2
100
AcDbEntity
  8
SLD-0
  6
CONTINUOUS
 62
       7
100
AcDbLine
 10
-60.62952011
 20
-41.05404504
 30
0.0
 11
-60.62952011
 21
-41.02902987
 31
0.0
  0
LINE
  5
3D3
100
AcDbEntity
  8
SLD-0
  6
CONTINUOUS
 62
       7
100
AcDbLine
 10
-60.62952011
 20
-41.02902987
 30
0.0
 11
-60.62952011
 21
-41.00360581
 31
0.0
  0
LINE
  5
3D4
100
AcDbEntity
  8
SLD-0
  6
CONTINUOUS
 62
       7
100
AcDbLine
 10
-60.62952011
 20
-41.00360581
 30
0.0
 11
-60.62952011
 21
-40.97772174
 31
0.0
  0
LINE
  5
3D5
100
AcDbEntity
  8
SLD-0
  6
CONTINUOUS
 62
       7
100
AcDbLine
 10
-60.62952011
 20
-40.97772174
 30
0.0
 11
-60.62952011
 21
-40.95132655
 31
0.0
  0
LINE
  5
3D6
100
AcDbEntity
  8
SLD-0
  6
CONTINUOUS
 62
       7
100
AcDbLine
 10
-60.62952011
 20
-40.95132655
 30
0.0
 11
-60.62952011
 21
-40.92438421
 31
0.0
  0
LINE
  5
3D7
100
AcDbEntity
  8
SLD-0
  6
CONTINUOUS
 62
       7
100
AcDbLine
 10
-60.62952011
 20
-40.92438421
 30
0.0
 11
-60.62952011
 21
-40.89691957
 31
0.0
  0
LINE
  5
3D8
100
AcDbEntity
  8
SLD-0
  6
CONTINUOUS
 62
       7
100
AcDbLine
 10
-60.62952011
 20
-40.89691957
 30
0.0
 11
-60.62952011
 21
-40.8689728
 31
0.0
  0
LINE
  5
3D9
100
AcDbEntity
  8
SLD-0
  6
CONTINUOUS
 62
       7
100
AcDbLine
 10
-60.62952011
 20
-40.8689728
 30
0.0
 11
-60.62952011
 21
-40.84058408
 31
0.0
  0
LINE
  5
3DA
100
AcDbEntity
  8
SLD-0
  6
CONTINUOUS
 62
       7
100
AcDbLine
 10
-60.62952011
 20
-40.84058408
 30
0.0
 11
-60.62952011
 21
-40.81179359
 31
0.0
  0
LINE
  5
3DB
100
AcDbEntity
  8
SLD-0
  6
CONTINUOUS
 62
       7
100
AcDbLine
 10
-60.62952011
 20
-40.81179359
 30
0.0
 11
-60.62952011
 21
-40.78264149
 31
0.0
  0
LINE
  5
3DC
100
AcDbEntity
  8
SLD-0
  6
CONTINUOUS
 62
       7
100
AcDbLine
 10
-60.62952011
 20
-40.78264149
 30
0.0
 11
-60.62952011
 21
-40.75316798
 31
0.0
  0
LINE
  5
3DD
100
AcDbEntity
  8
SLD-0
  6
CONTINUOUS
 62
       7
100
AcDbLine
 10
-60.62952011
 20
-40.75316798
 30
0.0
 11
-60.62952011
 21
-40.72341322
 31
0.0
  0
LINE
  5
3DE
100
AcDbEntity
  8
SLD-0
  6
CONTINUOUS
 62
       7
100
AcDbLine
 10
-60.62952011
 20
-40.72341322
 30
0.0
 11
-60.62952011
 21
-40.6934174
 31
0.0
  0
LINE
  5
3DF
100
AcDbEntity
  8
SLD-0
  6
CONTINUOUS
 62
       7
100
AcDbLine
 10
-60.62952011
 20
-40.6934174
 30
0.0
 11
-60.62952011
 21
-40.66322069
 31
0.0
  0
LINE
  5
3E0
100
AcDbEntity
  8
SLD-0
  6
CONTINUOUS
 62
       7
100
AcDbLine
 10
-60.62952011
 20
-40.66322069
 30
0.0
 11
-60.62952011
 21
-40.63286327
 31
0.0
  0
LINE
  5
3E1
100
AcDbEntity
  8
SLD-0
  6
CONTINUOUS
 62
       7
100
AcDbLine
 10
-60.62952011
 20
-40.63286327
 30
0.0
 11
-60.62952011
 21
-40.60238532
 31
0.0
  0
LINE
  5
3E2
100
AcDbEntity
  8
SLD-0
  6
CONTINUOUS
 62
       7
100
AcDbLine
 10
-60.62952011
 20
-40.60238532
 30
0.0
 11
-60.62952011
 21
-40.57182702
 31
0.0
  0
LINE
  5
3E3
100
AcDbEntity
  8
SLD-0
  6
CONTINUOUS
 62
       7
100
AcDbLine
 10
-60.62952011
 20
-40.57182702
 30
0.0
 11
-60.62952011
 21
-40.54122853
 31
0.0
  0
LINE
  5
3E4
100
AcDbEntity
  8
SLD-0
  6
CONTINUOUS
 62
       7
100
AcDbLine
 10
-61.82952193
 20
-33.84860315
 30
0.0
 11
-61.82952193
 21
-33.86835903
 31
0.0
  0
LINE
  5
3E5
100
AcDbEntity
  8
SLD-0
  6
CONTINUOUS
 62
       7
100
AcDbLine
 10
-61.82952193
 20
-33.86835903
 30
0.0
 11
-61.82952193
 21
-33.88817243
 31
0.0
  0
LINE
  5
3E6
100
AcDbEntity
  8
SLD-0
  6
CONTINUOUS
 62
       7
100
AcDbLine
 10
-61.82952193
 20
-33.88817243
 30
0.0
 11
-61.82952193
 21
-33.90810088
 31
0.0
  0
LINE
  5
3E7
100
AcDbEntity
  8
SLD-0
  6
CONTINUOUS
 62
       7
100
AcDbLine
 10
-61.82952193
 20
-33.90810088
 30
0.0
 11
-61.82952193
 21
-33.92820188
 31
0.0
  0
LINE
  5
3E8
100
AcDbEntity
  8
SLD-0
  6
CONTINUOUS
 62
       7
100
AcDbLine
 10
-61.82952193
 20
-33.92820188
 30
0.0
 11
-61.82952193
 21
-33.94853297
 31
0.0
  0
LINE
  5
3E9
100
AcDbEntity
  8
SLD-0
  6
CONTINUOUS
 62
       7
100
AcDbLine
 10
-61.82952193
 20
-33.94853297
 30
0.0
 11
-61.82952193
 21
-33.96915166
 31
0.0
  0
LINE
  5
3EA
100
AcDbEntity
  8
SLD-0
  6
CONTINUOUS
 62
       7
100
AcDbLine
 10
-61.82952193
 20
-33.96915166
 30
0.0
 11
-61.82952193
 21
-33.99011547
 31
0.0
  0
LINE
  5
3EB
100
AcDbEntity
  8
SLD-0
  6
CONTINUOUS
 62
       7
100
AcDbLine
 10
-61.82952193
 20
-33.99011547
 30
0.0
 11
-61.82952193
 21
-34.01148193
 31
0.0
  0
LINE
  5
3EC
100
AcDbEntity
  8
SLD-0
  6
CONTINUOUS
 62
       7
100
AcDbLine
 10
-61.82952193
 20
-34.01148193
 30
0.0
 11
-61.82952193
 21
-34.03329805
 31
0.0
  0
LINE
  5
3ED
100
AcDbEntity
  8
SLD-0
  6
CONTINUOUS
 62
       7
100
AcDbLine
 10
-61.82952193
 20
-34.03329805
 30
0.0
 11
-61.82952193
 21
-34.05555487
 31
0.0
  0
LINE
  5
3EE
100
AcDbEntity
  8
SLD-0
  6
CONTINUOUS
 62
       7
100
AcDbLine
 10
-61.82952193
 20
-34.05555487
 30
0.0
 11
-61.82952193
 21
-34.07822486
 31
0.0
  0
LINE
  5
3EF
100
AcDbEntity
  8
SLD-0
  6
CONTINUOUS
 62
       7
100
AcDbLine
 10
-61.82952193
 20
-34.07822486
 30
0.0
 11
-61.82952193
 21
-34.10128047
 31
0.0
  0
LINE
  5
3F0
100
AcDbEntity
  8
SLD-0
  6
CONTINUOUS
 62
       7
100
AcDbLine
 10
-61.82952193
 20
-34.10128047
 30
0.0
 11
-61.82952193
 21
-34.12469417
 31
0.0
  0
LINE
  5
3F1
100
AcDbEntity
  8
SLD-0
  6
CONTINUOUS
 62
       7
100
AcDbLine
 10
-61.82952193
 20
-34.12469417
 30
0.0
 11
-61.82952193
 21
-34.14843841
 31
0.0
  0
LINE
  5
3F2
100
AcDbEntity
  8
SLD-0
  6
CONTINUOUS
 62
       7
100
AcDbLine
 10
-61.82952193
 20
-34.14843841
 30
0.0
 11
-61.82952193
 21
-34.17248563
 31
0.0
  0
LINE
  5
3F3
100
AcDbEntity
  8
SLD-0
  6
CONTINUOUS
 62
       7
100
AcDbLine
 10
-61.82952193
 20
-34.17248563
 30
0.0
 11
-61.82952193
 21
-34.1968083
 31
0.0
  0
LINE
  5
3F4
100
AcDbEntity
  8
SLD-0
  6
CONTINUOUS
 62
       7
100
AcDbLine
 10
-61.82952193
 20
-34.1968083
 30
0.0
 11
-61.82952193
 21
-34.22137888
 31
0.0
  0
LINE
  5
3F5
100
AcDbEntity
  8
SLD-0
  6
CONTINUOUS
 62
       7
100
AcDbLine
 10
-61.82952193
 20
-34.22137888
 30
0.0
 11
-61.82952193
 21
-34.24616981
 31
0.0
  0
LINE
  5
3F6
100
AcDbEntity
  8
SLD-0
  6
CONTINUOUS
 62
       7
100
AcDbLine
 10
-61.82952193
 20
-34.24616981
 30
0.0
 11
-61.82952193
 21
-34.27115355
 31
0.0
  0
LINE
  5
3F7
100
AcDbEntity
  8
SLD-0
  6
CONTINUOUS
 62
       7
100
AcDbLine
 10
-61.82952193
 20
-34.27115355
 30
0.0
 11
-61.82952193
 21
-34.29630257
 31
0.0
  0
LINE
  5
3F8
100
AcDbEntity
  8
SLD-0
  6
CONTINUOUS
 62
       7
100
AcDbLine
 10
-61.82952193
 20
-34.29630257
 30
0.0
 11
-61.82952193
 21
-34.3215893
 31
0.0
  0
LINE
  5
3F9
100
AcDbEntity
  8
SLD-0
  6
CONTINUOUS
 62
       7
100
AcDbLine
 10
-61.82952193
 20
-34.3215893
 30
0.0
 11
-61.82952193
 21
-34.34698622
 31
0.0
  0
LINE
  5
3FA
100
AcDbEntity
  8
SLD-0
  6
CONTINUOUS
 62
       7
100
AcDbLine
 10
-61.82952193
 20
-34.34698622
 30
0.0
 11
-61.82952193
 21
-34.37246577
 31
0.0
  0
LINE
  5
3FB
100
AcDbEntity
  8
SLD-0
  6
CONTINUOUS
 62
       7
100
AcDbLine
 10
-61.82952193
 20
-34.37246577
 30
0.0
 11
-61.82952193
 21
-34.39800041
 31
0.0
  0
LINE
  5
3FC
100
AcDbEntity
  8
SLD-0
  6
CONTINUOUS
 62
       7
100
AcDbLine
 10
-61.82952193
 20
-34.39800041
 30
0.0
 11
-61.82952193
 21
-34.42356259
 31
0.0
  0
LINE
  5
3FD
100
AcDbEntity
  8
SLD-0
  6
CONTINUOUS
 62
       7
100
AcDbLine
 10
-61.82952193
 20
-40.54122873
 30
0.0
 11
-61.82952193
 21
-40.57241487
 31
0.0
  0
LINE
  5
3FE
100
AcDbEntity
  8
SLD-0
  6
CONTINUOUS
 62
       7
100
AcDbLine
 10
-61.82952193
 20
-40.57241487
 30
0.0
 11
-61.82952193
 21
-40.60356214
 31
0.0
  0
LINE
  5
3FF
100
AcDbEntity
  8
SLD-0
  6
CONTINUOUS
 62
       7
100
AcDbLine
 10
-61.82952193
 20
-40.60356214
 30
0.0
 11
-61.82952193
 21
-40.63463168
 31
0.0
  0
LINE
  5
400
100
AcDbEntity
  8
SLD-0
  6
CONTINUOUS
 62
       7
100
AcDbLine
 10
-61.82952193
 20
-40.63463168
 30
0.0
 11
-61.82952193
 21
-40.6655846
 31
0.0
  0
LINE
  5
401
100
AcDbEntity
  8
SLD-0
  6
CONTINUOUS
 62
       7
100
AcDbLine
 10
-61.82952193
 20
-40.6655846
 30
0.0
 11
-61.82952193
 21
-40.69638205
 31
0.0
  0
LINE
  5
402
100
AcDbEntity
  8
SLD-0
  6
CONTINUOUS
 62
       7
100
AcDbLine
 10
-61.82952193
 20
-40.69638205
 30
0.0
 11
-61.82952193
 21
-40.72698514
 31
0.0
  0
LINE
  5
403
100
AcDbEntity
  8
SLD-0
  6
CONTINUOUS
 62
       7
100
AcDbLine
 10
-61.82952193
 20
-40.72698514
 30
0.0
 11
-61.82952193
 21
-40.75735502
 31
0.0
  0
LINE
  5
404
100
AcDbEntity
  8
SLD-0
  6
CONTINUOUS
 62
       7
100
AcDbLine
 10
-61.82952193
 20
-40.75735502
 30
0.0
 11
-61.82952193
 21
-40.78745282
 31
0.0
  0
LINE
  5
405
100
AcDbEntity
  8
SLD-0
  6
CONTINUOUS
 62
       7
100
AcDbLine
 10
-61.82952193
 20
-40.78745282
 30
0.0
 11
-61.82952193
 21
-40.81723965
 31
0.0
  0
LINE
  5
406
100
AcDbEntity
  8
SLD-0
  6
CONTINUOUS
 62
       7
100
AcDbLine
 10
-61.82952193
 20
-40.81723965
 30
0.0
 11
-61.82952193
 21
-40.84667666
 31
0.0
  0
LINE
  5
407
100
AcDbEntity
  8
SLD-0
  6
CONTINUOUS
 62
       7
100
AcDbLine
 10
-61.82952193
 20
-40.84667666
 30
0.0
 11
-61.82952193
 21
-40.87572498
 31
0.0
  0
LINE
  5
408
100
AcDbEntity
  8
SLD-0
  6
CONTINUOUS
 62
       7
100
AcDbLine
 10
-61.82952193
 20
-40.87572498
 30
0.0
 11
-61.82952193
 21
-40.90434572
 31
0.0
  0
LINE
  5
409
100
AcDbEntity
  8
SLD-0
  6
CONTINUOUS
 62
       7
100
AcDbLine
 10
-61.82952193
 20
-40.90434572
 30
0.0
 11
-61.82952193
 21
-40.93250004
 31
0.0
  0
LINE
  5
40A
100
AcDbEntity
  8
SLD-0
  6
CONTINUOUS
 62
       7
100
AcDbLine
 10
-61.82952193
 20
-40.93250004
 30
0.0
 11
-61.82952193
 21
-40.96014904
 31
0.0
  0
LINE
  5
40B
100
AcDbEntity
  8
SLD-0
  6
CONTINUOUS
 62
       7
100
AcDbLine
 10
-61.82952193
 20
-40.96014904
 30
0.0
 11
-61.82952193
 21
-40.98725388
 31
0.0
  0
LINE
  5
40C
100
AcDbEntity
  8
SLD-0
  6
CONTINUOUS
 62
       7
100
AcDbLine
 10
-61.82952193
 20
-40.98725388
 30
0.0
 11
-61.82952193
 21
-41.01377567
 31
0.0
  0
LINE
  5
40D
100
AcDbEntity
  8
SLD-0
  6
CONTINUOUS
 62
       7
100
AcDbLine
 10
-61.82952193
 20
-41.01377567
 30
0.0
 11
-61.82952193
 21
-41.03967554
 31
0.0
  0
LINE
  5
40E
100
AcDbEntity
  8
SLD-0
  6
CONTINUOUS
 62
       7
100
AcDbLine
 10
-61.82952193
 20
-41.03967554
 30
0.0
 11
-61.82952193
 21
-41.0649148
 31
0.0
  0
LINE
  5
40F
100
AcDbEntity
  8
SLD-0
  6
CONTINUOUS
 62
       7
100
AcDbLine
 10
-61.82952193
 20
-41.0649148
 30
0.0
 11
-61.82952193
 21
-41.08949235
 31
0.0
  0
LINE
  5
410
100
AcDbEntity
  8
SLD-0
  6
CONTINUOUS
 62
       7
100
AcDbLine
 10
-61.82952193
 20
-41.08949235
 30
0.0
 11
-61.82952193
 21
-41.11349262
 31
0.0
  0
LINE
  5
411
100
AcDbEntity
  8
SLD-0
  6
CONTINUOUS
 62
       7
100
AcDbLine
 10
-61.82952193
 20
-41.11349262
 30
0.0
 11
-61.82952193
 21
-41.1370118
 31
0.0
  0
LINE
  5
412
100
AcDbEntity
  8
SLD-0
  6
CONTINUOUS
 62
       7
100
AcDbLine
 10
-61.82952193
 20
-41.1370118
 30
0.0
 11
-61.82952193
 21
-41.16014612
 31
0.0
  0
LINE
  5
413
100
AcDbEntity
  8
SLD-0
  6
CONTINUOUS
 62
       7
100
AcDbLine
 10
-61.82952193
 20
-41.16014612
 30
0.0
 11
-61.82952193
 21
-41.18299179
 31
0.0
  0
LINE
  5
414
100
AcDbEntity
  8
SLD-0
  6
CONTINUOUS
 62
       7
100
AcDbLine
 10
-61.82952193
 20
-41.18299179
 30
0.0
 11
-61.82952193
 21
-41.20564504
 31
0.0
  0
LINE
  5
415
100
AcDbEntity
  8
SLD-0
  6
CONTINUOUS
 62
       7
100
AcDbLine
 10
-61.82952193
 20
-41.20564504
 30
0.0
 11
-61.82952193
 21
-41.22820206
 31
0.0
  0
LINE
  5
416
100
AcDbEntity
  8
SLD-0
  6
CONTINUOUS
 62
       7
100
AcDbLine
 10
-60.6295221
 20
-34.42356419
 30
0.0
 11
-60.6295221
 21
-34.39710742
 31
0.0
  0
LINE
  5
417
100
AcDbEntity
  8
SLD-0
  6
CONTINUOUS
 62
       7
100
AcDbLine
 10
-60.6295221
 20
-34.39710742
 30
0.0
 11
-60.6295221
 21
-34.37067792
 31
0.0
  0
LINE
  5
418
100
AcDbEntity
  8
SLD-0
  6
CONTINUOUS
 62
       7
100
AcDbLine
 10
-60.6295221
 20
-34.37067792
 30
0.0
 11
-60.6295221
 21
-34.34430296
 31
0.0
  0
LINE
  5
419
100
AcDbEntity
  8
SLD-0
  6
CONTINUOUS
 62
       7
100
AcDbLine
 10
-60.6295221
 20
-34.34430296
 30
0.0
 11
-60.6295221
 21
-34.31800982
 31
0.0
  0
LINE
  5
41A
100
AcDbEntity
  8
SLD-0
  6
CONTINUOUS
 62
       7
100
AcDbLine
 10
-60.6295221
 20
-34.31800982
 30
0.0
 11
-60.6295221
 21
-34.29182577
 31
0.0
  0
LINE
  5
41B
100
AcDbEntity
  8
SLD-0
  6
CONTINUOUS
 62
       7
100
AcDbLine
 10
-60.6295221
 20
-34.29182577
 30
0.0
 11
-60.6295221
 21
-34.26577808
 31
0.0
  0
LINE
  5
41C
100
AcDbEntity
  8
SLD-0
  6
CONTINUOUS
 62
       7
100
AcDbLine
 10
-60.6295221
 20
-34.26577808
 30
0.0
 11
-60.6295221
 21
-34.23989402
 31
0.0
  0
LINE
  5
41D
100
AcDbEntity
  8
SLD-0
  6
CONTINUOUS
 62
       7
100
AcDbLine
 10
-60.6295221
 20
-34.23989402
 30
0.0
 11
-60.6295221
 21
-34.21420087
 31
0.0
  0
LINE
  5
41E
100
AcDbEntity
  8
SLD-0
  6
CONTINUOUS
 62
       7
100
AcDbLine
 10
-60.6295221
 20
-34.21420087
 30
0.0
 11
-60.6295221
 21
-34.18872589
 31
0.0
  0
LINE
  5
41F
100
AcDbEntity
  8
SLD-0
  6
CONTINUOUS
 62
       7
100
AcDbLine
 10
-60.6295221
 20
-34.18872589
 30
0.0
 11
-60.6295221
 21
-34.16349635
 31
0.0
  0
LINE
  5
420
100
AcDbEntity
  8
SLD-0
  6
CONTINUOUS
 62
       7
100
AcDbLine
 10
-60.6295221
 20
-34.16349635
 30
0.0
 11
-60.6295221
 21
-34.13853954
 31
0.0
  0
LINE
  5
421
100
AcDbEntity
  8
SLD-0
  6
CONTINUOUS
 62
       7
100
AcDbLine
 10
-60.6295221
 20
-34.13853954
 30
0.0
 11
-60.6295221
 21
-34.11388271
 31
0.0
  0
LINE
  5
422
100
AcDbEntity
  8
SLD-0
  6
CONTINUOUS
 62
       7
100
AcDbLine
 10
-60.6295221
 20
-34.11388271
 30
0.0
 11
-60.6295221
 21
-34.08955315
 31
0.0
  0
LINE
  5
423
100
AcDbEntity
  8
SLD-0
  6
CONTINUOUS
 62
       7
100
AcDbLine
 10
-60.6295221
 20
-34.08955315
 30
0.0
 11
-60.6295221
 21
-34.06557813
 31
0.0
  0
LINE
  5
424
100
AcDbEntity
  8
SLD-0
  6
CONTINUOUS
 62
       7
100
AcDbLine
 10
-60.6295221
 20
-34.06557813
 30
0.0
 11
-60.6295221
 21
-34.04198491
 31
0.0
  0
LINE
  5
425
100
AcDbEntity
  8
SLD-0
  6
CONTINUOUS
 62
       7
100
AcDbLine
 10
-60.6295221
 20
-34.04198491
 30
0.0
 11
-60.6295221
 21
-34.01880077
 31
0.0
  0
LINE
  5
426
100
AcDbEntity
  8
SLD-0
  6
CONTINUOUS
 62
       7
100
AcDbLine
 10
-60.6295221
 20
-34.01880077
 30
0.0
 11
-60.6295221
 21
-33.99605298
 31
0.0
  0
LINE
  5
427
100
AcDbEntity
  8
SLD-0
  6
CONTINUOUS
 62
       7
100
AcDbLine
 10
-60.6295221
 20
-33.99605298
 30
0.0
 11
-60.6295221
 21
-33.97376881
 31
0.0
  0
LINE
  5
428
100
AcDbEntity
  8
SLD-0
  6
CONTINUOUS
 62
       7
100
AcDbLine
 10
-60.6295221
 20
-33.97376881
 30
0.0
 11
-60.6295221
 21
-33.95197554
 31
0.0
  0
LINE
  5
429
100
AcDbEntity
  8
SLD-0
  6
CONTINUOUS
 62
       7
100
AcDbLine
 10
-60.6295221
 20
-33.95197554
 30
0.0
 11
-60.6295221
 21
-33.93070043
 31
0.0
  0
LINE
  5
42A
100
AcDbEntity
  8
SLD-0
  6
CONTINUOUS
 62
       7
100
AcDbLine
 10
-60.6295221
 20
-33.93070043
 30
0.0
 11
-60.6295221
 21
-33.90997076
 31
0.0
  0
LINE
  5
42B
100
AcDbEntity
  8
SLD-0
  6
CONTINUOUS
 62
       7
100
AcDbLine
 10
-60.6295221
 20
-33.90997076
 30
0.0
 11
-60.6295221
 21
-33.88980141
 31
0.0
  0
LINE
  5
42C
100
AcDbEntity
  8
SLD-0
  6
CONTINUOUS
 62
       7
100
AcDbLine
 10
-60.6295221
 20
-33.88980141
 30
0.0
 11
-60.6295221
 21
-33.87009636
 31
0.0
  0
LINE
  5
42D
100
AcDbEntity
  8
SLD-0
  6
CONTINUOUS
 62
       7
100
AcDbLine
 10
-60.6295221
 20
-33.87009636
 30
0.0
 11
-60.6295221
 21
-33.85070119
 31
0.0
  0
LINE
  5
42E
100
AcDbEntity
  8
SLD-0
  6
CONTINUOUS
 62
       7
100
AcDbLine
 10
-60.6295221
 20
-33.85070119
 30
0.0
 11
-60.6295221
 21
-33.83146096
 31
0.0
  0
LINE
  5
42F
100
AcDbEntity
  8
SLD-0
  6
PHANTOM2
 62
       7
100
AcDbLine
 10
-53.62952182
 20
48.71760631
 30
0.0
 11
-68.82952208
 21
48.71760631
 31
0.0
  0
LINE
  5
430
100
AcDbEntity
  8
SLD-0
  6
PHANTOM2
 62
       7
100
AcDbLine
 10
58.72880309
 20
48.71760631
 30
0.0
 11
65.42880309
 21
48.71760631
 31
0.0
  0
LINE
  5
431
100
AcDbEntity
  8
SLD-0
  6
CENTERX2
 62
       7
100
AcDbLine
 10
-61.22952197
 20
-53.15674285
 30
0.0
 11
-61.22952197
 21
53.15674285
 31
0.0
  0
LINE
  5
432
100
AcDbEntity
  8
SLD-0
  6
CENTERX2
 62
       7
100
AcDbLine
 10
-8.1601
 20
-3.28239369
 30
0.0
 11
74.69738374
 21
-3.28239369
 31
0.0
  0
LINE
  5
433
100
AcDbEntity
  8
SLD-0
  6
CENTERX2
 62
       7
100
AcDbLine
 10
-48.06110737
 20
-3.28239369
 30
0.0
 11
-74.69738374
 21
-3.28239369
 31
0.0
  0
LINE
  5
434
100
AcDbEntity
  8
0
  6
PHANTOM2
 62
       7
100
AcDbLine
 10
-54.93673327
 20
42.44589297
 30
0.0
 11
-56.79717676
 21
44.30633646
 31
0.0
  0
LINE
  5
435
100
AcDbEntity
  8
0
  6
PHANTOM2
 62
       7
100
AcDbLine
 10
-65.09673327
 20
42.44589297
 30
0.0
 11
-66.95717676
 21
44.30633646
 31
0.0
  0
LINE
  5
436
100
AcDbEntity
  8
0
  6
PHANTOM2
 62
       7
100
AcDbLine
 10
-68.82952208
 20
41.71760631
 30
0.0
 11
-68.82952208
 21
48.71760631
 31
0.0
  0
LINE
  5
437
100
AcDbEntity
  8
0
  6
PHANTOM2
 62
       7
100
AcDbLine
 10
-53.62952182
 20
41.71760631
 30
0.0
 11
-53.62952182
 21
48.71760631
 31
0.0
  0
LINE
  5
438
100
AcDbEntity
  8
0
  6
PHANTOM2
 62
       7
100
AcDbLine
 10
-68.82952208
 20
47.91760502
 30
0.0
 11
-53.62952182
 21
47.91760502
 31
0.0
  0
LINE
  5
439
100
AcDbEntity
  8
0
  6
PHANTOM2
 62
       7
100
AcDbLine
 10
-64.134522
 20
43.09260502
 30
0.0
 11
-63.404522
 21
43.09260502
 31
0.0
  0
LINE
  5
43A
100
AcDbEntity
  8
0
  6
PHANTOM2
 62
       7
100
AcDbLine
 10
-53.974522
 20
43.09260502
 30
0.0
 11
-53.62952182
 21
43.09260502
 31
0.0
  0
LINE
  5
43B
100
AcDbEntity
  8
0
  6
PHANTOM2
 62
       7
100
AcDbLine
 10
-60.5824187
 20
41.88020754
 30
0.0
 11
-62.4428622
 21
43.74065104
 31
0.0
  0
LINE
  5
43C
100
AcDbEntity
  8
0
  6
PHANTOM2
 62
       7
100
AcDbLine
 10
-55.5024187
 20
41.88020754
 30
0.0
 11
-57.3628622
 21
43.74065104
 31
0.0
  0
LINE
  5
43D
100
AcDbEntity
  8
0
  6
PHANTOM2
 62
       7
100
AcDbLine
 10
-65.6624187
 20
41.88020754
 30
0.0
 11
-67.5228622
 21
43.74065104
 31
0.0
  0
LINE
  5
43E
100
AcDbEntity
  8
0
  6
PHANTOM2
 62
       7
100
AcDbLine
 10
-68.82952208
 20
47.01760502
 30
0.0
 11
-53.62952182
 21
47.01760502
 31
0.0
  0
LINE
  5
43F
100
AcDbEntity
  8
0
  6
PHANTOM2
 62
       7
100
AcDbLine
 10
-68.82952208
 20
43.09260502
 30
0.0
 11
-68.484522
 21
43.09260502
 31
0.0
  0
LINE
  5
440
100
AcDbEntity
  8
0
  6
PHANTOM2
 62
       7
100
AcDbLine
 10
-59.054522
 20
43.09260502
 30
0.0
 11
-58.324522
 21
43.09260502
 31
0.0
  0
LINE
  5
441
100
AcDbEntity
  8
0
  6
PHANTOM2
 62
       7
100
AcDbLine
 10
-60.01673327
 20
42.44589297
 30
0.0
 11
-61.87717676
 21
44.30633646
 31
0.0
  0
LINE
  5
442
100
AcDbEntity
  8
0
  6
PHANTOM2
 62
       7
100
AcDbLine
 10
54.92880309
 20
47.01760502
 30
0.0
 11
54.32880309
 21
47.01760502
 31
0.0
  0
LINE
  5
443
100
AcDbEntity
  8
0
  6
PHANTOM2
 62
       7
100
AcDbLine
 10
58.72880309
 20
48.71760631
 30
0.0
 11
58.72880309
 21
47.91760502
 31
0.0
  0
LINE
  5
444
100
AcDbEntity
  8
0
  6
PHANTOM2
 62
       7
100
AcDbLine
 10
65.42880309
 20
48.71760631
 30
0.0
 11
65.42880309
 21
40.51760502
 31
0.0
  0
LINE
  5
445
100
AcDbEntity
  8
0
  6
PHANTOM2
 62
       7
100
AcDbLine
 10
58.72880309
 20
47.91760502
 30
0.0
 11
54.92880309
 21
47.01760502
 31
0.0
  0
LINE
  5
446
100
AcDbEntity
  8
0
  6
PHANTOM2
 62
       7
100
AcDbLine
 10
54.32880309
 20
47.01760502
 30
0.0
 11
54.32880309
 21
41.71760631
 31
0.0
  0
LINE
  5
447
100
AcDbEntity
  8
0
  6
PHANTOM2
 62
       7
100
AcDbLine
 10
65.42880309
 20
40.51760502
 30
0.0
 11
60.41633681
 21
40.51760502
 31
0.0
  0
LINE
  5
448
100
AcDbEntity
  8
0
  6
PHANTOM2
 62
       7
100
AcDbLine
 10
64.72880309
 20
40.51760502
 30
0.0
 11
64.72880309
 21
39.61760502
 31
0.0
  0
LINE
  5
449
100
AcDbEntity
  8
0
  6
PHANTOM2
 62
       7
100
AcDbLine
 10
64.72880309
 20
39.61760502
 30
0.0
 11
61.70166885
 21
39.61760502
 31
0.0
  0
CIRCLE
  5
44A
100
AcDbEntity
  8
0
  6
PHANTOM2
 62
       7
100
AcDbCircle
 10
-61.229522
 20
43.09260502
 30
0.0
 40
1.375
  0
CIRCLE
  5
44B
100
AcDbEntity
  8
0
  6
PHANTOM2
 62
       7
100
AcDbCircle
 10
-66.309522
 20
43.09260502
 30
0.0
 40
1.375
  0
ARC
  5
44C
100
AcDbEntity
  8
0
  6
PHANTOM2
 62
       7
100
AcDbCircle
 10
-61.229522
 20
43.09260502
 30
0.0
 40
2.175
100
AcDbArc
 50
320.78861224
 51
360.0
  0
ARC
  5
44D
100
AcDbEntity
  8
0
  6
PHANTOM2
 62
       7
100
AcDbCircle
 10
-56.149522
 20
43.09260502
 30
0.0
 40
2.175
100
AcDbArc
 50
180.0
 51
219.21138776
  0
ARC
  5
44E
100
AcDbEntity
  8
0
  6
PHANTOM2
 62
       7
100
AcDbCircle
 10
-66.309522
 20
43.09260502
 30
0.0
 40
2.175
100
AcDbArc
 50
180.0
 51
219.21138776
  0
CIRCLE
  5
44F
100
AcDbEntity
  8
0
  6
PHANTOM2
 62
       7
100
AcDbCircle
 10
-56.149522
 20
43.09260502
 30
0.0
 40
1.375
  0
ARC
  5
450
100
AcDbEntity
  8
0
  6
PHANTOM2
 62
       7
100
AcDbCircle
 10
-61.229522
 20
43.09260502
 30
0.0
 40
2.175
100
AcDbArc
 50
180.0
 51
219.21138776
  0
ARC
  5
451
100
AcDbEntity
  8
0
  6
PHANTOM2
 62
       7
100
AcDbCircle
 10
-56.149522
 20
43.09260502
 30
0.0
 40
2.175
100
AcDbArc
 50
320.78861224
 51
360.0
  0
ARC
  5
452
100
AcDbEntity
  8
0
  6
PHANTOM2
 62
       7
100
AcDbCircle
 10
-66.309522
 20
43.09260502
 30
0.0
 40
2.175
100
AcDbArc
 50
320.78861224
 51
360.0
  0
TEXT
  5
453
100
AcDbEntity
  8
0
 62
       7
100
AcDbText
 10
54.5342896
 20
-68.30504435
 30
0.0
 40
5.0
  1
000
 41
0.8
 72
       5
 11
66.5342896
 21
-68.30504435
 31
0.0
100
AcDbText
  0
ENDSEC
  0
SECTION
  2
OBJECTS
  0
DICTIONARY
  5
19
100
AcDbDictionary
  3
ACAD_GROUP
350
1A
  3
ACAD_MLINESTYLE
350
1B
  0
DICTIONARY
  5
1A
102
{ACAD_REACTORS
330
19
102
}
100
AcDbDictionary
  0
DICTIONARY
  5
1B
102
{ACAD_REACTORS
330
19
102
}
100
AcDbDictionary
  3
STANDARD
350
1C
  0
MLINESTYLE
  5
1C
102
{ACAD_REACTORS
330
1B
102
}
100
AcDbMlineStyle
  2
STANDARD
 70
       0
  3

 62
       0
 51
90.0
 52
90.0
 71
       2
 49
0.5
 62
     256
  6
BYLAYER
 49
-0.5
 62
     256
  6
BYLAYER
  0
ENDSEC
  0
EOF
