  0
SECTION
  2
HEADER
  9
$ACADVER
  1
AC1014
  9
$ACADMAINTVER
 70
       0
  9
$DWGCODEPAGE
  3
ANSI_932
  9
$INSBASE
 10
0.0
 20
0.0
 30
0.0
  9
$EXTMIN
 10
-376.20837716
 20
-288.74737355
 30
0.0
  9
$EXTMAX
 10
334.62937713
 20
288.74737355
 30
0.0
  9
$LIMMIN
 10
-398.42205698
 20
-306.79408439
  9
$LIMMAX
 10
356.84305695
 20
306.79408439
  9
$ORTHOMODE
 70
       0
  9
$REGENMODE
 70
       1
  9
$FILLMODE
 70
       1
  9
$QTEXTMODE
 70
       0
  9
$MIRRTEXT
 70
       1
  9
$DRAGMODE
 70
       2
  9
$LTSCALE
 40
1.0
  9
$OSMODE
 70
       0
  9
$ATTMODE
 70
       1
  9
$TEXTSIZE
 40
0.2
  9
$TRACEWID
 40
0.05
  9
$TEXTSTYLE
  7
STANDARD
  9
$CLAYER
  8
0
  9
$CELTYPE
  6
CONTINUOUS
  9
$CECOLOR
 62
     256
  9
$CELTSCALE
 40
1.0
  9
$DELOBJ
 70
       1
  9
$DISPSILH
 70
       0
  9
$DIMSCALE
 40
1.0
  9
$DIMASZ
 40
0.18
  9
$DIMEXO
 40
0.0625
  9
$DIMDLI
 40
0.38
  9
$DIMRND
 40
0.0
  9
$DIMDLE
 40
0.0
  9
$DIMEXE
 40
0.18
  9
$DIMTP
 40
0.0
  9
$DIMTM
 40
0.0
  9
$DIMTXT
 40
0.18
  9
$DIMCEN
 40
0.09
  9
$DIMTSZ
 40
0.0
  9
$DIMTOL
 70
       0
  9
$DIMLIM
 70
       0
  9
$DIMTIH
 70
       1
  9
$DIMTOH
 70
       1
  9
$DIMSE1
 70
       0
  9
$DIMSE2
 70
       0
  9
$DIMTAD
 70
       0
  9
$DIMZIN
 70
       0
  9
$DIMBLK
  1

  9
$DIMASO
 70
       1
  9
$DIMSHO
 70
       1
  9
$DIMPOST
  1

  9
$DIMAPOST
  1

  9
$DIMALT
 70
       0
  9
$DIMALTD
 70
       2
  9
$DIMALTF
 40
25.4
  9
$DIMLFAC
 40
1.0
  9
$DIMTOFL
 70
       0
  9
$DIMTVP
 40
0.0
  9
$DIMTIX
 70
       0
  9
$DIMSOXD
 70
       0
  9
$DIMSAH
 70
       0
  9
$DIMBLK1
  1

  9
$DIMBLK2
  1

  9
$DIMSTYLE
  2
STANDARD
  9
$DIMCLRD
 70
       0
  9
$DIMCLRE
 70
       0
  9
$DIMCLRT
 70
       0
  9
$DIMTFAC
 40
1.0
  9
$DIMGAP
 40
0.09
  9
$DIMJUST
 70
       0
  9
$DIMSD1
 70
       0
  9
$DIMSD2
 70
       0
  9
$DIMTOLJ
 70
       1
  9
$DIMTZIN
 70
       0
  9
$DIMALTZ
 70
       0
  9
$DIMALTTZ
 70
       0
  9
$DIMFIT
 70
       3
  9
$DIMUPT
 70
       0
  9
$DIMUNIT
 70
       2
  9
$DIMDEC
 70
       4
  9
$DIMTDEC
 70
       4
  9
$DIMALTU
 70
       2
  9
$DIMALTTD
 70
       2
  9
$DIMTXSTY
  7
STANDARD
  9
$DIMAUNIT
 70
       0
  9
$LUNITS
 70
       2
  9
$LUPREC
 70
       4
  9
$SKETCHINC
 40
0.1
  9
$FILLETRAD
 40
0.0
  9
$AUNITS
 70
       0
  9
$AUPREC
 70
       0
  9
$MENU
  1
acad
  9
$ELEVATION
 40
0.0
  9
$PELEVATION
 40
0.0
  9
$THICKNESS
 40
0.0
  9
$LIMCHECK
 70
       0
  9
$BLIPMODE
 70
       1
  9
$CHAMFERA
 40
0.0
  9
$CHAMFERB
 40
0.0
  9
$CHAMFERC
 40
0.0
  9
$CHAMFERD
 40
0.0
  9
$SKPOLY
 70
       0
  9
$TDCREATE
 40
0.000000000
  9
$TDUPDATE
 40
0.000000000
  9
$TDINDWG
 40
0.0000000000
  9
$TDUSRTIMER
 40
0.0000000000
  9
$USRTIMER
 70
       1
  9
$ANGBASE
 50
0.0
  9
$ANGDIR
 70
       0
  9
$PDMODE
 70
       0
  9
$PDSIZE
 40
1.0
  9
$PLINEWID
 40
0.0
  9
$COORDS
 70
       1
  9
$SPLFRAME
 70
       0
  9
$SPLINETYPE
 70
       6
  9
$SPLINESEGS
 70
       8
  9
$ATTDIA
 70
       0
  9
$ATTREQ
 70
       1
  9
$HANDLING
 70
       1
  9
$HANDSEED
  5
64A
  9
$SURFTAB1
 70
       6
  9
$SURFTAB2
 70
       6
  9
$SURFTYPE
 70
       6
  9
$SURFU
 70
       6
  9
$SURFV
 70
       6
  9
$UCSNAME
  2

  9
$UCSORG
 10
0.0
 20
0.0
 30
0.0
  9
$UCSXDIR
 10
1.0
 20
0.0
 30
0.0
  9
$UCSYDIR
 10
0.0
 20
1.0
 30
0.0
  9
$PUCSNAME
  2

  9
$PUCSORG
 10
0.0
 20
0.0
 30
0.0
  9
$PUCSXDIR
 10
1.0
 20
0.0
 30
0.0
  9
$PUCSYDIR
 10
0.0
 20
1.0
 30
0.0
  9
$USERI1
 70
       0
  9
$USERI2
 70
       0
  9
$USERI3
 70
       0
  9
$USERI4
 70
       0
  9
$USERI5
 70
       0
  9
$USERR1
 40
0.0
  9
$USERR2
 40
0.0
  9
$USERR3
 40
0.0
  9
$USERR4
 40
0.0
  9
$USERR5
 40
0.0
  9
$WORLDVIEW
 70
       1
  9
$SHADEDGE
 70
       3
  9
$SHADEDIF
 70
      70
  9
$TILEMODE
 70
       1
  9
$MAXACTVP
 70
      16
  9
$PINSBASE
 10
0.0
 20
0.0
 30
0.0
  9
$PLIMCHECK
 70
       0
  9
$PEXTMIN
 10
1.00000000E+20
 20
1.00000000E+20
 30
1.00000000E+20
  9
$PEXTMAX
 10
-1.00000000E+20
 20
-1.00000000E+20
 30
-1.00000000E+20
  9
$PLIMMIN
 10
0.0
 20
0.0
  9
$PLIMMAX
 10
12.0
 20
9.0
  9
$UNITMODE
 70
       0
  9
$VISRETAIN
 70
       0
  9
$PLINEGEN
 70
       1
  9
$PSLTSCALE
 70
       0
  9
$TREEDEPTH
 70
    3020
  9
$PICKSTYLE
 70
       1
  9
$CMLSTYLE
  2
STANDARD
  9
$CMLJUST
 70
       0
  9
$CMLSCALE
 40
1.0
  9
$PROXYGRAPHICS
 70
       0
  9
$MEASUREMENT
 70
       0
  0
ENDSEC
  0
SECTION
  2
CLASSES
  0
CLASS
  1
LWPOLYLINE
  2
AcDbPolyline
  3
"AutoCAD"
 90
        0
280
       0
281
       1
  0
CLASS
  1
IMAGE
  2
AcDbRasterImage
  3
ISM
 90
      127
280
       0
281
       1
  0
CLASS
  1
OLE2FRAME
  2
AcDbOle2Frame
  3
""
 90
        0
280
       0
281
       1
  0
CLASS
  1
HATCH
  2
AcDbHatch
  3
"ACAD_SEDONA"
 90
        0
280
       0
281
       1
  0
CLASS
  1
DICTIONARYVAR
  2
AcDbDictionaryVar
  3
"AutoCAD"
 90
        0
280
       0
281
       0
  0
CLASS
  1
RASTERVARIABLES
  2
AcDbRasterVariables
  3
ISM
 90
        0
280
       0
281
       0
  0
CLASS
  1
IMAGEDEF
  2
AcDbRasterImageDef
  3
ISM
 90
        0
280
       0
281
       0
  0
CLASS
  1
IMAGEDEF_REACTOR
  2
AcDbRasterImageDefReactor
  3
ISM
 90
        1
280
       0
281
       0
  0
CLASS
  1
IDBUFFER
  2
AcDbIdBuffer
  3
"Acad"
 90
        0
280
       0
281
       0
  0
CLASS
  1
SPATIAL_FILTER
  2
AcDbSpatialFilter
  3
"Acad"
 90
        0
280
       0
281
       0
  0
CLASS
  1
XRECORD
  2
AcDbXrecord
  3
"<Built In>"
 90
        0
280
       0
281
       0
  0
CLASS
  1
SORTENTSTABLE
  2
AcDbSortentsTable
  3
"AutoCAD"
 90
        0
280
       0
281
       0
  0
CLASS
  1
LAYER_INDEX
  2
AcDbLayerIndex
  3
"Acad"
 90
        0
280
       0
281
       0
  0
CLASS
  1
SPATIAL_INDEX
  2
AcDbSpatialIndex
  3
"Acad"
 90
        0
280
       0
281
       0
  0
CLASS
  1
OBJECT_PTR
  2
CAseDLPNTableRecord
  3
"ASE-LPNTableRecord"
 90
        1
280
       0
281
       0
  0
CLASS
  1
LAYOUT
  2
AcDbLayout
  3
"AutoCAD 2000"
 90
        1
280
       0
281
       0
  0
CLASS
  1
PLOTSETTINGS
  2
AcDbPlotSettings
  3
"AutoCAD 2000"
 90
        1
280
       0
281
       0
  0
CLASS
  1
ACDBDICTIONARYWDFLT
  2
AcDbDictionaryWithDefault
  3
"AutoCAD 2000"
 90
        1
280
       0
281
       0
  0
CLASS
  1
ACDBPLACEHOLDER
  2
AcDbPlaceHolder
  3
"AutoCAD 2000"
 90
        1
280
       0
281
       0
  0
CLASS
  1
VBA_PROJECT
  2
AcDbVbaProject
  3
"acadvba"
 90
        1
280
       0
281
       0
  0
CLASS
  1
WIPEOUT
  2
AcDbWipeout
  3
WipeOut|AutoCAD Express Tool|expresstools@autodesk.com
 90
      127
280
       0
281
       1
  0
CLASS
  1
WIPEOUTVARIABLES
  2
AcDbWipeoutVariables
  3
WipeOut|AutoCAD Express Tool|expresstools@autodesk.com
 90
        0
280
       0
281
       0
  0
CLASS
  1
RTEXT
  2
RText
  3
RText|AutoCAD Express Tool|expresstools@autodesk.com
 90
        0
280
       0
281
       1
  0
CLASS
  1
ARCALIGNEDTEXT
  2
AcDbArcAlignedText
  3
ATEXT|AutoCAD Express Tool|expresstools@autodesk.com
 90
        0
280
       0
281
       1
  0
ENDSEC
  0
SECTION
  2
TABLES
  0
TABLE
  2
VPORT
  5
7
100
AcDbSymbolTable
 70
       1
  0
VPORT
  5
15
100
AcDbSymbolTableRecord
100
AcDbViewportTableRecord
  2
*ACTIVE
 70
       0
 10
0.0
 20
0.0
 11
1.0
 21
1.0
 12
-20.78950002
 22
0.0
 13
0.0
 23
0.0
 14
1.0
 24
1.0
 15
0.0
 25
0.0
 16
0.0
 26
0.0
 36
1.0
 17
0.0
 27
0.0
 37
0.0
 40
613.58816879
 41
1.23089908
 42
50.0
 43
0.0
 44
0.0
 50
0.0
 51
0.0
 71
       0
 72
     100
 73
       1
 74
       1
 75
       0
 76
       0
 77
       0
 78
       0
  0
ENDTAB
  0
TABLE
  2
LTYPE
  5
4
100
AcDbSymbolTable
 70
      30
  0
LTYPE
  5
11
100
AcDbSymbolTableRecord
100
AcDbLinetypeTableRecord
  2
BYBLOCK
 70
      64
  3

 72
      65
 73
       0
 40
0.0
  0
LTYPE
  5
12
100
AcDbSymbolTableRecord
100
AcDbLinetypeTableRecord
  2
BYLAYER
 70
      64
  3

 72
      65
 73
       0
 40
0.0
  0
LTYPE
  5
13
100
AcDbSymbolTableRecord
100
AcDbLinetypeTableRecord
  2
CONTINUOUS
 70
      64
  3
Solid line
 72
      65
 73
       0
 40
0.0
  0
LTYPE
  5
1D
100
AcDbSymbolTableRecord
100
AcDbLinetypeTableRecord
  2
HIDDENX2
 70
      64
  3
CADPAC LINETYPE
 72
      65
 73
       2
 40
32.65832363
 49
24.49374272
 74
       0
 49
-8.16458091
 74
       0
  0
LTYPE
  5
1E
100
AcDbSymbolTableRecord
100
AcDbLinetypeTableRecord
  2
HIDDEN
 70
      64
  3
CADPAC LINETYPE
 72
      65
 73
       2
 40
24.49374272
 49
16.32916181
 74
       0
 49
-8.16458091
 74
       0
  0
LTYPE
  5
1F
100
AcDbSymbolTableRecord
100
AcDbLinetypeTableRecord
  2
HIDDEN2
 70
      64
  3
CADPAC LINETYPE
 72
      65
 73
       2
 40
20.41145227
 49
12.24687136
 74
       0
 49
-8.16458091
 74
       0
  0
LTYPE
  5
20
100
AcDbSymbolTableRecord
100
AcDbLinetypeTableRecord
  2
DASHED
 70
      64
  3
CADPAC LINETYPE
 72
      65
 73
       2
 40
24.49374272
 49
16.32916181
 74
       0
 49
-8.16458091
 74
       0
  0
LTYPE
  5
21
100
AcDbSymbolTableRecord
100
AcDbLinetypeTableRecord
  2
DASHED2
 70
      64
  3
CADPAC LINETYPE
 72
      65
 73
       2
 40
18.37030704
 49
12.24687136
 74
       0
 49
-6.12343568
 74
       0
  0
LTYPE
  5
22
100
AcDbSymbolTableRecord
100
AcDbLinetypeTableRecord
  2
DASHEDX2
 70
      64
  3
CADPAC LINETYPE
 72
      65
 73
       2
 40
36.74061408
 49
24.49374272
 74
       0
 49
-12.24687136
 74
       0
  0
LTYPE
  5
23
100
AcDbSymbolTableRecord
100
AcDbLinetypeTableRecord
  2
DOTX2
 70
      64
  3
CADPAC LINETYPE
 72
      65
 73
       2
 40
10.20572613
 49
0.0
 74
       0
 49
-10.20572613
 74
       0
  0
LTYPE
  5
24
100
AcDbSymbolTableRecord
100
AcDbLinetypeTableRecord
  2
DOT
 70
      64
  3
CADPAC LINETYPE
 72
      65
 73
       2
 40
8.16458091
 49
0.0
 74
       0
 49
-8.16458091
 74
       0
  0
LTYPE
  5
25
100
AcDbSymbolTableRecord
100
AcDbLinetypeTableRecord
  2
DOT2
 70
      64
  3
CADPAC LINETYPE
 72
      65
 73
       2
 40
6.12343568
 49
0.0
 74
       0
 49
-6.12343568
 74
       0
  0
LTYPE
  5
26
100
AcDbSymbolTableRecord
100
AcDbLinetypeTableRecord
  2
CENTERX2
 70
      64
  3
CADPAC LINETYPE
 72
      65
 73
       4
 40
48.98748544
 49
20.41145227
 74
       0
 49
-10.20572613
 74
       0
 49
8.16458091
 74
       0
 49
-10.20572613
 74
       0
  0
LTYPE
  5
27
100
AcDbSymbolTableRecord
100
AcDbLinetypeTableRecord
  2
CENTER
 70
      64
  3
CADPAC LINETYPE
 72
      65
 73
       4
 40
37.55707217
 49
16.32916181
 74
       0
 49
-8.16458091
 74
       0
 49
4.89874854
 74
       0
 49
-8.16458091
 74
       0
  0
LTYPE
  5
28
100
AcDbSymbolTableRecord
100
AcDbLinetypeTableRecord
  2
CENTER2
 70
      64
  3
CADPAC LINETYPE
 72
      65
 73
       4
 40
26.1266589
 49
12.24687136
 74
       0
 49
-6.12343568
 74
       0
 49
1.63291618
 74
       0
 49
-6.12343568
 74
       0
  0
LTYPE
  5
29
100
AcDbSymbolTableRecord
100
AcDbLinetypeTableRecord
  2
DASHDOTX2
 70
      64
  3
CADPAC LINETYPE
 72
      65
 73
       4
 40
40.82290454
 49
20.41145227
 74
       0
 49
-10.20572613
 74
       0
 49
0.0
 74
       0
 49
-10.20572613
 74
       0
  0
LTYPE
  5
2A
100
AcDbSymbolTableRecord
100
AcDbLinetypeTableRecord
  2
DASHDOT
 70
      64
  3
CADPAC LINETYPE
 72
      65
 73
       4
 40
32.65832363
 49
16.32916181
 74
       0
 49
-8.16458091
 74
       0
 49
0.0
 74
       0
 49
-8.16458091
 74
       0
  0
LTYPE
  5
2B
100
AcDbSymbolTableRecord
100
AcDbLinetypeTableRecord
  2
DASHDOT2
 70
      64
  3
CADPAC LINETYPE
 72
      65
 73
       4
 40
24.49374272
 49
12.24687136
 74
       0
 49
-6.12343568
 74
       0
 49
0.0
 74
       0
 49
-6.12343568
 74
       0
  0
LTYPE
  5
2C
100
AcDbSymbolTableRecord
100
AcDbLinetypeTableRecord
  2
DIVIDEX2
 70
      64
  3
CADPAC LINETYPE
 72
      65
 73
       6
 40
51.02863067
 49
20.41145227
 74
       0
 49
-10.20572613
 74
       0
 49
0.0
 74
       0
 49
-10.20572613
 74
       0
 49
0.0
 74
       0
 49
-10.20572613
 74
       0
  0
LTYPE
  5
2D
100
AcDbSymbolTableRecord
100
AcDbLinetypeTableRecord
  2
DIVIDE
 70
      64
  3
CADPAC LINETYPE
 72
      65
 73
       6
 40
40.82290454
 49
16.32916181
 74
       0
 49
-8.16458091
 74
       0
 49
0.0
 74
       0
 49
-8.16458091
 74
       0
 49
0.0
 74
       0
 49
-8.16458091
 74
       0
  0
LTYPE
  5
2E
100
AcDbSymbolTableRecord
100
AcDbLinetypeTableRecord
  2
DIVIDE2
 70
      64
  3
CADPAC LINETYPE
 72
      65
 73
       6
 40
30.6171784
 49
12.24687136
 74
       0
 49
-6.12343568
 74
       0
 49
0.0
 74
       0
 49
-6.12343568
 74
       0
 49
0.0
 74
       0
 49
-6.12343568
 74
       0
  0
LTYPE
  5
2F
100
AcDbSymbolTableRecord
100
AcDbLinetypeTableRecord
  2
BORDERX2
 70
      64
  3
CADPAC LINETYPE
 72
      65
 73
       6
 40
71.44008294
 49
20.41145227
 74
       0
 49
-10.20572613
 74
       0
 49
20.41145227
 74
       0
 49
-10.20572613
 74
       0
 49
0.0
 74
       0
 49
-10.20572613
 74
       0
  0
LTYPE
  5
30
100
AcDbSymbolTableRecord
100
AcDbLinetypeTableRecord
  2
BORDER
 70
      64
  3
CADPAC LINETYPE
 72
      65
 73
       6
 40
57.15206635
 49
16.32916181
 74
       0
 49
-8.16458091
 74
       0
 49
16.32916181
 74
       0
 49
-8.16458091
 74
       0
 49
0.0
 74
       0
 49
-8.16458091
 74
       0
  0
LTYPE
  5
31
100
AcDbSymbolTableRecord
100
AcDbLinetypeTableRecord
  2
BORDER2
 70
      64
  3
CADPAC LINETYPE
 72
      65
 73
       6
 40
42.86404976
 49
12.24687136
 74
       0
 49
-6.12343568
 74
       0
 49
12.24687136
 74
       0
 49
-6.12343568
 74
       0
 49
0.0
 74
       0
 49
-6.12343568
 74
       0
  0
LTYPE
  5
32
100
AcDbSymbolTableRecord
100
AcDbLinetypeTableRecord
  2
PHANTOMX2
 70
      64
  3
CADPAC LINETYPE
 72
      65
 73
       6
 40
61.2343568
 49
20.41145227
 74
       0
 49
-8.16458091
 74
       0
 49
8.16458091
 74
       0
 49
-8.16458091
 74
       0
 49
8.16458091
 74
       0
 49
-8.16458091
 74
       0
  0
LTYPE
  5
33
100
AcDbSymbolTableRecord
100
AcDbLinetypeTableRecord
  2
PHANTOM
 70
      64
  3
CADPAC LINETYPE
 72
      65
 73
       6
 40
50.62040162
 49
16.32916181
 74
       0
 49
-8.16458091
 74
       0
 49
4.89874854
 74
       0
 49
-8.16458091
 74
       0
 49
4.89874854
 74
       0
 49
-8.16458091
 74
       0
  0
LTYPE
  5
34
100
AcDbSymbolTableRecord
100
AcDbLinetypeTableRecord
  2
PHANTOM2
 70
      64
  3
CADPAC LINETYPE
 72
      65
 73
       6
 40
43.27227881
 49
12.24687136
 74
       0
 49
-8.16458091
 74
       0
 49
3.26583236
 74
       0
 49
-8.16458091
 74
       0
 49
3.26583236
 74
       0
 49
-8.16458091
 74
       0
  0
LTYPE
  5
35
100
AcDbSymbolTableRecord
100
AcDbLinetypeTableRecord
  2
ACAD_ISO06W100
 70
      64
  3
CADPAC LINETYPE
 72
      65
 73
       8
 40
55.11092112
 49
20.41145227
 74
       0
 49
-10.20572613
 74
       0
 49
0.0
 74
       0
 49
-8.16458091
 74
       0
 49
0.0
 74
       0
 49
-8.16458091
 74
       0
 49
0.0
 74
       0
 49
-8.16458091
 74
       0
  0
LTYPE
  5
36
100
AcDbSymbolTableRecord
100
AcDbLinetypeTableRecord
  2
ACAD_ISO13W100
 70
      64
  3
CADPAC LINETYPE
 72
      65
 73
       8
 40
65.31664726
 49
16.32916181
 74
       0
 49
-8.16458091
 74
       0
 49
16.32916181
 74
       0
 49
-8.16458091
 74
       0
 49
0.0
 74
       0
 49
-8.16458091
 74
       0
 49
0.0
 74
       0
 49
-8.16458091
 74
       0
  0
LTYPE
  5
37
100
AcDbSymbolTableRecord
100
AcDbLinetypeTableRecord
  2
ACAD_ISO14W100
 70
      64
  3
CADPAC LINETYPE
 72
      65
 73
       8
 40
48.98748544
 49
16.32916181
 74
       0
 49
-8.16458091
 74
       0
 49
0.0
 74
       0
 49
-8.16458091
 74
       0
 49
0.0
 74
       0
 49
-8.16458091
 74
       0
 49
0.0
 74
       0
 49
-8.16458091
 74
       0
  0
ENDTAB
  0
TABLE
  2
LAYER
  5
2
100
AcDbSymbolTable
 70
       2
  0
LAYER
  5
14
100
AcDbSymbolTableRecord
100
AcDbLayerTableRecord
  2
0
 70
       0
 62
       7
  6
CONTINUOUS
  0
LAYER
  5
38
100
AcDbSymbolTableRecord
100
AcDbLayerTableRecord
  2
LAYER0001
 70
       0
 62
       7
  6
CONTINUOUS
  0
ENDTAB
  0
TABLE
  2
STYLE
  5
3
100
AcDbSymbolTable
 70
       1
  0
STYLE
  5
17
100
AcDbSymbolTableRecord
100
AcDbTextStyleTableRecord
  2
STANDARD
 70
       0
 40
0.0
 41
1.0
 50
0.0
 71
       0
 42
9.525
  3
txt.shx
  4
bigfont.shx
  0
ENDTAB
  0
TABLE
  2
VIEW
  5
5
100
AcDbSymbolTable
 70
       1
  0
VIEW
  5
39
100
AcDbSymbolTableRecord
100
AcDbViewTableRecord
  2
QQQQ
 70
       0
 40
613.58816879
 10
-20.78950002
 20
0.0
 41
755.26511392
 11
0.0
 21
0.0
 31
1.0
 12
100.0
 22
100.0
 32
0.0
 42
50.0
 43
0.0
 44
0.0
 50
0.0
 71
       0
  0
ENDTAB
  0
TABLE
  2
UCS
  5
6
100
AcDbSymbolTable
 70
       0
  0
ENDTAB
  0
TABLE
  2
APPID
  5
8
100
AcDbSymbolTable
 70
       1
  0
APPID
  5
16
100
AcDbSymbolTableRecord
100
AcDbRegAppTableRecord
  2
ACAD
 70
       0
  0
ENDTAB
  0
TABLE
  2
DIMSTYLE
  5
9
100
AcDbSymbolTable
 70
       1
  0
DIMSTYLE
105
18
100
AcDbSymbolTableRecord
100
AcDbDimStyleTableRecord
  2
STANDARD
 70
       0
  3

  4

  5

  6

  7

 40
1.0
 41
0.18
 42
0.0625
 43
0.38
 44
0.18
 45
0.0
 46
0.0
 47
0.0
 48
0.0
 71
       0
 72
       0
 73
       1
 74
       1
 75
       0
 76
       0
 77
       0
 78
       0
140
0.18
141
0.09
142
0.0
143
25.4
144
1.0
145
0.0
146
1.0
147
0.09
170
       0
171
       2
172
       0
173
       0
174
       0
175
       0
176
       0
177
       0
178
       0
270
       2
271
       4
272
       4
273
       2
274
       2
275
       0
280
       0
281
       0
282
       0
283
       1
284
       0
285
       0
286
       0
287
       0
288
       0
340
17
  0
ENDTAB
  0
TABLE
  2
BLOCK_RECORD
  5
1
100
AcDbSymbolTable
 70
      36
  0
BLOCK_RECORD
  5
A
100
AcDbSymbolTableRecord
100
AcDbBlockTableRecord
  2
*MODEL_SPACE
  0
BLOCK_RECORD
  5
B
100
AcDbSymbolTableRecord
100
AcDbBlockTableRecord
  2
*PAPER_SPACE
  0
BLOCK_RECORD
  5
3A
100
AcDbSymbolTableRecord
100
AcDbBlockTableRecord
  2
GROUP_1
  0
BLOCK_RECORD
  5
3B
100
AcDbSymbolTableRecord
100
AcDbBlockTableRecord
  2
GROUP_2
  0
BLOCK_RECORD
  5
3C
100
AcDbSymbolTableRecord
100
AcDbBlockTableRecord
  2
GROUP_3
  0
BLOCK_RECORD
  5
3D
100
AcDbSymbolTableRecord
100
AcDbBlockTableRecord
  2
GROUP_4
  0
BLOCK_RECORD
  5
3E
100
AcDbSymbolTableRecord
100
AcDbBlockTableRecord
  2
GROUP_5
  0
BLOCK_RECORD
  5
3F
100
AcDbSymbolTableRecord
100
AcDbBlockTableRecord
  2
GROUP_6
  0
BLOCK_RECORD
  5
40
100
AcDbSymbolTableRecord
100
AcDbBlockTableRecord
  2
GROUP_7
  0
BLOCK_RECORD
  5
41
100
AcDbSymbolTableRecord
100
AcDbBlockTableRecord
  2
GROUP_8
  0
BLOCK_RECORD
  5
42
100
AcDbSymbolTableRecord
100
AcDbBlockTableRecord
  2
GROUP_9
  0
BLOCK_RECORD
  5
43
100
AcDbSymbolTableRecord
100
AcDbBlockTableRecord
  2
GROUP_10
  0
BLOCK_RECORD
  5
44
100
AcDbSymbolTableRecord
100
AcDbBlockTableRecord
  2
GROUP_11
  0
BLOCK_RECORD
  5
45
100
AcDbSymbolTableRecord
100
AcDbBlockTableRecord
  2
GROUP_12
  0
BLOCK_RECORD
  5
46
100
AcDbSymbolTableRecord
100
AcDbBlockTableRecord
  2
GROUP_13
  0
BLOCK_RECORD
  5
47
100
AcDbSymbolTableRecord
100
AcDbBlockTableRecord
  2
GROUP_14
  0
BLOCK_RECORD
  5
48
100
AcDbSymbolTableRecord
100
AcDbBlockTableRecord
  2
GROUP_15
  0
BLOCK_RECORD
  5
49
100
AcDbSymbolTableRecord
100
AcDbBlockTableRecord
  2
GROUP_16
  0
BLOCK_RECORD
  5
4A
100
AcDbSymbolTableRecord
100
AcDbBlockTableRecord
  2
GROUP_17
  0
BLOCK_RECORD
  5
4B
100
AcDbSymbolTableRecord
100
AcDbBlockTableRecord
  2
GROUP_18
  0
BLOCK_RECORD
  5
4C
100
AcDbSymbolTableRecord
100
AcDbBlockTableRecord
  2
GROUP_19
  0
BLOCK_RECORD
  5
4D
100
AcDbSymbolTableRecord
100
AcDbBlockTableRecord
  2
GROUP_20
  0
BLOCK_RECORD
  5
4E
100
AcDbSymbolTableRecord
100
AcDbBlockTableRecord
  2
GROUP_21
  0
BLOCK_RECORD
  5
4F
100
AcDbSymbolTableRecord
100
AcDbBlockTableRecord
  2
GROUP_22
  0
BLOCK_RECORD
  5
50
100
AcDbSymbolTableRecord
100
AcDbBlockTableRecord
  2
GROUP_23
  0
BLOCK_RECORD
  5
51
100
AcDbSymbolTableRecord
100
AcDbBlockTableRecord
  2
GROUP_24
  0
BLOCK_RECORD
  5
52
100
AcDbSymbolTableRecord
100
AcDbBlockTableRecord
  2
GROUP_25
  0
BLOCK_RECORD
  5
53
100
AcDbSymbolTableRecord
100
AcDbBlockTableRecord
  2
GROUP_26
  0
BLOCK_RECORD
  5
54
100
AcDbSymbolTableRecord
100
AcDbBlockTableRecord
  2
GROUP_27
  0
BLOCK_RECORD
  5
55
100
AcDbSymbolTableRecord
100
AcDbBlockTableRecord
  2
GROUP_28
  0
BLOCK_RECORD
  5
56
100
AcDbSymbolTableRecord
100
AcDbBlockTableRecord
  2
GROUP_29
  0
BLOCK_RECORD
  5
57
100
AcDbSymbolTableRecord
100
AcDbBlockTableRecord
  2
GROUP_30
  0
BLOCK_RECORD
  5
58
100
AcDbSymbolTableRecord
100
AcDbBlockTableRecord
  2
GROUP_31
  0
BLOCK_RECORD
  5
59
100
AcDbSymbolTableRecord
100
AcDbBlockTableRecord
  2
GROUP_32
  0
BLOCK_RECORD
  5
5A
100
AcDbSymbolTableRecord
100
AcDbBlockTableRecord
  2
GROUP_33
  0
BLOCK_RECORD
  5
5B
100
AcDbSymbolTableRecord
100
AcDbBlockTableRecord
  2
GROUP_34
  0
BLOCK_RECORD
  5
5C
100
AcDbSymbolTableRecord
100
AcDbBlockTableRecord
  2
GROUP_35
  0
BLOCK_RECORD
  5
5D
100
AcDbSymbolTableRecord
100
AcDbBlockTableRecord
  2
GROUP_36
  0
ENDTAB
  0
ENDSEC
  0
SECTION
  2
BLOCKS
  0
BLOCK
  5
D
100
AcDbEntity
  8
0
100
AcDbBlockBegin
  2
*MODEL_SPACE
 70
       0
 10
0.0
 20
0.0
 30
0.0
  3
*MODEL_SPACE
  1

  0
ENDBLK
  5
E
100
AcDbEntity
  8
0
100
AcDbBlockEnd
  0
BLOCK
  5
F
100
AcDbEntity
 67
       1
  8
0
100
AcDbBlockBegin
  2
*PAPER_SPACE
 70
       0
 10
0.0
 20
0.0
 30
0.0
  3
*PAPER_SPACE
  1

  0
ENDBLK
  5
10
100
AcDbEntity
 67
       1
  8
0
100
AcDbBlockEnd
  0
BLOCK
  5
5E
100
AcDbEntity
  8
0
100
AcDbBlockBegin
  2
GROUP_1
 70
       0
 10
0.0
 20
0.0
 30
0.0
  3
GROUP_1
  1

  0
LINE
  5
5F
100
AcDbEntity
  8
LAYER0001
  6
CONTINUOUS
 62
       7
100
AcDbLine
 10
253.16925442
 20
-232.74170524
 30
0.0
 11
253.36371092
 21
-232.73974532
 31
0.0
  0
LINE
  5
60
100
AcDbEntity
  8
LAYER0001
  6
CONTINUOUS
 62
       7
100
AcDbLine
 10
253.36371092
 20
-232.73974532
 30
0.0
 11
253.55817632
 21
-232.73655045
 31
0.0
  0
LINE
  5
61
100
AcDbEntity
  8
LAYER0001
  6
CONTINUOUS
 62
       7
100
AcDbLine
 10
253.55817632
 20
-232.73655045
 30
0.0
 11
253.75265439
 21
-232.73103555
 31
0.0
  0
LINE
  5
62
100
AcDbEntity
  8
LAYER0001
  6
CONTINUOUS
 62
       7
100
AcDbLine
 10
253.75265439
 20
-232.73103555
 30
0.0
 11
253.94712094
 21
-232.72293331
 31
0.0
  0
LINE
  5
63
100
AcDbEntity
  8
LAYER0001
  6
CONTINUOUS
 62
       7
100
AcDbLine
 10
253.94712094
 20
-232.72293331
 30
0.0
 11
254.14154229
 21
-232.71225403
 31
0.0
  0
LINE
  5
64
100
AcDbEntity
  8
LAYER0001
  6
CONTINUOUS
 62
       7
100
AcDbLine
 10
254.14154229
 20
-232.71225403
 30
0.0
 11
254.33588474
 21
-232.69900821
 31
0.0
  0
LINE
  5
65
100
AcDbEntity
  8
LAYER0001
  6
CONTINUOUS
 62
       7
100
AcDbLine
 10
254.33588474
 20
-232.69900821
 30
0.0
 11
254.5301146
 21
-232.68320639
 31
0.0
  0
LINE
  5
66
100
AcDbEntity
  8
LAYER0001
  6
CONTINUOUS
 62
       7
100
AcDbLine
 10
254.5301146
 20
-232.68320639
 30
0.0
 11
254.72419817
 21
-232.66485907
 31
0.0
  0
LINE
  5
67
100
AcDbEntity
  8
LAYER0001
  6
CONTINUOUS
 62
       7
100
AcDbLine
 10
254.72419817
 20
-232.66485907
 30
0.0
 11
254.91810177
 21
-232.64397677
 31
0.0
  0
LINE
  5
68
100
AcDbEntity
  8
LAYER0001
  6
CONTINUOUS
 62
       7
100
AcDbLine
 10
254.91810177
 20
-232.64397677
 30
0.0
 11
255.1117917
 21
-232.62057001
 31
0.0
  0
LINE
  5
69
100
AcDbEntity
  8
LAYER0001
  6
CONTINUOUS
 62
       7
100
AcDbLine
 10
255.1117917
 20
-232.62057001
 30
0.0
 11
255.30523427
 21
-232.59464931
 31
0.0
  0
LINE
  5
6A
100
AcDbEntity
  8
LAYER0001
  6
CONTINUOUS
 62
       7
100
AcDbLine
 10
255.30523427
 20
-232.59464931
 30
0.0
 11
255.49839578
 21
-232.56622518
 31
0.0
  0
LINE
  5
6B
100
AcDbEntity
  8
LAYER0001
  6
CONTINUOUS
 62
       7
100
AcDbLine
 10
255.49839578
 20
-232.56622518
 30
0.0
 11
255.69124253
 21
-232.53530814
 31
0.0
  0
LINE
  5
6C
100
AcDbEntity
  8
LAYER0001
  6
CONTINUOUS
 62
       7
100
AcDbLine
 10
255.69124253
 20
-232.53530814
 30
0.0
 11
255.88374085
 21
-232.50190871
 31
0.0
  0
LINE
  5
6D
100
AcDbEntity
  8
LAYER0001
  6
CONTINUOUS
 62
       7
100
AcDbLine
 10
255.88374085
 20
-232.50190871
 30
0.0
 11
256.07585702
 21
-232.4660374
 31
0.0
  0
LINE
  5
6E
100
AcDbEntity
  8
LAYER0001
  6
CONTINUOUS
 62
       7
100
AcDbLine
 10
256.07585702
 20
-232.4660374
 30
0.0
 11
256.26755738
 21
-232.42770474
 31
0.0
  0
LINE
  5
6F
100
AcDbEntity
  8
LAYER0001
  6
CONTINUOUS
 62
       7
100
AcDbLine
 10
256.26755738
 20
-232.42770474
 30
0.0
 11
256.4588218
 21
-232.38695523
 31
0.0
  0
LINE
  5
70
100
AcDbEntity
  8
LAYER0001
  6
CONTINUOUS
 62
       7
100
AcDbLine
 10
256.4588218
 20
-232.38695523
 30
0.0
 11
256.64967344
 21
-232.34394153
 31
0.0
  0
LINE
  5
71
100
AcDbEntity
  8
LAYER0001
  6
CONTINUOUS
 62
       7
100
AcDbLine
 10
256.64967344
 20
-232.34394153
 30
0.0
 11
256.84014406
 21
-232.29883783
 31
0.0
  0
LINE
  5
72
100
AcDbEntity
  8
LAYER0001
  6
CONTINUOUS
 62
       7
100
AcDbLine
 10
256.84014406
 20
-232.29883783
 30
0.0
 11
257.03026541
 21
-232.25181828
 31
0.0
  0
LINE
  5
73
100
AcDbEntity
  8
LAYER0001
  6
CONTINUOUS
 62
       7
100
AcDbLine
 10
257.03026541
 20
-232.25181828
 30
0.0
 11
257.22006925
 21
-232.20305705
 31
0.0
  0
LINE
  5
74
100
AcDbEntity
  8
LAYER0001
  6
CONTINUOUS
 62
       7
100
AcDbLine
 10
257.22006925
 20
-232.20305705
 30
0.0
 11
257.40958731
 21
-232.15272831
 31
0.0
  0
LINE
  5
75
100
AcDbEntity
  8
LAYER0001
  6
CONTINUOUS
 62
       7
100
AcDbLine
 10
257.40958731
 20
-232.15272831
 30
0.0
 11
257.59885136
 21
-232.10100623
 31
0.0
  0
LINE
  5
76
100
AcDbEntity
  8
LAYER0001
  6
CONTINUOUS
 62
       7
100
AcDbLine
 10
257.59885136
 20
-232.10100623
 30
0.0
 11
257.78789314
 21
-232.04806498
 31
0.0
  0
LINE
  5
77
100
AcDbEntity
  8
LAYER0001
  6
CONTINUOUS
 62
       7
100
AcDbLine
 10
257.78789314
 20
-232.04806498
 30
0.0
 11
257.97674442
 21
-231.99407872
 31
0.0
  0
LINE
  5
78
100
AcDbEntity
  8
LAYER0001
  6
CONTINUOUS
 62
       7
100
AcDbLine
 10
257.97674442
 20
-231.99407872
 30
0.0
 11
258.16543693
 21
-231.93922162
 31
0.0
  0
LINE
  5
79
100
AcDbEntity
  8
LAYER0001
  6
CONTINUOUS
 62
       7
100
AcDbLine
 10
258.16543693
 20
-231.93922162
 30
0.0
 11
258.35400244
 21
-231.88366785
 31
0.0
  0
LINE
  5
7A
100
AcDbEntity
  8
LAYER0001
  6
CONTINUOUS
 62
       7
100
AcDbLine
 10
258.35400244
 20
-231.88366785
 30
0.0
 11
258.54247269
 21
-231.82759158
 31
0.0
  0
LINE
  5
7B
100
AcDbEntity
  8
LAYER0001
  6
CONTINUOUS
 62
       7
100
AcDbLine
 10
258.54247269
 20
-231.82759158
 30
0.0
 11
258.73087944
 21
-231.77116697
 31
0.0
  0
LINE
  5
7C
100
AcDbEntity
  8
LAYER0001
  6
CONTINUOUS
 62
       7
100
AcDbLine
 10
258.73087944
 20
-231.77116697
 30
0.0
 11
258.91925443
 21
-231.7145682
 31
0.0
  0
ENDBLK
  5
7D
100
AcDbEntity
  8
0
100
AcDbBlockEnd
  0
BLOCK
  5
7E
100
AcDbEntity
  8
0
100
AcDbBlockBegin
  2
GROUP_2
 70
       0
 10
0.0
 20
0.0
 30
0.0
  3
GROUP_2
  1

  0
LINE
  5
7F
100
AcDbEntity
  8
LAYER0001
  6
CONTINUOUS
 62
       7
100
AcDbLine
 10
258.91925443
 20
-231.7145682
 30
0.0
 11
259.14543548
 21
-231.78403734
 31
0.0
  0
LINE
  5
80
100
AcDbEntity
  8
LAYER0001
  6
CONTINUOUS
 62
       7
100
AcDbLine
 10
259.14543548
 20
-231.78403734
 30
0.0
 11
259.37166581
 21
-231.85314016
 31
0.0
  0
LINE
  5
81
100
AcDbEntity
  8
LAYER0001
  6
CONTINUOUS
 62
       7
100
AcDbLine
 10
259.37166581
 20
-231.85314016
 30
0.0
 11
259.59799471
 21
-231.92151033
 31
0.0
  0
LINE
  5
82
100
AcDbEntity
  8
LAYER0001
  6
CONTINUOUS
 62
       7
100
AcDbLine
 10
259.59799471
 20
-231.92151033
 30
0.0
 11
259.82447148
 21
-231.98878154
 31
0.0
  0
LINE
  5
83
100
AcDbEntity
  8
LAYER0001
  6
CONTINUOUS
 62
       7
100
AcDbLine
 10
259.82447148
 20
-231.98878154
 30
0.0
 11
260.0511454
 21
-232.05458747
 31
0.0
  0
LINE
  5
84
100
AcDbEntity
  8
LAYER0001
  6
CONTINUOUS
 62
       7
100
AcDbLine
 10
260.0511454
 20
-232.05458747
 30
0.0
 11
260.27806576
 21
-232.1185618
 31
0.0
  0
LINE
  5
85
100
AcDbEntity
  8
LAYER0001
  6
CONTINUOUS
 62
       7
100
AcDbLine
 10
260.27806576
 20
-232.1185618
 30
0.0
 11
260.50528184
 21
-232.1803382
 31
0.0
  0
LINE
  5
86
100
AcDbEntity
  8
LAYER0001
  6
CONTINUOUS
 62
       7
100
AcDbLine
 10
260.50528184
 20
-232.1803382
 30
0.0
 11
260.73284294
 21
-232.23955035
 31
0.0
  0
LINE
  5
87
100
AcDbEntity
  8
LAYER0001
  6
CONTINUOUS
 62
       7
100
AcDbLine
 10
260.73284294
 20
-232.23955035
 30
0.0
 11
260.96079834
 21
-232.29583193
 31
0.0
  0
LINE
  5
88
100
AcDbEntity
  8
LAYER0001
  6
CONTINUOUS
 62
       7
100
AcDbLine
 10
260.96079834
 20
-232.29583193
 30
0.0
 11
261.18919733
 21
-232.34881663
 31
0.0
  0
LINE
  5
89
100
AcDbEntity
  8
LAYER0001
  6
CONTINUOUS
 62
       7
100
AcDbLine
 10
261.18919733
 20
-232.34881663
 30
0.0
 11
261.41808919
 21
-232.39813812
 31
0.0
  0
LINE
  5
8A
100
AcDbEntity
  8
LAYER0001
  6
CONTINUOUS
 62
       7
100
AcDbLine
 10
261.41808919
 20
-232.39813812
 30
0.0
 11
261.64752322
 21
-232.44343007
 31
0.0
  0
LINE
  5
8B
100
AcDbEntity
  8
LAYER0001
  6
CONTINUOUS
 62
       7
100
AcDbLine
 10
261.64752322
 20
-232.44343007
 30
0.0
 11
261.87754494
 21
-232.48435412
 31
0.0
  0
LINE
  5
8C
100
AcDbEntity
  8
LAYER0001
  6
CONTINUOUS
 62
       7
100
AcDbLine
 10
261.87754494
 20
-232.48435412
 30
0.0
 11
262.10814652
 21
-232.52096846
 31
0.0
  0
LINE
  5
8D
100
AcDbEntity
  8
LAYER0001
  6
CONTINUOUS
 62
       7
100
AcDbLine
 10
262.10814652
 20
-232.52096846
 30
0.0
 11
262.33928051
 21
-232.55362582
 31
0.0
  0
LINE
  5
8E
100
AcDbEntity
  8
LAYER0001
  6
CONTINUOUS
 62
       7
100
AcDbLine
 10
262.33928051
 20
-232.55362582
 30
0.0
 11
262.5708985
 21
-232.58268593
 31
0.0
  0
LINE
  5
8F
100
AcDbEntity
  8
LAYER0001
  6
CONTINUOUS
 62
       7
100
AcDbLine
 10
262.5708985
 20
-232.58268593
 30
0.0
 11
262.80295209
 21
-232.60850851
 31
0.0
  0
LINE
  5
90
100
AcDbEntity
  8
LAYER0001
  6
CONTINUOUS
 62
       7
100
AcDbLine
 10
262.80295209
 20
-232.60850851
 30
0.0
 11
263.03539288
 21
-232.63145329
 31
0.0
  0
LINE
  5
91
100
AcDbEntity
  8
LAYER0001
  6
CONTINUOUS
 62
       7
100
AcDbLine
 10
263.03539288
 20
-232.63145329
 30
0.0
 11
263.26817247
 21
-232.65188
 31
0.0
  0
LINE
  5
92
100
AcDbEntity
  8
LAYER0001
  6
CONTINUOUS
 62
       7
100
AcDbLine
 10
263.26817247
 20
-232.65188
 30
0.0
 11
263.50124246
 21
-232.67014835
 31
0.0
  0
LINE
  5
93
100
AcDbEntity
  8
LAYER0001
  6
CONTINUOUS
 62
       7
100
AcDbLine
 10
263.50124246
 20
-232.67014835
 30
0.0
 11
263.73455446
 21
-232.68661808
 31
0.0
  0
LINE
  5
94
100
AcDbEntity
  8
LAYER0001
  6
CONTINUOUS
 62
       7
100
AcDbLine
 10
263.73455446
 20
-232.68661808
 30
0.0
 11
263.96806006
 21
-232.70164891
 31
0.0
  0
LINE
  5
95
100
AcDbEntity
  8
LAYER0001
  6
CONTINUOUS
 62
       7
100
AcDbLine
 10
263.96806006
 20
-232.70164891
 30
0.0
 11
264.20171085
 21
-232.71560056
 31
0.0
  0
LINE
  5
96
100
AcDbEntity
  8
LAYER0001
  6
CONTINUOUS
 62
       7
100
AcDbLine
 10
264.20171085
 20
-232.71560056
 30
0.0
 11
264.43545845
 21
-232.72883276
 31
0.0
  0
LINE
  5
97
100
AcDbEntity
  8
LAYER0001
  6
CONTINUOUS
 62
       7
100
AcDbLine
 10
264.43545845
 20
-232.72883276
 30
0.0
 11
264.66925445
 21
-232.74170524
 31
0.0
  0
ENDBLK
  5
98
100
AcDbEntity
  8
0
100
AcDbBlockEnd
  0
BLOCK
  5
99
100
AcDbEntity
  8
0
100
AcDbBlockBegin
  2
GROUP_3
 70
       0
 10
0.0
 20
0.0
 30
0.0
  3
GROUP_3
  1

  0
LINE
  5
9A
100
AcDbEntity
  8
LAYER0001
  6
CONTINUOUS
 62
       7
100
AcDbLine
 10
264.66925445
 20
-225.24171239
 30
0.0
 11
264.47479762
 21
-225.24365736
 31
0.0
  0
LINE
  5
9B
100
AcDbEntity
  8
LAYER0001
  6
CONTINUOUS
 62
       7
100
AcDbLine
 10
264.47479762
 20
-225.24365736
 30
0.0
 11
264.28033189
 21
-225.24683865
 31
0.0
  0
LINE
  5
9C
100
AcDbEntity
  8
LAYER0001
  6
CONTINUOUS
 62
       7
100
AcDbLine
 10
264.28033189
 20
-225.24683865
 30
0.0
 11
264.0858535
 21
-225.25234254
 31
0.0
  0
LINE
  5
9D
100
AcDbEntity
  8
LAYER0001
  6
CONTINUOUS
 62
       7
100
AcDbLine
 10
264.0858535
 20
-225.25234254
 30
0.0
 11
263.89138664
 21
-225.26043644
 31
0.0
  0
LINE
  5
9E
100
AcDbEntity
  8
LAYER0001
  6
CONTINUOUS
 62
       7
100
AcDbLine
 10
263.89138664
 20
-225.26043644
 30
0.0
 11
263.696965
 21
-225.27110981
 31
0.0
  0
LINE
  5
9F
100
AcDbEntity
  8
LAYER0001
  6
CONTINUOUS
 62
       7
100
AcDbLine
 10
263.696965
 20
-225.27110981
 30
0.0
 11
263.50262228
 21
-225.28435189
 31
0.0
  0
LINE
  5
A0
100
AcDbEntity
  8
LAYER0001
  6
CONTINUOUS
 62
       7
100
AcDbLine
 10
263.50262228
 20
-225.28435189
 30
0.0
 11
263.30839216
 21
-225.30015192
 31
0.0
  0
LINE
  5
A1
100
AcDbEntity
  8
LAYER0001
  6
CONTINUOUS
 62
       7
100
AcDbLine
 10
263.30839216
 20
-225.30015192
 30
0.0
 11
263.11430835
 21
-225.31849914
 31
0.0
  0
LINE
  5
A2
100
AcDbEntity
  8
LAYER0001
  6
CONTINUOUS
 62
       7
100
AcDbLine
 10
263.11430835
 20
-225.31849914
 30
0.0
 11
262.92040453
 21
-225.33938277
 31
0.0
  0
LINE
  5
A3
100
AcDbEntity
  8
LAYER0001
  6
CONTINUOUS
 62
       7
100
AcDbLine
 10
262.92040453
 20
-225.33938277
 30
0.0
 11
262.72671442
 21
-225.36279208
 31
0.0
  0
LINE
  5
A4
100
AcDbEntity
  8
LAYER0001
  6
CONTINUOUS
 62
       7
100
AcDbLine
 10
262.72671442
 20
-225.36279208
 30
0.0
 11
262.53327169
 21
-225.38871628
 31
0.0
  0
LINE
  5
A5
100
AcDbEntity
  8
LAYER0001
  6
CONTINUOUS
 62
       7
100
AcDbLine
 10
262.53327169
 20
-225.38871628
 30
0.0
 11
262.34011006
 21
-225.41714461
 31
0.0
  0
LINE
  5
A6
100
AcDbEntity
  8
LAYER0001
  6
CONTINUOUS
 62
       7
100
AcDbLine
 10
262.34011006
 20
-225.41714461
 30
0.0
 11
262.14726321
 21
-225.44806633
 31
0.0
  0
LINE
  5
A7
100
AcDbEntity
  8
LAYER0001
  6
CONTINUOUS
 62
       7
100
AcDbLine
 10
262.14726321
 20
-225.44806633
 30
0.0
 11
261.95476483
 21
-225.48147065
 31
0.0
  0
LINE
  5
A8
100
AcDbEntity
  8
LAYER0001
  6
CONTINUOUS
 62
       7
100
AcDbLine
 10
261.95476483
 20
-225.48147065
 30
0.0
 11
261.76264863
 21
-225.51734683
 31
0.0
  0
LINE
  5
A9
100
AcDbEntity
  8
LAYER0001
  6
CONTINUOUS
 62
       7
100
AcDbLine
 10
261.76264863
 20
-225.51734683
 30
0.0
 11
261.5709483
 21
-225.55568408
 31
0.0
  0
LINE
  5
AA
100
AcDbEntity
  8
LAYER0001
  6
CONTINUOUS
 62
       7
100
AcDbLine
 10
261.5709483
 20
-225.55568408
 30
0.0
 11
261.37968394
 21
-225.59643773
 31
0.0
  0
LINE
  5
AB
100
AcDbEntity
  8
LAYER0001
  6
CONTINUOUS
 62
       7
100
AcDbLine
 10
261.37968394
 20
-225.59643773
 30
0.0
 11
261.18883239
 21
-225.6394551
 31
0.0
  0
LINE
  5
AC
100
AcDbEntity
  8
LAYER0001
  6
CONTINUOUS
 62
       7
100
AcDbLine
 10
261.18883239
 20
-225.6394551
 30
0.0
 11
260.9983619
 21
-225.68456205
 31
0.0
  0
LINE
  5
AD
100
AcDbEntity
  8
LAYER0001
  6
CONTINUOUS
 62
       7
100
AcDbLine
 10
260.9983619
 20
-225.68456205
 30
0.0
 11
260.80824071
 21
-225.73158446
 31
0.0
  0
LINE
  5
AE
100
AcDbEntity
  8
LAYER0001
  6
CONTINUOUS
 62
       7
100
AcDbLine
 10
260.80824071
 20
-225.73158446
 30
0.0
 11
260.61843707
 21
-225.78034819
 31
0.0
  0
LINE
  5
AF
100
AcDbEntity
  8
LAYER0001
  6
CONTINUOUS
 62
       7
100
AcDbLine
 10
260.61843707
 20
-225.78034819
 30
0.0
 11
260.42891922
 21
-225.83067911
 31
0.0
  0
LINE
  5
B0
100
AcDbEntity
  8
LAYER0001
  6
CONTINUOUS
 62
       7
100
AcDbLine
 10
260.42891922
 20
-225.83067911
 30
0.0
 11
260.23965541
 21
-225.88240309
 31
0.0
  0
LINE
  5
B1
100
AcDbEntity
  8
LAYER0001
  6
CONTINUOUS
 62
       7
100
AcDbLine
 10
260.23965541
 20
-225.88240309
 30
0.0
 11
260.05061389
 21
-225.93534599
 31
0.0
  0
LINE
  5
B2
100
AcDbEntity
  8
LAYER0001
  6
CONTINUOUS
 62
       7
100
AcDbLine
 10
260.05061389
 20
-225.93534599
 30
0.0
 11
259.86176289
 21
-225.98933369
 31
0.0
  0
LINE
  5
B3
100
AcDbEntity
  8
LAYER0001
  6
CONTINUOUS
 62
       7
100
AcDbLine
 10
259.86176289
 20
-225.98933369
 30
0.0
 11
259.67307067
 21
-226.04419204
 31
0.0
  0
LINE
  5
B4
100
AcDbEntity
  8
LAYER0001
  6
CONTINUOUS
 62
       7
100
AcDbLine
 10
259.67307067
 20
-226.04419204
 30
0.0
 11
259.48450547
 21
-226.09974693
 31
0.0
  0
LINE
  5
B5
100
AcDbEntity
  8
LAYER0001
  6
CONTINUOUS
 62
       7
100
AcDbLine
 10
259.48450547
 20
-226.09974693
 30
0.0
 11
259.29603553
 21
-226.15582421
 31
0.0
  0
LINE
  5
B6
100
AcDbEntity
  8
LAYER0001
  6
CONTINUOUS
 62
       7
100
AcDbLine
 10
259.29603553
 20
-226.15582421
 30
0.0
 11
259.10762911
 21
-226.21224975
 31
0.0
  0
LINE
  5
B7
100
AcDbEntity
  8
LAYER0001
  6
CONTINUOUS
 62
       7
100
AcDbLine
 10
259.10762911
 20
-226.21224975
 30
0.0
 11
258.91925443
 21
-226.26884943
 31
0.0
  0
ENDBLK
  5
B8
100
AcDbEntity
  8
0
100
AcDbBlockEnd
  0
BLOCK
  5
B9
100
AcDbEntity
  8
0
100
AcDbBlockBegin
  2
GROUP_4
 70
       0
 10
0.0
 20
0.0
 30
0.0
  3
GROUP_4
  1

  0
LINE
  5
BA
100
AcDbEntity
  8
LAYER0001
  6
CONTINUOUS
 62
       7
100
AcDbLine
 10
270.41925446
 20
-226.26884943
 30
0.0
 11
270.19307385
 21
-226.19937681
 31
0.0
  0
LINE
  5
BB
100
AcDbEntity
  8
LAYER0001
  6
CONTINUOUS
 62
       7
100
AcDbLine
 10
270.19307385
 20
-226.19937681
 30
0.0
 11
269.96684395
 21
-226.13027055
 31
0.0
  0
LINE
  5
BC
100
AcDbEntity
  8
LAYER0001
  6
CONTINUOUS
 62
       7
100
AcDbLine
 10
269.96684395
 20
-226.13027055
 30
0.0
 11
269.74051547
 21
-226.06189703
 31
0.0
  0
LINE
  5
BD
100
AcDbEntity
  8
LAYER0001
  6
CONTINUOUS
 62
       7
100
AcDbLine
 10
269.74051547
 20
-226.06189703
 30
0.0
 11
269.5140391
 21
-225.9946226
 31
0.0
  0
LINE
  5
BE
100
AcDbEntity
  8
LAYER0001
  6
CONTINUOUS
 62
       7
100
AcDbLine
 10
269.5140391
 20
-225.9946226
 30
0.0
 11
269.28736556
 21
-225.92881363
 31
0.0
  0
LINE
  5
BF
100
AcDbEntity
  8
LAYER0001
  6
CONTINUOUS
 62
       7
100
AcDbLine
 10
269.28736556
 20
-225.92881363
 30
0.0
 11
269.06044556
 21
-225.8648365
 31
0.0
  0
LINE
  5
C0
100
AcDbEntity
  8
LAYER0001
  6
CONTINUOUS
 62
       7
100
AcDbLine
 10
269.06044556
 20
-225.8648365
 30
0.0
 11
268.83322979
 21
-225.80305755
 31
0.0
  0
LINE
  5
C1
100
AcDbEntity
  8
LAYER0001
  6
CONTINUOUS
 62
       7
100
AcDbLine
 10
268.83322979
 20
-225.80305755
 30
0.0
 11
268.60566897
 21
-225.74384317
 31
0.0
  0
LINE
  5
C2
100
AcDbEntity
  8
LAYER0001
  6
CONTINUOUS
 62
       7
100
AcDbLine
 10
268.60566897
 20
-225.74384317
 30
0.0
 11
268.37771381
 21
-225.6875597
 31
0.0
  0
LINE
  5
C3
100
AcDbEntity
  8
LAYER0001
  6
CONTINUOUS
 62
       7
100
AcDbLine
 10
268.37771381
 20
-225.6875597
 30
0.0
 11
268.14931501
 21
-225.63457353
 31
0.0
  0
LINE
  5
C4
100
AcDbEntity
  8
LAYER0001
  6
CONTINUOUS
 62
       7
100
AcDbLine
 10
268.14931501
 20
-225.63457353
 30
0.0
 11
267.92042327
 21
-225.58525102
 31
0.0
  0
LINE
  5
C5
100
AcDbEntity
  8
LAYER0001
  6
CONTINUOUS
 62
       7
100
AcDbLine
 10
267.92042327
 20
-225.58525102
 30
0.0
 11
267.69098931
 21
-225.53995852
 31
0.0
  0
LINE
  5
C6
100
AcDbEntity
  8
LAYER0001
  6
CONTINUOUS
 62
       7
100
AcDbLine
 10
267.69098931
 20
-225.53995852
 30
0.0
 11
267.46096759
 21
-225.49903447
 31
0.0
  0
LINE
  5
C7
100
AcDbEntity
  8
LAYER0001
  6
CONTINUOUS
 62
       7
100
AcDbLine
 10
267.46096759
 20
-225.49903447
 30
0.0
 11
267.23036594
 21
-225.46242066
 31
0.0
  0
LINE
  5
C8
100
AcDbEntity
  8
LAYER0001
  6
CONTINUOUS
 62
       7
100
AcDbLine
 10
267.23036594
 20
-225.46242066
 30
0.0
 11
266.99923183
 21
-225.42976433
 31
0.0
  0
LINE
  5
C9
100
AcDbEntity
  8
LAYER0001
  6
CONTINUOUS
 62
       7
100
AcDbLine
 10
266.99923183
 20
-225.42976433
 30
0.0
 11
266.76761366
 21
-225.40070569
 31
0.0
  0
LINE
  5
CA
100
AcDbEntity
  8
LAYER0001
  6
CONTINUOUS
 62
       7
100
AcDbLine
 10
266.76761366
 20
-225.40070569
 30
0.0
 11
266.53555983
 21
-225.37488498
 31
0.0
  0
LINE
  5
CB
100
AcDbEntity
  8
LAYER0001
  6
CONTINUOUS
 62
       7
100
AcDbLine
 10
266.53555983
 20
-225.37488498
 30
0.0
 11
266.30311876
 21
-225.35194244
 31
0.0
  0
LINE
  5
CC
100
AcDbEntity
  8
LAYER0001
  6
CONTINUOUS
 62
       7
100
AcDbLine
 10
266.30311876
 20
-225.35194244
 30
0.0
 11
266.07033885
 21
-225.33151828
 31
0.0
  0
LINE
  5
CD
100
AcDbEntity
  8
LAYER0001
  6
CONTINUOUS
 62
       7
100
AcDbLine
 10
266.07033885
 20
-225.33151828
 30
0.0
 11
265.8372685
 21
-225.31325274
 31
0.0
  0
LINE
  5
CE
100
AcDbEntity
  8
LAYER0001
  6
CONTINUOUS
 62
       7
100
AcDbLine
 10
265.8372685
 20
-225.31325274
 30
0.0
 11
265.60395613
 21
-225.29678605
 31
0.0
  0
LINE
  5
CF
100
AcDbEntity
  8
LAYER0001
  6
CONTINUOUS
 62
       7
100
AcDbLine
 10
265.60395613
 20
-225.29678605
 30
0.0
 11
265.37045013
 21
-225.28175844
 31
0.0
  0
LINE
  5
D0
100
AcDbEntity
  8
LAYER0001
  6
CONTINUOUS
 62
       7
100
AcDbLine
 10
265.37045013
 20
-225.28175844
 30
0.0
 11
265.13679891
 21
-225.26781014
 31
0.0
  0
LINE
  5
D1
100
AcDbEntity
  8
LAYER0001
  6
CONTINUOUS
 62
       7
100
AcDbLine
 10
265.13679891
 20
-225.26781014
 30
0.0
 11
264.90305088
 21
-225.25458138
 31
0.0
  0
LINE
  5
D2
100
AcDbEntity
  8
LAYER0001
  6
CONTINUOUS
 62
       7
100
AcDbLine
 10
264.90305088
 20
-225.25458138
 30
0.0
 11
264.66925445
 21
-225.24171239
 31
0.0
  0
ENDBLK
  5
D3
100
AcDbEntity
  8
0
100
AcDbBlockEnd
  0
BLOCK
  5
D4
100
AcDbEntity
  8
0
100
AcDbBlockBegin
  2
GROUP_5
 70
       0
 10
0.0
 20
0.0
 30
0.0
  3
GROUP_5
  1

  0
LINE
  5
D5
100
AcDbEntity
  8
LAYER0001
  6
CONTINUOUS
 62
       7
100
AcDbLine
 10
264.66925445
 20
-232.74170524
 30
0.0
 11
264.86371075
 21
-232.73974532
 31
0.0
  0
LINE
  5
D6
100
AcDbEntity
  8
LAYER0001
  6
CONTINUOUS
 62
       7
100
AcDbLine
 10
264.86371075
 20
-232.73974532
 30
0.0
 11
265.05817598
 21
-232.73655046
 31
0.0
  0
LINE
  5
D7
100
AcDbEntity
  8
LAYER0001
  6
CONTINUOUS
 62
       7
100
AcDbLine
 10
265.05817598
 20
-232.73655046
 30
0.0
 11
265.25265392
 21
-232.73103556
 31
0.0
  0
LINE
  5
D8
100
AcDbEntity
  8
LAYER0001
  6
CONTINUOUS
 62
       7
100
AcDbLine
 10
265.25265392
 20
-232.73103556
 30
0.0
 11
265.44712037
 21
-232.72293333
 31
0.0
  0
LINE
  5
D9
100
AcDbEntity
  8
LAYER0001
  6
CONTINUOUS
 62
       7
100
AcDbLine
 10
265.44712037
 20
-232.72293333
 30
0.0
 11
265.64154166
 21
-232.71225405
 31
0.0
  0
LINE
  5
DA
100
AcDbEntity
  8
LAYER0001
  6
CONTINUOUS
 62
       7
100
AcDbLine
 10
265.64154166
 20
-232.71225405
 30
0.0
 11
265.83588408
 21
-232.69900824
 31
0.0
  0
LINE
  5
DB
100
AcDbEntity
  8
LAYER0001
  6
CONTINUOUS
 62
       7
100
AcDbLine
 10
265.83588408
 20
-232.69900824
 30
0.0
 11
266.03011394
 21
-232.68320643
 31
0.0
  0
LINE
  5
DC
100
AcDbEntity
  8
LAYER0001
  6
CONTINUOUS
 62
       7
100
AcDbLine
 10
266.03011394
 20
-232.68320643
 30
0.0
 11
266.22419754
 21
-232.66485911
 31
0.0
  0
LINE
  5
DD
100
AcDbEntity
  8
LAYER0001
  6
CONTINUOUS
 62
       7
100
AcDbLine
 10
266.22419754
 20
-232.66485911
 30
0.0
 11
266.41810118
 21
-232.64397682
 31
0.0
  0
LINE
  5
DE
100
AcDbEntity
  8
LAYER0001
  6
CONTINUOUS
 62
       7
100
AcDbLine
 10
266.41810118
 20
-232.64397682
 30
0.0
 11
266.61179117
 21
-232.62057007
 31
0.0
  0
LINE
  5
DF
100
AcDbEntity
  8
LAYER0001
  6
CONTINUOUS
 62
       7
100
AcDbLine
 10
266.61179117
 20
-232.62057007
 30
0.0
 11
266.8052338
 21
-232.59464937
 31
0.0
  0
LINE
  5
E0
100
AcDbEntity
  8
LAYER0001
  6
CONTINUOUS
 62
       7
100
AcDbLine
 10
266.8052338
 20
-232.59464937
 30
0.0
 11
266.99839538
 21
-232.56622524
 31
0.0
  0
LINE
  5
E1
100
AcDbEntity
  8
LAYER0001
  6
CONTINUOUS
 62
       7
100
AcDbLine
 10
266.99839538
 20
-232.56622524
 30
0.0
 11
267.19124222
 21
-232.53530821
 31
0.0
  0
LINE
  5
E2
100
AcDbEntity
  8
LAYER0001
  6
CONTINUOUS
 62
       7
100
AcDbLine
 10
267.19124222
 20
-232.53530821
 30
0.0
 11
267.38374061
 21
-232.50190878
 31
0.0
  0
LINE
  5
E3
100
AcDbEntity
  8
LAYER0001
  6
CONTINUOUS
 62
       7
100
AcDbLine
 10
267.38374061
 20
-232.50190878
 30
0.0
 11
267.57585686
 21
-232.46603747
 31
0.0
  0
LINE
  5
E4
100
AcDbEntity
  8
LAYER0001
  6
CONTINUOUS
 62
       7
100
AcDbLine
 10
267.57585686
 20
-232.46603747
 30
0.0
 11
267.76755728
 21
-232.42770481
 31
0.0
  0
LINE
  5
E5
100
AcDbEntity
  8
LAYER0001
  6
CONTINUOUS
 62
       7
100
AcDbLine
 10
267.76755728
 20
-232.42770481
 30
0.0
 11
267.95882176
 21
-232.3869553
 31
0.0
  0
LINE
  5
E6
100
AcDbEntity
  8
LAYER0001
  6
CONTINUOUS
 62
       7
100
AcDbLine
 10
267.95882176
 20
-232.3869553
 30
0.0
 11
268.14967345
 21
-232.34394161
 31
0.0
  0
LINE
  5
E7
100
AcDbEntity
  8
LAYER0001
  6
CONTINUOUS
 62
       7
100
AcDbLine
 10
268.14967345
 20
-232.34394161
 30
0.0
 11
268.3401441
 21
-232.2988379
 31
0.0
  0
LINE
  5
E8
100
AcDbEntity
  8
LAYER0001
  6
CONTINUOUS
 62
       7
100
AcDbLine
 10
268.3401441
 20
-232.2988379
 30
0.0
 11
268.53026548
 21
-232.25181834
 31
0.0
  0
LINE
  5
E9
100
AcDbEntity
  8
LAYER0001
  6
CONTINUOUS
 62
       7
100
AcDbLine
 10
268.53026548
 20
-232.25181834
 30
0.0
 11
268.72006933
 21
-232.20305711
 31
0.0
  0
LINE
  5
EA
100
AcDbEntity
  8
LAYER0001
  6
CONTINUOUS
 62
       7
100
AcDbLine
 10
268.72006933
 20
-232.20305711
 30
0.0
 11
268.90958741
 21
-232.15272837
 31
0.0
  0
LINE
  5
EB
100
AcDbEntity
  8
LAYER0001
  6
CONTINUOUS
 62
       7
100
AcDbLine
 10
268.90958741
 20
-232.15272837
 30
0.0
 11
269.09885146
 21
-232.10100628
 31
0.0
  0
LINE
  5
EC
100
AcDbEntity
  8
LAYER0001
  6
CONTINUOUS
 62
       7
100
AcDbLine
 10
269.09885146
 20
-232.10100628
 30
0.0
 11
269.28789325
 21
-232.04806503
 31
0.0
  0
LINE
  5
ED
100
AcDbEntity
  8
LAYER0001
  6
CONTINUOUS
 62
       7
100
AcDbLine
 10
269.28789325
 20
-232.04806503
 30
0.0
 11
269.47674452
 21
-231.99407876
 31
0.0
  0
LINE
  5
EE
100
AcDbEntity
  8
LAYER0001
  6
CONTINUOUS
 62
       7
100
AcDbLine
 10
269.47674452
 20
-231.99407876
 30
0.0
 11
269.66543702
 21
-231.93922165
 31
0.0
  0
LINE
  5
EF
100
AcDbEntity
  8
LAYER0001
  6
CONTINUOUS
 62
       7
100
AcDbLine
 10
269.66543702
 20
-231.93922165
 30
0.0
 11
269.85400251
 21
-231.88366788
 31
0.0
  0
LINE
  5
F0
100
AcDbEntity
  8
LAYER0001
  6
CONTINUOUS
 62
       7
100
AcDbLine
 10
269.85400251
 20
-231.88366788
 30
0.0
 11
270.04247275
 21
-231.8275916
 31
0.0
  0
LINE
  5
F1
100
AcDbEntity
  8
LAYER0001
  6
CONTINUOUS
 62
       7
100
AcDbLine
 10
270.04247275
 20
-231.8275916
 30
0.0
 11
270.23087948
 21
-231.77116698
 31
0.0
  0
LINE
  5
F2
100
AcDbEntity
  8
LAYER0001
  6
CONTINUOUS
 62
       7
100
AcDbLine
 10
270.23087948
 20
-231.77116698
 30
0.0
 11
270.41925446
 21
-231.7145682
 31
0.0
  0
ENDBLK
  5
F3
100
AcDbEntity
  8
0
100
AcDbBlockEnd
  0
BLOCK
  5
F4
100
AcDbEntity
  8
0
100
AcDbBlockBegin
  2
GROUP_6
 70
       0
 10
0.0
 20
0.0
 30
0.0
  3
GROUP_6
  1

  0
LINE
  5
F5
100
AcDbEntity
  8
LAYER0001
  6
CONTINUOUS
 62
       7
100
AcDbLine
 10
258.91925443
 20
-226.26884943
 30
0.0
 11
258.69307386
 21
-226.19937681
 31
0.0
  0
LINE
  5
F6
100
AcDbEntity
  8
LAYER0001
  6
CONTINUOUS
 62
       7
100
AcDbLine
 10
258.69307386
 20
-226.19937681
 30
0.0
 11
258.46684399
 21
-226.13027056
 31
0.0
  0
LINE
  5
F7
100
AcDbEntity
  8
LAYER0001
  6
CONTINUOUS
 62
       7
100
AcDbLine
 10
258.46684399
 20
-226.13027056
 30
0.0
 11
258.24051554
 21
-226.06189703
 31
0.0
  0
LINE
  5
F8
100
AcDbEntity
  8
LAYER0001
  6
CONTINUOUS
 62
       7
100
AcDbLine
 10
258.24051554
 20
-226.06189703
 30
0.0
 11
258.0140392
 21
-225.9946226
 31
0.0
  0
LINE
  5
F9
100
AcDbEntity
  8
LAYER0001
  6
CONTINUOUS
 62
       7
100
AcDbLine
 10
258.0140392
 20
-225.9946226
 30
0.0
 11
257.78736569
 21
-225.92881364
 31
0.0
  0
LINE
  5
FA
100
AcDbEntity
  8
LAYER0001
  6
CONTINUOUS
 62
       7
100
AcDbLine
 10
257.78736569
 20
-225.92881364
 30
0.0
 11
257.56044571
 21
-225.8648365
 31
0.0
  0
LINE
  5
FB
100
AcDbEntity
  8
LAYER0001
  6
CONTINUOUS
 62
       7
100
AcDbLine
 10
257.56044571
 20
-225.8648365
 30
0.0
 11
257.33322997
 21
-225.80305756
 31
0.0
  0
LINE
  5
FC
100
AcDbEntity
  8
LAYER0001
  6
CONTINUOUS
 62
       7
100
AcDbLine
 10
257.33322997
 20
-225.80305756
 30
0.0
 11
257.10566917
 21
-225.74384317
 31
0.0
  0
LINE
  5
FD
100
AcDbEntity
  8
LAYER0001
  6
CONTINUOUS
 62
       7
100
AcDbLine
 10
257.10566917
 20
-225.74384317
 30
0.0
 11
256.87771402
 21
-225.68755971
 31
0.0
  0
LINE
  5
FE
100
AcDbEntity
  8
LAYER0001
  6
CONTINUOUS
 62
       7
100
AcDbLine
 10
256.87771402
 20
-225.68755971
 30
0.0
 11
256.64931523
 21
-225.63457354
 31
0.0
  0
LINE
  5
FF
100
AcDbEntity
  8
LAYER0001
  6
CONTINUOUS
 62
       7
100
AcDbLine
 10
256.64931523
 20
-225.63457354
 30
0.0
 11
256.42042351
 21
-225.58525102
 31
0.0
  0
LINE
  5
100
100
AcDbEntity
  8
LAYER0001
  6
CONTINUOUS
 62
       7
100
AcDbLine
 10
256.42042351
 20
-225.58525102
 30
0.0
 11
256.19098955
 21
-225.53995853
 31
0.0
  0
LINE
  5
101
100
AcDbEntity
  8
LAYER0001
  6
CONTINUOUS
 62
       7
100
AcDbLine
 10
256.19098955
 20
-225.53995853
 30
0.0
 11
255.96096783
 21
-225.49903447
 31
0.0
  0
LINE
  5
102
100
AcDbEntity
  8
LAYER0001
  6
CONTINUOUS
 62
       7
100
AcDbLine
 10
255.96096783
 20
-225.49903447
 30
0.0
 11
255.73036617
 21
-225.46242067
 31
0.0
  0
LINE
  5
103
100
AcDbEntity
  8
LAYER0001
  6
CONTINUOUS
 62
       7
100
AcDbLine
 10
255.73036617
 20
-225.46242067
 30
0.0
 11
255.49923205
 21
-225.42976433
 31
0.0
  0
LINE
  5
104
100
AcDbEntity
  8
LAYER0001
  6
CONTINUOUS
 62
       7
100
AcDbLine
 10
255.49923205
 20
-225.42976433
 30
0.0
 11
255.26761387
 21
-225.4007057
 31
0.0
  0
LINE
  5
105
100
AcDbEntity
  8
LAYER0001
  6
CONTINUOUS
 62
       7
100
AcDbLine
 10
255.26761387
 20
-225.4007057
 30
0.0
 11
255.03556003
 21
-225.37488499
 31
0.0
  0
LINE
  5
106
100
AcDbEntity
  8
LAYER0001
  6
CONTINUOUS
 62
       7
100
AcDbLine
 10
255.03556003
 20
-225.37488499
 30
0.0
 11
254.80311893
 21
-225.35194244
 31
0.0
  0
LINE
  5
107
100
AcDbEntity
  8
LAYER0001
  6
CONTINUOUS
 62
       7
100
AcDbLine
 10
254.80311893
 20
-225.35194244
 30
0.0
 11
254.570339
 21
-225.33151828
 31
0.0
  0
LINE
  5
108
100
AcDbEntity
  8
LAYER0001
  6
CONTINUOUS
 62
       7
100
AcDbLine
 10
254.570339
 20
-225.33151828
 30
0.0
 11
254.33726863
 21
-225.31325274
 31
0.0
  0
LINE
  5
109
100
AcDbEntity
  8
LAYER0001
  6
CONTINUOUS
 62
       7
100
AcDbLine
 10
254.33726863
 20
-225.31325274
 30
0.0
 11
254.10395622
 21
-225.29678605
 31
0.0
  0
LINE
  5
10A
100
AcDbEntity
  8
LAYER0001
  6
CONTINUOUS
 62
       7
100
AcDbLine
 10
254.10395622
 20
-225.29678605
 30
0.0
 11
253.8704502
 21
-225.28175844
 31
0.0
  0
LINE
  5
10B
100
AcDbEntity
  8
LAYER0001
  6
CONTINUOUS
 62
       7
100
AcDbLine
 10
253.8704502
 20
-225.28175844
 30
0.0
 11
253.63679895
 21
-225.26781014
 31
0.0
  0
LINE
  5
10C
100
AcDbEntity
  8
LAYER0001
  6
CONTINUOUS
 62
       7
100
AcDbLine
 10
253.63679895
 20
-225.26781014
 30
0.0
 11
253.40305089
 21
-225.25458138
 31
0.0
  0
LINE
  5
10D
100
AcDbEntity
  8
LAYER0001
  6
CONTINUOUS
 62
       7
100
AcDbLine
 10
253.40305089
 20
-225.25458138
 30
0.0
 11
253.16925442
 21
-225.24171239
 31
0.0
  0
ENDBLK
  5
10E
100
AcDbEntity
  8
0
100
AcDbBlockEnd
  0
BLOCK
  5
10F
100
AcDbEntity
  8
0
100
AcDbBlockBegin
  2
GROUP_7
 70
       0
 10
0.0
 20
0.0
 30
0.0
  3
GROUP_7
  1

  0
LINE
  5
110
100
AcDbEntity
  8
LAYER0001
  6
CONTINUOUS
 62
       7
100
AcDbLine
 10
253.16925442
 20
-225.24171239
 30
0.0
 11
252.97479778
 21
-225.24365736
 31
0.0
  0
LINE
  5
111
100
AcDbEntity
  8
LAYER0001
  6
CONTINUOUS
 62
       7
100
AcDbLine
 10
252.97479778
 20
-225.24365736
 30
0.0
 11
252.78033223
 21
-225.24683865
 31
0.0
  0
LINE
  5
112
100
AcDbEntity
  8
LAYER0001
  6
CONTINUOUS
 62
       7
100
AcDbLine
 10
252.78033223
 20
-225.24683865
 30
0.0
 11
252.58585397
 21
-225.25234253
 31
0.0
  0
LINE
  5
113
100
AcDbEntity
  8
LAYER0001
  6
CONTINUOUS
 62
       7
100
AcDbLine
 10
252.58585397
 20
-225.25234253
 30
0.0
 11
252.39138721
 21
-225.26043642
 31
0.0
  0
LINE
  5
114
100
AcDbEntity
  8
LAYER0001
  6
CONTINUOUS
 62
       7
100
AcDbLine
 10
252.39138721
 20
-225.26043642
 30
0.0
 11
252.19696563
 21
-225.27110979
 31
0.0
  0
LINE
  5
115
100
AcDbEntity
  8
LAYER0001
  6
CONTINUOUS
 62
       7
100
AcDbLine
 10
252.19696563
 20
-225.27110979
 30
0.0
 11
252.00262293
 21
-225.28435186
 31
0.0
  0
LINE
  5
116
100
AcDbEntity
  8
LAYER0001
  6
CONTINUOUS
 62
       7
100
AcDbLine
 10
252.00262293
 20
-225.28435186
 30
0.0
 11
251.80839281
 21
-225.30015188
 31
0.0
  0
LINE
  5
117
100
AcDbEntity
  8
LAYER0001
  6
CONTINUOUS
 62
       7
100
AcDbLine
 10
251.80839281
 20
-225.30015188
 30
0.0
 11
251.61430898
 21
-225.31849909
 31
0.0
  0
LINE
  5
118
100
AcDbEntity
  8
LAYER0001
  6
CONTINUOUS
 62
       7
100
AcDbLine
 10
251.61430898
 20
-225.31849909
 30
0.0
 11
251.42040513
 21
-225.33938272
 31
0.0
  0
LINE
  5
119
100
AcDbEntity
  8
LAYER0001
  6
CONTINUOUS
 62
       7
100
AcDbLine
 10
251.42040513
 20
-225.33938272
 30
0.0
 11
251.22671495
 21
-225.36279202
 31
0.0
  0
LINE
  5
11A
100
AcDbEntity
  8
LAYER0001
  6
CONTINUOUS
 62
       7
100
AcDbLine
 10
251.22671495
 20
-225.36279202
 30
0.0
 11
251.03327216
 21
-225.38871622
 31
0.0
  0
LINE
  5
11B
100
AcDbEntity
  8
LAYER0001
  6
CONTINUOUS
 62
       7
100
AcDbLine
 10
251.03327216
 20
-225.38871622
 30
0.0
 11
250.84011045
 21
-225.41714455
 31
0.0
  0
LINE
  5
11C
100
AcDbEntity
  8
LAYER0001
  6
CONTINUOUS
 62
       7
100
AcDbLine
 10
250.84011045
 20
-225.41714455
 30
0.0
 11
250.64726352
 21
-225.44806626
 31
0.0
  0
LINE
  5
11D
100
AcDbEntity
  8
LAYER0001
  6
CONTINUOUS
 62
       7
100
AcDbLine
 10
250.64726352
 20
-225.44806626
 30
0.0
 11
250.45476507
 21
-225.48147058
 31
0.0
  0
LINE
  5
11E
100
AcDbEntity
  8
LAYER0001
  6
CONTINUOUS
 62
       7
100
AcDbLine
 10
250.45476507
 20
-225.48147058
 30
0.0
 11
250.26264879
 21
-225.51734676
 31
0.0
  0
LINE
  5
11F
100
AcDbEntity
  8
LAYER0001
  6
CONTINUOUS
 62
       7
100
AcDbLine
 10
250.26264879
 20
-225.51734676
 30
0.0
 11
250.07094839
 21
-225.55568401
 31
0.0
  0
LINE
  5
120
100
AcDbEntity
  8
LAYER0001
  6
CONTINUOUS
 62
       7
100
AcDbLine
 10
250.07094839
 20
-225.55568401
 30
0.0
 11
249.87968398
 21
-225.59643766
 31
0.0
  0
LINE
  5
121
100
AcDbEntity
  8
LAYER0001
  6
CONTINUOUS
 62
       7
100
AcDbLine
 10
249.87968398
 20
-225.59643766
 30
0.0
 11
249.68883238
 21
-225.63945503
 31
0.0
  0
LINE
  5
122
100
AcDbEntity
  8
LAYER0001
  6
CONTINUOUS
 62
       7
100
AcDbLine
 10
249.68883238
 20
-225.63945503
 30
0.0
 11
249.49836185
 21
-225.68456198
 31
0.0
  0
LINE
  5
123
100
AcDbEntity
  8
LAYER0001
  6
CONTINUOUS
 62
       7
100
AcDbLine
 10
249.49836185
 20
-225.68456198
 30
0.0
 11
249.30824064
 21
-225.73158439
 31
0.0
  0
LINE
  5
124
100
AcDbEntity
  8
LAYER0001
  6
CONTINUOUS
 62
       7
100
AcDbLine
 10
249.30824064
 20
-225.73158439
 30
0.0
 11
249.11843698
 21
-225.78034813
 31
0.0
  0
LINE
  5
125
100
AcDbEntity
  8
LAYER0001
  6
CONTINUOUS
 62
       7
100
AcDbLine
 10
249.11843698
 20
-225.78034813
 30
0.0
 11
248.92891912
 21
-225.83067905
 31
0.0
  0
LINE
  5
126
100
AcDbEntity
  8
LAYER0001
  6
CONTINUOUS
 62
       7
100
AcDbLine
 10
248.92891912
 20
-225.83067905
 30
0.0
 11
248.73965531
 21
-225.88240304
 31
0.0
  0
LINE
  5
127
100
AcDbEntity
  8
LAYER0001
  6
CONTINUOUS
 62
       7
100
AcDbLine
 10
248.73965531
 20
-225.88240304
 30
0.0
 11
248.55061379
 21
-225.93534594
 31
0.0
  0
LINE
  5
128
100
AcDbEntity
  8
LAYER0001
  6
CONTINUOUS
 62
       7
100
AcDbLine
 10
248.55061379
 20
-225.93534594
 30
0.0
 11
248.3617628
 21
-225.98933365
 31
0.0
  0
LINE
  5
129
100
AcDbEntity
  8
LAYER0001
  6
CONTINUOUS
 62
       7
100
AcDbLine
 10
248.3617628
 20
-225.98933365
 30
0.0
 11
248.17307059
 21
-226.04419201
 31
0.0
  0
LINE
  5
12A
100
AcDbEntity
  8
LAYER0001
  6
CONTINUOUS
 62
       7
100
AcDbLine
 10
248.17307059
 20
-226.04419201
 30
0.0
 11
247.9845054
 21
-226.0997469
 31
0.0
  0
LINE
  5
12B
100
AcDbEntity
  8
LAYER0001
  6
CONTINUOUS
 62
       7
100
AcDbLine
 10
247.9845054
 20
-226.0997469
 30
0.0
 11
247.79603548
 21
-226.15582419
 31
0.0
  0
LINE
  5
12C
100
AcDbEntity
  8
LAYER0001
  6
CONTINUOUS
 62
       7
100
AcDbLine
 10
247.79603548
 20
-226.15582419
 30
0.0
 11
247.60762907
 21
-226.21224975
 31
0.0
  0
LINE
  5
12D
100
AcDbEntity
  8
LAYER0001
  6
CONTINUOUS
 62
       7
100
AcDbLine
 10
247.60762907
 20
-226.21224975
 30
0.0
 11
247.41925441
 21
-226.26884943
 31
0.0
  0
ENDBLK
  5
12E
100
AcDbEntity
  8
0
100
AcDbBlockEnd
  0
BLOCK
  5
12F
100
AcDbEntity
  8
0
100
AcDbBlockBegin
  2
GROUP_8
 70
       0
 10
0.0
 20
0.0
 30
0.0
  3
GROUP_8
  1

  0
LINE
  5
130
100
AcDbEntity
  8
LAYER0001
  6
CONTINUOUS
 62
       7
100
AcDbLine
 10
247.41925441
 20
-231.7145682
 30
0.0
 11
247.64543549
 21
-231.78403734
 31
0.0
  0
LINE
  5
131
100
AcDbEntity
  8
LAYER0001
  6
CONTINUOUS
 62
       7
100
AcDbLine
 10
247.64543549
 20
-231.78403734
 30
0.0
 11
247.87166585
 21
-231.85314016
 31
0.0
  0
LINE
  5
132
100
AcDbEntity
  8
LAYER0001
  6
CONTINUOUS
 62
       7
100
AcDbLine
 10
247.87166585
 20
-231.85314016
 30
0.0
 11
248.09799478
 21
-231.92151033
 31
0.0
  0
LINE
  5
133
100
AcDbEntity
  8
LAYER0001
  6
CONTINUOUS
 62
       7
100
AcDbLine
 10
248.09799478
 20
-231.92151033
 30
0.0
 11
248.32447158
 21
-231.98878155
 31
0.0
  0
LINE
  5
134
100
AcDbEntity
  8
LAYER0001
  6
CONTINUOUS
 62
       7
100
AcDbLine
 10
248.32447158
 20
-231.98878155
 30
0.0
 11
248.55114553
 21
-232.05458748
 31
0.0
  0
LINE
  5
135
100
AcDbEntity
  8
LAYER0001
  6
CONTINUOUS
 62
       7
100
AcDbLine
 10
248.55114553
 20
-232.05458748
 30
0.0
 11
248.77806591
 21
-232.1185618
 31
0.0
  0
LINE
  5
136
100
AcDbEntity
  8
LAYER0001
  6
CONTINUOUS
 62
       7
100
AcDbLine
 10
248.77806591
 20
-232.1185618
 30
0.0
 11
249.00528202
 21
-232.1803382
 31
0.0
  0
LINE
  5
137
100
AcDbEntity
  8
LAYER0001
  6
CONTINUOUS
 62
       7
100
AcDbLine
 10
249.00528202
 20
-232.1803382
 30
0.0
 11
249.23284313
 21
-232.23955035
 31
0.0
  0
LINE
  5
138
100
AcDbEntity
  8
LAYER0001
  6
CONTINUOUS
 62
       7
100
AcDbLine
 10
249.23284313
 20
-232.23955035
 30
0.0
 11
249.46079855
 21
-232.29583194
 31
0.0
  0
LINE
  5
139
100
AcDbEntity
  8
LAYER0001
  6
CONTINUOUS
 62
       7
100
AcDbLine
 10
249.46079855
 20
-232.29583194
 30
0.0
 11
249.68919755
 21
-232.34881663
 31
0.0
  0
LINE
  5
13A
100
AcDbEntity
  8
LAYER0001
  6
CONTINUOUS
 62
       7
100
AcDbLine
 10
249.68919755
 20
-232.34881663
 30
0.0
 11
249.91808942
 21
-232.39813812
 31
0.0
  0
LINE
  5
13B
100
AcDbEntity
  8
LAYER0001
  6
CONTINUOUS
 62
       7
100
AcDbLine
 10
249.91808942
 20
-232.39813812
 30
0.0
 11
250.14752346
 21
-232.44343008
 31
0.0
  0
LINE
  5
13C
100
AcDbEntity
  8
LAYER0001
  6
CONTINUOUS
 62
       7
100
AcDbLine
 10
250.14752346
 20
-232.44343008
 30
0.0
 11
250.37754518
 21
-232.48435413
 31
0.0
  0
LINE
  5
13D
100
AcDbEntity
  8
LAYER0001
  6
CONTINUOUS
 62
       7
100
AcDbLine
 10
250.37754518
 20
-232.48435413
 30
0.0
 11
250.60814676
 21
-232.52096846
 31
0.0
  0
LINE
  5
13E
100
AcDbEntity
  8
LAYER0001
  6
CONTINUOUS
 62
       7
100
AcDbLine
 10
250.60814676
 20
-232.52096846
 30
0.0
 11
250.83928073
 21
-232.55362582
 31
0.0
  0
LINE
  5
13F
100
AcDbEntity
  8
LAYER0001
  6
CONTINUOUS
 62
       7
100
AcDbLine
 10
250.83928073
 20
-232.55362582
 30
0.0
 11
251.07089871
 21
-232.58268593
 31
0.0
  0
LINE
  5
140
100
AcDbEntity
  8
LAYER0001
  6
CONTINUOUS
 62
       7
100
AcDbLine
 10
251.07089871
 20
-232.58268593
 30
0.0
 11
251.30295228
 21
-232.60850851
 31
0.0
  0
LINE
  5
141
100
AcDbEntity
  8
LAYER0001
  6
CONTINUOUS
 62
       7
100
AcDbLine
 10
251.30295228
 20
-232.60850851
 30
0.0
 11
251.53539305
 21
-232.63145329
 31
0.0
  0
LINE
  5
142
100
AcDbEntity
  8
LAYER0001
  6
CONTINUOUS
 62
       7
100
AcDbLine
 10
251.53539305
 20
-232.63145329
 30
0.0
 11
251.76817262
 21
-232.65188
 31
0.0
  0
LINE
  5
143
100
AcDbEntity
  8
LAYER0001
  6
CONTINUOUS
 62
       7
100
AcDbLine
 10
251.76817262
 20
-232.65188
 30
0.0
 11
252.00124259
 21
-232.67014835
 31
0.0
  0
LINE
  5
144
100
AcDbEntity
  8
LAYER0001
  6
CONTINUOUS
 62
       7
100
AcDbLine
 10
252.00124259
 20
-232.67014835
 30
0.0
 11
252.23455456
 21
-232.68661808
 31
0.0
  0
LINE
  5
145
100
AcDbEntity
  8
LAYER0001
  6
CONTINUOUS
 62
       7
100
AcDbLine
 10
252.23455456
 20
-232.68661808
 30
0.0
 11
252.46806012
 21
-232.70164891
 31
0.0
  0
LINE
  5
146
100
AcDbEntity
  8
LAYER0001
  6
CONTINUOUS
 62
       7
100
AcDbLine
 10
252.46806012
 20
-232.70164891
 30
0.0
 11
252.70171089
 21
-232.71560056
 31
0.0
  0
LINE
  5
147
100
AcDbEntity
  8
LAYER0001
  6
CONTINUOUS
 62
       7
100
AcDbLine
 10
252.70171089
 20
-232.71560056
 30
0.0
 11
252.93545846
 21
-232.72883276
 31
0.0
  0
LINE
  5
148
100
AcDbEntity
  8
LAYER0001
  6
CONTINUOUS
 62
       7
100
AcDbLine
 10
252.93545846
 20
-232.72883276
 30
0.0
 11
253.16925442
 21
-232.74170524
 31
0.0
  0
ENDBLK
  5
149
100
AcDbEntity
  8
0
100
AcDbBlockEnd
  0
BLOCK
  5
14A
100
AcDbEntity
  8
0
100
AcDbBlockBegin
  2
GROUP_9
 70
       0
 10
0.0
 20
0.0
 30
0.0
  3
GROUP_9
  1

  0
LINE
  5
14B
100
AcDbEntity
  8
LAYER0001
  6
CONTINUOUS
 62
       7
100
AcDbLine
 10
270.41925446
 20
-231.7145682
 30
0.0
 11
270.41925446
 21
-231.78057989
 31
0.0
  0
LINE
  5
14C
100
AcDbEntity
  8
LAYER0001
  6
CONTINUOUS
 62
       7
100
AcDbLine
 10
270.41925446
 20
-231.78057989
 30
0.0
 11
270.41925446
 21
-231.84633459
 31
0.0
  0
LINE
  5
14D
100
AcDbEntity
  8
LAYER0001
  6
CONTINUOUS
 62
       7
100
AcDbLine
 10
270.41925446
 20
-231.84633459
 30
0.0
 11
270.41925446
 21
-231.91157531
 31
0.0
  0
LINE
  5
14E
100
AcDbEntity
  8
LAYER0001
  6
CONTINUOUS
 62
       7
100
AcDbLine
 10
270.41925446
 20
-231.91157531
 30
0.0
 11
270.41925446
 21
-231.97604506
 31
0.0
  0
LINE
  5
14F
100
AcDbEntity
  8
LAYER0001
  6
CONTINUOUS
 62
       7
100
AcDbLine
 10
270.41925446
 20
-231.97604506
 30
0.0
 11
270.41925446
 21
-232.03948686
 31
0.0
  0
LINE
  5
150
100
AcDbEntity
  8
LAYER0001
  6
CONTINUOUS
 62
       7
100
AcDbLine
 10
270.41925446
 20
-232.03948686
 30
0.0
 11
270.41925446
 21
-232.10164371
 31
0.0
  0
LINE
  5
151
100
AcDbEntity
  8
LAYER0001
  6
CONTINUOUS
 62
       7
100
AcDbLine
 10
270.41925446
 20
-232.10164371
 30
0.0
 11
270.41925446
 21
-232.16225863
 31
0.0
  0
LINE
  5
152
100
AcDbEntity
  8
LAYER0001
  6
CONTINUOUS
 62
       7
100
AcDbLine
 10
270.41925446
 20
-232.16225863
 30
0.0
 11
270.41925446
 21
-232.22107462
 31
0.0
  0
LINE
  5
153
100
AcDbEntity
  8
LAYER0001
  6
CONTINUOUS
 62
       7
100
AcDbLine
 10
270.41925446
 20
-232.22107462
 30
0.0
 11
270.41925446
 21
-232.2778347
 31
0.0
  0
LINE
  5
154
100
AcDbEntity
  8
LAYER0001
  6
CONTINUOUS
 62
       7
100
AcDbLine
 10
270.41925446
 20
-232.2778347
 30
0.0
 11
270.41925446
 21
-232.33228188
 31
0.0
  0
LINE
  5
155
100
AcDbEntity
  8
LAYER0001
  6
CONTINUOUS
 62
       7
100
AcDbLine
 10
270.41925446
 20
-232.33228188
 30
0.0
 11
270.41925446
 21
-232.38415917
 31
0.0
  0
LINE
  5
156
100
AcDbEntity
  8
LAYER0001
  6
CONTINUOUS
 62
       7
100
AcDbLine
 10
270.41925446
 20
-232.38415917
 30
0.0
 11
270.41925446
 21
-232.43320957
 31
0.0
  0
LINE
  5
157
100
AcDbEntity
  8
LAYER0001
  6
CONTINUOUS
 62
       7
100
AcDbLine
 10
270.41925446
 20
-232.43320957
 30
0.0
 11
270.41925446
 21
-232.47917611
 31
0.0
  0
LINE
  5
158
100
AcDbEntity
  8
LAYER0001
  6
CONTINUOUS
 62
       7
100
AcDbLine
 10
270.41925446
 20
-232.47917611
 30
0.0
 11
270.41925446
 21
-232.52180178
 31
0.0
  0
LINE
  5
159
100
AcDbEntity
  8
LAYER0001
  6
CONTINUOUS
 62
       7
100
AcDbLine
 10
270.41925446
 20
-232.52180178
 30
0.0
 11
270.41925446
 21
-232.56082961
 31
0.0
  0
LINE
  5
15A
100
AcDbEntity
  8
LAYER0001
  6
CONTINUOUS
 62
       7
100
AcDbLine
 10
270.41925446
 20
-232.56082961
 30
0.0
 11
270.41925446
 21
-232.59600261
 31
0.0
  0
LINE
  5
15B
100
AcDbEntity
  8
LAYER0001
  6
CONTINUOUS
 62
       7
100
AcDbLine
 10
270.41925446
 20
-232.59600261
 30
0.0
 11
270.41925446
 21
-232.62706377
 31
0.0
  0
LINE
  5
15C
100
AcDbEntity
  8
LAYER0001
  6
CONTINUOUS
 62
       7
100
AcDbLine
 10
270.41925446
 20
-232.62706377
 30
0.0
 11
270.41925446
 21
-232.65375612
 31
0.0
  0
LINE
  5
15D
100
AcDbEntity
  8
LAYER0001
  6
CONTINUOUS
 62
       7
100
AcDbLine
 10
270.41925446
 20
-232.65375612
 30
0.0
 11
270.41925446
 21
-232.67584138
 31
0.0
  0
LINE
  5
15E
100
AcDbEntity
  8
LAYER0001
  6
CONTINUOUS
 62
       7
100
AcDbLine
 10
270.41925446
 20
-232.67584138
 30
0.0
 11
270.41925446
 21
-232.69354601
 31
0.0
  0
LINE
  5
15F
100
AcDbEntity
  8
LAYER0001
  6
CONTINUOUS
 62
       7
100
AcDbLine
 10
270.41925446
 20
-232.69354601
 30
0.0
 11
270.41925446
 21
-232.70758119
 31
0.0
  0
LINE
  5
160
100
AcDbEntity
  8
LAYER0001
  6
CONTINUOUS
 62
       7
100
AcDbLine
 10
270.41925446
 20
-232.70758119
 30
0.0
 11
270.41925446
 21
-232.71868081
 31
0.0
  0
LINE
  5
161
100
AcDbEntity
  8
LAYER0001
  6
CONTINUOUS
 62
       7
100
AcDbLine
 10
270.41925446
 20
-232.71868081
 30
0.0
 11
270.41925446
 21
-232.72757877
 31
0.0
  0
LINE
  5
162
100
AcDbEntity
  8
LAYER0001
  6
CONTINUOUS
 62
       7
100
AcDbLine
 10
270.41925446
 20
-232.72757877
 30
0.0
 11
270.41925446
 21
-232.73500895
 31
0.0
  0
LINE
  5
163
100
AcDbEntity
  8
LAYER0001
  6
CONTINUOUS
 62
       7
100
AcDbLine
 10
270.41925446
 20
-232.73500895
 30
0.0
 11
270.41925446
 21
-232.74170524
 31
0.0
  0
ENDBLK
  5
164
100
AcDbEntity
  8
0
100
AcDbBlockEnd
  0
BLOCK
  5
165
100
AcDbEntity
  8
0
100
AcDbBlockBegin
  2
GROUP_10
 70
       0
 10
0.0
 20
0.0
 30
0.0
  3
GROUP_10
  1

  0
LINE
  5
166
100
AcDbEntity
  8
LAYER0001
  6
CONTINUOUS
 62
       7
100
AcDbLine
 10
270.41925446
 20
-225.24171239
 30
0.0
 11
270.41925446
 21
-225.24840333
 31
0.0
  0
LINE
  5
167
100
AcDbEntity
  8
LAYER0001
  6
CONTINUOUS
 62
       7
100
AcDbLine
 10
270.41925446
 20
-225.24840333
 30
0.0
 11
270.41925446
 21
-225.25582827
 31
0.0
  0
LINE
  5
168
100
AcDbEntity
  8
LAYER0001
  6
CONTINUOUS
 62
       7
100
AcDbLine
 10
270.41925446
 20
-225.25582827
 30
0.0
 11
270.41925446
 21
-225.26472122
 31
0.0
  0
LINE
  5
169
100
AcDbEntity
  8
LAYER0001
  6
CONTINUOUS
 62
       7
100
AcDbLine
 10
270.41925446
 20
-225.26472122
 30
0.0
 11
270.41925446
 21
-225.27581618
 31
0.0
  0
LINE
  5
16A
100
AcDbEntity
  8
LAYER0001
  6
CONTINUOUS
 62
       7
100
AcDbLine
 10
270.41925446
 20
-225.27581618
 30
0.0
 11
270.41925446
 21
-225.28984716
 31
0.0
  0
LINE
  5
16B
100
AcDbEntity
  8
LAYER0001
  6
CONTINUOUS
 62
       7
100
AcDbLine
 10
270.41925446
 20
-225.28984716
 30
0.0
 11
270.41925446
 21
-225.30754816
 31
0.0
  0
LINE
  5
16C
100
AcDbEntity
  8
LAYER0001
  6
CONTINUOUS
 62
       7
100
AcDbLine
 10
270.41925446
 20
-225.30754816
 30
0.0
 11
270.41925446
 21
-225.32963048
 31
0.0
  0
LINE
  5
16D
100
AcDbEntity
  8
LAYER0001
  6
CONTINUOUS
 62
       7
100
AcDbLine
 10
270.41925446
 20
-225.32963048
 30
0.0
 11
270.41925446
 21
-225.3563206
 31
0.0
  0
LINE
  5
16E
100
AcDbEntity
  8
LAYER0001
  6
CONTINUOUS
 62
       7
100
AcDbLine
 10
270.41925446
 20
-225.3563206
 30
0.0
 11
270.41925446
 21
-225.38738022
 31
0.0
  0
LINE
  5
16F
100
AcDbEntity
  8
LAYER0001
  6
CONTINUOUS
 62
       7
100
AcDbLine
 10
270.41925446
 20
-225.38738022
 30
0.0
 11
270.41925446
 21
-225.4225523
 31
0.0
  0
LINE
  5
170
100
AcDbEntity
  8
LAYER0001
  6
CONTINUOUS
 62
       7
100
AcDbLine
 10
270.41925446
 20
-225.4225523
 30
0.0
 11
270.41925446
 21
-225.46157982
 31
0.0
  0
LINE
  5
171
100
AcDbEntity
  8
LAYER0001
  6
CONTINUOUS
 62
       7
100
AcDbLine
 10
270.41925446
 20
-225.46157982
 30
0.0
 11
270.41925446
 21
-225.50420574
 31
0.0
  0
LINE
  5
172
100
AcDbEntity
  8
LAYER0001
  6
CONTINUOUS
 62
       7
100
AcDbLine
 10
270.41925446
 20
-225.50420574
 30
0.0
 11
270.41925446
 21
-225.55017304
 31
0.0
  0
LINE
  5
173
100
AcDbEntity
  8
LAYER0001
  6
CONTINUOUS
 62
       7
100
AcDbLine
 10
270.41925446
 20
-225.55017304
 30
0.0
 11
270.41925446
 21
-225.59922468
 31
0.0
  0
LINE
  5
174
100
AcDbEntity
  8
LAYER0001
  6
CONTINUOUS
 62
       7
100
AcDbLine
 10
270.41925446
 20
-225.59922468
 30
0.0
 11
270.41925446
 21
-225.65110364
 31
0.0
  0
LINE
  5
175
100
AcDbEntity
  8
LAYER0001
  6
CONTINUOUS
 62
       7
100
AcDbLine
 10
270.41925446
 20
-225.65110364
 30
0.0
 11
270.41925446
 21
-225.7055529
 31
0.0
  0
LINE
  5
176
100
AcDbEntity
  8
LAYER0001
  6
CONTINUOUS
 62
       7
100
AcDbLine
 10
270.41925446
 20
-225.7055529
 30
0.0
 11
270.41925446
 21
-225.76231541
 31
0.0
  0
LINE
  5
177
100
AcDbEntity
  8
LAYER0001
  6
CONTINUOUS
 62
       7
100
AcDbLine
 10
270.41925446
 20
-225.76231541
 30
0.0
 11
270.41925446
 21
-225.82113416
 31
0.0
  0
LINE
  5
178
100
AcDbEntity
  8
LAYER0001
  6
CONTINUOUS
 62
       7
100
AcDbLine
 10
270.41925446
 20
-225.82113416
 30
0.0
 11
270.41925446
 21
-225.88175211
 31
0.0
  0
LINE
  5
179
100
AcDbEntity
  8
LAYER0001
  6
CONTINUOUS
 62
       7
100
AcDbLine
 10
270.41925446
 20
-225.88175211
 30
0.0
 11
270.41925446
 21
-225.94391223
 31
0.0
  0
LINE
  5
17A
100
AcDbEntity
  8
LAYER0001
  6
CONTINUOUS
 62
       7
100
AcDbLine
 10
270.41925446
 20
-225.94391223
 30
0.0
 11
270.41925446
 21
-226.0073575
 31
0.0
  0
LINE
  5
17B
100
AcDbEntity
  8
LAYER0001
  6
CONTINUOUS
 62
       7
100
AcDbLine
 10
270.41925446
 20
-226.0073575
 30
0.0
 11
270.41925446
 21
-226.07183088
 31
0.0
  0
LINE
  5
17C
100
AcDbEntity
  8
LAYER0001
  6
CONTINUOUS
 62
       7
100
AcDbLine
 10
270.41925446
 20
-226.07183088
 30
0.0
 11
270.41925446
 21
-226.13707535
 31
0.0
  0
LINE
  5
17D
100
AcDbEntity
  8
LAYER0001
  6
CONTINUOUS
 62
       7
100
AcDbLine
 10
270.41925446
 20
-226.13707535
 30
0.0
 11
270.41925446
 21
-226.20283388
 31
0.0
  0
LINE
  5
17E
100
AcDbEntity
  8
LAYER0001
  6
CONTINUOUS
 62
       7
100
AcDbLine
 10
270.41925446
 20
-226.20283388
 30
0.0
 11
270.41925446
 21
-226.26884943
 31
0.0
  0
ENDBLK
  5
17F
100
AcDbEntity
  8
0
100
AcDbBlockEnd
  0
BLOCK
  5
180
100
AcDbEntity
  8
0
100
AcDbBlockBegin
  2
GROUP_11
 70
       0
 10
0.0
 20
0.0
 30
0.0
  3
GROUP_11
  1

  0
LINE
  5
181
100
AcDbEntity
  8
LAYER0001
  6
CONTINUOUS
 62
       7
100
AcDbLine
 10
247.41925441
 20
-226.26884943
 30
0.0
 11
247.41925441
 21
-226.20283388
 31
0.0
  0
LINE
  5
182
100
AcDbEntity
  8
LAYER0001
  6
CONTINUOUS
 62
       7
100
AcDbLine
 10
247.41925441
 20
-226.20283388
 30
0.0
 11
247.41925441
 21
-226.13707535
 31
0.0
  0
LINE
  5
183
100
AcDbEntity
  8
LAYER0001
  6
CONTINUOUS
 62
       7
100
AcDbLine
 10
247.41925441
 20
-226.13707535
 30
0.0
 11
247.41925441
 21
-226.07183088
 31
0.0
  0
LINE
  5
184
100
AcDbEntity
  8
LAYER0001
  6
CONTINUOUS
 62
       7
100
AcDbLine
 10
247.41925441
 20
-226.07183088
 30
0.0
 11
247.41925441
 21
-226.0073575
 31
0.0
  0
LINE
  5
185
100
AcDbEntity
  8
LAYER0001
  6
CONTINUOUS
 62
       7
100
AcDbLine
 10
247.41925441
 20
-226.0073575
 30
0.0
 11
247.41925441
 21
-225.94391223
 31
0.0
  0
LINE
  5
186
100
AcDbEntity
  8
LAYER0001
  6
CONTINUOUS
 62
       7
100
AcDbLine
 10
247.41925441
 20
-225.94391223
 30
0.0
 11
247.41925441
 21
-225.88175211
 31
0.0
  0
LINE
  5
187
100
AcDbEntity
  8
LAYER0001
  6
CONTINUOUS
 62
       7
100
AcDbLine
 10
247.41925441
 20
-225.88175211
 30
0.0
 11
247.41925441
 21
-225.82113416
 31
0.0
  0
LINE
  5
188
100
AcDbEntity
  8
LAYER0001
  6
CONTINUOUS
 62
       7
100
AcDbLine
 10
247.41925441
 20
-225.82113416
 30
0.0
 11
247.41925441
 21
-225.76231541
 31
0.0
  0
LINE
  5
189
100
AcDbEntity
  8
LAYER0001
  6
CONTINUOUS
 62
       7
100
AcDbLine
 10
247.41925441
 20
-225.76231541
 30
0.0
 11
247.41925441
 21
-225.7055529
 31
0.0
  0
LINE
  5
18A
100
AcDbEntity
  8
LAYER0001
  6
CONTINUOUS
 62
       7
100
AcDbLine
 10
247.41925441
 20
-225.7055529
 30
0.0
 11
247.41925441
 21
-225.65110364
 31
0.0
  0
LINE
  5
18B
100
AcDbEntity
  8
LAYER0001
  6
CONTINUOUS
 62
       7
100
AcDbLine
 10
247.41925441
 20
-225.65110364
 30
0.0
 11
247.41925441
 21
-225.59922468
 31
0.0
  0
LINE
  5
18C
100
AcDbEntity
  8
LAYER0001
  6
CONTINUOUS
 62
       7
100
AcDbLine
 10
247.41925441
 20
-225.59922468
 30
0.0
 11
247.41925441
 21
-225.55017304
 31
0.0
  0
LINE
  5
18D
100
AcDbEntity
  8
LAYER0001
  6
CONTINUOUS
 62
       7
100
AcDbLine
 10
247.41925441
 20
-225.55017304
 30
0.0
 11
247.41925441
 21
-225.50420574
 31
0.0
  0
LINE
  5
18E
100
AcDbEntity
  8
LAYER0001
  6
CONTINUOUS
 62
       7
100
AcDbLine
 10
247.41925441
 20
-225.50420574
 30
0.0
 11
247.41925441
 21
-225.46157982
 31
0.0
  0
LINE
  5
18F
100
AcDbEntity
  8
LAYER0001
  6
CONTINUOUS
 62
       7
100
AcDbLine
 10
247.41925441
 20
-225.46157982
 30
0.0
 11
247.41925441
 21
-225.4225523
 31
0.0
  0
LINE
  5
190
100
AcDbEntity
  8
LAYER0001
  6
CONTINUOUS
 62
       7
100
AcDbLine
 10
247.41925441
 20
-225.4225523
 30
0.0
 11
247.41925441
 21
-225.38738022
 31
0.0
  0
LINE
  5
191
100
AcDbEntity
  8
LAYER0001
  6
CONTINUOUS
 62
       7
100
AcDbLine
 10
247.41925441
 20
-225.38738022
 30
0.0
 11
247.41925441
 21
-225.3563206
 31
0.0
  0
LINE
  5
192
100
AcDbEntity
  8
LAYER0001
  6
CONTINUOUS
 62
       7
100
AcDbLine
 10
247.41925441
 20
-225.3563206
 30
0.0
 11
247.41925441
 21
-225.32963048
 31
0.0
  0
LINE
  5
193
100
AcDbEntity
  8
LAYER0001
  6
CONTINUOUS
 62
       7
100
AcDbLine
 10
247.41925441
 20
-225.32963048
 30
0.0
 11
247.41925441
 21
-225.30754816
 31
0.0
  0
LINE
  5
194
100
AcDbEntity
  8
LAYER0001
  6
CONTINUOUS
 62
       7
100
AcDbLine
 10
247.41925441
 20
-225.30754816
 30
0.0
 11
247.41925441
 21
-225.28984716
 31
0.0
  0
LINE
  5
195
100
AcDbEntity
  8
LAYER0001
  6
CONTINUOUS
 62
       7
100
AcDbLine
 10
247.41925441
 20
-225.28984716
 30
0.0
 11
247.41925441
 21
-225.27581618
 31
0.0
  0
LINE
  5
196
100
AcDbEntity
  8
LAYER0001
  6
CONTINUOUS
 62
       7
100
AcDbLine
 10
247.41925441
 20
-225.27581618
 30
0.0
 11
247.41925441
 21
-225.26472122
 31
0.0
  0
LINE
  5
197
100
AcDbEntity
  8
LAYER0001
  6
CONTINUOUS
 62
       7
100
AcDbLine
 10
247.41925441
 20
-225.26472122
 30
0.0
 11
247.41925441
 21
-225.25582827
 31
0.0
  0
LINE
  5
198
100
AcDbEntity
  8
LAYER0001
  6
CONTINUOUS
 62
       7
100
AcDbLine
 10
247.41925441
 20
-225.25582827
 30
0.0
 11
247.41925441
 21
-225.24840333
 31
0.0
  0
LINE
  5
199
100
AcDbEntity
  8
LAYER0001
  6
CONTINUOUS
 62
       7
100
AcDbLine
 10
247.41925441
 20
-225.24840333
 30
0.0
 11
247.41925441
 21
-225.24171239
 31
0.0
  0
ENDBLK
  5
19A
100
AcDbEntity
  8
0
100
AcDbBlockEnd
  0
BLOCK
  5
19B
100
AcDbEntity
  8
0
100
AcDbBlockBegin
  2
GROUP_12
 70
       0
 10
0.0
 20
0.0
 30
0.0
  3
GROUP_12
  1

  0
LINE
  5
19C
100
AcDbEntity
  8
LAYER0001
  6
CONTINUOUS
 62
       7
100
AcDbLine
 10
247.41925441
 20
-232.74170524
 30
0.0
 11
247.41925441
 21
-232.73500895
 31
0.0
  0
LINE
  5
19D
100
AcDbEntity
  8
LAYER0001
  6
CONTINUOUS
 62
       7
100
AcDbLine
 10
247.41925441
 20
-232.73500895
 30
0.0
 11
247.41925441
 21
-232.72757877
 31
0.0
  0
LINE
  5
19E
100
AcDbEntity
  8
LAYER0001
  6
CONTINUOUS
 62
       7
100
AcDbLine
 10
247.41925441
 20
-232.72757877
 30
0.0
 11
247.41925441
 21
-232.71868081
 31
0.0
  0
LINE
  5
19F
100
AcDbEntity
  8
LAYER0001
  6
CONTINUOUS
 62
       7
100
AcDbLine
 10
247.41925441
 20
-232.71868081
 30
0.0
 11
247.41925441
 21
-232.70758119
 31
0.0
  0
LINE
  5
1A0
100
AcDbEntity
  8
LAYER0001
  6
CONTINUOUS
 62
       7
100
AcDbLine
 10
247.41925441
 20
-232.70758119
 30
0.0
 11
247.41925441
 21
-232.69354601
 31
0.0
  0
LINE
  5
1A1
100
AcDbEntity
  8
LAYER0001
  6
CONTINUOUS
 62
       7
100
AcDbLine
 10
247.41925441
 20
-232.69354601
 30
0.0
 11
247.41925441
 21
-232.67584138
 31
0.0
  0
LINE
  5
1A2
100
AcDbEntity
  8
LAYER0001
  6
CONTINUOUS
 62
       7
100
AcDbLine
 10
247.41925441
 20
-232.67584138
 30
0.0
 11
247.41925441
 21
-232.65375612
 31
0.0
  0
LINE
  5
1A3
100
AcDbEntity
  8
LAYER0001
  6
CONTINUOUS
 62
       7
100
AcDbLine
 10
247.41925441
 20
-232.65375612
 30
0.0
 11
247.41925441
 21
-232.62706377
 31
0.0
  0
LINE
  5
1A4
100
AcDbEntity
  8
LAYER0001
  6
CONTINUOUS
 62
       7
100
AcDbLine
 10
247.41925441
 20
-232.62706377
 30
0.0
 11
247.41925441
 21
-232.59600261
 31
0.0
  0
LINE
  5
1A5
100
AcDbEntity
  8
LAYER0001
  6
CONTINUOUS
 62
       7
100
AcDbLine
 10
247.41925441
 20
-232.59600261
 30
0.0
 11
247.41925441
 21
-232.56082961
 31
0.0
  0
LINE
  5
1A6
100
AcDbEntity
  8
LAYER0001
  6
CONTINUOUS
 62
       7
100
AcDbLine
 10
247.41925441
 20
-232.56082961
 30
0.0
 11
247.41925441
 21
-232.52180178
 31
0.0
  0
LINE
  5
1A7
100
AcDbEntity
  8
LAYER0001
  6
CONTINUOUS
 62
       7
100
AcDbLine
 10
247.41925441
 20
-232.52180178
 30
0.0
 11
247.41925441
 21
-232.47917611
 31
0.0
  0
LINE
  5
1A8
100
AcDbEntity
  8
LAYER0001
  6
CONTINUOUS
 62
       7
100
AcDbLine
 10
247.41925441
 20
-232.47917611
 30
0.0
 11
247.41925441
 21
-232.43320957
 31
0.0
  0
LINE
  5
1A9
100
AcDbEntity
  8
LAYER0001
  6
CONTINUOUS
 62
       7
100
AcDbLine
 10
247.41925441
 20
-232.43320957
 30
0.0
 11
247.41925441
 21
-232.38415917
 31
0.0
  0
LINE
  5
1AA
100
AcDbEntity
  8
LAYER0001
  6
CONTINUOUS
 62
       7
100
AcDbLine
 10
247.41925441
 20
-232.38415917
 30
0.0
 11
247.41925441
 21
-232.33228188
 31
0.0
  0
LINE
  5
1AB
100
AcDbEntity
  8
LAYER0001
  6
CONTINUOUS
 62
       7
100
AcDbLine
 10
247.41925441
 20
-232.33228188
 30
0.0
 11
247.41925441
 21
-232.2778347
 31
0.0
  0
LINE
  5
1AC
100
AcDbEntity
  8
LAYER0001
  6
CONTINUOUS
 62
       7
100
AcDbLine
 10
247.41925441
 20
-232.2778347
 30
0.0
 11
247.41925441
 21
-232.22107462
 31
0.0
  0
LINE
  5
1AD
100
AcDbEntity
  8
LAYER0001
  6
CONTINUOUS
 62
       7
100
AcDbLine
 10
247.41925441
 20
-232.22107462
 30
0.0
 11
247.41925441
 21
-232.16225863
 31
0.0
  0
LINE
  5
1AE
100
AcDbEntity
  8
LAYER0001
  6
CONTINUOUS
 62
       7
100
AcDbLine
 10
247.41925441
 20
-232.16225863
 30
0.0
 11
247.41925441
 21
-232.10164371
 31
0.0
  0
LINE
  5
1AF
100
AcDbEntity
  8
LAYER0001
  6
CONTINUOUS
 62
       7
100
AcDbLine
 10
247.41925441
 20
-232.10164371
 30
0.0
 11
247.41925441
 21
-232.03948686
 31
0.0
  0
LINE
  5
1B0
100
AcDbEntity
  8
LAYER0001
  6
CONTINUOUS
 62
       7
100
AcDbLine
 10
247.41925441
 20
-232.03948686
 30
0.0
 11
247.41925441
 21
-231.97604506
 31
0.0
  0
LINE
  5
1B1
100
AcDbEntity
  8
LAYER0001
  6
CONTINUOUS
 62
       7
100
AcDbLine
 10
247.41925441
 20
-231.97604506
 30
0.0
 11
247.41925441
 21
-231.91157531
 31
0.0
  0
LINE
  5
1B2
100
AcDbEntity
  8
LAYER0001
  6
CONTINUOUS
 62
       7
100
AcDbLine
 10
247.41925441
 20
-231.91157531
 30
0.0
 11
247.41925441
 21
-231.84633459
 31
0.0
  0
LINE
  5
1B3
100
AcDbEntity
  8
LAYER0001
  6
CONTINUOUS
 62
       7
100
AcDbLine
 10
247.41925441
 20
-231.84633459
 30
0.0
 11
247.41925441
 21
-231.78057989
 31
0.0
  0
LINE
  5
1B4
100
AcDbEntity
  8
LAYER0001
  6
CONTINUOUS
 62
       7
100
AcDbLine
 10
247.41925441
 20
-231.78057989
 30
0.0
 11
247.41925441
 21
-231.7145682
 31
0.0
  0
ENDBLK
  5
1B5
100
AcDbEntity
  8
0
100
AcDbBlockEnd
  0
BLOCK
  5
1B6
100
AcDbEntity
  8
0
100
AcDbBlockBegin
  2
GROUP_13
 70
       0
 10
0.0
 20
0.0
 30
0.0
  3
GROUP_13
  1

  0
LINE
  5
1B7
100
AcDbEntity
  8
LAYER0001
  6
CONTINUOUS
 62
       7
100
AcDbLine
 10
264.66925445
 20
-211.541704
 30
0.0
 11
264.47479795
 21
-211.54366392
 31
0.0
  0
LINE
  5
1B8
100
AcDbEntity
  8
LAYER0001
  6
CONTINUOUS
 62
       7
100
AcDbLine
 10
264.47479795
 20
-211.54366392
 30
0.0
 11
264.28033255
 21
-211.54685878
 31
0.0
  0
LINE
  5
1B9
100
AcDbEntity
  8
LAYER0001
  6
CONTINUOUS
 62
       7
100
AcDbLine
 10
264.28033255
 20
-211.54685878
 30
0.0
 11
264.08585448
 21
-211.55237369
 31
0.0
  0
LINE
  5
1BA
100
AcDbEntity
  8
LAYER0001
  6
CONTINUOUS
 62
       7
100
AcDbLine
 10
264.08585448
 20
-211.55237369
 30
0.0
 11
263.89138793
 21
-211.56047593
 31
0.0
  0
LINE
  5
1BB
100
AcDbEntity
  8
LAYER0001
  6
CONTINUOUS
 62
       7
100
AcDbLine
 10
263.89138793
 20
-211.56047593
 30
0.0
 11
263.69696658
 21
-211.57115521
 31
0.0
  0
LINE
  5
1BC
100
AcDbEntity
  8
LAYER0001
  6
CONTINUOUS
 62
       7
100
AcDbLine
 10
263.69696658
 20
-211.57115521
 30
0.0
 11
263.50262413
 21
-211.58440103
 31
0.0
  0
LINE
  5
1BD
100
AcDbEntity
  8
LAYER0001
  6
CONTINUOUS
 62
       7
100
AcDbLine
 10
263.50262413
 20
-211.58440103
 30
0.0
 11
263.30839427
 21
-211.60020285
 31
0.0
  0
LINE
  5
1BE
100
AcDbEntity
  8
LAYER0001
  6
CONTINUOUS
 62
       7
100
AcDbLine
 10
263.30839427
 20
-211.60020285
 30
0.0
 11
263.1143107
 21
-211.61855017
 31
0.0
  0
LINE
  5
1BF
100
AcDbEntity
  8
LAYER0001
  6
CONTINUOUS
 62
       7
100
AcDbLine
 10
263.1143107
 20
-211.61855017
 30
0.0
 11
262.9204071
 21
-211.63943247
 31
0.0
  0
LINE
  5
1C0
100
AcDbEntity
  8
LAYER0001
  6
CONTINUOUS
 62
       7
100
AcDbLine
 10
262.9204071
 20
-211.63943247
 30
0.0
 11
262.72671717
 21
-211.66283923
 31
0.0
  0
LINE
  5
1C1
100
AcDbEntity
  8
LAYER0001
  6
CONTINUOUS
 62
       7
100
AcDbLine
 10
262.72671717
 20
-211.66283923
 30
0.0
 11
262.5332746
 21
-211.68875993
 31
0.0
  0
LINE
  5
1C2
100
AcDbEntity
  8
LAYER0001
  6
CONTINUOUS
 62
       7
100
AcDbLine
 10
262.5332746
 20
-211.68875993
 30
0.0
 11
262.34011309
 21
-211.71718406
 31
0.0
  0
LINE
  5
1C3
100
AcDbEntity
  8
LAYER0001
  6
CONTINUOUS
 62
       7
100
AcDbLine
 10
262.34011309
 20
-211.71718406
 30
0.0
 11
262.14726634
 21
-211.7481011
 31
0.0
  0
LINE
  5
1C4
100
AcDbEntity
  8
LAYER0001
  6
CONTINUOUS
 62
       7
100
AcDbLine
 10
262.14726634
 20
-211.7481011
 30
0.0
 11
261.95476802
 21
-211.78150053
 31
0.0
  0
LINE
  5
1C5
100
AcDbEntity
  8
LAYER0001
  6
CONTINUOUS
 62
       7
100
AcDbLine
 10
261.95476802
 20
-211.78150053
 30
0.0
 11
261.76265184
 21
-211.81737184
 31
0.0
  0
LINE
  5
1C6
100
AcDbEntity
  8
LAYER0001
  6
CONTINUOUS
 62
       7
100
AcDbLine
 10
261.76265184
 20
-211.81737184
 30
0.0
 11
261.57095149
 21
-211.8557045
 31
0.0
  0
LINE
  5
1C7
100
AcDbEntity
  8
LAYER0001
  6
CONTINUOUS
 62
       7
100
AcDbLine
 10
261.57095149
 20
-211.8557045
 30
0.0
 11
261.37968707
 21
-211.89645401
 31
0.0
  0
LINE
  5
1C8
100
AcDbEntity
  8
LAYER0001
  6
CONTINUOUS
 62
       7
100
AcDbLine
 10
261.37968707
 20
-211.89645401
 30
0.0
 11
261.18883543
 21
-211.9394677
 31
0.0
  0
LINE
  5
1C9
100
AcDbEntity
  8
LAYER0001
  6
CONTINUOUS
 62
       7
100
AcDbLine
 10
261.18883543
 20
-211.9394677
 30
0.0
 11
260.99836481
 21
-211.98457141
 31
0.0
  0
LINE
  5
1CA
100
AcDbEntity
  8
LAYER0001
  6
CONTINUOUS
 62
       7
100
AcDbLine
 10
260.99836481
 20
-211.98457141
 30
0.0
 11
260.80824345
 21
-212.03159096
 31
0.0
  0
LINE
  5
1CB
100
AcDbEntity
  8
LAYER0001
  6
CONTINUOUS
 62
       7
100
AcDbLine
 10
260.80824345
 20
-212.03159096
 30
0.0
 11
260.61843962
 21
-212.08035219
 31
0.0
  0
LINE
  5
1CC
100
AcDbEntity
  8
LAYER0001
  6
CONTINUOUS
 62
       7
100
AcDbLine
 10
260.61843962
 20
-212.08035219
 30
0.0
 11
260.42892156
 21
-212.13068093
 31
0.0
  0
LINE
  5
1CD
100
AcDbEntity
  8
LAYER0001
  6
CONTINUOUS
 62
       7
100
AcDbLine
 10
260.42892156
 20
-212.13068093
 30
0.0
 11
260.23965751
 21
-212.18240301
 31
0.0
  0
LINE
  5
1CE
100
AcDbEntity
  8
LAYER0001
  6
CONTINUOUS
 62
       7
100
AcDbLine
 10
260.23965751
 20
-212.18240301
 30
0.0
 11
260.05061572
 21
-212.23534426
 31
0.0
  0
LINE
  5
1CF
100
AcDbEntity
  8
LAYER0001
  6
CONTINUOUS
 62
       7
100
AcDbLine
 10
260.05061572
 20
-212.23534426
 30
0.0
 11
259.86176445
 21
-212.28933052
 31
0.0
  0
LINE
  5
1D0
100
AcDbEntity
  8
LAYER0001
  6
CONTINUOUS
 62
       7
100
AcDbLine
 10
259.86176445
 20
-212.28933052
 30
0.0
 11
259.67307193
 21
-212.34418762
 31
0.0
  0
LINE
  5
1D1
100
AcDbEntity
  8
LAYER0001
  6
CONTINUOUS
 62
       7
100
AcDbLine
 10
259.67307193
 20
-212.34418762
 30
0.0
 11
259.48450643
 21
-212.39974139
 31
0.0
  0
LINE
  5
1D2
100
AcDbEntity
  8
LAYER0001
  6
CONTINUOUS
 62
       7
100
AcDbLine
 10
259.48450643
 20
-212.39974139
 30
0.0
 11
259.29603618
 21
-212.45581766
 31
0.0
  0
LINE
  5
1D3
100
AcDbEntity
  8
LAYER0001
  6
CONTINUOUS
 62
       7
100
AcDbLine
 10
259.29603618
 20
-212.45581766
 30
0.0
 11
259.10762943
 21
-212.51224227
 31
0.0
  0
LINE
  5
1D4
100
AcDbEntity
  8
LAYER0001
  6
CONTINUOUS
 62
       7
100
AcDbLine
 10
259.10762943
 20
-212.51224227
 30
0.0
 11
258.91925443
 21
-212.56884104
 31
0.0
  0
ENDBLK
  5
1D5
100
AcDbEntity
  8
0
100
AcDbBlockEnd
  0
BLOCK
  5
1D6
100
AcDbEntity
  8
0
100
AcDbBlockBegin
  2
GROUP_14
 70
       0
 10
0.0
 20
0.0
 30
0.0
  3
GROUP_14
  1

  0
LINE
  5
1D7
100
AcDbEntity
  8
LAYER0001
  6
CONTINUOUS
 62
       7
100
AcDbLine
 10
270.41925446
 20
-212.56884104
 30
0.0
 11
270.19307338
 21
-212.4993719
 31
0.0
  0
LINE
  5
1D8
100
AcDbEntity
  8
LAYER0001
  6
CONTINUOUS
 62
       7
100
AcDbLine
 10
270.19307338
 20
-212.4993719
 30
0.0
 11
269.96684302
 21
-212.43026908
 31
0.0
  0
LINE
  5
1D9
100
AcDbEntity
  8
LAYER0001
  6
CONTINUOUS
 62
       7
100
AcDbLine
 10
269.96684302
 20
-212.43026908
 30
0.0
 11
269.74051409
 21
-212.36189891
 31
0.0
  0
LINE
  5
1DA
100
AcDbEntity
  8
LAYER0001
  6
CONTINUOUS
 62
       7
100
AcDbLine
 10
269.74051409
 20
-212.36189891
 30
0.0
 11
269.51403729
 21
-212.29462769
 31
0.0
  0
LINE
  5
1DB
100
AcDbEntity
  8
LAYER0001
  6
CONTINUOUS
 62
       7
100
AcDbLine
 10
269.51403729
 20
-212.29462769
 30
0.0
 11
269.28736334
 21
-212.22882176
 31
0.0
  0
LINE
  5
1DC
100
AcDbEntity
  8
LAYER0001
  6
CONTINUOUS
 62
       7
100
AcDbLine
 10
269.28736334
 20
-212.22882176
 30
0.0
 11
269.06044296
 21
-212.16484744
 31
0.0
  0
LINE
  5
1DD
100
AcDbEntity
  8
LAYER0001
  6
CONTINUOUS
 62
       7
100
AcDbLine
 10
269.06044296
 20
-212.16484744
 30
0.0
 11
268.83322685
 21
-212.10307104
 31
0.0
  0
LINE
  5
1DE
100
AcDbEntity
  8
LAYER0001
  6
CONTINUOUS
 62
       7
100
AcDbLine
 10
268.83322685
 20
-212.10307104
 30
0.0
 11
268.60566573
 21
-212.04385888
 31
0.0
  0
LINE
  5
1DF
100
AcDbEntity
  8
LAYER0001
  6
CONTINUOUS
 62
       7
100
AcDbLine
 10
268.60566573
 20
-212.04385888
 30
0.0
 11
268.37771032
 21
-211.9875773
 31
0.0
  0
LINE
  5
1E0
100
AcDbEntity
  8
LAYER0001
  6
CONTINUOUS
 62
       7
100
AcDbLine
 10
268.37771032
 20
-211.9875773
 30
0.0
 11
268.14931132
 21
-211.9345926
 31
0.0
  0
LINE
  5
1E1
100
AcDbEntity
  8
LAYER0001
  6
CONTINUOUS
 62
       7
100
AcDbLine
 10
268.14931132
 20
-211.9345926
 30
0.0
 11
267.92041944
 21
-211.88527112
 31
0.0
  0
LINE
  5
1E2
100
AcDbEntity
  8
LAYER0001
  6
CONTINUOUS
 62
       7
100
AcDbLine
 10
267.92041944
 20
-211.88527112
 30
0.0
 11
267.69098541
 21
-211.83997916
 31
0.0
  0
LINE
  5
1E3
100
AcDbEntity
  8
LAYER0001
  6
CONTINUOUS
 62
       7
100
AcDbLine
 10
267.69098541
 20
-211.83997916
 30
0.0
 11
267.46096369
 21
-211.79905511
 31
0.0
  0
LINE
  5
1E4
100
AcDbEntity
  8
LAYER0001
  6
CONTINUOUS
 62
       7
100
AcDbLine
 10
267.46096369
 20
-211.79905511
 30
0.0
 11
267.23036211
 21
-211.76244077
 31
0.0
  0
LINE
  5
1E5
100
AcDbEntity
  8
LAYER0001
  6
CONTINUOUS
 62
       7
100
AcDbLine
 10
267.23036211
 20
-211.76244077
 30
0.0
 11
266.99922814
 21
-211.72978341
 31
0.0
  0
LINE
  5
1E6
100
AcDbEntity
  8
LAYER0001
  6
CONTINUOUS
 62
       7
100
AcDbLine
 10
266.99922814
 20
-211.72978341
 30
0.0
 11
266.76761016
 21
-211.70072331
 31
0.0
  0
LINE
  5
1E7
100
AcDbEntity
  8
LAYER0001
  6
CONTINUOUS
 62
       7
100
AcDbLine
 10
266.76761016
 20
-211.70072331
 30
0.0
 11
266.53555659
 21
-211.67490073
 31
0.0
  0
LINE
  5
1E8
100
AcDbEntity
  8
LAYER0001
  6
CONTINUOUS
 62
       7
100
AcDbLine
 10
266.53555659
 20
-211.67490073
 30
0.0
 11
266.30311582
 21
-211.65195595
 31
0.0
  0
LINE
  5
1E9
100
AcDbEntity
  8
LAYER0001
  6
CONTINUOUS
 62
       7
100
AcDbLine
 10
266.30311582
 20
-211.65195595
 30
0.0
 11
266.07033625
 21
-211.63152924
 31
0.0
  0
LINE
  5
1EA
100
AcDbEntity
  8
LAYER0001
  6
CONTINUOUS
 62
       7
100
AcDbLine
 10
266.07033625
 20
-211.63152924
 30
0.0
 11
265.83726628
 21
-211.61326089
 31
0.0
  0
LINE
  5
1EB
100
AcDbEntity
  8
LAYER0001
  6
CONTINUOUS
 62
       7
100
AcDbLine
 10
265.83726628
 20
-211.61326089
 30
0.0
 11
265.60395431
 21
-211.59679116
 31
0.0
  0
LINE
  5
1EC
100
AcDbEntity
  8
LAYER0001
  6
CONTINUOUS
 62
       7
100
AcDbLine
 10
265.60395431
 20
-211.59679116
 30
0.0
 11
265.37044874
 21
-211.58176033
 31
0.0
  0
LINE
  5
1ED
100
AcDbEntity
  8
LAYER0001
  6
CONTINUOUS
 62
       7
100
AcDbLine
 10
265.37044874
 20
-211.58176033
 30
0.0
 11
265.13679798
 21
-211.56780868
 31
0.0
  0
LINE
  5
1EE
100
AcDbEntity
  8
LAYER0001
  6
CONTINUOUS
 62
       7
100
AcDbLine
 10
265.13679798
 20
-211.56780868
 30
0.0
 11
264.90305041
 21
-211.55457648
 31
0.0
  0
LINE
  5
1EF
100
AcDbEntity
  8
LAYER0001
  6
CONTINUOUS
 62
       7
100
AcDbLine
 10
264.90305041
 20
-211.55457648
 30
0.0
 11
264.66925445
 21
-211.541704
 31
0.0
  0
ENDBLK
  5
1F0
100
AcDbEntity
  8
0
100
AcDbBlockEnd
  0
BLOCK
  5
1F1
100
AcDbEntity
  8
0
100
AcDbBlockBegin
  2
GROUP_15
 70
       0
 10
0.0
 20
0.0
 30
0.0
  3
GROUP_15
  1

  0
LINE
  5
1F2
100
AcDbEntity
  8
LAYER0001
  6
CONTINUOUS
 62
       7
100
AcDbLine
 10
264.66925445
 20
-219.04169685
 30
0.0
 11
264.86371075
 21
-219.03973693
 31
0.0
  0
LINE
  5
1F3
100
AcDbEntity
  8
LAYER0001
  6
CONTINUOUS
 62
       7
100
AcDbLine
 10
264.86371075
 20
-219.03973693
 30
0.0
 11
265.05817598
 21
-219.03654207
 31
0.0
  0
LINE
  5
1F4
100
AcDbEntity
  8
LAYER0001
  6
CONTINUOUS
 62
       7
100
AcDbLine
 10
265.05817598
 20
-219.03654207
 30
0.0
 11
265.25265392
 21
-219.03102717
 31
0.0
  0
LINE
  5
1F5
100
AcDbEntity
  8
LAYER0001
  6
CONTINUOUS
 62
       7
100
AcDbLine
 10
265.25265392
 20
-219.03102717
 30
0.0
 11
265.44712037
 21
-219.02292494
 31
0.0
  0
LINE
  5
1F6
100
AcDbEntity
  8
LAYER0001
  6
CONTINUOUS
 62
       7
100
AcDbLine
 10
265.44712037
 20
-219.02292494
 30
0.0
 11
265.64154166
 21
-219.01224566
 31
0.0
  0
LINE
  5
1F7
100
AcDbEntity
  8
LAYER0001
  6
CONTINUOUS
 62
       7
100
AcDbLine
 10
265.64154166
 20
-219.01224566
 30
0.0
 11
265.83588408
 21
-218.99899985
 31
0.0
  0
LINE
  5
1F8
100
AcDbEntity
  8
LAYER0001
  6
CONTINUOUS
 62
       7
100
AcDbLine
 10
265.83588408
 20
-218.99899985
 30
0.0
 11
266.03011394
 21
-218.98319803
 31
0.0
  0
LINE
  5
1F9
100
AcDbEntity
  8
LAYER0001
  6
CONTINUOUS
 62
       7
100
AcDbLine
 10
266.03011394
 20
-218.98319803
 30
0.0
 11
266.22419754
 21
-218.96485072
 31
0.0
  0
LINE
  5
1FA
100
AcDbEntity
  8
LAYER0001
  6
CONTINUOUS
 62
       7
100
AcDbLine
 10
266.22419754
 20
-218.96485072
 30
0.0
 11
266.41810118
 21
-218.94396843
 31
0.0
  0
LINE
  5
1FB
100
AcDbEntity
  8
LAYER0001
  6
CONTINUOUS
 62
       7
100
AcDbLine
 10
266.41810118
 20
-218.94396843
 30
0.0
 11
266.61179117
 21
-218.92056168
 31
0.0
  0
LINE
  5
1FC
100
AcDbEntity
  8
LAYER0001
  6
CONTINUOUS
 62
       7
100
AcDbLine
 10
266.61179117
 20
-218.92056168
 30
0.0
 11
266.8052338
 21
-218.89464098
 31
0.0
  0
LINE
  5
1FD
100
AcDbEntity
  8
LAYER0001
  6
CONTINUOUS
 62
       7
100
AcDbLine
 10
266.8052338
 20
-218.89464098
 30
0.0
 11
266.99839538
 21
-218.86621685
 31
0.0
  0
LINE
  5
1FE
100
AcDbEntity
  8
LAYER0001
  6
CONTINUOUS
 62
       7
100
AcDbLine
 10
266.99839538
 20
-218.86621685
 30
0.0
 11
267.19124222
 21
-218.83529982
 31
0.0
  0
LINE
  5
1FF
100
AcDbEntity
  8
LAYER0001
  6
CONTINUOUS
 62
       7
100
AcDbLine
 10
267.19124222
 20
-218.83529982
 30
0.0
 11
267.38374061
 21
-218.80190039
 31
0.0
  0
LINE
  5
200
100
AcDbEntity
  8
LAYER0001
  6
CONTINUOUS
 62
       7
100
AcDbLine
 10
267.38374061
 20
-218.80190039
 30
0.0
 11
267.57585686
 21
-218.76602908
 31
0.0
  0
LINE
  5
201
100
AcDbEntity
  8
LAYER0001
  6
CONTINUOUS
 62
       7
100
AcDbLine
 10
267.57585686
 20
-218.76602908
 30
0.0
 11
267.76755728
 21
-218.72769642
 31
0.0
  0
LINE
  5
202
100
AcDbEntity
  8
LAYER0001
  6
CONTINUOUS
 62
       7
100
AcDbLine
 10
267.76755728
 20
-218.72769642
 30
0.0
 11
267.95882176
 21
-218.68694691
 31
0.0
  0
LINE
  5
203
100
AcDbEntity
  8
LAYER0001
  6
CONTINUOUS
 62
       7
100
AcDbLine
 10
267.95882176
 20
-218.68694691
 30
0.0
 11
268.14967345
 21
-218.64393321
 31
0.0
  0
LINE
  5
204
100
AcDbEntity
  8
LAYER0001
  6
CONTINUOUS
 62
       7
100
AcDbLine
 10
268.14967345
 20
-218.64393321
 30
0.0
 11
268.3401441
 21
-218.59882951
 31
0.0
  0
LINE
  5
205
100
AcDbEntity
  8
LAYER0001
  6
CONTINUOUS
 62
       7
100
AcDbLine
 10
268.3401441
 20
-218.59882951
 30
0.0
 11
268.53026548
 21
-218.55180995
 31
0.0
  0
LINE
  5
206
100
AcDbEntity
  8
LAYER0001
  6
CONTINUOUS
 62
       7
100
AcDbLine
 10
268.53026548
 20
-218.55180995
 30
0.0
 11
268.72006933
 21
-218.50304872
 31
0.0
  0
LINE
  5
207
100
AcDbEntity
  8
LAYER0001
  6
CONTINUOUS
 62
       7
100
AcDbLine
 10
268.72006933
 20
-218.50304872
 30
0.0
 11
268.90958741
 21
-218.45271998
 31
0.0
  0
LINE
  5
208
100
AcDbEntity
  8
LAYER0001
  6
CONTINUOUS
 62
       7
100
AcDbLine
 10
268.90958741
 20
-218.45271998
 30
0.0
 11
269.09885146
 21
-218.40099789
 31
0.0
  0
LINE
  5
209
100
AcDbEntity
  8
LAYER0001
  6
CONTINUOUS
 62
       7
100
AcDbLine
 10
269.09885146
 20
-218.40099789
 30
0.0
 11
269.28789325
 21
-218.34805663
 31
0.0
  0
LINE
  5
20A
100
AcDbEntity
  8
LAYER0001
  6
CONTINUOUS
 62
       7
100
AcDbLine
 10
269.28789325
 20
-218.34805663
 30
0.0
 11
269.47674452
 21
-218.29407037
 31
0.0
  0
LINE
  5
20B
100
AcDbEntity
  8
LAYER0001
  6
CONTINUOUS
 62
       7
100
AcDbLine
 10
269.47674452
 20
-218.29407037
 30
0.0
 11
269.66543702
 21
-218.23921326
 31
0.0
  0
LINE
  5
20C
100
AcDbEntity
  8
LAYER0001
  6
CONTINUOUS
 62
       7
100
AcDbLine
 10
269.66543702
 20
-218.23921326
 30
0.0
 11
269.85400251
 21
-218.18365948
 31
0.0
  0
LINE
  5
20D
100
AcDbEntity
  8
LAYER0001
  6
CONTINUOUS
 62
       7
100
AcDbLine
 10
269.85400251
 20
-218.18365948
 30
0.0
 11
270.04247275
 21
-218.1275832
 31
0.0
  0
LINE
  5
20E
100
AcDbEntity
  8
LAYER0001
  6
CONTINUOUS
 62
       7
100
AcDbLine
 10
270.04247275
 20
-218.1275832
 30
0.0
 11
270.23087948
 21
-218.07115859
 31
0.0
  0
LINE
  5
20F
100
AcDbEntity
  8
LAYER0001
  6
CONTINUOUS
 62
       7
100
AcDbLine
 10
270.23087948
 20
-218.07115859
 30
0.0
 11
270.41925446
 21
-218.01455981
 31
0.0
  0
ENDBLK
  5
210
100
AcDbEntity
  8
0
100
AcDbBlockEnd
  0
BLOCK
  5
211
100
AcDbEntity
  8
0
100
AcDbBlockBegin
  2
GROUP_16
 70
       0
 10
0.0
 20
0.0
 30
0.0
  3
GROUP_16
  1

  0
LINE
  5
212
100
AcDbEntity
  8
LAYER0001
  6
CONTINUOUS
 62
       7
100
AcDbLine
 10
258.91925443
 20
-218.01455981
 30
0.0
 11
259.14543501
 21
-218.08403243
 31
0.0
  0
LINE
  5
213
100
AcDbEntity
  8
LAYER0001
  6
CONTINUOUS
 62
       7
100
AcDbLine
 10
259.14543501
 20
-218.08403243
 30
0.0
 11
259.37166488
 21
-218.15313868
 31
0.0
  0
LINE
  5
214
100
AcDbEntity
  8
LAYER0001
  6
CONTINUOUS
 62
       7
100
AcDbLine
 10
259.37166488
 20
-218.15313868
 30
0.0
 11
259.59799333
 21
-218.22151221
 31
0.0
  0
LINE
  5
215
100
AcDbEntity
  8
LAYER0001
  6
CONTINUOUS
 62
       7
100
AcDbLine
 10
259.59799333
 20
-218.22151221
 30
0.0
 11
259.82446967
 21
-218.28878664
 31
0.0
  0
LINE
  5
216
100
AcDbEntity
  8
LAYER0001
  6
CONTINUOUS
 62
       7
100
AcDbLine
 10
259.82446967
 20
-218.28878664
 30
0.0
 11
260.05114318
 21
-218.3545956
 31
0.0
  0
LINE
  5
217
100
AcDbEntity
  8
LAYER0001
  6
CONTINUOUS
 62
       7
100
AcDbLine
 10
260.05114318
 20
-218.3545956
 30
0.0
 11
260.27806316
 21
-218.41857274
 31
0.0
  0
LINE
  5
218
100
AcDbEntity
  8
LAYER0001
  6
CONTINUOUS
 62
       7
100
AcDbLine
 10
260.27806316
 20
-218.41857274
 30
0.0
 11
260.5052789
 21
-218.48035168
 31
0.0
  0
LINE
  5
219
100
AcDbEntity
  8
LAYER0001
  6
CONTINUOUS
 62
       7
100
AcDbLine
 10
260.5052789
 20
-218.48035168
 30
0.0
 11
260.7328397
 21
-218.53956607
 31
0.0
  0
LINE
  5
21A
100
AcDbEntity
  8
LAYER0001
  6
CONTINUOUS
 62
       7
100
AcDbLine
 10
260.7328397
 20
-218.53956607
 30
0.0
 11
260.96079485
 21
-218.59584953
 31
0.0
  0
LINE
  5
21B
100
AcDbEntity
  8
LAYER0001
  6
CONTINUOUS
 62
       7
100
AcDbLine
 10
260.96079485
 20
-218.59584953
 30
0.0
 11
261.18919364
 21
-218.6488357
 31
0.0
  0
LINE
  5
21C
100
AcDbEntity
  8
LAYER0001
  6
CONTINUOUS
 62
       7
100
AcDbLine
 10
261.18919364
 20
-218.6488357
 30
0.0
 11
261.41808536
 21
-218.69815822
 31
0.0
  0
LINE
  5
21D
100
AcDbEntity
  8
LAYER0001
  6
CONTINUOUS
 62
       7
100
AcDbLine
 10
261.41808536
 20
-218.69815822
 30
0.0
 11
261.64751932
 21
-218.74345071
 31
0.0
  0
LINE
  5
21E
100
AcDbEntity
  8
LAYER0001
  6
CONTINUOUS
 62
       7
100
AcDbLine
 10
261.64751932
 20
-218.74345071
 30
0.0
 11
261.87754104
 21
-218.78437477
 31
0.0
  0
LINE
  5
21F
100
AcDbEntity
  8
LAYER0001
  6
CONTINUOUS
 62
       7
100
AcDbLine
 10
261.87754104
 20
-218.78437477
 30
0.0
 11
262.10814269
 21
-218.82098857
 31
0.0
  0
LINE
  5
220
100
AcDbEntity
  8
LAYER0001
  6
CONTINUOUS
 62
       7
100
AcDbLine
 10
262.10814269
 20
-218.82098857
 30
0.0
 11
262.33927682
 21
-218.85364491
 31
0.0
  0
LINE
  5
221
100
AcDbEntity
  8
LAYER0001
  6
CONTINUOUS
 62
       7
100
AcDbLine
 10
262.33927682
 20
-218.85364491
 30
0.0
 11
262.570895
 21
-218.88270354
 31
0.0
  0
LINE
  5
222
100
AcDbEntity
  8
LAYER0001
  6
CONTINUOUS
 62
       7
100
AcDbLine
 10
262.570895
 20
-218.88270354
 30
0.0
 11
262.80294884
 21
-218.90852425
 31
0.0
  0
LINE
  5
223
100
AcDbEntity
  8
LAYER0001
  6
CONTINUOUS
 62
       7
100
AcDbLine
 10
262.80294884
 20
-218.90852425
 30
0.0
 11
263.03538993
 21
-218.9314668
 31
0.0
  0
LINE
  5
224
100
AcDbEntity
  8
LAYER0001
  6
CONTINUOUS
 62
       7
100
AcDbLine
 10
263.03538993
 20
-218.9314668
 30
0.0
 11
263.26816987
 21
-218.95189096
 31
0.0
  0
LINE
  5
225
100
AcDbEntity
  8
LAYER0001
  6
CONTINUOUS
 62
       7
100
AcDbLine
 10
263.26816987
 20
-218.95189096
 30
0.0
 11
263.50124024
 21
-218.9701565
 31
0.0
  0
LINE
  5
226
100
AcDbEntity
  8
LAYER0001
  6
CONTINUOUS
 62
       7
100
AcDbLine
 10
263.50124024
 20
-218.9701565
 30
0.0
 11
263.73455264
 21
-218.98662319
 31
0.0
  0
LINE
  5
227
100
AcDbEntity
  8
LAYER0001
  6
CONTINUOUS
 62
       7
100
AcDbLine
 10
263.73455264
 20
-218.98662319
 30
0.0
 11
263.96805867
 21
-219.0016508
 31
0.0
  0
LINE
  5
228
100
AcDbEntity
  8
LAYER0001
  6
CONTINUOUS
 62
       7
100
AcDbLine
 10
263.96805867
 20
-219.0016508
 30
0.0
 11
264.20170992
 21
-219.0155991
 31
0.0
  0
LINE
  5
229
100
AcDbEntity
  8
LAYER0001
  6
CONTINUOUS
 62
       7
100
AcDbLine
 10
264.20170992
 20
-219.0155991
 30
0.0
 11
264.43545798
 21
-219.02882786
 31
0.0
  0
LINE
  5
22A
100
AcDbEntity
  8
LAYER0001
  6
CONTINUOUS
 62
       7
100
AcDbLine
 10
264.43545798
 20
-219.02882786
 30
0.0
 11
264.66925445
 21
-219.04169685
 31
0.0
  0
ENDBLK
  5
22B
100
AcDbEntity
  8
0
100
AcDbBlockEnd
  0
BLOCK
  5
22C
100
AcDbEntity
  8
0
100
AcDbBlockBegin
  2
GROUP_17
 70
       0
 10
0.0
 20
0.0
 30
0.0
  3
GROUP_17
  1

  0
LINE
  5
22D
100
AcDbEntity
  8
LAYER0001
  6
CONTINUOUS
 62
       7
100
AcDbLine
 10
253.16925442
 20
-211.541704
 30
0.0
 11
252.97479812
 21
-211.54366392
 31
0.0
  0
LINE
  5
22E
100
AcDbEntity
  8
LAYER0001
  6
CONTINUOUS
 62
       7
100
AcDbLine
 10
252.97479812
 20
-211.54366392
 30
0.0
 11
252.78033289
 21
-211.54685878
 31
0.0
  0
LINE
  5
22F
100
AcDbEntity
  8
LAYER0001
  6
CONTINUOUS
 62
       7
100
AcDbLine
 10
252.78033289
 20
-211.54685878
 30
0.0
 11
252.58585495
 21
-211.55237367
 31
0.0
  0
LINE
  5
230
100
AcDbEntity
  8
LAYER0001
  6
CONTINUOUS
 62
       7
100
AcDbLine
 10
252.58585495
 20
-211.55237367
 30
0.0
 11
252.39138849
 21
-211.56047591
 31
0.0
  0
LINE
  5
231
100
AcDbEntity
  8
LAYER0001
  6
CONTINUOUS
 62
       7
100
AcDbLine
 10
252.39138849
 20
-211.56047591
 30
0.0
 11
252.19696721
 21
-211.57115519
 31
0.0
  0
LINE
  5
232
100
AcDbEntity
  8
LAYER0001
  6
CONTINUOUS
 62
       7
100
AcDbLine
 10
252.19696721
 20
-211.57115519
 30
0.0
 11
252.00262478
 21
-211.58440099
 31
0.0
  0
LINE
  5
233
100
AcDbEntity
  8
LAYER0001
  6
CONTINUOUS
 62
       7
100
AcDbLine
 10
252.00262478
 20
-211.58440099
 30
0.0
 11
251.80839493
 21
-211.60020281
 31
0.0
  0
LINE
  5
234
100
AcDbEntity
  8
LAYER0001
  6
CONTINUOUS
 62
       7
100
AcDbLine
 10
251.80839493
 20
-211.60020281
 30
0.0
 11
251.61431133
 21
-211.61855013
 31
0.0
  0
LINE
  5
235
100
AcDbEntity
  8
LAYER0001
  6
CONTINUOUS
 62
       7
100
AcDbLine
 10
251.61431133
 20
-211.61855013
 30
0.0
 11
251.42040769
 21
-211.63943242
 31
0.0
  0
LINE
  5
236
100
AcDbEntity
  8
LAYER0001
  6
CONTINUOUS
 62
       7
100
AcDbLine
 10
251.42040769
 20
-211.63943242
 30
0.0
 11
251.2267177
 21
-211.66283917
 31
0.0
  0
LINE
  5
237
100
AcDbEntity
  8
LAYER0001
  6
CONTINUOUS
 62
       7
100
AcDbLine
 10
251.2267177
 20
-211.66283917
 30
0.0
 11
251.03327507
 21
-211.68875987
 31
0.0
  0
LINE
  5
238
100
AcDbEntity
  8
LAYER0001
  6
CONTINUOUS
 62
       7
100
AcDbLine
 10
251.03327507
 20
-211.68875987
 30
0.0
 11
250.84011349
 21
-211.71718399
 31
0.0
  0
LINE
  5
239
100
AcDbEntity
  8
LAYER0001
  6
CONTINUOUS
 62
       7
100
AcDbLine
 10
250.84011349
 20
-211.71718399
 30
0.0
 11
250.64726665
 21
-211.74810103
 31
0.0
  0
LINE
  5
23A
100
AcDbEntity
  8
LAYER0001
  6
CONTINUOUS
 62
       7
100
AcDbLine
 10
250.64726665
 20
-211.74810103
 30
0.0
 11
250.45476826
 21
-211.78150046
 31
0.0
  0
LINE
  5
23B
100
AcDbEntity
  8
LAYER0001
  6
CONTINUOUS
 62
       7
100
AcDbLine
 10
250.45476826
 20
-211.78150046
 30
0.0
 11
250.26265201
 21
-211.81737177
 31
0.0
  0
LINE
  5
23C
100
AcDbEntity
  8
LAYER0001
  6
CONTINUOUS
 62
       7
100
AcDbLine
 10
250.26265201
 20
-211.81737177
 30
0.0
 11
250.07095159
 21
-211.85570442
 31
0.0
  0
LINE
  5
23D
100
AcDbEntity
  8
LAYER0001
  6
CONTINUOUS
 62
       7
100
AcDbLine
 10
250.07095159
 20
-211.85570442
 30
0.0
 11
249.87968711
 21
-211.89645394
 31
0.0
  0
LINE
  5
23E
100
AcDbEntity
  8
LAYER0001
  6
CONTINUOUS
 62
       7
100
AcDbLine
 10
249.87968711
 20
-211.89645394
 30
0.0
 11
249.68883542
 21
-211.93946763
 31
0.0
  0
LINE
  5
23F
100
AcDbEntity
  8
LAYER0001
  6
CONTINUOUS
 62
       7
100
AcDbLine
 10
249.68883542
 20
-211.93946763
 30
0.0
 11
249.49836476
 21
-211.98457134
 31
0.0
  0
LINE
  5
240
100
AcDbEntity
  8
LAYER0001
  6
CONTINUOUS
 62
       7
100
AcDbLine
 10
249.49836476
 20
-211.98457134
 30
0.0
 11
249.30824339
 21
-212.03159089
 31
0.0
  0
LINE
  5
241
100
AcDbEntity
  8
LAYER0001
  6
CONTINUOUS
 62
       7
100
AcDbLine
 10
249.30824339
 20
-212.03159089
 30
0.0
 11
249.11843954
 21
-212.08035213
 31
0.0
  0
LINE
  5
242
100
AcDbEntity
  8
LAYER0001
  6
CONTINUOUS
 62
       7
100
AcDbLine
 10
249.11843954
 20
-212.08035213
 30
0.0
 11
248.92892146
 21
-212.13068087
 31
0.0
  0
LINE
  5
243
100
AcDbEntity
  8
LAYER0001
  6
CONTINUOUS
 62
       7
100
AcDbLine
 10
248.92892146
 20
-212.13068087
 30
0.0
 11
248.73965741
 21
-212.18240295
 31
0.0
  0
LINE
  5
244
100
AcDbEntity
  8
LAYER0001
  6
CONTINUOUS
 62
       7
100
AcDbLine
 10
248.73965741
 20
-212.18240295
 30
0.0
 11
248.55061562
 21
-212.23534421
 31
0.0
  0
LINE
  5
245
100
AcDbEntity
  8
LAYER0001
  6
CONTINUOUS
 62
       7
100
AcDbLine
 10
248.55061562
 20
-212.23534421
 30
0.0
 11
248.36176435
 21
-212.28933048
 31
0.0
  0
LINE
  5
246
100
AcDbEntity
  8
LAYER0001
  6
CONTINUOUS
 62
       7
100
AcDbLine
 10
248.36176435
 20
-212.28933048
 30
0.0
 11
248.17307185
 21
-212.34418758
 31
0.0
  0
LINE
  5
247
100
AcDbEntity
  8
LAYER0001
  6
CONTINUOUS
 62
       7
100
AcDbLine
 10
248.17307185
 20
-212.34418758
 30
0.0
 11
247.98450635
 21
-212.39974136
 31
0.0
  0
LINE
  5
248
100
AcDbEntity
  8
LAYER0001
  6
CONTINUOUS
 62
       7
100
AcDbLine
 10
247.98450635
 20
-212.39974136
 30
0.0
 11
247.79603612
 21
-212.45581764
 31
0.0
  0
LINE
  5
249
100
AcDbEntity
  8
LAYER0001
  6
CONTINUOUS
 62
       7
100
AcDbLine
 10
247.79603612
 20
-212.45581764
 30
0.0
 11
247.60762939
 21
-212.51224226
 31
0.0
  0
LINE
  5
24A
100
AcDbEntity
  8
LAYER0001
  6
CONTINUOUS
 62
       7
100
AcDbLine
 10
247.60762939
 20
-212.51224226
 30
0.0
 11
247.41925441
 21
-212.56884104
 31
0.0
  0
ENDBLK
  5
24B
100
AcDbEntity
  8
0
100
AcDbBlockEnd
  0
BLOCK
  5
24C
100
AcDbEntity
  8
0
100
AcDbBlockBegin
  2
GROUP_18
 70
       0
 10
0.0
 20
0.0
 30
0.0
  3
GROUP_18
  1

  0
LINE
  5
24D
100
AcDbEntity
  8
LAYER0001
  6
CONTINUOUS
 62
       7
100
AcDbLine
 10
258.91925443
 20
-212.56884104
 30
0.0
 11
258.69307339
 21
-212.4993719
 31
0.0
  0
LINE
  5
24E
100
AcDbEntity
  8
LAYER0001
  6
CONTINUOUS
 62
       7
100
AcDbLine
 10
258.69307339
 20
-212.4993719
 30
0.0
 11
258.46684306
 21
-212.43026908
 31
0.0
  0
LINE
  5
24F
100
AcDbEntity
  8
LAYER0001
  6
CONTINUOUS
 62
       7
100
AcDbLine
 10
258.46684306
 20
-212.43026908
 30
0.0
 11
258.24051415
 21
-212.36189891
 31
0.0
  0
LINE
  5
250
100
AcDbEntity
  8
LAYER0001
  6
CONTINUOUS
 62
       7
100
AcDbLine
 10
258.24051415
 20
-212.36189891
 30
0.0
 11
258.01403739
 21
-212.29462769
 31
0.0
  0
LINE
  5
251
100
AcDbEntity
  8
LAYER0001
  6
CONTINUOUS
 62
       7
100
AcDbLine
 10
258.01403739
 20
-212.29462769
 30
0.0
 11
257.78736347
 21
-212.22882176
 31
0.0
  0
LINE
  5
252
100
AcDbEntity
  8
LAYER0001
  6
CONTINUOUS
 62
       7
100
AcDbLine
 10
257.78736347
 20
-212.22882176
 30
0.0
 11
257.56044311
 21
-212.16484744
 31
0.0
  0
LINE
  5
253
100
AcDbEntity
  8
LAYER0001
  6
CONTINUOUS
 62
       7
100
AcDbLine
 10
257.56044311
 20
-212.16484744
 30
0.0
 11
257.33322702
 21
-212.10307104
 31
0.0
  0
LINE
  5
254
100
AcDbEntity
  8
LAYER0001
  6
CONTINUOUS
 62
       7
100
AcDbLine
 10
257.33322702
 20
-212.10307104
 30
0.0
 11
257.10566593
 21
-212.04385889
 31
0.0
  0
LINE
  5
255
100
AcDbEntity
  8
LAYER0001
  6
CONTINUOUS
 62
       7
100
AcDbLine
 10
257.10566593
 20
-212.04385889
 30
0.0
 11
256.87771053
 21
-211.9875773
 31
0.0
  0
LINE
  5
256
100
AcDbEntity
  8
LAYER0001
  6
CONTINUOUS
 62
       7
100
AcDbLine
 10
256.87771053
 20
-211.9875773
 30
0.0
 11
256.64931154
 21
-211.93459261
 31
0.0
  0
LINE
  5
257
100
AcDbEntity
  8
LAYER0001
  6
CONTINUOUS
 62
       7
100
AcDbLine
 10
256.64931154
 20
-211.93459261
 30
0.0
 11
256.42041968
 21
-211.88527112
 31
0.0
  0
LINE
  5
258
100
AcDbEntity
  8
LAYER0001
  6
CONTINUOUS
 62
       7
100
AcDbLine
 10
256.42041968
 20
-211.88527112
 30
0.0
 11
256.19098565
 21
-211.83997917
 31
0.0
  0
LINE
  5
259
100
AcDbEntity
  8
LAYER0001
  6
CONTINUOUS
 62
       7
100
AcDbLine
 10
256.19098565
 20
-211.83997917
 30
0.0
 11
255.96096393
 21
-211.79905511
 31
0.0
  0
LINE
  5
25A
100
AcDbEntity
  8
LAYER0001
  6
CONTINUOUS
 62
       7
100
AcDbLine
 10
255.96096393
 20
-211.79905511
 30
0.0
 11
255.73036234
 21
-211.76244078
 31
0.0
  0
LINE
  5
25B
100
AcDbEntity
  8
LAYER0001
  6
CONTINUOUS
 62
       7
100
AcDbLine
 10
255.73036234
 20
-211.76244078
 30
0.0
 11
255.49922836
 21
-211.72978342
 31
0.0
  0
LINE
  5
25C
100
AcDbEntity
  8
LAYER0001
  6
CONTINUOUS
 62
       7
100
AcDbLine
 10
255.49922836
 20
-211.72978342
 30
0.0
 11
255.26761037
 21
-211.70072331
 31
0.0
  0
LINE
  5
25D
100
AcDbEntity
  8
LAYER0001
  6
CONTINUOUS
 62
       7
100
AcDbLine
 10
255.26761037
 20
-211.70072331
 30
0.0
 11
255.03555678
 21
-211.67490073
 31
0.0
  0
LINE
  5
25E
100
AcDbEntity
  8
LAYER0001
  6
CONTINUOUS
 62
       7
100
AcDbLine
 10
255.03555678
 20
-211.67490073
 30
0.0
 11
254.80311599
 21
-211.65195595
 31
0.0
  0
LINE
  5
25F
100
AcDbEntity
  8
LAYER0001
  6
CONTINUOUS
 62
       7
100
AcDbLine
 10
254.80311599
 20
-211.65195595
 30
0.0
 11
254.5703364
 21
-211.63152924
 31
0.0
  0
LINE
  5
260
100
AcDbEntity
  8
LAYER0001
  6
CONTINUOUS
 62
       7
100
AcDbLine
 10
254.5703364
 20
-211.63152924
 30
0.0
 11
254.3372664
 21
-211.61326089
 31
0.0
  0
LINE
  5
261
100
AcDbEntity
  8
LAYER0001
  6
CONTINUOUS
 62
       7
100
AcDbLine
 10
254.3372664
 20
-211.61326089
 30
0.0
 11
254.10395441
 21
-211.59679116
 31
0.0
  0
LINE
  5
262
100
AcDbEntity
  8
LAYER0001
  6
CONTINUOUS
 62
       7
100
AcDbLine
 10
254.10395441
 20
-211.59679116
 30
0.0
 11
253.87044881
 21
-211.58176033
 31
0.0
  0
LINE
  5
263
100
AcDbEntity
  8
LAYER0001
  6
CONTINUOUS
 62
       7
100
AcDbLine
 10
253.87044881
 20
-211.58176033
 30
0.0
 11
253.63679802
 21
-211.56780868
 31
0.0
  0
LINE
  5
264
100
AcDbEntity
  8
LAYER0001
  6
CONTINUOUS
 62
       7
100
AcDbLine
 10
253.63679802
 20
-211.56780868
 30
0.0
 11
253.40305042
 21
-211.55457648
 31
0.0
  0
LINE
  5
265
100
AcDbEntity
  8
LAYER0001
  6
CONTINUOUS
 62
       7
100
AcDbLine
 10
253.40305042
 20
-211.55457648
 30
0.0
 11
253.16925442
 21
-211.541704
 31
0.0
  0
ENDBLK
  5
266
100
AcDbEntity
  8
0
100
AcDbBlockEnd
  0
BLOCK
  5
267
100
AcDbEntity
  8
0
100
AcDbBlockBegin
  2
GROUP_19
 70
       0
 10
0.0
 20
0.0
 30
0.0
  3
GROUP_19
  1

  0
LINE
  5
268
100
AcDbEntity
  8
LAYER0001
  6
CONTINUOUS
 62
       7
100
AcDbLine
 10
253.16925442
 20
-219.04169685
 30
0.0
 11
253.36371092
 21
-219.03973693
 31
0.0
  0
LINE
  5
269
100
AcDbEntity
  8
LAYER0001
  6
CONTINUOUS
 62
       7
100
AcDbLine
 10
253.36371092
 20
-219.03973693
 30
0.0
 11
253.55817632
 21
-219.03654206
 31
0.0
  0
LINE
  5
26A
100
AcDbEntity
  8
LAYER0001
  6
CONTINUOUS
 62
       7
100
AcDbLine
 10
253.55817632
 20
-219.03654206
 30
0.0
 11
253.75265439
 21
-219.03102716
 31
0.0
  0
LINE
  5
26B
100
AcDbEntity
  8
LAYER0001
  6
CONTINUOUS
 62
       7
100
AcDbLine
 10
253.75265439
 20
-219.03102716
 30
0.0
 11
253.94712094
 21
-219.02292492
 31
0.0
  0
LINE
  5
26C
100
AcDbEntity
  8
LAYER0001
  6
CONTINUOUS
 62
       7
100
AcDbLine
 10
253.94712094
 20
-219.02292492
 30
0.0
 11
254.14154229
 21
-219.01224563
 31
0.0
  0
LINE
  5
26D
100
AcDbEntity
  8
LAYER0001
  6
CONTINUOUS
 62
       7
100
AcDbLine
 10
254.14154229
 20
-219.01224563
 30
0.0
 11
254.33588474
 21
-218.99899982
 31
0.0
  0
LINE
  5
26E
100
AcDbEntity
  8
LAYER0001
  6
CONTINUOUS
 62
       7
100
AcDbLine
 10
254.33588474
 20
-218.99899982
 30
0.0
 11
254.5301146
 21
-218.983198
 31
0.0
  0
LINE
  5
26F
100
AcDbEntity
  8
LAYER0001
  6
CONTINUOUS
 62
       7
100
AcDbLine
 10
254.5301146
 20
-218.983198
 30
0.0
 11
254.72419817
 21
-218.96485068
 31
0.0
  0
LINE
  5
270
100
AcDbEntity
  8
LAYER0001
  6
CONTINUOUS
 62
       7
100
AcDbLine
 10
254.72419817
 20
-218.96485068
 30
0.0
 11
254.91810177
 21
-218.94396838
 31
0.0
  0
LINE
  5
271
100
AcDbEntity
  8
LAYER0001
  6
CONTINUOUS
 62
       7
100
AcDbLine
 10
254.91810177
 20
-218.94396838
 30
0.0
 11
255.1117917
 21
-218.92056162
 31
0.0
  0
LINE
  5
272
100
AcDbEntity
  8
LAYER0001
  6
CONTINUOUS
 62
       7
100
AcDbLine
 10
255.1117917
 20
-218.92056162
 30
0.0
 11
255.30523427
 21
-218.89464092
 31
0.0
  0
LINE
  5
273
100
AcDbEntity
  8
LAYER0001
  6
CONTINUOUS
 62
       7
100
AcDbLine
 10
255.30523427
 20
-218.89464092
 30
0.0
 11
255.49839578
 21
-218.86621679
 31
0.0
  0
LINE
  5
274
100
AcDbEntity
  8
LAYER0001
  6
CONTINUOUS
 62
       7
100
AcDbLine
 10
255.49839578
 20
-218.86621679
 30
0.0
 11
255.69124253
 21
-218.83529975
 31
0.0
  0
LINE
  5
275
100
AcDbEntity
  8
LAYER0001
  6
CONTINUOUS
 62
       7
100
AcDbLine
 10
255.69124253
 20
-218.83529975
 30
0.0
 11
255.88374085
 21
-218.80190032
 31
0.0
  0
LINE
  5
276
100
AcDbEntity
  8
LAYER0001
  6
CONTINUOUS
 62
       7
100
AcDbLine
 10
255.88374085
 20
-218.80190032
 30
0.0
 11
256.07585702
 21
-218.76602901
 31
0.0
  0
LINE
  5
277
100
AcDbEntity
  8
LAYER0001
  6
CONTINUOUS
 62
       7
100
AcDbLine
 10
256.07585702
 20
-218.76602901
 30
0.0
 11
256.26755738
 21
-218.72769635
 31
0.0
  0
LINE
  5
278
100
AcDbEntity
  8
LAYER0001
  6
CONTINUOUS
 62
       7
100
AcDbLine
 10
256.26755738
 20
-218.72769635
 30
0.0
 11
256.4588218
 21
-218.68694684
 31
0.0
  0
LINE
  5
279
100
AcDbEntity
  8
LAYER0001
  6
CONTINUOUS
 62
       7
100
AcDbLine
 10
256.4588218
 20
-218.68694684
 30
0.0
 11
256.64967344
 21
-218.64393314
 31
0.0
  0
LINE
  5
27A
100
AcDbEntity
  8
LAYER0001
  6
CONTINUOUS
 62
       7
100
AcDbLine
 10
256.64967344
 20
-218.64393314
 30
0.0
 11
256.84014406
 21
-218.59882944
 31
0.0
  0
LINE
  5
27B
100
AcDbEntity
  8
LAYER0001
  6
CONTINUOUS
 62
       7
100
AcDbLine
 10
256.84014406
 20
-218.59882944
 30
0.0
 11
257.03026541
 21
-218.55180989
 31
0.0
  0
LINE
  5
27C
100
AcDbEntity
  8
LAYER0001
  6
CONTINUOUS
 62
       7
100
AcDbLine
 10
257.03026541
 20
-218.55180989
 30
0.0
 11
257.22006925
 21
-218.50304866
 31
0.0
  0
LINE
  5
27D
100
AcDbEntity
  8
LAYER0001
  6
CONTINUOUS
 62
       7
100
AcDbLine
 10
257.22006925
 20
-218.50304866
 30
0.0
 11
257.40958731
 21
-218.45271992
 31
0.0
  0
LINE
  5
27E
100
AcDbEntity
  8
LAYER0001
  6
CONTINUOUS
 62
       7
100
AcDbLine
 10
257.40958731
 20
-218.45271992
 30
0.0
 11
257.59885136
 21
-218.40099784
 31
0.0
  0
LINE
  5
27F
100
AcDbEntity
  8
LAYER0001
  6
CONTINUOUS
 62
       7
100
AcDbLine
 10
257.59885136
 20
-218.40099784
 30
0.0
 11
257.78789314
 21
-218.34805659
 31
0.0
  0
LINE
  5
280
100
AcDbEntity
  8
LAYER0001
  6
CONTINUOUS
 62
       7
100
AcDbLine
 10
257.78789314
 20
-218.34805659
 30
0.0
 11
257.97674442
 21
-218.29407033
 31
0.0
  0
LINE
  5
281
100
AcDbEntity
  8
LAYER0001
  6
CONTINUOUS
 62
       7
100
AcDbLine
 10
257.97674442
 20
-218.29407033
 30
0.0
 11
258.16543693
 21
-218.23921323
 31
0.0
  0
LINE
  5
282
100
AcDbEntity
  8
LAYER0001
  6
CONTINUOUS
 62
       7
100
AcDbLine
 10
258.16543693
 20
-218.23921323
 30
0.0
 11
258.35400244
 21
-218.18365946
 31
0.0
  0
LINE
  5
283
100
AcDbEntity
  8
LAYER0001
  6
CONTINUOUS
 62
       7
100
AcDbLine
 10
258.35400244
 20
-218.18365946
 30
0.0
 11
258.54247269
 21
-218.12758319
 31
0.0
  0
LINE
  5
284
100
AcDbEntity
  8
LAYER0001
  6
CONTINUOUS
 62
       7
100
AcDbLine
 10
258.54247269
 20
-218.12758319
 30
0.0
 11
258.73087944
 21
-218.07115858
 31
0.0
  0
LINE
  5
285
100
AcDbEntity
  8
LAYER0001
  6
CONTINUOUS
 62
       7
100
AcDbLine
 10
258.73087944
 20
-218.07115858
 30
0.0
 11
258.91925443
 21
-218.01455981
 31
0.0
  0
ENDBLK
  5
286
100
AcDbEntity
  8
0
100
AcDbBlockEnd
  0
BLOCK
  5
287
100
AcDbEntity
  8
0
100
AcDbBlockBegin
  2
GROUP_20
 70
       0
 10
0.0
 20
0.0
 30
0.0
  3
GROUP_20
  1

  0
LINE
  5
288
100
AcDbEntity
  8
LAYER0001
  6
CONTINUOUS
 62
       7
100
AcDbLine
 10
247.41925441
 20
-218.01455981
 30
0.0
 11
247.64543502
 21
-218.08403243
 31
0.0
  0
LINE
  5
289
100
AcDbEntity
  8
LAYER0001
  6
CONTINUOUS
 62
       7
100
AcDbLine
 10
247.64543502
 20
-218.08403243
 30
0.0
 11
247.87166492
 21
-218.15313868
 31
0.0
  0
LINE
  5
28A
100
AcDbEntity
  8
LAYER0001
  6
CONTINUOUS
 62
       7
100
AcDbLine
 10
247.87166492
 20
-218.15313868
 30
0.0
 11
248.0979934
 21
-218.22151221
 31
0.0
  0
LINE
  5
28B
100
AcDbEntity
  8
LAYER0001
  6
CONTINUOUS
 62
       7
100
AcDbLine
 10
248.0979934
 20
-218.22151221
 30
0.0
 11
248.32446977
 21
-218.28878664
 31
0.0
  0
LINE
  5
28C
100
AcDbEntity
  8
LAYER0001
  6
CONTINUOUS
 62
       7
100
AcDbLine
 10
248.32446977
 20
-218.28878664
 30
0.0
 11
248.55114331
 21
-218.3545956
 31
0.0
  0
LINE
  5
28D
100
AcDbEntity
  8
LAYER0001
  6
CONTINUOUS
 62
       7
100
AcDbLine
 10
248.55114331
 20
-218.3545956
 30
0.0
 11
248.77806331
 21
-218.41857274
 31
0.0
  0
LINE
  5
28E
100
AcDbEntity
  8
LAYER0001
  6
CONTINUOUS
 62
       7
100
AcDbLine
 10
248.77806331
 20
-218.41857274
 30
0.0
 11
249.00527908
 21
-218.48035169
 31
0.0
  0
LINE
  5
28F
100
AcDbEntity
  8
LAYER0001
  6
CONTINUOUS
 62
       7
100
AcDbLine
 10
249.00527908
 20
-218.48035169
 30
0.0
 11
249.23283989
 21
-218.53956607
 31
0.0
  0
LINE
  5
290
100
AcDbEntity
  8
LAYER0001
  6
CONTINUOUS
 62
       7
100
AcDbLine
 10
249.23283989
 20
-218.53956607
 30
0.0
 11
249.46079506
 21
-218.59584953
 31
0.0
  0
LINE
  5
291
100
AcDbEntity
  8
LAYER0001
  6
CONTINUOUS
 62
       7
100
AcDbLine
 10
249.46079506
 20
-218.59584953
 30
0.0
 11
249.68919386
 21
-218.64883571
 31
0.0
  0
LINE
  5
292
100
AcDbEntity
  8
LAYER0001
  6
CONTINUOUS
 62
       7
100
AcDbLine
 10
249.68919386
 20
-218.64883571
 30
0.0
 11
249.91808559
 21
-218.69815822
 31
0.0
  0
LINE
  5
293
100
AcDbEntity
  8
LAYER0001
  6
CONTINUOUS
 62
       7
100
AcDbLine
 10
249.91808559
 20
-218.69815822
 30
0.0
 11
250.14751956
 21
-218.74345071
 31
0.0
  0
LINE
  5
294
100
AcDbEntity
  8
LAYER0001
  6
CONTINUOUS
 62
       7
100
AcDbLine
 10
250.14751956
 20
-218.74345071
 30
0.0
 11
250.37754128
 21
-218.78437477
 31
0.0
  0
LINE
  5
295
100
AcDbEntity
  8
LAYER0001
  6
CONTINUOUS
 62
       7
100
AcDbLine
 10
250.37754128
 20
-218.78437477
 30
0.0
 11
250.60814292
 21
-218.82098858
 31
0.0
  0
LINE
  5
296
100
AcDbEntity
  8
LAYER0001
  6
CONTINUOUS
 62
       7
100
AcDbLine
 10
250.60814292
 20
-218.82098858
 30
0.0
 11
250.83927704
 21
-218.85364491
 31
0.0
  0
LINE
  5
297
100
AcDbEntity
  8
LAYER0001
  6
CONTINUOUS
 62
       7
100
AcDbLine
 10
250.83927704
 20
-218.85364491
 30
0.0
 11
251.07089521
 21
-218.88270355
 31
0.0
  0
LINE
  5
298
100
AcDbEntity
  8
LAYER0001
  6
CONTINUOUS
 62
       7
100
AcDbLine
 10
251.07089521
 20
-218.88270355
 30
0.0
 11
251.30294904
 21
-218.90852425
 31
0.0
  0
LINE
  5
299
100
AcDbEntity
  8
LAYER0001
  6
CONTINUOUS
 62
       7
100
AcDbLine
 10
251.30294904
 20
-218.90852425
 30
0.0
 11
251.53539011
 21
-218.9314668
 31
0.0
  0
LINE
  5
29A
100
AcDbEntity
  8
LAYER0001
  6
CONTINUOUS
 62
       7
100
AcDbLine
 10
251.53539011
 20
-218.9314668
 30
0.0
 11
251.76817002
 21
-218.95189096
 31
0.0
  0
LINE
  5
29B
100
AcDbEntity
  8
LAYER0001
  6
CONTINUOUS
 62
       7
100
AcDbLine
 10
251.76817002
 20
-218.95189096
 30
0.0
 11
252.00124037
 21
-218.9701565
 31
0.0
  0
LINE
  5
29C
100
AcDbEntity
  8
LAYER0001
  6
CONTINUOUS
 62
       7
100
AcDbLine
 10
252.00124037
 20
-218.9701565
 30
0.0
 11
252.23455274
 21
-218.98662319
 31
0.0
  0
LINE
  5
29D
100
AcDbEntity
  8
LAYER0001
  6
CONTINUOUS
 62
       7
100
AcDbLine
 10
252.23455274
 20
-218.98662319
 30
0.0
 11
252.46805874
 21
-219.0016508
 31
0.0
  0
LINE
  5
29E
100
AcDbEntity
  8
LAYER0001
  6
CONTINUOUS
 62
       7
100
AcDbLine
 10
252.46805874
 20
-219.0016508
 30
0.0
 11
252.70170996
 21
-219.0155991
 31
0.0
  0
LINE
  5
29F
100
AcDbEntity
  8
LAYER0001
  6
CONTINUOUS
 62
       7
100
AcDbLine
 10
252.70170996
 20
-219.0155991
 30
0.0
 11
252.93545799
 21
-219.02882786
 31
0.0
  0
LINE
  5
2A0
100
AcDbEntity
  8
LAYER0001
  6
CONTINUOUS
 62
       7
100
AcDbLine
 10
252.93545799
 20
-219.02882786
 30
0.0
 11
253.16925442
 21
-219.04169685
 31
0.0
  0
ENDBLK
  5
2A1
100
AcDbEntity
  8
0
100
AcDbBlockEnd
  0
BLOCK
  5
2A2
100
AcDbEntity
  8
0
100
AcDbBlockBegin
  2
GROUP_21
 70
       0
 10
0.0
 20
0.0
 30
0.0
  3
GROUP_21
  1

  0
LINE
  5
2A3
100
AcDbEntity
  8
LAYER0001
  6
CONTINUOUS
 62
       7
100
AcDbLine
 10
247.41925441
 20
-212.56884104
 30
0.0
 11
247.41925441
 21
-212.50282935
 31
0.0
  0
LINE
  5
2A4
100
AcDbEntity
  8
LAYER0001
  6
CONTINUOUS
 62
       7
100
AcDbLine
 10
247.41925441
 20
-212.50282935
 30
0.0
 11
247.41925441
 21
-212.43707465
 31
0.0
  0
LINE
  5
2A5
100
AcDbEntity
  8
LAYER0001
  6
CONTINUOUS
 62
       7
100
AcDbLine
 10
247.41925441
 20
-212.43707465
 30
0.0
 11
247.41925441
 21
-212.37183393
 31
0.0
  0
LINE
  5
2A6
100
AcDbEntity
  8
LAYER0001
  6
CONTINUOUS
 62
       7
100
AcDbLine
 10
247.41925441
 20
-212.37183393
 30
0.0
 11
247.41925441
 21
-212.30736418
 31
0.0
  0
LINE
  5
2A7
100
AcDbEntity
  8
LAYER0001
  6
CONTINUOUS
 62
       7
100
AcDbLine
 10
247.41925441
 20
-212.30736418
 30
0.0
 11
247.41925441
 21
-212.24392238
 31
0.0
  0
LINE
  5
2A8
100
AcDbEntity
  8
LAYER0001
  6
CONTINUOUS
 62
       7
100
AcDbLine
 10
247.41925441
 20
-212.24392238
 30
0.0
 11
247.41925441
 21
-212.18176553
 31
0.0
  0
LINE
  5
2A9
100
AcDbEntity
  8
LAYER0001
  6
CONTINUOUS
 62
       7
100
AcDbLine
 10
247.41925441
 20
-212.18176553
 30
0.0
 11
247.41925441
 21
-212.12115061
 31
0.0
  0
LINE
  5
2AA
100
AcDbEntity
  8
LAYER0001
  6
CONTINUOUS
 62
       7
100
AcDbLine
 10
247.41925441
 20
-212.12115061
 30
0.0
 11
247.41925441
 21
-212.06233462
 31
0.0
  0
LINE
  5
2AB
100
AcDbEntity
  8
LAYER0001
  6
CONTINUOUS
 62
       7
100
AcDbLine
 10
247.41925441
 20
-212.06233462
 30
0.0
 11
247.41925441
 21
-212.00557454
 31
0.0
  0
LINE
  5
2AC
100
AcDbEntity
  8
LAYER0001
  6
CONTINUOUS
 62
       7
100
AcDbLine
 10
247.41925441
 20
-212.00557454
 30
0.0
 11
247.41925441
 21
-211.95112736
 31
0.0
  0
LINE
  5
2AD
100
AcDbEntity
  8
LAYER0001
  6
CONTINUOUS
 62
       7
100
AcDbLine
 10
247.41925441
 20
-211.95112736
 30
0.0
 11
247.41925441
 21
-211.89925007
 31
0.0
  0
LINE
  5
2AE
100
AcDbEntity
  8
LAYER0001
  6
CONTINUOUS
 62
       7
100
AcDbLine
 10
247.41925441
 20
-211.89925007
 30
0.0
 11
247.41925441
 21
-211.85019967
 31
0.0
  0
LINE
  5
2AF
100
AcDbEntity
  8
LAYER0001
  6
CONTINUOUS
 62
       7
100
AcDbLine
 10
247.41925441
 20
-211.85019967
 30
0.0
 11
247.41925441
 21
-211.80423313
 31
0.0
  0
LINE
  5
2B0
100
AcDbEntity
  8
LAYER0001
  6
CONTINUOUS
 62
       7
100
AcDbLine
 10
247.41925441
 20
-211.80423313
 30
0.0
 11
247.41925441
 21
-211.76160745
 31
0.0
  0
LINE
  5
2B1
100
AcDbEntity
  8
LAYER0001
  6
CONTINUOUS
 62
       7
100
AcDbLine
 10
247.41925441
 20
-211.76160745
 30
0.0
 11
247.41925441
 21
-211.72257962
 31
0.0
  0
LINE
  5
2B2
100
AcDbEntity
  8
LAYER0001
  6
CONTINUOUS
 62
       7
100
AcDbLine
 10
247.41925441
 20
-211.72257962
 30
0.0
 11
247.41925441
 21
-211.68740663
 31
0.0
  0
LINE
  5
2B3
100
AcDbEntity
  8
LAYER0001
  6
CONTINUOUS
 62
       7
100
AcDbLine
 10
247.41925441
 20
-211.68740663
 30
0.0
 11
247.41925441
 21
-211.65634547
 31
0.0
  0
LINE
  5
2B4
100
AcDbEntity
  8
LAYER0001
  6
CONTINUOUS
 62
       7
100
AcDbLine
 10
247.41925441
 20
-211.65634547
 30
0.0
 11
247.41925441
 21
-211.62965311
 31
0.0
  0
LINE
  5
2B5
100
AcDbEntity
  8
LAYER0001
  6
CONTINUOUS
 62
       7
100
AcDbLine
 10
247.41925441
 20
-211.62965311
 30
0.0
 11
247.41925441
 21
-211.60756786
 31
0.0
  0
LINE
  5
2B6
100
AcDbEntity
  8
LAYER0001
  6
CONTINUOUS
 62
       7
100
AcDbLine
 10
247.41925441
 20
-211.60756786
 30
0.0
 11
247.41925441
 21
-211.58986323
 31
0.0
  0
LINE
  5
2B7
100
AcDbEntity
  8
LAYER0001
  6
CONTINUOUS
 62
       7
100
AcDbLine
 10
247.41925441
 20
-211.58986323
 30
0.0
 11
247.41925441
 21
-211.57582805
 31
0.0
  0
LINE
  5
2B8
100
AcDbEntity
  8
LAYER0001
  6
CONTINUOUS
 62
       7
100
AcDbLine
 10
247.41925441
 20
-211.57582805
 30
0.0
 11
247.41925441
 21
-211.56472843
 31
0.0
  0
LINE
  5
2B9
100
AcDbEntity
  8
LAYER0001
  6
CONTINUOUS
 62
       7
100
AcDbLine
 10
247.41925441
 20
-211.56472843
 30
0.0
 11
247.41925441
 21
-211.55583047
 31
0.0
  0
LINE
  5
2BA
100
AcDbEntity
  8
LAYER0001
  6
CONTINUOUS
 62
       7
100
AcDbLine
 10
247.41925441
 20
-211.55583047
 30
0.0
 11
247.41925441
 21
-211.54840029
 31
0.0
  0
LINE
  5
2BB
100
AcDbEntity
  8
LAYER0001
  6
CONTINUOUS
 62
       7
100
AcDbLine
 10
247.41925441
 20
-211.54840029
 30
0.0
 11
247.41925441
 21
-211.541704
 31
0.0
  0
ENDBLK
  5
2BC
100
AcDbEntity
  8
0
100
AcDbBlockEnd
  0
BLOCK
  5
2BD
100
AcDbEntity
  8
0
100
AcDbBlockBegin
  2
GROUP_22
 70
       0
 10
0.0
 20
0.0
 30
0.0
  3
GROUP_22
  1

  0
LINE
  5
2BE
100
AcDbEntity
  8
LAYER0001
  6
CONTINUOUS
 62
       7
100
AcDbLine
 10
270.41925446
 20
-211.541704
 30
0.0
 11
270.41925446
 21
-211.54840029
 31
0.0
  0
LINE
  5
2BF
100
AcDbEntity
  8
LAYER0001
  6
CONTINUOUS
 62
       7
100
AcDbLine
 10
270.41925446
 20
-211.54840029
 30
0.0
 11
270.41925446
 21
-211.55583047
 31
0.0
  0
LINE
  5
2C0
100
AcDbEntity
  8
LAYER0001
  6
CONTINUOUS
 62
       7
100
AcDbLine
 10
270.41925446
 20
-211.55583047
 30
0.0
 11
270.41925446
 21
-211.56472843
 31
0.0
  0
LINE
  5
2C1
100
AcDbEntity
  8
LAYER0001
  6
CONTINUOUS
 62
       7
100
AcDbLine
 10
270.41925446
 20
-211.56472843
 30
0.0
 11
270.41925446
 21
-211.57582805
 31
0.0
  0
LINE
  5
2C2
100
AcDbEntity
  8
LAYER0001
  6
CONTINUOUS
 62
       7
100
AcDbLine
 10
270.41925446
 20
-211.57582805
 30
0.0
 11
270.41925446
 21
-211.58986323
 31
0.0
  0
LINE
  5
2C3
100
AcDbEntity
  8
LAYER0001
  6
CONTINUOUS
 62
       7
100
AcDbLine
 10
270.41925446
 20
-211.58986323
 30
0.0
 11
270.41925446
 21
-211.60756786
 31
0.0
  0
LINE
  5
2C4
100
AcDbEntity
  8
LAYER0001
  6
CONTINUOUS
 62
       7
100
AcDbLine
 10
270.41925446
 20
-211.60756786
 30
0.0
 11
270.41925446
 21
-211.62965311
 31
0.0
  0
LINE
  5
2C5
100
AcDbEntity
  8
LAYER0001
  6
CONTINUOUS
 62
       7
100
AcDbLine
 10
270.41925446
 20
-211.62965311
 30
0.0
 11
270.41925446
 21
-211.65634547
 31
0.0
  0
LINE
  5
2C6
100
AcDbEntity
  8
LAYER0001
  6
CONTINUOUS
 62
       7
100
AcDbLine
 10
270.41925446
 20
-211.65634547
 30
0.0
 11
270.41925446
 21
-211.68740663
 31
0.0
  0
LINE
  5
2C7
100
AcDbEntity
  8
LAYER0001
  6
CONTINUOUS
 62
       7
100
AcDbLine
 10
270.41925446
 20
-211.68740663
 30
0.0
 11
270.41925446
 21
-211.72257962
 31
0.0
  0
LINE
  5
2C8
100
AcDbEntity
  8
LAYER0001
  6
CONTINUOUS
 62
       7
100
AcDbLine
 10
270.41925446
 20
-211.72257962
 30
0.0
 11
270.41925446
 21
-211.76160745
 31
0.0
  0
LINE
  5
2C9
100
AcDbEntity
  8
LAYER0001
  6
CONTINUOUS
 62
       7
100
AcDbLine
 10
270.41925446
 20
-211.76160745
 30
0.0
 11
270.41925446
 21
-211.80423313
 31
0.0
  0
LINE
  5
2CA
100
AcDbEntity
  8
LAYER0001
  6
CONTINUOUS
 62
       7
100
AcDbLine
 10
270.41925446
 20
-211.80423313
 30
0.0
 11
270.41925446
 21
-211.85019967
 31
0.0
  0
LINE
  5
2CB
100
AcDbEntity
  8
LAYER0001
  6
CONTINUOUS
 62
       7
100
AcDbLine
 10
270.41925446
 20
-211.85019967
 30
0.0
 11
270.41925446
 21
-211.89925007
 31
0.0
  0
LINE
  5
2CC
100
AcDbEntity
  8
LAYER0001
  6
CONTINUOUS
 62
       7
100
AcDbLine
 10
270.41925446
 20
-211.89925007
 30
0.0
 11
270.41925446
 21
-211.95112736
 31
0.0
  0
LINE
  5
2CD
100
AcDbEntity
  8
LAYER0001
  6
CONTINUOUS
 62
       7
100
AcDbLine
 10
270.41925446
 20
-211.95112736
 30
0.0
 11
270.41925446
 21
-212.00557454
 31
0.0
  0
LINE
  5
2CE
100
AcDbEntity
  8
LAYER0001
  6
CONTINUOUS
 62
       7
100
AcDbLine
 10
270.41925446
 20
-212.00557454
 30
0.0
 11
270.41925446
 21
-212.06233462
 31
0.0
  0
LINE
  5
2CF
100
AcDbEntity
  8
LAYER0001
  6
CONTINUOUS
 62
       7
100
AcDbLine
 10
270.41925446
 20
-212.06233462
 30
0.0
 11
270.41925446
 21
-212.12115061
 31
0.0
  0
LINE
  5
2D0
100
AcDbEntity
  8
LAYER0001
  6
CONTINUOUS
 62
       7
100
AcDbLine
 10
270.41925446
 20
-212.12115061
 30
0.0
 11
270.41925446
 21
-212.18176553
 31
0.0
  0
LINE
  5
2D1
100
AcDbEntity
  8
LAYER0001
  6
CONTINUOUS
 62
       7
100
AcDbLine
 10
270.41925446
 20
-212.18176553
 30
0.0
 11
270.41925446
 21
-212.24392238
 31
0.0
  0
LINE
  5
2D2
100
AcDbEntity
  8
LAYER0001
  6
CONTINUOUS
 62
       7
100
AcDbLine
 10
270.41925446
 20
-212.24392238
 30
0.0
 11
270.41925446
 21
-212.30736418
 31
0.0
  0
LINE
  5
2D3
100
AcDbEntity
  8
LAYER0001
  6
CONTINUOUS
 62
       7
100
AcDbLine
 10
270.41925446
 20
-212.30736418
 30
0.0
 11
270.41925446
 21
-212.37183393
 31
0.0
  0
LINE
  5
2D4
100
AcDbEntity
  8
LAYER0001
  6
CONTINUOUS
 62
       7
100
AcDbLine
 10
270.41925446
 20
-212.37183393
 30
0.0
 11
270.41925446
 21
-212.43707465
 31
0.0
  0
LINE
  5
2D5
100
AcDbEntity
  8
LAYER0001
  6
CONTINUOUS
 62
       7
100
AcDbLine
 10
270.41925446
 20
-212.43707465
 30
0.0
 11
270.41925446
 21
-212.50282935
 31
0.0
  0
LINE
  5
2D6
100
AcDbEntity
  8
LAYER0001
  6
CONTINUOUS
 62
       7
100
AcDbLine
 10
270.41925446
 20
-212.50282935
 30
0.0
 11
270.41925446
 21
-212.56884104
 31
0.0
  0
ENDBLK
  5
2D7
100
AcDbEntity
  8
0
100
AcDbBlockEnd
  0
BLOCK
  5
2D8
100
AcDbEntity
  8
0
100
AcDbBlockBegin
  2
GROUP_23
 70
       0
 10
0.0
 20
0.0
 30
0.0
  3
GROUP_23
  1

  0
LINE
  5
2D9
100
AcDbEntity
  8
LAYER0001
  6
CONTINUOUS
 62
       7
100
AcDbLine
 10
270.41925446
 20
-218.01455981
 30
0.0
 11
270.41925446
 21
-218.08057149
 31
0.0
  0
LINE
  5
2DA
100
AcDbEntity
  8
LAYER0001
  6
CONTINUOUS
 62
       7
100
AcDbLine
 10
270.41925446
 20
-218.08057149
 30
0.0
 11
270.41925446
 21
-218.14632619
 31
0.0
  0
LINE
  5
2DB
100
AcDbEntity
  8
LAYER0001
  6
CONTINUOUS
 62
       7
100
AcDbLine
 10
270.41925446
 20
-218.14632619
 30
0.0
 11
270.41925446
 21
-218.21156692
 31
0.0
  0
LINE
  5
2DC
100
AcDbEntity
  8
LAYER0001
  6
CONTINUOUS
 62
       7
100
AcDbLine
 10
270.41925446
 20
-218.21156692
 30
0.0
 11
270.41925446
 21
-218.27603667
 31
0.0
  0
LINE
  5
2DD
100
AcDbEntity
  8
LAYER0001
  6
CONTINUOUS
 62
       7
100
AcDbLine
 10
270.41925446
 20
-218.27603667
 30
0.0
 11
270.41925446
 21
-218.33947847
 31
0.0
  0
LINE
  5
2DE
100
AcDbEntity
  8
LAYER0001
  6
CONTINUOUS
 62
       7
100
AcDbLine
 10
270.41925446
 20
-218.33947847
 30
0.0
 11
270.41925446
 21
-218.40163532
 31
0.0
  0
LINE
  5
2DF
100
AcDbEntity
  8
LAYER0001
  6
CONTINUOUS
 62
       7
100
AcDbLine
 10
270.41925446
 20
-218.40163532
 30
0.0
 11
270.41925446
 21
-218.46225024
 31
0.0
  0
LINE
  5
2E0
100
AcDbEntity
  8
LAYER0001
  6
CONTINUOUS
 62
       7
100
AcDbLine
 10
270.41925446
 20
-218.46225024
 30
0.0
 11
270.41925446
 21
-218.52106623
 31
0.0
  0
LINE
  5
2E1
100
AcDbEntity
  8
LAYER0001
  6
CONTINUOUS
 62
       7
100
AcDbLine
 10
270.41925446
 20
-218.52106623
 30
0.0
 11
270.41925446
 21
-218.57782631
 31
0.0
  0
LINE
  5
2E2
100
AcDbEntity
  8
LAYER0001
  6
CONTINUOUS
 62
       7
100
AcDbLine
 10
270.41925446
 20
-218.57782631
 30
0.0
 11
270.41925446
 21
-218.63227349
 31
0.0
  0
LINE
  5
2E3
100
AcDbEntity
  8
LAYER0001
  6
CONTINUOUS
 62
       7
100
AcDbLine
 10
270.41925446
 20
-218.63227349
 30
0.0
 11
270.41925446
 21
-218.68415077
 31
0.0
  0
LINE
  5
2E4
100
AcDbEntity
  8
LAYER0001
  6
CONTINUOUS
 62
       7
100
AcDbLine
 10
270.41925446
 20
-218.68415077
 30
0.0
 11
270.41925446
 21
-218.73320118
 31
0.0
  0
LINE
  5
2E5
100
AcDbEntity
  8
LAYER0001
  6
CONTINUOUS
 62
       7
100
AcDbLine
 10
270.41925446
 20
-218.73320118
 30
0.0
 11
270.41925446
 21
-218.77916772
 31
0.0
  0
LINE
  5
2E6
100
AcDbEntity
  8
LAYER0001
  6
CONTINUOUS
 62
       7
100
AcDbLine
 10
270.41925446
 20
-218.77916772
 30
0.0
 11
270.41925446
 21
-218.82179339
 31
0.0
  0
LINE
  5
2E7
100
AcDbEntity
  8
LAYER0001
  6
CONTINUOUS
 62
       7
100
AcDbLine
 10
270.41925446
 20
-218.82179339
 30
0.0
 11
270.41925446
 21
-218.86082122
 31
0.0
  0
LINE
  5
2E8
100
AcDbEntity
  8
LAYER0001
  6
CONTINUOUS
 62
       7
100
AcDbLine
 10
270.41925446
 20
-218.86082122
 30
0.0
 11
270.41925446
 21
-218.89599421
 31
0.0
  0
LINE
  5
2E9
100
AcDbEntity
  8
LAYER0001
  6
CONTINUOUS
 62
       7
100
AcDbLine
 10
270.41925446
 20
-218.89599421
 30
0.0
 11
270.41925446
 21
-218.92705538
 31
0.0
  0
LINE
  5
2EA
100
AcDbEntity
  8
LAYER0001
  6
CONTINUOUS
 62
       7
100
AcDbLine
 10
270.41925446
 20
-218.92705538
 30
0.0
 11
270.41925446
 21
-218.95374773
 31
0.0
  0
LINE
  5
2EB
100
AcDbEntity
  8
LAYER0001
  6
CONTINUOUS
 62
       7
100
AcDbLine
 10
270.41925446
 20
-218.95374773
 30
0.0
 11
270.41925446
 21
-218.97583299
 31
0.0
  0
LINE
  5
2EC
100
AcDbEntity
  8
LAYER0001
  6
CONTINUOUS
 62
       7
100
AcDbLine
 10
270.41925446
 20
-218.97583299
 30
0.0
 11
270.41925446
 21
-218.99353761
 31
0.0
  0
LINE
  5
2ED
100
AcDbEntity
  8
LAYER0001
  6
CONTINUOUS
 62
       7
100
AcDbLine
 10
270.41925446
 20
-218.99353761
 30
0.0
 11
270.41925446
 21
-219.0075728
 31
0.0
  0
LINE
  5
2EE
100
AcDbEntity
  8
LAYER0001
  6
CONTINUOUS
 62
       7
100
AcDbLine
 10
270.41925446
 20
-219.0075728
 30
0.0
 11
270.41925446
 21
-219.01867242
 31
0.0
  0
LINE
  5
2EF
100
AcDbEntity
  8
LAYER0001
  6
CONTINUOUS
 62
       7
100
AcDbLine
 10
270.41925446
 20
-219.01867242
 30
0.0
 11
270.41925446
 21
-219.02757038
 31
0.0
  0
LINE
  5
2F0
100
AcDbEntity
  8
LAYER0001
  6
CONTINUOUS
 62
       7
100
AcDbLine
 10
270.41925446
 20
-219.02757038
 30
0.0
 11
270.41925446
 21
-219.03500056
 31
0.0
  0
LINE
  5
2F1
100
AcDbEntity
  8
LAYER0001
  6
CONTINUOUS
 62
       7
100
AcDbLine
 10
270.41925446
 20
-219.03500056
 30
0.0
 11
270.41925446
 21
-219.04169685
 31
0.0
  0
ENDBLK
  5
2F2
100
AcDbEntity
  8
0
100
AcDbBlockEnd
  0
BLOCK
  5
2F3
100
AcDbEntity
  8
0
100
AcDbBlockBegin
  2
GROUP_24
 70
       0
 10
0.0
 20
0.0
 30
0.0
  3
GROUP_24
  1

  0
LINE
  5
2F4
100
AcDbEntity
  8
LAYER0001
  6
CONTINUOUS
 62
       7
100
AcDbLine
 10
247.41925441
 20
-219.04169685
 30
0.0
 11
247.41925441
 21
-219.03500056
 31
0.0
  0
LINE
  5
2F5
100
AcDbEntity
  8
LAYER0001
  6
CONTINUOUS
 62
       7
100
AcDbLine
 10
247.41925441
 20
-219.03500056
 30
0.0
 11
247.41925441
 21
-219.02757038
 31
0.0
  0
LINE
  5
2F6
100
AcDbEntity
  8
LAYER0001
  6
CONTINUOUS
 62
       7
100
AcDbLine
 10
247.41925441
 20
-219.02757038
 30
0.0
 11
247.41925441
 21
-219.01867242
 31
0.0
  0
LINE
  5
2F7
100
AcDbEntity
  8
LAYER0001
  6
CONTINUOUS
 62
       7
100
AcDbLine
 10
247.41925441
 20
-219.01867242
 30
0.0
 11
247.41925441
 21
-219.0075728
 31
0.0
  0
LINE
  5
2F8
100
AcDbEntity
  8
LAYER0001
  6
CONTINUOUS
 62
       7
100
AcDbLine
 10
247.41925441
 20
-219.0075728
 30
0.0
 11
247.41925441
 21
-218.99353761
 31
0.0
  0
LINE
  5
2F9
100
AcDbEntity
  8
LAYER0001
  6
CONTINUOUS
 62
       7
100
AcDbLine
 10
247.41925441
 20
-218.99353761
 30
0.0
 11
247.41925441
 21
-218.97583299
 31
0.0
  0
LINE
  5
2FA
100
AcDbEntity
  8
LAYER0001
  6
CONTINUOUS
 62
       7
100
AcDbLine
 10
247.41925441
 20
-218.97583299
 30
0.0
 11
247.41925441
 21
-218.95374773
 31
0.0
  0
LINE
  5
2FB
100
AcDbEntity
  8
LAYER0001
  6
CONTINUOUS
 62
       7
100
AcDbLine
 10
247.41925441
 20
-218.95374773
 30
0.0
 11
247.41925441
 21
-218.92705538
 31
0.0
  0
LINE
  5
2FC
100
AcDbEntity
  8
LAYER0001
  6
CONTINUOUS
 62
       7
100
AcDbLine
 10
247.41925441
 20
-218.92705538
 30
0.0
 11
247.41925441
 21
-218.89599421
 31
0.0
  0
LINE
  5
2FD
100
AcDbEntity
  8
LAYER0001
  6
CONTINUOUS
 62
       7
100
AcDbLine
 10
247.41925441
 20
-218.89599421
 30
0.0
 11
247.41925441
 21
-218.86082122
 31
0.0
  0
LINE
  5
2FE
100
AcDbEntity
  8
LAYER0001
  6
CONTINUOUS
 62
       7
100
AcDbLine
 10
247.41925441
 20
-218.86082122
 30
0.0
 11
247.41925441
 21
-218.82179339
 31
0.0
  0
LINE
  5
2FF
100
AcDbEntity
  8
LAYER0001
  6
CONTINUOUS
 62
       7
100
AcDbLine
 10
247.41925441
 20
-218.82179339
 30
0.0
 11
247.41925441
 21
-218.77916772
 31
0.0
  0
LINE
  5
300
100
AcDbEntity
  8
LAYER0001
  6
CONTINUOUS
 62
       7
100
AcDbLine
 10
247.41925441
 20
-218.77916772
 30
0.0
 11
247.41925441
 21
-218.73320118
 31
0.0
  0
LINE
  5
301
100
AcDbEntity
  8
LAYER0001
  6
CONTINUOUS
 62
       7
100
AcDbLine
 10
247.41925441
 20
-218.73320118
 30
0.0
 11
247.41925441
 21
-218.68415077
 31
0.0
  0
LINE
  5
302
100
AcDbEntity
  8
LAYER0001
  6
CONTINUOUS
 62
       7
100
AcDbLine
 10
247.41925441
 20
-218.68415077
 30
0.0
 11
247.41925441
 21
-218.63227349
 31
0.0
  0
LINE
  5
303
100
AcDbEntity
  8
LAYER0001
  6
CONTINUOUS
 62
       7
100
AcDbLine
 10
247.41925441
 20
-218.63227349
 30
0.0
 11
247.41925441
 21
-218.57782631
 31
0.0
  0
LINE
  5
304
100
AcDbEntity
  8
LAYER0001
  6
CONTINUOUS
 62
       7
100
AcDbLine
 10
247.41925441
 20
-218.57782631
 30
0.0
 11
247.41925441
 21
-218.52106623
 31
0.0
  0
LINE
  5
305
100
AcDbEntity
  8
LAYER0001
  6
CONTINUOUS
 62
       7
100
AcDbLine
 10
247.41925441
 20
-218.52106623
 30
0.0
 11
247.41925441
 21
-218.46225024
 31
0.0
  0
LINE
  5
306
100
AcDbEntity
  8
LAYER0001
  6
CONTINUOUS
 62
       7
100
AcDbLine
 10
247.41925441
 20
-218.46225024
 30
0.0
 11
247.41925441
 21
-218.40163532
 31
0.0
  0
LINE
  5
307
100
AcDbEntity
  8
LAYER0001
  6
CONTINUOUS
 62
       7
100
AcDbLine
 10
247.41925441
 20
-218.40163532
 30
0.0
 11
247.41925441
 21
-218.33947847
 31
0.0
  0
LINE
  5
308
100
AcDbEntity
  8
LAYER0001
  6
CONTINUOUS
 62
       7
100
AcDbLine
 10
247.41925441
 20
-218.33947847
 30
0.0
 11
247.41925441
 21
-218.27603667
 31
0.0
  0
LINE
  5
309
100
AcDbEntity
  8
LAYER0001
  6
CONTINUOUS
 62
       7
100
AcDbLine
 10
247.41925441
 20
-218.27603667
 30
0.0
 11
247.41925441
 21
-218.21156692
 31
0.0
  0
LINE
  5
30A
100
AcDbEntity
  8
LAYER0001
  6
CONTINUOUS
 62
       7
100
AcDbLine
 10
247.41925441
 20
-218.21156692
 30
0.0
 11
247.41925441
 21
-218.14632619
 31
0.0
  0
LINE
  5
30B
100
AcDbEntity
  8
LAYER0001
  6
CONTINUOUS
 62
       7
100
AcDbLine
 10
247.41925441
 20
-218.14632619
 30
0.0
 11
247.41925441
 21
-218.08057149
 31
0.0
  0
LINE
  5
30C
100
AcDbEntity
  8
LAYER0001
  6
CONTINUOUS
 62
       7
100
AcDbLine
 10
247.41925441
 20
-218.08057149
 30
0.0
 11
247.41925441
 21
-218.01455981
 31
0.0
  0
ENDBLK
  5
30D
100
AcDbEntity
  8
0
100
AcDbBlockEnd
  0
BLOCK
  5
30E
100
AcDbEntity
  8
0
100
AcDbBlockBegin
  2
GROUP_25
 70
       0
 10
0.0
 20
0.0
 30
0.0
  3
GROUP_25
  1

  0
LINE
  5
30F
100
AcDbEntity
  8
LAYER0001
  6
CONTINUOUS
 62
       7
100
AcDbLine
 10
88.06394628
 20
-211.541704
 30
0.0
 11
87.95167712
 21
-211.54366392
 31
0.0
  0
LINE
  5
310
100
AcDbEntity
  8
LAYER0001
  6
CONTINUOUS
 62
       7
100
AcDbLine
 10
87.95167712
 20
-211.54366392
 30
0.0
 11
87.83940279
 21
-211.54685878
 31
0.0
  0
LINE
  5
311
100
AcDbEntity
  8
LAYER0001
  6
CONTINUOUS
 62
       7
100
AcDbLine
 10
87.83940279
 20
-211.54685878
 30
0.0
 11
87.72712109
 21
-211.55237369
 31
0.0
  0
LINE
  5
312
100
AcDbEntity
  8
LAYER0001
  6
CONTINUOUS
 62
       7
100
AcDbLine
 10
87.72712109
 20
-211.55237369
 30
0.0
 11
87.61484597
 21
-211.56047593
 31
0.0
  0
LINE
  5
313
100
AcDbEntity
  8
LAYER0001
  6
CONTINUOUS
 62
       7
100
AcDbLine
 10
87.61484597
 20
-211.56047593
 30
0.0
 11
87.5025969
 21
-211.57115521
 31
0.0
  0
LINE
  5
314
100
AcDbEntity
  8
LAYER0001
  6
CONTINUOUS
 62
       7
100
AcDbLine
 10
87.5025969
 20
-211.57115521
 30
0.0
 11
87.39039333
 21
-211.58440103
 31
0.0
  0
LINE
  5
315
100
AcDbEntity
  8
LAYER0001
  6
CONTINUOUS
 62
       7
100
AcDbLine
 10
87.39039333
 20
-211.58440103
 30
0.0
 11
87.27825472
 21
-211.60020285
 31
0.0
  0
LINE
  5
316
100
AcDbEntity
  8
LAYER0001
  6
CONTINUOUS
 62
       7
100
AcDbLine
 10
87.27825472
 20
-211.60020285
 30
0.0
 11
87.16620053
 21
-211.61855017
 31
0.0
  0
LINE
  5
317
100
AcDbEntity
  8
LAYER0001
  6
CONTINUOUS
 62
       7
100
AcDbLine
 10
87.16620053
 20
-211.61855017
 30
0.0
 11
87.05425021
 21
-211.63943247
 31
0.0
  0
LINE
  5
318
100
AcDbEntity
  8
LAYER0001
  6
CONTINUOUS
 62
       7
100
AcDbLine
 10
87.05425021
 20
-211.63943247
 30
0.0
 11
86.94242323
 21
-211.66283923
 31
0.0
  0
LINE
  5
319
100
AcDbEntity
  8
LAYER0001
  6
CONTINUOUS
 62
       7
100
AcDbLine
 10
86.94242323
 20
-211.66283923
 30
0.0
 11
86.83073905
 21
-211.68875993
 31
0.0
  0
LINE
  5
31A
100
AcDbEntity
  8
LAYER0001
  6
CONTINUOUS
 62
       7
100
AcDbLine
 10
86.83073905
 20
-211.68875993
 30
0.0
 11
86.71921712
 21
-211.71718406
 31
0.0
  0
LINE
  5
31B
100
AcDbEntity
  8
LAYER0001
  6
CONTINUOUS
 62
       7
100
AcDbLine
 10
86.71921712
 20
-211.71718406
 30
0.0
 11
86.6078769
 21
-211.7481011
 31
0.0
  0
LINE
  5
31C
100
AcDbEntity
  8
LAYER0001
  6
CONTINUOUS
 62
       7
100
AcDbLine
 10
86.6078769
 20
-211.7481011
 30
0.0
 11
86.49673785
 21
-211.78150053
 31
0.0
  0
LINE
  5
31D
100
AcDbEntity
  8
LAYER0001
  6
CONTINUOUS
 62
       7
100
AcDbLine
 10
86.49673785
 20
-211.78150053
 30
0.0
 11
86.38581943
 21
-211.81737184
 31
0.0
  0
LINE
  5
31E
100
AcDbEntity
  8
LAYER0001
  6
CONTINUOUS
 62
       7
100
AcDbLine
 10
86.38581943
 20
-211.81737184
 30
0.0
 11
86.27514109
 21
-211.8557045
 31
0.0
  0
LINE
  5
31F
100
AcDbEntity
  8
LAYER0001
  6
CONTINUOUS
 62
       7
100
AcDbLine
 10
86.27514109
 20
-211.8557045
 30
0.0
 11
86.16471445
 21
-211.89645401
 31
0.0
  0
LINE
  5
320
100
AcDbEntity
  8
LAYER0001
  6
CONTINUOUS
 62
       7
100
AcDbLine
 10
86.16471445
 20
-211.89645401
 30
0.0
 11
86.05452613
 21
-211.9394677
 31
0.0
  0
LINE
  5
321
100
AcDbEntity
  8
LAYER0001
  6
CONTINUOUS
 62
       7
100
AcDbLine
 10
86.05452613
 20
-211.9394677
 30
0.0
 11
85.94455781
 21
-211.98457141
 31
0.0
  0
LINE
  5
322
100
AcDbEntity
  8
LAYER0001
  6
CONTINUOUS
 62
       7
100
AcDbLine
 10
85.94455781
 20
-211.98457141
 30
0.0
 11
85.83479115
 21
-212.03159096
 31
0.0
  0
LINE
  5
323
100
AcDbEntity
  8
LAYER0001
  6
CONTINUOUS
 62
       7
100
AcDbLine
 10
85.83479115
 20
-212.03159096
 30
0.0
 11
85.72520782
 21
-212.08035219
 31
0.0
  0
LINE
  5
324
100
AcDbEntity
  8
LAYER0001
  6
CONTINUOUS
 62
       7
100
AcDbLine
 10
85.72520782
 20
-212.08035219
 30
0.0
 11
85.61578949
 21
-212.13068093
 31
0.0
  0
LINE
  5
325
100
AcDbEntity
  8
LAYER0001
  6
CONTINUOUS
 62
       7
100
AcDbLine
 10
85.61578949
 20
-212.13068093
 30
0.0
 11
85.50651781
 21
-212.18240301
 31
0.0
  0
LINE
  5
326
100
AcDbEntity
  8
LAYER0001
  6
CONTINUOUS
 62
       7
100
AcDbLine
 10
85.50651781
 20
-212.18240301
 30
0.0
 11
85.39737447
 21
-212.23534426
 31
0.0
  0
LINE
  5
327
100
AcDbEntity
  8
LAYER0001
  6
CONTINUOUS
 62
       7
100
AcDbLine
 10
85.39737447
 20
-212.23534426
 30
0.0
 11
85.28834113
 21
-212.28933052
 31
0.0
  0
LINE
  5
328
100
AcDbEntity
  8
LAYER0001
  6
CONTINUOUS
 62
       7
100
AcDbLine
 10
85.28834113
 20
-212.28933052
 30
0.0
 11
85.17939944
 21
-212.34418762
 31
0.0
  0
LINE
  5
329
100
AcDbEntity
  8
LAYER0001
  6
CONTINUOUS
 62
       7
100
AcDbLine
 10
85.17939944
 20
-212.34418762
 30
0.0
 11
85.07053109
 21
-212.39974139
 31
0.0
  0
LINE
  5
32A
100
AcDbEntity
  8
LAYER0001
  6
CONTINUOUS
 62
       7
100
AcDbLine
 10
85.07053109
 20
-212.39974139
 30
0.0
 11
84.96171774
 21
-212.45581766
 31
0.0
  0
LINE
  5
32B
100
AcDbEntity
  8
LAYER0001
  6
CONTINUOUS
 62
       7
100
AcDbLine
 10
84.96171774
 20
-212.45581766
 30
0.0
 11
84.85294106
 21
-212.51224227
 31
0.0
  0
LINE
  5
32C
100
AcDbEntity
  8
LAYER0001
  6
CONTINUOUS
 62
       7
100
AcDbLine
 10
84.85294106
 20
-212.51224227
 30
0.0
 11
84.7441827
 21
-212.56884104
 31
0.0
  0
ENDBLK
  5
32D
100
AcDbEntity
  8
0
100
AcDbBlockEnd
  0
BLOCK
  5
32E
100
AcDbEntity
  8
0
100
AcDbBlockBegin
  2
GROUP_26
 70
       0
 10
0.0
 20
0.0
 30
0.0
  3
GROUP_26
  1

  0
LINE
  5
32F
100
AcDbEntity
  8
LAYER0001
  6
CONTINUOUS
 62
       7
100
AcDbLine
 10
91.38371079
 20
-212.56884104
 30
0.0
 11
91.25312516
 21
-212.4993719
 31
0.0
  0
LINE
  5
330
100
AcDbEntity
  8
LAYER0001
  6
CONTINUOUS
 62
       7
100
AcDbLine
 10
91.25312516
 20
-212.4993719
 30
0.0
 11
91.12251106
 21
-212.43026908
 31
0.0
  0
LINE
  5
331
100
AcDbEntity
  8
LAYER0001
  6
CONTINUOUS
 62
       7
100
AcDbLine
 10
91.12251106
 20
-212.43026908
 30
0.0
 11
90.99184006
 21
-212.36189891
 31
0.0
  0
LINE
  5
332
100
AcDbEntity
  8
LAYER0001
  6
CONTINUOUS
 62
       7
100
AcDbLine
 10
90.99184006
 20
-212.36189891
 30
0.0
 11
90.86108368
 21
-212.29462769
 31
0.0
  0
LINE
  5
333
100
AcDbEntity
  8
LAYER0001
  6
CONTINUOUS
 62
       7
100
AcDbLine
 10
90.86108368
 20
-212.29462769
 30
0.0
 11
90.73021347
 21
-212.22882176
 31
0.0
  0
LINE
  5
334
100
AcDbEntity
  8
LAYER0001
  6
CONTINUOUS
 62
       7
100
AcDbLine
 10
90.73021347
 20
-212.22882176
 30
0.0
 11
90.59920098
 21
-212.16484744
 31
0.0
  0
LINE
  5
335
100
AcDbEntity
  8
LAYER0001
  6
CONTINUOUS
 62
       7
100
AcDbLine
 10
90.59920098
 20
-212.16484744
 30
0.0
 11
90.46801774
 21
-212.10307104
 31
0.0
  0
LINE
  5
336
100
AcDbEntity
  8
LAYER0001
  6
CONTINUOUS
 62
       7
100
AcDbLine
 10
90.46801774
 20
-212.10307104
 30
0.0
 11
90.3366353
 21
-212.04385888
 31
0.0
  0
LINE
  5
337
100
AcDbEntity
  8
LAYER0001
  6
CONTINUOUS
 62
       7
100
AcDbLine
 10
90.3366353
 20
-212.04385888
 30
0.0
 11
90.20502521
 21
-211.9875773
 31
0.0
  0
LINE
  5
338
100
AcDbEntity
  8
LAYER0001
  6
CONTINUOUS
 62
       7
100
AcDbLine
 10
90.20502521
 20
-211.9875773
 30
0.0
 11
90.07315901
 21
-211.9345926
 31
0.0
  0
LINE
  5
339
100
AcDbEntity
  8
LAYER0001
  6
CONTINUOUS
 62
       7
100
AcDbLine
 10
90.07315901
 20
-211.9345926
 30
0.0
 11
89.94100823
 21
-211.88527112
 31
0.0
  0
LINE
  5
33A
100
AcDbEntity
  8
LAYER0001
  6
CONTINUOUS
 62
       7
100
AcDbLine
 10
89.94100823
 20
-211.88527112
 30
0.0
 11
89.80854442
 21
-211.83997916
 31
0.0
  0
LINE
  5
33B
100
AcDbEntity
  8
LAYER0001
  6
CONTINUOUS
 62
       7
100
AcDbLine
 10
89.80854442
 20
-211.83997916
 30
0.0
 11
89.6757413
 21
-211.79905511
 31
0.0
  0
LINE
  5
33C
100
AcDbEntity
  8
LAYER0001
  6
CONTINUOUS
 62
       7
100
AcDbLine
 10
89.6757413
 20
-211.79905511
 30
0.0
 11
89.54260339
 21
-211.76244077
 31
0.0
  0
LINE
  5
33D
100
AcDbEntity
  8
LAYER0001
  6
CONTINUOUS
 62
       7
100
AcDbLine
 10
89.54260339
 20
-211.76244077
 30
0.0
 11
89.40915808
 21
-211.72978342
 31
0.0
  0
LINE
  5
33E
100
AcDbEntity
  8
LAYER0001
  6
CONTINUOUS
 62
       7
100
AcDbLine
 10
89.40915808
 20
-211.72978342
 30
0.0
 11
89.27543332
 21
-211.70072331
 31
0.0
  0
LINE
  5
33F
100
AcDbEntity
  8
LAYER0001
  6
CONTINUOUS
 62
       7
100
AcDbLine
 10
89.27543332
 20
-211.70072331
 30
0.0
 11
89.14145707
 21
-211.67490073
 31
0.0
  0
LINE
  5
340
100
AcDbEntity
  8
LAYER0001
  6
CONTINUOUS
 62
       7
100
AcDbLine
 10
89.14145707
 20
-211.67490073
 30
0.0
 11
89.00725725
 21
-211.65195595
 31
0.0
  0
LINE
  5
341
100
AcDbEntity
  8
LAYER0001
  6
CONTINUOUS
 62
       7
100
AcDbLine
 10
89.00725725
 20
-211.65195595
 30
0.0
 11
88.87286182
 21
-211.63152924
 31
0.0
  0
LINE
  5
342
100
AcDbEntity
  8
LAYER0001
  6
CONTINUOUS
 62
       7
100
AcDbLine
 10
88.87286182
 20
-211.63152924
 30
0.0
 11
88.73829873
 21
-211.61326089
 31
0.0
  0
LINE
  5
343
100
AcDbEntity
  8
LAYER0001
  6
CONTINUOUS
 62
       7
100
AcDbLine
 10
88.73829873
 20
-211.61326089
 30
0.0
 11
88.60359591
 21
-211.59679116
 31
0.0
  0
LINE
  5
344
100
AcDbEntity
  8
LAYER0001
  6
CONTINUOUS
 62
       7
100
AcDbLine
 10
88.60359591
 20
-211.59679116
 30
0.0
 11
88.46878131
 21
-211.58176033
 31
0.0
  0
LINE
  5
345
100
AcDbEntity
  8
LAYER0001
  6
CONTINUOUS
 62
       7
100
AcDbLine
 10
88.46878131
 20
-211.58176033
 30
0.0
 11
88.33388287
 21
-211.56780868
 31
0.0
  0
LINE
  5
346
100
AcDbEntity
  8
LAYER0001
  6
CONTINUOUS
 62
       7
100
AcDbLine
 10
88.33388287
 20
-211.56780868
 30
0.0
 11
88.19892855
 21
-211.55457648
 31
0.0
  0
LINE
  5
347
100
AcDbEntity
  8
LAYER0001
  6
CONTINUOUS
 62
       7
100
AcDbLine
 10
88.19892855
 20
-211.55457648
 30
0.0
 11
88.06394628
 21
-211.541704
 31
0.0
  0
ENDBLK
  5
348
100
AcDbEntity
  8
0
100
AcDbBlockEnd
  0
BLOCK
  5
349
100
AcDbEntity
  8
0
100
AcDbBlockBegin
  2
GROUP_27
 70
       0
 10
0.0
 20
0.0
 30
0.0
  3
GROUP_27
  1

  0
LINE
  5
34A
100
AcDbEntity
  8
LAYER0001
  6
CONTINUOUS
 62
       7
100
AcDbLine
 10
88.06394628
 20
-219.04169685
 30
0.0
 11
88.1762158
 21
-219.03973693
 31
0.0
  0
LINE
  5
34B
100
AcDbEntity
  8
LAYER0001
  6
CONTINUOUS
 62
       7
100
AcDbLine
 10
88.1762158
 20
-219.03973693
 30
0.0
 11
88.28849046
 21
-219.03654207
 31
0.0
  0
LINE
  5
34C
100
AcDbEntity
  8
LAYER0001
  6
CONTINUOUS
 62
       7
100
AcDbLine
 10
88.28849046
 20
-219.03654207
 30
0.0
 11
88.40077242
 21
-219.03102717
 31
0.0
  0
LINE
  5
34D
100
AcDbEntity
  8
LAYER0001
  6
CONTINUOUS
 62
       7
100
AcDbLine
 10
88.40077242
 20
-219.03102717
 30
0.0
 11
88.51304773
 21
-219.02292494
 31
0.0
  0
LINE
  5
34E
100
AcDbEntity
  8
LAYER0001
  6
CONTINUOUS
 62
       7
100
AcDbLine
 10
88.51304773
 20
-219.02292494
 30
0.0
 11
88.62529694
 21
-219.01224566
 31
0.0
  0
LINE
  5
34F
100
AcDbEntity
  8
LAYER0001
  6
CONTINUOUS
 62
       7
100
AcDbLine
 10
88.62529694
 20
-219.01224566
 30
0.0
 11
88.7375006
 21
-218.99899985
 31
0.0
  0
LINE
  5
350
100
AcDbEntity
  8
LAYER0001
  6
CONTINUOUS
 62
       7
100
AcDbLine
 10
88.7375006
 20
-218.99899985
 30
0.0
 11
88.84963924
 21
-218.98319803
 31
0.0
  0
LINE
  5
351
100
AcDbEntity
  8
LAYER0001
  6
CONTINUOUS
 62
       7
100
AcDbLine
 10
88.84963924
 20
-218.98319803
 30
0.0
 11
88.96169343
 21
-218.96485072
 31
0.0
  0
LINE
  5
352
100
AcDbEntity
  8
LAYER0001
  6
CONTINUOUS
 62
       7
100
AcDbLine
 10
88.96169343
 20
-218.96485072
 30
0.0
 11
89.07364371
 21
-218.94396843
 31
0.0
  0
LINE
  5
353
100
AcDbEntity
  8
LAYER0001
  6
CONTINUOUS
 62
       7
100
AcDbLine
 10
89.07364371
 20
-218.94396843
 30
0.0
 11
89.18547062
 21
-218.92056168
 31
0.0
  0
LINE
  5
354
100
AcDbEntity
  8
LAYER0001
  6
CONTINUOUS
 62
       7
100
AcDbLine
 10
89.18547062
 20
-218.92056168
 30
0.0
 11
89.29715472
 21
-218.89464098
 31
0.0
  0
LINE
  5
355
100
AcDbEntity
  8
LAYER0001
  6
CONTINUOUS
 62
       7
100
AcDbLine
 10
89.29715472
 20
-218.89464098
 30
0.0
 11
89.40867655
 21
-218.86621685
 31
0.0
  0
LINE
  5
356
100
AcDbEntity
  8
LAYER0001
  6
CONTINUOUS
 62
       7
100
AcDbLine
 10
89.40867655
 20
-218.86621685
 30
0.0
 11
89.52001667
 21
-218.83529982
 31
0.0
  0
LINE
  5
357
100
AcDbEntity
  8
LAYER0001
  6
CONTINUOUS
 62
       7
100
AcDbLine
 10
89.52001667
 20
-218.83529982
 30
0.0
 11
89.63115562
 21
-218.80190039
 31
0.0
  0
LINE
  5
358
100
AcDbEntity
  8
LAYER0001
  6
CONTINUOUS
 62
       7
100
AcDbLine
 10
89.63115562
 20
-218.80190039
 30
0.0
 11
89.74207394
 21
-218.76602908
 31
0.0
  0
LINE
  5
359
100
AcDbEntity
  8
LAYER0001
  6
CONTINUOUS
 62
       7
100
AcDbLine
 10
89.74207394
 20
-218.76602908
 30
0.0
 11
89.8527522
 21
-218.72769642
 31
0.0
  0
LINE
  5
35A
100
AcDbEntity
  8
LAYER0001
  6
CONTINUOUS
 62
       7
100
AcDbLine
 10
89.8527522
 20
-218.72769642
 30
0.0
 11
89.96317877
 21
-218.68694691
 31
0.0
  0
LINE
  5
35B
100
AcDbEntity
  8
LAYER0001
  6
CONTINUOUS
 62
       7
100
AcDbLine
 10
89.96317877
 20
-218.68694691
 30
0.0
 11
90.07336704
 21
-218.64393321
 31
0.0
  0
LINE
  5
35C
100
AcDbEntity
  8
LAYER0001
  6
CONTINUOUS
 62
       7
100
AcDbLine
 10
90.07336704
 20
-218.64393321
 30
0.0
 11
90.18333533
 21
-218.59882951
 31
0.0
  0
LINE
  5
35D
100
AcDbEntity
  8
LAYER0001
  6
CONTINUOUS
 62
       7
100
AcDbLine
 10
90.18333533
 20
-218.59882951
 30
0.0
 11
90.29310197
 21
-218.55180995
 31
0.0
  0
LINE
  5
35E
100
AcDbEntity
  8
LAYER0001
  6
CONTINUOUS
 62
       7
100
AcDbLine
 10
90.29310197
 20
-218.55180995
 30
0.0
 11
90.4026853
 21
-218.50304872
 31
0.0
  0
LINE
  5
35F
100
AcDbEntity
  8
LAYER0001
  6
CONTINUOUS
 62
       7
100
AcDbLine
 10
90.4026853
 20
-218.50304872
 30
0.0
 11
90.51210365
 21
-218.45271998
 31
0.0
  0
LINE
  5
360
100
AcDbEntity
  8
LAYER0001
  6
CONTINUOUS
 62
       7
100
AcDbLine
 10
90.51210365
 20
-218.45271998
 30
0.0
 11
90.62137534
 21
-218.40099789
 31
0.0
  0
LINE
  5
361
100
AcDbEntity
  8
LAYER0001
  6
CONTINUOUS
 62
       7
100
AcDbLine
 10
90.62137534
 20
-218.40099789
 30
0.0
 11
90.73051871
 21
-218.34805663
 31
0.0
  0
LINE
  5
362
100
AcDbEntity
  8
LAYER0001
  6
CONTINUOUS
 62
       7
100
AcDbLine
 10
90.73051871
 20
-218.34805663
 30
0.0
 11
90.8395521
 21
-218.29407037
 31
0.0
  0
LINE
  5
363
100
AcDbEntity
  8
LAYER0001
  6
CONTINUOUS
 62
       7
100
AcDbLine
 10
90.8395521
 20
-218.29407037
 30
0.0
 11
90.94849383
 21
-218.23921326
 31
0.0
  0
LINE
  5
364
100
AcDbEntity
  8
LAYER0001
  6
CONTINUOUS
 62
       7
100
AcDbLine
 10
90.94849383
 20
-218.23921326
 30
0.0
 11
91.05736223
 21
-218.18365948
 31
0.0
  0
LINE
  5
365
100
AcDbEntity
  8
LAYER0001
  6
CONTINUOUS
 62
       7
100
AcDbLine
 10
91.05736223
 20
-218.18365948
 30
0.0
 11
91.16617564
 21
-218.1275832
 31
0.0
  0
LINE
  5
366
100
AcDbEntity
  8
LAYER0001
  6
CONTINUOUS
 62
       7
100
AcDbLine
 10
91.16617564
 20
-218.1275832
 30
0.0
 11
91.27495238
 21
-218.07115859
 31
0.0
  0
LINE
  5
367
100
AcDbEntity
  8
LAYER0001
  6
CONTINUOUS
 62
       7
100
AcDbLine
 10
91.27495238
 20
-218.07115859
 30
0.0
 11
91.38371079
 21
-218.01455981
 31
0.0
  0
ENDBLK
  5
368
100
AcDbEntity
  8
0
100
AcDbBlockEnd
  0
BLOCK
  5
369
100
AcDbEntity
  8
0
100
AcDbBlockBegin
  2
GROUP_28
 70
       0
 10
0.0
 20
0.0
 30
0.0
  3
GROUP_28
  1

  0
LINE
  5
36A
100
AcDbEntity
  8
LAYER0001
  6
CONTINUOUS
 62
       7
100
AcDbLine
 10
84.7441827
 20
-218.01455981
 30
0.0
 11
84.87476809
 21
-218.08403243
 31
0.0
  0
LINE
  5
36B
100
AcDbEntity
  8
LAYER0001
  6
CONTINUOUS
 62
       7
100
AcDbLine
 10
84.87476809
 20
-218.08403243
 30
0.0
 11
85.00538193
 21
-218.15313868
 31
0.0
  0
LINE
  5
36C
100
AcDbEntity
  8
LAYER0001
  6
CONTINUOUS
 62
       7
100
AcDbLine
 10
85.00538193
 20
-218.15313868
 30
0.0
 11
85.13605269
 21
-218.22151221
 31
0.0
  0
LINE
  5
36D
100
AcDbEntity
  8
LAYER0001
  6
CONTINUOUS
 62
       7
100
AcDbLine
 10
85.13605269
 20
-218.22151221
 30
0.0
 11
85.26680883
 21
-218.28878664
 31
0.0
  0
LINE
  5
36E
100
AcDbEntity
  8
LAYER0001
  6
CONTINUOUS
 62
       7
100
AcDbLine
 10
85.26680883
 20
-218.28878664
 30
0.0
 11
85.39767881
 21
-218.3545956
 31
0.0
  0
LINE
  5
36F
100
AcDbEntity
  8
LAYER0001
  6
CONTINUOUS
 62
       7
100
AcDbLine
 10
85.39767881
 20
-218.3545956
 30
0.0
 11
85.52869109
 21
-218.41857274
 31
0.0
  0
LINE
  5
370
100
AcDbEntity
  8
LAYER0001
  6
CONTINUOUS
 62
       7
100
AcDbLine
 10
85.52869109
 20
-218.41857274
 30
0.0
 11
85.65987413
 21
-218.48035168
 31
0.0
  0
LINE
  5
371
100
AcDbEntity
  8
LAYER0001
  6
CONTINUOUS
 62
       7
100
AcDbLine
 10
85.65987413
 20
-218.48035168
 30
0.0
 11
85.79125639
 21
-218.53956607
 31
0.0
  0
LINE
  5
372
100
AcDbEntity
  8
LAYER0001
  6
CONTINUOUS
 62
       7
100
AcDbLine
 10
85.79125639
 20
-218.53956607
 30
0.0
 11
85.92286633
 21
-218.59584953
 31
0.0
  0
LINE
  5
373
100
AcDbEntity
  8
LAYER0001
  6
CONTINUOUS
 62
       7
100
AcDbLine
 10
85.92286633
 20
-218.59584953
 30
0.0
 11
86.05473241
 21
-218.6488357
 31
0.0
  0
LINE
  5
374
100
AcDbEntity
  8
LAYER0001
  6
CONTINUOUS
 62
       7
100
AcDbLine
 10
86.05473241
 20
-218.6488357
 30
0.0
 11
86.18688308
 21
-218.69815822
 31
0.0
  0
LINE
  5
375
100
AcDbEntity
  8
LAYER0001
  6
CONTINUOUS
 62
       7
100
AcDbLine
 10
86.18688308
 20
-218.69815822
 30
0.0
 11
86.31934682
 21
-218.74345071
 31
0.0
  0
LINE
  5
376
100
AcDbEntity
  8
LAYER0001
  6
CONTINUOUS
 62
       7
100
AcDbLine
 10
86.31934682
 20
-218.74345071
 30
0.0
 11
86.4521499
 21
-218.78437477
 31
0.0
  0
LINE
  5
377
100
AcDbEntity
  8
LAYER0001
  6
CONTINUOUS
 62
       7
100
AcDbLine
 10
86.4521499
 20
-218.78437477
 30
0.0
 11
86.58528781
 21
-218.82098857
 31
0.0
  0
LINE
  5
378
100
AcDbEntity
  8
LAYER0001
  6
CONTINUOUS
 62
       7
100
AcDbLine
 10
86.58528781
 20
-218.82098857
 30
0.0
 11
86.71873315
 21
-218.85364491
 31
0.0
  0
LINE
  5
379
100
AcDbEntity
  8
LAYER0001
  6
CONTINUOUS
 62
       7
100
AcDbLine
 10
86.71873315
 20
-218.85364491
 30
0.0
 11
86.85245796
 21
-218.88270354
 31
0.0
  0
LINE
  5
37A
100
AcDbEntity
  8
LAYER0001
  6
CONTINUOUS
 62
       7
100
AcDbLine
 10
86.85245796
 20
-218.88270354
 30
0.0
 11
86.98643429
 21
-218.90852425
 31
0.0
  0
LINE
  5
37B
100
AcDbEntity
  8
LAYER0001
  6
CONTINUOUS
 62
       7
100
AcDbLine
 10
86.98643429
 20
-218.90852425
 30
0.0
 11
87.12063421
 21
-218.9314668
 31
0.0
  0
LINE
  5
37C
100
AcDbEntity
  8
LAYER0001
  6
CONTINUOUS
 62
       7
100
AcDbLine
 10
87.12063421
 20
-218.9314668
 30
0.0
 11
87.25502976
 21
-218.95189096
 31
0.0
  0
LINE
  5
37D
100
AcDbEntity
  8
LAYER0001
  6
CONTINUOUS
 62
       7
100
AcDbLine
 10
87.25502976
 20
-218.95189096
 30
0.0
 11
87.38959299
 21
-218.9701565
 31
0.0
  0
LINE
  5
37E
100
AcDbEntity
  8
LAYER0001
  6
CONTINUOUS
 62
       7
100
AcDbLine
 10
87.38959299
 20
-218.9701565
 30
0.0
 11
87.52429597
 21
-218.98662319
 31
0.0
  0
LINE
  5
37F
100
AcDbEntity
  8
LAYER0001
  6
CONTINUOUS
 62
       7
100
AcDbLine
 10
87.52429597
 20
-218.98662319
 30
0.0
 11
87.65911073
 21
-219.0016508
 31
0.0
  0
LINE
  5
380
100
AcDbEntity
  8
LAYER0001
  6
CONTINUOUS
 62
       7
100
AcDbLine
 10
87.65911073
 20
-219.0016508
 30
0.0
 11
87.79400933
 21
-219.0155991
 31
0.0
  0
LINE
  5
381
100
AcDbEntity
  8
LAYER0001
  6
CONTINUOUS
 62
       7
100
AcDbLine
 10
87.79400933
 20
-219.0155991
 30
0.0
 11
87.92896383
 21
-219.02882786
 31
0.0
  0
LINE
  5
382
100
AcDbEntity
  8
LAYER0001
  6
CONTINUOUS
 62
       7
100
AcDbLine
 10
87.92896383
 20
-219.02882786
 30
0.0
 11
88.06394628
 21
-219.04169685
 31
0.0
  0
ENDBLK
  5
383
100
AcDbEntity
  8
0
100
AcDbBlockEnd
  0
BLOCK
  5
384
100
AcDbEntity
  8
0
100
AcDbBlockBegin
  2
GROUP_29
 70
       0
 10
0.0
 20
0.0
 30
0.0
  3
GROUP_29
  1

  0
LINE
  5
385
100
AcDbEntity
  8
LAYER0001
  6
CONTINUOUS
 62
       7
100
AcDbLine
 10
98.02323888
 20
-211.541704
 30
0.0
 11
97.75344311
 21
-211.5606137
 31
0.0
  0
LINE
  5
386
100
AcDbEntity
  8
LAYER0001
  6
CONTINUOUS
 62
       7
100
AcDbLine
 10
97.75344311
 20
-211.5606137
 30
0.0
 11
97.48369047
 21
-211.57975036
 31
0.0
  0
LINE
  5
387
100
AcDbEntity
  8
LAYER0001
  6
CONTINUOUS
 62
       7
100
AcDbLine
 10
97.48369047
 20
-211.57975036
 30
0.0
 11
97.21402411
 21
-211.59934097
 31
0.0
  0
LINE
  5
388
100
AcDbEntity
  8
LAYER0001
  6
CONTINUOUS
 62
       7
100
AcDbLine
 10
97.21402411
 20
-211.59934097
 30
0.0
 11
96.94448716
 21
-211.61961249
 31
0.0
  0
LINE
  5
389
100
AcDbEntity
  8
LAYER0001
  6
CONTINUOUS
 62
       7
100
AcDbLine
 10
96.94448716
 20
-211.61961249
 30
0.0
 11
96.67512276
 21
-211.64079189
 31
0.0
  0
LINE
  5
38A
100
AcDbEntity
  8
LAYER0001
  6
CONTINUOUS
 62
       7
100
AcDbLine
 10
96.67512276
 20
-211.64079189
 30
0.0
 11
96.40597404
 21
-211.66310614
 31
0.0
  0
LINE
  5
38B
100
AcDbEntity
  8
LAYER0001
  6
CONTINUOUS
 62
       7
100
AcDbLine
 10
96.40597404
 20
-211.66310614
 30
0.0
 11
96.13708415
 21
-211.68678222
 31
0.0
  0
LINE
  5
38C
100
AcDbEntity
  8
LAYER0001
  6
CONTINUOUS
 62
       7
100
AcDbLine
 10
96.13708415
 20
-211.68678222
 30
0.0
 11
95.86849622
 21
-211.71204709
 31
0.0
  0
LINE
  5
38D
100
AcDbEntity
  8
LAYER0001
  6
CONTINUOUS
 62
       7
100
AcDbLine
 10
95.86849622
 20
-211.71204709
 30
0.0
 11
95.60025339
 21
-211.73912773
 31
0.0
  0
LINE
  5
38E
100
AcDbEntity
  8
LAYER0001
  6
CONTINUOUS
 62
       7
100
AcDbLine
 10
95.60025339
 20
-211.73912773
 30
0.0
 11
95.33239879
 21
-211.7682511
 31
0.0
  0
LINE
  5
38F
100
AcDbEntity
  8
LAYER0001
  6
CONTINUOUS
 62
       7
100
AcDbLine
 10
95.33239879
 20
-211.7682511
 30
0.0
 11
95.06497556
 21
-211.79964418
 31
0.0
  0
LINE
  5
390
100
AcDbEntity
  8
LAYER0001
  6
CONTINUOUS
 62
       7
100
AcDbLine
 10
95.06497556
 20
-211.79964418
 30
0.0
 11
94.79802684
 21
-211.83353393
 31
0.0
  0
LINE
  5
391
100
AcDbEntity
  8
LAYER0001
  6
CONTINUOUS
 62
       7
100
AcDbLine
 10
94.79802684
 20
-211.83353393
 30
0.0
 11
94.53159577
 21
-211.87014733
 31
0.0
  0
LINE
  5
392
100
AcDbEntity
  8
LAYER0001
  6
CONTINUOUS
 62
       7
100
AcDbLine
 10
94.53159577
 20
-211.87014733
 30
0.0
 11
94.26572548
 21
-211.90971134
 31
0.0
  0
LINE
  5
393
100
AcDbEntity
  8
LAYER0001
  6
CONTINUOUS
 62
       7
100
AcDbLine
 10
94.26572548
 20
-211.90971134
 30
0.0
 11
94.00045912
 21
-211.95245295
 31
0.0
  0
LINE
  5
394
100
AcDbEntity
  8
LAYER0001
  6
CONTINUOUS
 62
       7
100
AcDbLine
 10
94.00045912
 20
-211.95245295
 30
0.0
 11
93.73583981
 21
-211.99859911
 31
0.0
  0
LINE
  5
395
100
AcDbEntity
  8
LAYER0001
  6
CONTINUOUS
 62
       7
100
AcDbLine
 10
93.73583981
 20
-211.99859911
 30
0.0
 11
93.47191069
 21
-212.0483768
 31
0.0
  0
LINE
  5
396
100
AcDbEntity
  8
LAYER0001
  6
CONTINUOUS
 62
       7
100
AcDbLine
 10
93.47191069
 20
-212.0483768
 30
0.0
 11
93.20871491
 21
-212.10201299
 31
0.0
  0
LINE
  5
397
100
AcDbEntity
  8
LAYER0001
  6
CONTINUOUS
 62
       7
100
AcDbLine
 10
93.20871491
 20
-212.10201299
 30
0.0
 11
92.94629551
 21
-212.15973416
 31
0.0
  0
LINE
  5
398
100
AcDbEntity
  8
LAYER0001
  6
CONTINUOUS
 62
       7
100
AcDbLine
 10
92.94629551
 20
-212.15973416
 30
0.0
 11
92.68465182
 21
-212.22153686
 31
0.0
  0
LINE
  5
399
100
AcDbEntity
  8
LAYER0001
  6
CONTINUOUS
 62
       7
100
AcDbLine
 10
92.68465182
 20
-212.22153686
 30
0.0
 11
92.42366972
 21
-212.28682052
 31
0.0
  0
LINE
  5
39A
100
AcDbEntity
  8
LAYER0001
  6
CONTINUOUS
 62
       7
100
AcDbLine
 10
92.42366972
 20
-212.28682052
 30
0.0
 11
92.16321688
 21
-212.35488897
 31
0.0
  0
LINE
  5
39B
100
AcDbEntity
  8
LAYER0001
  6
CONTINUOUS
 62
       7
100
AcDbLine
 10
92.16321688
 20
-212.35488897
 30
0.0
 11
91.90316099
 21
-212.425046
 31
0.0
  0
LINE
  5
39C
100
AcDbEntity
  8
LAYER0001
  6
CONTINUOUS
 62
       7
100
AcDbLine
 10
91.90316099
 20
-212.425046
 30
0.0
 11
91.64336973
 21
-212.49659542
 31
0.0
  0
LINE
  5
39D
100
AcDbEntity
  8
LAYER0001
  6
CONTINUOUS
 62
       7
100
AcDbLine
 10
91.64336973
 20
-212.49659542
 30
0.0
 11
91.38371079
 21
-212.56884104
 31
0.0
  0
ENDBLK
  5
39E
100
AcDbEntity
  8
0
100
AcDbBlockEnd
  0
BLOCK
  5
39F
100
AcDbEntity
  8
0
100
AcDbBlockBegin
  2
GROUP_30
 70
       0
 10
0.0
 20
0.0
 30
0.0
  3
GROUP_30
  1

  0
LINE
  5
3A0
100
AcDbEntity
  8
LAYER0001
  6
CONTINUOUS
 62
       7
100
AcDbLine
 10
91.38371079
 20
-218.01455981
 30
0.0
 11
91.64336973
 21
-218.08680542
 31
0.0
  0
LINE
  5
3A1
100
AcDbEntity
  8
LAYER0001
  6
CONTINUOUS
 62
       7
100
AcDbLine
 10
91.64336973
 20
-218.08680542
 30
0.0
 11
91.90316099
 21
-218.15835484
 31
0.0
  0
LINE
  5
3A2
100
AcDbEntity
  8
LAYER0001
  6
CONTINUOUS
 62
       7
100
AcDbLine
 10
91.90316099
 20
-218.15835484
 30
0.0
 11
92.16321688
 21
-218.22851187
 31
0.0
  0
LINE
  5
3A3
100
AcDbEntity
  8
LAYER0001
  6
CONTINUOUS
 62
       7
100
AcDbLine
 10
92.16321688
 20
-218.22851187
 30
0.0
 11
92.42366972
 21
-218.29658032
 31
0.0
  0
LINE
  5
3A4
100
AcDbEntity
  8
LAYER0001
  6
CONTINUOUS
 62
       7
100
AcDbLine
 10
92.42366972
 20
-218.29658032
 30
0.0
 11
92.68465182
 21
-218.36186399
 31
0.0
  0
LINE
  5
3A5
100
AcDbEntity
  8
LAYER0001
  6
CONTINUOUS
 62
       7
100
AcDbLine
 10
92.68465182
 20
-218.36186399
 30
0.0
 11
92.94629551
 21
-218.42366668
 31
0.0
  0
LINE
  5
3A6
100
AcDbEntity
  8
LAYER0001
  6
CONTINUOUS
 62
       7
100
AcDbLine
 10
92.94629551
 20
-218.42366668
 30
0.0
 11
93.20871491
 21
-218.48138786
 31
0.0
  0
LINE
  5
3A7
100
AcDbEntity
  8
LAYER0001
  6
CONTINUOUS
 62
       7
100
AcDbLine
 10
93.20871491
 20
-218.48138786
 30
0.0
 11
93.47191069
 21
-218.53502405
 31
0.0
  0
LINE
  5
3A8
100
AcDbEntity
  8
LAYER0001
  6
CONTINUOUS
 62
       7
100
AcDbLine
 10
93.47191069
 20
-218.53502405
 30
0.0
 11
93.73583981
 21
-218.58480174
 31
0.0
  0
LINE
  5
3A9
100
AcDbEntity
  8
LAYER0001
  6
CONTINUOUS
 62
       7
100
AcDbLine
 10
93.73583981
 20
-218.58480174
 30
0.0
 11
94.00045912
 21
-218.6309479
 31
0.0
  0
LINE
  5
3AA
100
AcDbEntity
  8
LAYER0001
  6
CONTINUOUS
 62
       7
100
AcDbLine
 10
94.00045912
 20
-218.6309479
 30
0.0
 11
94.26572548
 21
-218.6736895
 31
0.0
  0
LINE
  5
3AB
100
AcDbEntity
  8
LAYER0001
  6
CONTINUOUS
 62
       7
100
AcDbLine
 10
94.26572548
 20
-218.6736895
 30
0.0
 11
94.53159577
 21
-218.71325352
 31
0.0
  0
LINE
  5
3AC
100
AcDbEntity
  8
LAYER0001
  6
CONTINUOUS
 62
       7
100
AcDbLine
 10
94.53159577
 20
-218.71325352
 30
0.0
 11
94.79802684
 21
-218.74986692
 31
0.0
  0
LINE
  5
3AD
100
AcDbEntity
  8
LAYER0001
  6
CONTINUOUS
 62
       7
100
AcDbLine
 10
94.79802684
 20
-218.74986692
 30
0.0
 11
95.06497556
 21
-218.78375667
 31
0.0
  0
LINE
  5
3AE
100
AcDbEntity
  8
LAYER0001
  6
CONTINUOUS
 62
       7
100
AcDbLine
 10
95.06497556
 20
-218.78375667
 30
0.0
 11
95.33239879
 21
-218.81514975
 31
0.0
  0
LINE
  5
3AF
100
AcDbEntity
  8
LAYER0001
  6
CONTINUOUS
 62
       7
100
AcDbLine
 10
95.33239879
 20
-218.81514975
 30
0.0
 11
95.60025339
 21
-218.84427312
 31
0.0
  0
LINE
  5
3B0
100
AcDbEntity
  8
LAYER0001
  6
CONTINUOUS
 62
       7
100
AcDbLine
 10
95.60025339
 20
-218.84427312
 30
0.0
 11
95.86849622
 21
-218.87135375
 31
0.0
  0
LINE
  5
3B1
100
AcDbEntity
  8
LAYER0001
  6
CONTINUOUS
 62
       7
100
AcDbLine
 10
95.86849622
 20
-218.87135375
 30
0.0
 11
96.13708415
 21
-218.89661862
 31
0.0
  0
LINE
  5
3B2
100
AcDbEntity
  8
LAYER0001
  6
CONTINUOUS
 62
       7
100
AcDbLine
 10
96.13708415
 20
-218.89661862
 30
0.0
 11
96.40597404
 21
-218.9202947
 31
0.0
  0
LINE
  5
3B3
100
AcDbEntity
  8
LAYER0001
  6
CONTINUOUS
 62
       7
100
AcDbLine
 10
96.40597404
 20
-218.9202947
 30
0.0
 11
96.67512276
 21
-218.94260896
 31
0.0
  0
LINE
  5
3B4
100
AcDbEntity
  8
LAYER0001
  6
CONTINUOUS
 62
       7
100
AcDbLine
 10
96.67512276
 20
-218.94260896
 30
0.0
 11
96.94448716
 21
-218.96378836
 31
0.0
  0
LINE
  5
3B5
100
AcDbEntity
  8
LAYER0001
  6
CONTINUOUS
 62
       7
100
AcDbLine
 10
96.94448716
 20
-218.96378836
 30
0.0
 11
97.21402411
 21
-218.98405988
 31
0.0
  0
LINE
  5
3B6
100
AcDbEntity
  8
LAYER0001
  6
CONTINUOUS
 62
       7
100
AcDbLine
 10
97.21402411
 20
-218.98405988
 30
0.0
 11
97.48369047
 21
-219.00365048
 31
0.0
  0
LINE
  5
3B7
100
AcDbEntity
  8
LAYER0001
  6
CONTINUOUS
 62
       7
100
AcDbLine
 10
97.48369047
 20
-219.00365048
 30
0.0
 11
97.75344311
 21
-219.02278715
 31
0.0
  0
LINE
  5
3B8
100
AcDbEntity
  8
LAYER0001
  6
CONTINUOUS
 62
       7
100
AcDbLine
 10
97.75344311
 20
-219.02278715
 30
0.0
 11
98.02323888
 21
-219.04169685
 31
0.0
  0
ENDBLK
  5
3B9
100
AcDbEntity
  8
0
100
AcDbBlockEnd
  0
BLOCK
  5
3BA
100
AcDbEntity
  8
0
100
AcDbBlockBegin
  2
GROUP_31
 70
       0
 10
0.0
 20
0.0
 30
0.0
  3
GROUP_31
  1

  0
LINE
  5
3BB
100
AcDbEntity
  8
LAYER0001
  6
CONTINUOUS
 62
       7
100
AcDbLine
 10
104.66276697
 20
-212.56884104
 30
0.0
 11
104.4001338
 21
-212.50282935
 31
0.0
  0
LINE
  5
3BC
100
AcDbEntity
  8
LAYER0001
  6
CONTINUOUS
 62
       7
100
AcDbLine
 10
104.4001338
 20
-212.50282935
 30
0.0
 11
104.13747023
 21
-212.43707465
 31
0.0
  0
LINE
  5
3BD
100
AcDbEntity
  8
LAYER0001
  6
CONTINUOUS
 62
       7
100
AcDbLine
 10
104.13747023
 20
-212.43707465
 30
0.0
 11
103.87474588
 21
-212.37183393
 31
0.0
  0
LINE
  5
3BE
100
AcDbEntity
  8
LAYER0001
  6
CONTINUOUS
 62
       7
100
AcDbLine
 10
103.87474588
 20
-212.37183393
 30
0.0
 11
103.61193035
 21
-212.30736418
 31
0.0
  0
LINE
  5
3BF
100
AcDbEntity
  8
LAYER0001
  6
CONTINUOUS
 62
       7
100
AcDbLine
 10
103.61193035
 20
-212.30736418
 30
0.0
 11
103.34899325
 21
-212.24392238
 31
0.0
  0
LINE
  5
3C0
100
AcDbEntity
  8
LAYER0001
  6
CONTINUOUS
 62
       7
100
AcDbLine
 10
103.34899325
 20
-212.24392238
 30
0.0
 11
103.08590418
 21
-212.18176553
 31
0.0
  0
LINE
  5
3C1
100
AcDbEntity
  8
LAYER0001
  6
CONTINUOUS
 62
       7
100
AcDbLine
 10
103.08590418
 20
-212.18176553
 30
0.0
 11
102.82263275
 21
-212.12115061
 31
0.0
  0
LINE
  5
3C2
100
AcDbEntity
  8
LAYER0001
  6
CONTINUOUS
 62
       7
100
AcDbLine
 10
102.82263275
 20
-212.12115061
 30
0.0
 11
102.55914856
 21
-212.06233462
 31
0.0
  0
LINE
  5
3C3
100
AcDbEntity
  8
LAYER0001
  6
CONTINUOUS
 62
       7
100
AcDbLine
 10
102.55914856
 20
-212.06233462
 30
0.0
 11
102.29542123
 21
-212.00557454
 31
0.0
  0
LINE
  5
3C4
100
AcDbEntity
  8
LAYER0001
  6
CONTINUOUS
 62
       7
100
AcDbLine
 10
102.29542123
 20
-212.00557454
 30
0.0
 11
102.03142036
 21
-211.95112736
 31
0.0
  0
LINE
  5
3C5
100
AcDbEntity
  8
LAYER0001
  6
CONTINUOUS
 62
       7
100
AcDbLine
 10
102.03142036
 20
-211.95112736
 30
0.0
 11
101.76711555
 21
-211.89925007
 31
0.0
  0
LINE
  5
3C6
100
AcDbEntity
  8
LAYER0001
  6
CONTINUOUS
 62
       7
100
AcDbLine
 10
101.76711555
 20
-211.89925007
 30
0.0
 11
101.50247642
 21
-211.85019967
 31
0.0
  0
LINE
  5
3C7
100
AcDbEntity
  8
LAYER0001
  6
CONTINUOUS
 62
       7
100
AcDbLine
 10
101.50247642
 20
-211.85019967
 30
0.0
 11
101.23747256
 21
-211.80423313
 31
0.0
  0
LINE
  5
3C8
100
AcDbEntity
  8
LAYER0001
  6
CONTINUOUS
 62
       7
100
AcDbLine
 10
101.23747256
 20
-211.80423313
 30
0.0
 11
100.97207359
 21
-211.76160745
 31
0.0
  0
LINE
  5
3C9
100
AcDbEntity
  8
LAYER0001
  6
CONTINUOUS
 62
       7
100
AcDbLine
 10
100.97207359
 20
-211.76160745
 30
0.0
 11
100.70624912
 21
-211.72257962
 31
0.0
  0
LINE
  5
3CA
100
AcDbEntity
  8
LAYER0001
  6
CONTINUOUS
 62
       7
100
AcDbLine
 10
100.70624912
 20
-211.72257962
 30
0.0
 11
100.43996874
 21
-211.68740663
 31
0.0
  0
LINE
  5
3CB
100
AcDbEntity
  8
LAYER0001
  6
CONTINUOUS
 62
       7
100
AcDbLine
 10
100.43996874
 20
-211.68740663
 30
0.0
 11
100.17320207
 21
-211.65634547
 31
0.0
  0
LINE
  5
3CC
100
AcDbEntity
  8
LAYER0001
  6
CONTINUOUS
 62
       7
100
AcDbLine
 10
100.17320207
 20
-211.65634547
 30
0.0
 11
99.90591871
 21
-211.62965311
 31
0.0
  0
LINE
  5
3CD
100
AcDbEntity
  8
LAYER0001
  6
CONTINUOUS
 62
       7
100
AcDbLine
 10
99.90591871
 20
-211.62965311
 30
0.0
 11
99.63809048
 21
-211.60756786
 31
0.0
  0
LINE
  5
3CE
100
AcDbEntity
  8
LAYER0001
  6
CONTINUOUS
 62
       7
100
AcDbLine
 10
99.63809048
 20
-211.60756786
 30
0.0
 11
99.36974417
 21
-211.58986323
 31
0.0
  0
LINE
  5
3CF
100
AcDbEntity
  8
LAYER0001
  6
CONTINUOUS
 62
       7
100
AcDbLine
 10
99.36974417
 20
-211.58986323
 30
0.0
 11
99.10096388
 21
-211.57582805
 31
0.0
  0
LINE
  5
3D0
100
AcDbEntity
  8
LAYER0001
  6
CONTINUOUS
 62
       7
100
AcDbLine
 10
99.10096388
 20
-211.57582805
 30
0.0
 11
98.83183641
 21
-211.56472843
 31
0.0
  0
LINE
  5
3D1
100
AcDbEntity
  8
LAYER0001
  6
CONTINUOUS
 62
       7
100
AcDbLine
 10
98.83183641
 20
-211.56472843
 30
0.0
 11
98.56244856
 21
-211.55583047
 31
0.0
  0
LINE
  5
3D2
100
AcDbEntity
  8
LAYER0001
  6
CONTINUOUS
 62
       7
100
AcDbLine
 10
98.56244856
 20
-211.55583047
 30
0.0
 11
98.29288712
 21
-211.54840029
 31
0.0
  0
LINE
  5
3D3
100
AcDbEntity
  8
LAYER0001
  6
CONTINUOUS
 62
       7
100
AcDbLine
 10
98.29288712
 20
-211.54840029
 30
0.0
 11
98.02323888
 21
-211.541704
 31
0.0
  0
ENDBLK
  5
3D4
100
AcDbEntity
  8
0
100
AcDbBlockEnd
  0
BLOCK
  5
3D5
100
AcDbEntity
  8
0
100
AcDbBlockBegin
  2
GROUP_32
 70
       0
 10
0.0
 20
0.0
 30
0.0
  3
GROUP_32
  1

  0
LINE
  5
3D6
100
AcDbEntity
  8
LAYER0001
  6
CONTINUOUS
 62
       7
100
AcDbLine
 10
98.02323888
 20
-219.04169685
 30
0.0
 11
98.29288712
 21
-219.03500056
 31
0.0
  0
LINE
  5
3D7
100
AcDbEntity
  8
LAYER0001
  6
CONTINUOUS
 62
       7
100
AcDbLine
 10
98.29288712
 20
-219.03500056
 30
0.0
 11
98.56244856
 21
-219.02757038
 31
0.0
  0
LINE
  5
3D8
100
AcDbEntity
  8
LAYER0001
  6
CONTINUOUS
 62
       7
100
AcDbLine
 10
98.56244856
 20
-219.02757038
 30
0.0
 11
98.83183641
 21
-219.01867242
 31
0.0
  0
LINE
  5
3D9
100
AcDbEntity
  8
LAYER0001
  6
CONTINUOUS
 62
       7
100
AcDbLine
 10
98.83183641
 20
-219.01867242
 30
0.0
 11
99.10096388
 21
-219.0075728
 31
0.0
  0
LINE
  5
3DA
100
AcDbEntity
  8
LAYER0001
  6
CONTINUOUS
 62
       7
100
AcDbLine
 10
99.10096388
 20
-219.0075728
 30
0.0
 11
99.36974417
 21
-218.99353761
 31
0.0
  0
LINE
  5
3DB
100
AcDbEntity
  8
LAYER0001
  6
CONTINUOUS
 62
       7
100
AcDbLine
 10
99.36974417
 20
-218.99353761
 30
0.0
 11
99.63809048
 21
-218.97583299
 31
0.0
  0
LINE
  5
3DC
100
AcDbEntity
  8
LAYER0001
  6
CONTINUOUS
 62
       7
100
AcDbLine
 10
99.63809048
 20
-218.97583299
 30
0.0
 11
99.90591871
 21
-218.95374773
 31
0.0
  0
LINE
  5
3DD
100
AcDbEntity
  8
LAYER0001
  6
CONTINUOUS
 62
       7
100
AcDbLine
 10
99.90591871
 20
-218.95374773
 30
0.0
 11
100.17320207
 21
-218.92705538
 31
0.0
  0
LINE
  5
3DE
100
AcDbEntity
  8
LAYER0001
  6
CONTINUOUS
 62
       7
100
AcDbLine
 10
100.17320207
 20
-218.92705538
 30
0.0
 11
100.43996874
 21
-218.89599421
 31
0.0
  0
LINE
  5
3DF
100
AcDbEntity
  8
LAYER0001
  6
CONTINUOUS
 62
       7
100
AcDbLine
 10
100.43996874
 20
-218.89599421
 30
0.0
 11
100.70624912
 21
-218.86082122
 31
0.0
  0
LINE
  5
3E0
100
AcDbEntity
  8
LAYER0001
  6
CONTINUOUS
 62
       7
100
AcDbLine
 10
100.70624912
 20
-218.86082122
 30
0.0
 11
100.97207359
 21
-218.82179339
 31
0.0
  0
LINE
  5
3E1
100
AcDbEntity
  8
LAYER0001
  6
CONTINUOUS
 62
       7
100
AcDbLine
 10
100.97207359
 20
-218.82179339
 30
0.0
 11
101.23747256
 21
-218.77916772
 31
0.0
  0
LINE
  5
3E2
100
AcDbEntity
  8
LAYER0001
  6
CONTINUOUS
 62
       7
100
AcDbLine
 10
101.23747256
 20
-218.77916772
 30
0.0
 11
101.50247642
 21
-218.73320118
 31
0.0
  0
LINE
  5
3E3
100
AcDbEntity
  8
LAYER0001
  6
CONTINUOUS
 62
       7
100
AcDbLine
 10
101.50247642
 20
-218.73320118
 30
0.0
 11
101.76711555
 21
-218.68415077
 31
0.0
  0
LINE
  5
3E4
100
AcDbEntity
  8
LAYER0001
  6
CONTINUOUS
 62
       7
100
AcDbLine
 10
101.76711555
 20
-218.68415077
 30
0.0
 11
102.03142036
 21
-218.63227349
 31
0.0
  0
LINE
  5
3E5
100
AcDbEntity
  8
LAYER0001
  6
CONTINUOUS
 62
       7
100
AcDbLine
 10
102.03142036
 20
-218.63227349
 30
0.0
 11
102.29542123
 21
-218.57782631
 31
0.0
  0
LINE
  5
3E6
100
AcDbEntity
  8
LAYER0001
  6
CONTINUOUS
 62
       7
100
AcDbLine
 10
102.29542123
 20
-218.57782631
 30
0.0
 11
102.55914856
 21
-218.52106623
 31
0.0
  0
LINE
  5
3E7
100
AcDbEntity
  8
LAYER0001
  6
CONTINUOUS
 62
       7
100
AcDbLine
 10
102.55914856
 20
-218.52106623
 30
0.0
 11
102.82263275
 21
-218.46225024
 31
0.0
  0
LINE
  5
3E8
100
AcDbEntity
  8
LAYER0001
  6
CONTINUOUS
 62
       7
100
AcDbLine
 10
102.82263275
 20
-218.46225024
 30
0.0
 11
103.08590418
 21
-218.40163532
 31
0.0
  0
LINE
  5
3E9
100
AcDbEntity
  8
LAYER0001
  6
CONTINUOUS
 62
       7
100
AcDbLine
 10
103.08590418
 20
-218.40163532
 30
0.0
 11
103.34899325
 21
-218.33947847
 31
0.0
  0
LINE
  5
3EA
100
AcDbEntity
  8
LAYER0001
  6
CONTINUOUS
 62
       7
100
AcDbLine
 10
103.34899325
 20
-218.33947847
 30
0.0
 11
103.61193035
 21
-218.27603667
 31
0.0
  0
LINE
  5
3EB
100
AcDbEntity
  8
LAYER0001
  6
CONTINUOUS
 62
       7
100
AcDbLine
 10
103.61193035
 20
-218.27603667
 30
0.0
 11
103.87474588
 21
-218.21156692
 31
0.0
  0
LINE
  5
3EC
100
AcDbEntity
  8
LAYER0001
  6
CONTINUOUS
 62
       7
100
AcDbLine
 10
103.87474588
 20
-218.21156692
 30
0.0
 11
104.13747023
 21
-218.14632619
 31
0.0
  0
LINE
  5
3ED
100
AcDbEntity
  8
LAYER0001
  6
CONTINUOUS
 62
       7
100
AcDbLine
 10
104.13747023
 20
-218.14632619
 30
0.0
 11
104.4001338
 21
-218.08057149
 31
0.0
  0
LINE
  5
3EE
100
AcDbEntity
  8
LAYER0001
  6
CONTINUOUS
 62
       7
100
AcDbLine
 10
104.4001338
 20
-218.08057149
 30
0.0
 11
104.66276697
 21
-218.01455981
 31
0.0
  0
ENDBLK
  5
3EF
100
AcDbEntity
  8
0
100
AcDbBlockEnd
  0
BLOCK
  5
3F0
100
AcDbEntity
  8
0
100
AcDbBlockBegin
  2
GROUP_33
 70
       0
 10
0.0
 20
0.0
 30
0.0
  3
GROUP_33
  1

  0
LINE
  5
3F1
100
AcDbEntity
  8
LAYER0001
  6
CONTINUOUS
 62
       7
100
AcDbLine
 10
107.98253148
 20
-211.541704
 30
0.0
 11
107.87026196
 21
-211.54366392
 31
0.0
  0
LINE
  5
3F2
100
AcDbEntity
  8
LAYER0001
  6
CONTINUOUS
 62
       7
100
AcDbLine
 10
107.87026196
 20
-211.54366392
 30
0.0
 11
107.7579873
 21
-211.54685878
 31
0.0
  0
LINE
  5
3F3
100
AcDbEntity
  8
LAYER0001
  6
CONTINUOUS
 62
       7
100
AcDbLine
 10
107.7579873
 20
-211.54685878
 30
0.0
 11
107.64570534
 21
-211.55237367
 31
0.0
  0
LINE
  5
3F4
100
AcDbEntity
  8
LAYER0001
  6
CONTINUOUS
 62
       7
100
AcDbLine
 10
107.64570534
 20
-211.55237367
 30
0.0
 11
107.53343003
 21
-211.56047591
 31
0.0
  0
LINE
  5
3F5
100
AcDbEntity
  8
LAYER0001
  6
CONTINUOUS
 62
       7
100
AcDbLine
 10
107.53343003
 20
-211.56047591
 30
0.0
 11
107.42118082
 21
-211.57115519
 31
0.0
  0
LINE
  5
3F6
100
AcDbEntity
  8
LAYER0001
  6
CONTINUOUS
 62
       7
100
AcDbLine
 10
107.42118082
 20
-211.57115519
 30
0.0
 11
107.30897717
 21
-211.58440099
 31
0.0
  0
LINE
  5
3F7
100
AcDbEntity
  8
LAYER0001
  6
CONTINUOUS
 62
       7
100
AcDbLine
 10
107.30897717
 20
-211.58440099
 30
0.0
 11
107.19683852
 21
-211.60020281
 31
0.0
  0
LINE
  5
3F8
100
AcDbEntity
  8
LAYER0001
  6
CONTINUOUS
 62
       7
100
AcDbLine
 10
107.19683852
 20
-211.60020281
 30
0.0
 11
107.08478433
 21
-211.61855013
 31
0.0
  0
LINE
  5
3F9
100
AcDbEntity
  8
LAYER0001
  6
CONTINUOUS
 62
       7
100
AcDbLine
 10
107.08478433
 20
-211.61855013
 30
0.0
 11
106.97283406
 21
-211.63943242
 31
0.0
  0
LINE
  5
3FA
100
AcDbEntity
  8
LAYER0001
  6
CONTINUOUS
 62
       7
100
AcDbLine
 10
106.97283406
 20
-211.63943242
 30
0.0
 11
106.86100714
 21
-211.66283917
 31
0.0
  0
LINE
  5
3FB
100
AcDbEntity
  8
LAYER0001
  6
CONTINUOUS
 62
       7
100
AcDbLine
 10
106.86100714
 20
-211.66283917
 30
0.0
 11
106.74932304
 21
-211.68875987
 31
0.0
  0
LINE
  5
3FC
100
AcDbEntity
  8
LAYER0001
  6
CONTINUOUS
 62
       7
100
AcDbLine
 10
106.74932304
 20
-211.68875987
 30
0.0
 11
106.63780121
 21
-211.71718399
 31
0.0
  0
LINE
  5
3FD
100
AcDbEntity
  8
LAYER0001
  6
CONTINUOUS
 62
       7
100
AcDbLine
 10
106.63780121
 20
-211.71718399
 30
0.0
 11
106.52646109
 21
-211.74810103
 31
0.0
  0
LINE
  5
3FE
100
AcDbEntity
  8
LAYER0001
  6
CONTINUOUS
 62
       7
100
AcDbLine
 10
106.52646109
 20
-211.74810103
 30
0.0
 11
106.41532214
 21
-211.78150046
 31
0.0
  0
LINE
  5
3FF
100
AcDbEntity
  8
LAYER0001
  6
CONTINUOUS
 62
       7
100
AcDbLine
 10
106.41532214
 20
-211.78150046
 30
0.0
 11
106.30440382
 21
-211.81737177
 31
0.0
  0
LINE
  5
400
100
AcDbEntity
  8
LAYER0001
  6
CONTINUOUS
 62
       7
100
AcDbLine
 10
106.30440382
 20
-211.81737177
 30
0.0
 11
106.19372556
 21
-211.85570442
 31
0.0
  0
LINE
  5
401
100
AcDbEntity
  8
LAYER0001
  6
CONTINUOUS
 62
       7
100
AcDbLine
 10
106.19372556
 20
-211.85570442
 30
0.0
 11
106.08329899
 21
-211.89645394
 31
0.0
  0
LINE
  5
402
100
AcDbEntity
  8
LAYER0001
  6
CONTINUOUS
 62
       7
100
AcDbLine
 10
106.08329899
 20
-211.89645394
 30
0.0
 11
105.97311072
 21
-211.93946763
 31
0.0
  0
LINE
  5
403
100
AcDbEntity
  8
LAYER0001
  6
CONTINUOUS
 62
       7
100
AcDbLine
 10
105.97311072
 20
-211.93946763
 30
0.0
 11
105.86314243
 21
-211.98457134
 31
0.0
  0
LINE
  5
404
100
AcDbEntity
  8
LAYER0001
  6
CONTINUOUS
 62
       7
100
AcDbLine
 10
105.86314243
 20
-211.98457134
 30
0.0
 11
105.75337579
 21
-212.03159089
 31
0.0
  0
LINE
  5
405
100
AcDbEntity
  8
LAYER0001
  6
CONTINUOUS
 62
       7
100
AcDbLine
 10
105.75337579
 20
-212.03159089
 30
0.0
 11
105.64379246
 21
-212.08035213
 31
0.0
  0
LINE
  5
406
100
AcDbEntity
  8
LAYER0001
  6
CONTINUOUS
 62
       7
100
AcDbLine
 10
105.64379246
 20
-212.08035213
 30
0.0
 11
105.53437411
 21
-212.13068087
 31
0.0
  0
LINE
  5
407
100
AcDbEntity
  8
LAYER0001
  6
CONTINUOUS
 62
       7
100
AcDbLine
 10
105.53437411
 20
-212.13068087
 30
0.0
 11
105.42510242
 21
-212.18240295
 31
0.0
  0
LINE
  5
408
100
AcDbEntity
  8
LAYER0001
  6
CONTINUOUS
 62
       7
100
AcDbLine
 10
105.42510242
 20
-212.18240295
 30
0.0
 11
105.31595905
 21
-212.23534421
 31
0.0
  0
LINE
  5
409
100
AcDbEntity
  8
LAYER0001
  6
CONTINUOUS
 62
       7
100
AcDbLine
 10
105.31595905
 20
-212.23534421
 30
0.0
 11
105.20692566
 21
-212.28933048
 31
0.0
  0
LINE
  5
40A
100
AcDbEntity
  8
LAYER0001
  6
CONTINUOUS
 62
       7
100
AcDbLine
 10
105.20692566
 20
-212.28933048
 30
0.0
 11
105.09798393
 21
-212.34418758
 31
0.0
  0
LINE
  5
40B
100
AcDbEntity
  8
LAYER0001
  6
CONTINUOUS
 62
       7
100
AcDbLine
 10
105.09798393
 20
-212.34418758
 30
0.0
 11
104.98911553
 21
-212.39974136
 31
0.0
  0
LINE
  5
40C
100
AcDbEntity
  8
LAYER0001
  6
CONTINUOUS
 62
       7
100
AcDbLine
 10
104.98911553
 20
-212.39974136
 30
0.0
 11
104.88030213
 21
-212.45581764
 31
0.0
  0
LINE
  5
40D
100
AcDbEntity
  8
LAYER0001
  6
CONTINUOUS
 62
       7
100
AcDbLine
 10
104.88030213
 20
-212.45581764
 30
0.0
 11
104.77152538
 21
-212.51224226
 31
0.0
  0
LINE
  5
40E
100
AcDbEntity
  8
LAYER0001
  6
CONTINUOUS
 62
       7
100
AcDbLine
 10
104.77152538
 20
-212.51224226
 30
0.0
 11
104.66276697
 21
-212.56884104
 31
0.0
  0
ENDBLK
  5
40F
100
AcDbEntity
  8
0
100
AcDbBlockEnd
  0
BLOCK
  5
410
100
AcDbEntity
  8
0
100
AcDbBlockBegin
  2
GROUP_34
 70
       0
 10
0.0
 20
0.0
 30
0.0
  3
GROUP_34
  1

  0
LINE
  5
411
100
AcDbEntity
  8
LAYER0001
  6
CONTINUOUS
 62
       7
100
AcDbLine
 10
104.66276697
 20
-218.01455981
 30
0.0
 11
104.79335233
 21
-218.08403243
 31
0.0
  0
LINE
  5
412
100
AcDbEntity
  8
LAYER0001
  6
CONTINUOUS
 62
       7
100
AcDbLine
 10
104.79335233
 20
-218.08403243
 30
0.0
 11
104.92396616
 21
-218.15313868
 31
0.0
  0
LINE
  5
413
100
AcDbEntity
  8
LAYER0001
  6
CONTINUOUS
 62
       7
100
AcDbLine
 10
104.92396616
 20
-218.15313868
 30
0.0
 11
105.05463691
 21
-218.22151221
 31
0.0
  0
LINE
  5
414
100
AcDbEntity
  8
LAYER0001
  6
CONTINUOUS
 62
       7
100
AcDbLine
 10
105.05463691
 20
-218.22151221
 30
0.0
 11
105.18539304
 21
-218.28878664
 31
0.0
  0
LINE
  5
415
100
AcDbEntity
  8
LAYER0001
  6
CONTINUOUS
 62
       7
100
AcDbLine
 10
105.18539304
 20
-218.28878664
 30
0.0
 11
105.31626301
 21
-218.3545956
 31
0.0
  0
LINE
  5
416
100
AcDbEntity
  8
LAYER0001
  6
CONTINUOUS
 62
       7
100
AcDbLine
 10
105.31626301
 20
-218.3545956
 30
0.0
 11
105.44727528
 21
-218.41857274
 31
0.0
  0
LINE
  5
417
100
AcDbEntity
  8
LAYER0001
  6
CONTINUOUS
 62
       7
100
AcDbLine
 10
105.44727528
 20
-218.41857274
 30
0.0
 11
105.57845832
 21
-218.48035169
 31
0.0
  0
LINE
  5
418
100
AcDbEntity
  8
LAYER0001
  6
CONTINUOUS
 62
       7
100
AcDbLine
 10
105.57845832
 20
-218.48035169
 30
0.0
 11
105.70984058
 21
-218.53956607
 31
0.0
  0
LINE
  5
419
100
AcDbEntity
  8
LAYER0001
  6
CONTINUOUS
 62
       7
100
AcDbLine
 10
105.70984058
 20
-218.53956607
 30
0.0
 11
105.84145053
 21
-218.59584953
 31
0.0
  0
LINE
  5
41A
100
AcDbEntity
  8
LAYER0001
  6
CONTINUOUS
 62
       7
100
AcDbLine
 10
105.84145053
 20
-218.59584953
 30
0.0
 11
105.97331662
 21
-218.64883571
 31
0.0
  0
LINE
  5
41B
100
AcDbEntity
  8
LAYER0001
  6
CONTINUOUS
 62
       7
100
AcDbLine
 10
105.97331662
 20
-218.64883571
 30
0.0
 11
106.10546732
 21
-218.69815822
 31
0.0
  0
LINE
  5
41C
100
AcDbEntity
  8
LAYER0001
  6
CONTINUOUS
 62
       7
100
AcDbLine
 10
106.10546732
 20
-218.69815822
 30
0.0
 11
106.23793109
 21
-218.74345071
 31
0.0
  0
LINE
  5
41D
100
AcDbEntity
  8
LAYER0001
  6
CONTINUOUS
 62
       7
100
AcDbLine
 10
106.23793109
 20
-218.74345071
 30
0.0
 11
106.37073421
 21
-218.78437477
 31
0.0
  0
LINE
  5
41E
100
AcDbEntity
  8
LAYER0001
  6
CONTINUOUS
 62
       7
100
AcDbLine
 10
106.37073421
 20
-218.78437477
 30
0.0
 11
106.50387216
 21
-218.82098858
 31
0.0
  0
LINE
  5
41F
100
AcDbEntity
  8
LAYER0001
  6
CONTINUOUS
 62
       7
100
AcDbLine
 10
106.50387216
 20
-218.82098858
 30
0.0
 11
106.63731755
 21
-218.85364491
 31
0.0
  0
LINE
  5
420
100
AcDbEntity
  8
LAYER0001
  6
CONTINUOUS
 62
       7
100
AcDbLine
 10
106.63731755
 20
-218.85364491
 30
0.0
 11
106.77104242
 21
-218.88270355
 31
0.0
  0
LINE
  5
421
100
AcDbEntity
  8
LAYER0001
  6
CONTINUOUS
 62
       7
100
AcDbLine
 10
106.77104242
 20
-218.88270355
 30
0.0
 11
106.90501882
 21
-218.90852425
 31
0.0
  0
LINE
  5
422
100
AcDbEntity
  8
LAYER0001
  6
CONTINUOUS
 62
       7
100
AcDbLine
 10
106.90501882
 20
-218.90852425
 30
0.0
 11
107.03921881
 21
-218.9314668
 31
0.0
  0
LINE
  5
423
100
AcDbEntity
  8
LAYER0001
  6
CONTINUOUS
 62
       7
100
AcDbLine
 10
107.03921881
 20
-218.9314668
 30
0.0
 11
107.17361444
 21
-218.95189096
 31
0.0
  0
LINE
  5
424
100
AcDbEntity
  8
LAYER0001
  6
CONTINUOUS
 62
       7
100
AcDbLine
 10
107.17361444
 20
-218.95189096
 30
0.0
 11
107.30817775
 21
-218.9701565
 31
0.0
  0
LINE
  5
425
100
AcDbEntity
  8
LAYER0001
  6
CONTINUOUS
 62
       7
100
AcDbLine
 10
107.30817775
 20
-218.9701565
 30
0.0
 11
107.44288081
 21
-218.98662319
 31
0.0
  0
LINE
  5
426
100
AcDbEntity
  8
LAYER0001
  6
CONTINUOUS
 62
       7
100
AcDbLine
 10
107.44288081
 20
-218.98662319
 30
0.0
 11
107.57769566
 21
-219.0016508
 31
0.0
  0
LINE
  5
427
100
AcDbEntity
  8
LAYER0001
  6
CONTINUOUS
 62
       7
100
AcDbLine
 10
107.57769566
 20
-219.0016508
 30
0.0
 11
107.71259435
 21
-219.0155991
 31
0.0
  0
LINE
  5
428
100
AcDbEntity
  8
LAYER0001
  6
CONTINUOUS
 62
       7
100
AcDbLine
 10
107.71259435
 20
-219.0155991
 30
0.0
 11
107.84754894
 21
-219.02882786
 31
0.0
  0
LINE
  5
429
100
AcDbEntity
  8
LAYER0001
  6
CONTINUOUS
 62
       7
100
AcDbLine
 10
107.84754894
 20
-219.02882786
 30
0.0
 11
107.98253148
 21
-219.04169685
 31
0.0
  0
ENDBLK
  5
42A
100
AcDbEntity
  8
0
100
AcDbBlockEnd
  0
BLOCK
  5
42B
100
AcDbEntity
  8
0
100
AcDbBlockBegin
  2
GROUP_35
 70
       0
 10
0.0
 20
0.0
 30
0.0
  3
GROUP_35
  1

  0
LINE
  5
42C
100
AcDbEntity
  8
LAYER0001
  6
CONTINUOUS
 62
       7
100
AcDbLine
 10
111.30229506
 20
-212.56884104
 30
0.0
 11
111.1717094
 21
-212.4993719
 31
0.0
  0
LINE
  5
42D
100
AcDbEntity
  8
LAYER0001
  6
CONTINUOUS
 62
       7
100
AcDbLine
 10
111.1717094
 20
-212.4993719
 30
0.0
 11
111.0410953
 21
-212.43026908
 31
0.0
  0
LINE
  5
42E
100
AcDbEntity
  8
LAYER0001
  6
CONTINUOUS
 62
       7
100
AcDbLine
 10
111.0410953
 20
-212.43026908
 30
0.0
 11
110.91042427
 21
-212.36189891
 31
0.0
  0
LINE
  5
42F
100
AcDbEntity
  8
LAYER0001
  6
CONTINUOUS
 62
       7
100
AcDbLine
 10
110.91042427
 20
-212.36189891
 30
0.0
 11
110.77966788
 21
-212.29462769
 31
0.0
  0
LINE
  5
430
100
AcDbEntity
  8
LAYER0001
  6
CONTINUOUS
 62
       7
100
AcDbLine
 10
110.77966788
 20
-212.29462769
 30
0.0
 11
110.64879767
 21
-212.22882176
 31
0.0
  0
LINE
  5
431
100
AcDbEntity
  8
LAYER0001
  6
CONTINUOUS
 62
       7
100
AcDbLine
 10
110.64879767
 20
-212.22882176
 30
0.0
 11
110.51778517
 21
-212.16484744
 31
0.0
  0
LINE
  5
432
100
AcDbEntity
  8
LAYER0001
  6
CONTINUOUS
 62
       7
100
AcDbLine
 10
110.51778517
 20
-212.16484744
 30
0.0
 11
110.38660193
 21
-212.10307104
 31
0.0
  0
LINE
  5
433
100
AcDbEntity
  8
LAYER0001
  6
CONTINUOUS
 62
       7
100
AcDbLine
 10
110.38660193
 20
-212.10307104
 30
0.0
 11
110.2552195
 21
-212.04385889
 31
0.0
  0
LINE
  5
434
100
AcDbEntity
  8
LAYER0001
  6
CONTINUOUS
 62
       7
100
AcDbLine
 10
110.2552195
 20
-212.04385889
 30
0.0
 11
110.12360941
 21
-211.9875773
 31
0.0
  0
LINE
  5
435
100
AcDbEntity
  8
LAYER0001
  6
CONTINUOUS
 62
       7
100
AcDbLine
 10
110.12360941
 20
-211.9875773
 30
0.0
 11
109.99174322
 21
-211.93459261
 31
0.0
  0
LINE
  5
436
100
AcDbEntity
  8
LAYER0001
  6
CONTINUOUS
 62
       7
100
AcDbLine
 10
109.99174322
 20
-211.93459261
 30
0.0
 11
109.85959246
 21
-211.88527112
 31
0.0
  0
LINE
  5
437
100
AcDbEntity
  8
LAYER0001
  6
CONTINUOUS
 62
       7
100
AcDbLine
 10
109.85959246
 20
-211.88527112
 30
0.0
 11
109.72712869
 21
-211.83997917
 31
0.0
  0
LINE
  5
438
100
AcDbEntity
  8
LAYER0001
  6
CONTINUOUS
 62
       7
100
AcDbLine
 10
109.72712869
 20
-211.83997917
 30
0.0
 11
109.5943256
 21
-211.79905511
 31
0.0
  0
LINE
  5
439
100
AcDbEntity
  8
LAYER0001
  6
CONTINUOUS
 62
       7
100
AcDbLine
 10
109.5943256
 20
-211.79905511
 30
0.0
 11
109.46118774
 21
-211.76244078
 31
0.0
  0
LINE
  5
43A
100
AcDbEntity
  8
LAYER0001
  6
CONTINUOUS
 62
       7
100
AcDbLine
 10
109.46118774
 20
-211.76244078
 30
0.0
 11
109.32774248
 21
-211.72978342
 31
0.0
  0
LINE
  5
43B
100
AcDbEntity
  8
LAYER0001
  6
CONTINUOUS
 62
       7
100
AcDbLine
 10
109.32774248
 20
-211.72978342
 30
0.0
 11
109.19401779
 21
-211.70072331
 31
0.0
  0
LINE
  5
43C
100
AcDbEntity
  8
LAYER0001
  6
CONTINUOUS
 62
       7
100
AcDbLine
 10
109.19401779
 20
-211.70072331
 30
0.0
 11
109.0600416
 21
-211.67490073
 31
0.0
  0
LINE
  5
43D
100
AcDbEntity
  8
LAYER0001
  6
CONTINUOUS
 62
       7
100
AcDbLine
 10
109.0600416
 20
-211.67490073
 30
0.0
 11
108.92584185
 21
-211.65195595
 31
0.0
  0
LINE
  5
43E
100
AcDbEntity
  8
LAYER0001
  6
CONTINUOUS
 62
       7
100
AcDbLine
 10
108.92584185
 20
-211.65195595
 30
0.0
 11
108.7914465
 21
-211.63152924
 31
0.0
  0
LINE
  5
43F
100
AcDbEntity
  8
LAYER0001
  6
CONTINUOUS
 62
       7
100
AcDbLine
 10
108.7914465
 20
-211.63152924
 30
0.0
 11
108.65688348
 21
-211.61326089
 31
0.0
  0
LINE
  5
440
100
AcDbEntity
  8
LAYER0001
  6
CONTINUOUS
 62
       7
100
AcDbLine
 10
108.65688348
 20
-211.61326089
 30
0.0
 11
108.52218075
 21
-211.59679116
 31
0.0
  0
LINE
  5
441
100
AcDbEntity
  8
LAYER0001
  6
CONTINUOUS
 62
       7
100
AcDbLine
 10
108.52218075
 20
-211.59679116
 30
0.0
 11
108.38736623
 21
-211.58176033
 31
0.0
  0
LINE
  5
442
100
AcDbEntity
  8
LAYER0001
  6
CONTINUOUS
 62
       7
100
AcDbLine
 10
108.38736623
 20
-211.58176033
 30
0.0
 11
108.25246789
 21
-211.56780868
 31
0.0
  0
LINE
  5
443
100
AcDbEntity
  8
LAYER0001
  6
CONTINUOUS
 62
       7
100
AcDbLine
 10
108.25246789
 20
-211.56780868
 30
0.0
 11
108.11751366
 21
-211.55457648
 31
0.0
  0
LINE
  5
444
100
AcDbEntity
  8
LAYER0001
  6
CONTINUOUS
 62
       7
100
AcDbLine
 10
108.11751366
 20
-211.55457648
 30
0.0
 11
107.98253148
 21
-211.541704
 31
0.0
  0
ENDBLK
  5
445
100
AcDbEntity
  8
0
100
AcDbBlockEnd
  0
BLOCK
  5
446
100
AcDbEntity
  8
0
100
AcDbBlockBegin
  2
GROUP_36
 70
       0
 10
0.0
 20
0.0
 30
0.0
  3
GROUP_36
  1

  0
LINE
  5
447
100
AcDbEntity
  8
LAYER0001
  6
CONTINUOUS
 62
       7
100
AcDbLine
 10
107.98253148
 20
-219.04169685
 30
0.0
 11
108.09480064
 21
-219.03973693
 31
0.0
  0
LINE
  5
448
100
AcDbEntity
  8
LAYER0001
  6
CONTINUOUS
 62
       7
100
AcDbLine
 10
108.09480064
 20
-219.03973693
 30
0.0
 11
108.20707497
 21
-219.03654206
 31
0.0
  0
LINE
  5
449
100
AcDbEntity
  8
LAYER0001
  6
CONTINUOUS
 62
       7
100
AcDbLine
 10
108.20707497
 20
-219.03654206
 30
0.0
 11
108.31935667
 21
-219.03102716
 31
0.0
  0
LINE
  5
44A
100
AcDbEntity
  8
LAYER0001
  6
CONTINUOUS
 62
       7
100
AcDbLine
 10
108.31935667
 20
-219.03102716
 30
0.0
 11
108.43163179
 21
-219.02292492
 31
0.0
  0
LINE
  5
44B
100
AcDbEntity
  8
LAYER0001
  6
CONTINUOUS
 62
       7
100
AcDbLine
 10
108.43163179
 20
-219.02292492
 30
0.0
 11
108.54388086
 21
-219.01224563
 31
0.0
  0
LINE
  5
44C
100
AcDbEntity
  8
LAYER0001
  6
CONTINUOUS
 62
       7
100
AcDbLine
 10
108.54388086
 20
-219.01224563
 30
0.0
 11
108.65608443
 21
-218.99899982
 31
0.0
  0
LINE
  5
44D
100
AcDbEntity
  8
LAYER0001
  6
CONTINUOUS
 62
       7
100
AcDbLine
 10
108.65608443
 20
-218.99899982
 30
0.0
 11
108.76822304
 21
-218.983198
 31
0.0
  0
LINE
  5
44E
100
AcDbEntity
  8
LAYER0001
  6
CONTINUOUS
 62
       7
100
AcDbLine
 10
108.76822304
 20
-218.983198
 30
0.0
 11
108.88027723
 21
-218.96485068
 31
0.0
  0
LINE
  5
44F
100
AcDbEntity
  8
LAYER0001
  6
CONTINUOUS
 62
       7
100
AcDbLine
 10
108.88027723
 20
-218.96485068
 30
0.0
 11
108.99222755
 21
-218.94396838
 31
0.0
  0
LINE
  5
450
100
AcDbEntity
  8
LAYER0001
  6
CONTINUOUS
 62
       7
100
AcDbLine
 10
108.99222755
 20
-218.94396838
 30
0.0
 11
109.10405453
 21
-218.92056162
 31
0.0
  0
LINE
  5
451
100
AcDbEntity
  8
LAYER0001
  6
CONTINUOUS
 62
       7
100
AcDbLine
 10
109.10405453
 20
-218.92056162
 30
0.0
 11
109.21573871
 21
-218.89464092
 31
0.0
  0
LINE
  5
452
100
AcDbEntity
  8
LAYER0001
  6
CONTINUOUS
 62
       7
100
AcDbLine
 10
109.21573871
 20
-218.89464092
 30
0.0
 11
109.32726064
 21
-218.86621679
 31
0.0
  0
LINE
  5
453
100
AcDbEntity
  8
LAYER0001
  6
CONTINUOUS
 62
       7
100
AcDbLine
 10
109.32726064
 20
-218.86621679
 30
0.0
 11
109.43860086
 21
-218.83529975
 31
0.0
  0
LINE
  5
454
100
AcDbEntity
  8
LAYER0001
  6
CONTINUOUS
 62
       7
100
AcDbLine
 10
109.43860086
 20
-218.83529975
 30
0.0
 11
109.54973991
 21
-218.80190032
 31
0.0
  0
LINE
  5
455
100
AcDbEntity
  8
LAYER0001
  6
CONTINUOUS
 62
       7
100
AcDbLine
 10
109.54973991
 20
-218.80190032
 30
0.0
 11
109.66065833
 21
-218.76602901
 31
0.0
  0
LINE
  5
456
100
AcDbEntity
  8
LAYER0001
  6
CONTINUOUS
 62
       7
100
AcDbLine
 10
109.66065833
 20
-218.76602901
 30
0.0
 11
109.77133667
 21
-218.72769635
 31
0.0
  0
LINE
  5
457
100
AcDbEntity
  8
LAYER0001
  6
CONTINUOUS
 62
       7
100
AcDbLine
 10
109.77133667
 20
-218.72769635
 30
0.0
 11
109.88176331
 21
-218.68694684
 31
0.0
  0
LINE
  5
458
100
AcDbEntity
  8
LAYER0001
  6
CONTINUOUS
 62
       7
100
AcDbLine
 10
109.88176331
 20
-218.68694684
 30
0.0
 11
109.99195163
 21
-218.64393314
 31
0.0
  0
LINE
  5
459
100
AcDbEntity
  8
LAYER0001
  6
CONTINUOUS
 62
       7
100
AcDbLine
 10
109.99195163
 20
-218.64393314
 30
0.0
 11
110.10191995
 21
-218.59882944
 31
0.0
  0
LINE
  5
45A
100
AcDbEntity
  8
LAYER0001
  6
CONTINUOUS
 62
       7
100
AcDbLine
 10
110.10191995
 20
-218.59882944
 30
0.0
 11
110.21168661
 21
-218.55180989
 31
0.0
  0
LINE
  5
45B
100
AcDbEntity
  8
LAYER0001
  6
CONTINUOUS
 62
       7
100
AcDbLine
 10
110.21168661
 20
-218.55180989
 30
0.0
 11
110.32126994
 21
-218.50304866
 31
0.0
  0
LINE
  5
45C
100
AcDbEntity
  8
LAYER0001
  6
CONTINUOUS
 62
       7
100
AcDbLine
 10
110.32126994
 20
-218.50304866
 30
0.0
 11
110.43068827
 21
-218.45271992
 31
0.0
  0
LINE
  5
45D
100
AcDbEntity
  8
LAYER0001
  6
CONTINUOUS
 62
       7
100
AcDbLine
 10
110.43068827
 20
-218.45271992
 30
0.0
 11
110.53995995
 21
-218.40099784
 31
0.0
  0
LINE
  5
45E
100
AcDbEntity
  8
LAYER0001
  6
CONTINUOUS
 62
       7
100
AcDbLine
 10
110.53995995
 20
-218.40099784
 30
0.0
 11
110.64910329
 21
-218.34805659
 31
0.0
  0
LINE
  5
45F
100
AcDbEntity
  8
LAYER0001
  6
CONTINUOUS
 62
       7
100
AcDbLine
 10
110.64910329
 20
-218.34805659
 30
0.0
 11
110.75813664
 21
-218.29407033
 31
0.0
  0
LINE
  5
460
100
AcDbEntity
  8
LAYER0001
  6
CONTINUOUS
 62
       7
100
AcDbLine
 10
110.75813664
 20
-218.29407033
 30
0.0
 11
110.86707832
 21
-218.23921323
 31
0.0
  0
LINE
  5
461
100
AcDbEntity
  8
LAYER0001
  6
CONTINUOUS
 62
       7
100
AcDbLine
 10
110.86707832
 20
-218.23921323
 30
0.0
 11
110.97594667
 21
-218.18365946
 31
0.0
  0
LINE
  5
462
100
AcDbEntity
  8
LAYER0001
  6
CONTINUOUS
 62
       7
100
AcDbLine
 10
110.97594667
 20
-218.18365946
 30
0.0
 11
111.08476002
 21
-218.12758319
 31
0.0
  0
LINE
  5
463
100
AcDbEntity
  8
LAYER0001
  6
CONTINUOUS
 62
       7
100
AcDbLine
 10
111.08476002
 20
-218.12758319
 30
0.0
 11
111.1935367
 21
-218.07115858
 31
0.0
  0
LINE
  5
464
100
AcDbEntity
  8
LAYER0001
  6
CONTINUOUS
 62
       7
100
AcDbLine
 10
111.1935367
 20
-218.07115858
 30
0.0
 11
111.30229506
 21
-218.01455981
 31
0.0
  0
ENDBLK
  5
465
100
AcDbEntity
  8
0
100
AcDbBlockEnd
  0
ENDSEC
  0
SECTION
  2
ENTITIES
  0
LINE
  5
466
100
AcDbEntity
  8
LAYER0001
  6
CENTER
 62
       7
100
AcDbLine
 10
-173.42064115
 20
270.39543349
 30
0.0
 11
-173.42064115
 21
-229.90727454
 31
0.0
  0
LINE
  5
467
100
AcDbEntity
  8
LAYER0001
  6
CENTER
 62
       7
100
AcDbLine
 10
98.02323888
 20
277.64170533
 30
0.0
 11
98.02323888
 21
-277.64170152
 31
0.0
  0
LINE
  5
468
100
AcDbEntity
  8
LAYER0001
  6
CENTER
 62
       7
100
AcDbLine
 10
-315.54365599
 20
270.39543349
 30
0.0
 11
-315.54365599
 21
-229.90727454
 31
0.0
  0
LINE
  5
469
100
AcDbEntity
  8
LAYER0001
  6
CENTER
 62
       7
100
AcDbLine
 10
258.91925443
 20
276.56258054
 30
0.0
 11
258.91925443
 21
-261.64351584
 31
0.0
  0
LINE
  5
46A
100
AcDbEntity
  8
LAYER0001
  6
CONTINUOUS
 62
       7
100
AcDbLine
 10
-306.89365578
 20
-171.8879717
 30
0.0
 11
-306.89365578
 21
47.6120261
 31
0.0
  0
LINE
  5
46B
100
AcDbEntity
  8
LAYER0001
  6
CONTINUOUS
 62
       7
100
AcDbLine
 10
-324.19365619
 20
47.6120261
 30
0.0
 11
-324.19365619
 21
-171.8879717
 31
0.0
  0
LINE
  5
46C
100
AcDbEntity
  8
LAYER0001
  6
CONTINUOUS
 62
       7
100
AcDbLine
 10
-268.54889163
 20
-224.58801442
 30
0.0
 11
-268.66059446
 21
-218.18850213
 31
0.0
  0
LINE
  5
46D
100
AcDbEntity
  8
LAYER0001
  6
CONTINUOUS
 62
       7
100
AcDbLine
 10
-362.42671751
 20
-218.18850213
 30
0.0
 11
-362.53842034
 21
-224.58801442
 31
0.0
  0
LINE
  5
46E
100
AcDbEntity
  8
LAYER0001
  6
CONTINUOUS
 62
       7
100
AcDbLine
 10
-362.53842034
 20
-224.58801442
 30
0.0
 11
-362.24875667
 21
-224.8879748
 31
0.0
  0
LINE
  5
46F
100
AcDbEntity
  8
LAYER0001
  6
CONTINUOUS
 62
       7
100
AcDbLine
 10
-268.8385553
 20
-224.8879748
 30
0.0
 11
-268.54889163
 21
-224.58801442
 31
0.0
  0
LINE
  5
470
100
AcDbEntity
  8
LAYER0001
  6
CONTINUOUS
 62
       7
100
AcDbLine
 10
-270.48597884
 20
-216.23102197
 30
0.0
 11
-291.19460286
 21
-214.41925278
 31
0.0
  0
LINE
  5
471
100
AcDbEntity
  8
LAYER0001
  6
CONTINUOUS
 62
       7
100
AcDbLine
 10
-339.89270912
 20
-214.41925278
 30
0.0
 11
-360.60133313
 21
-216.23102197
 31
0.0
  0
LINE
  5
472
100
AcDbEntity
  8
LAYER0001
  6
CONTINUOUS
 62
       7
100
AcDbLine
 10
-300.30934115
 20
-204.98067909
 30
0.0
 11
-301.96069621
 21
-173.47093695
 31
0.0
  0
LINE
  5
473
100
AcDbEntity
  8
LAYER0001
  6
CONTINUOUS
 62
       7
100
AcDbLine
 10
-329.12661576
 20
-173.47093695
 30
0.0
 11
-330.77797082
 21
-204.98067909
 31
0.0
  0
LINE
  5
474
100
AcDbEntity
  8
LAYER0001
  6
CONTINUOUS
 62
       7
100
AcDbLine
 10
-301.96069621
 20
-173.47093695
 30
0.0
 11
-303.54365588
 21
-171.8879717
 31
0.0
  0
LINE
  5
475
100
AcDbEntity
  8
LAYER0001
  6
CONTINUOUS
 62
       7
100
AcDbLine
 10
-327.54365609
 20
-171.8879717
 30
0.0
 11
-329.12661576
 21
-173.47093695
 31
0.0
  0
LINE
  5
476
100
AcDbEntity
  8
LAYER0001
  6
CONTINUOUS
 62
       7
100
AcDbLine
 10
-193.4206407
 20
73.61202663
 30
0.0
 11
-193.4206407
 21
71.21676989
 31
0.0
  0
LINE
  5
477
100
AcDbEntity
  8
LAYER0001
  6
CONTINUOUS
 62
       7
100
AcDbLine
 10
-193.42064085
 20
253.61201335
 30
0.0
 11
-193.4206445
 21
222.91203192
 31
0.0
  0
LINE
  5
478
100
AcDbEntity
  8
LAYER0001
  6
CONTINUOUS
 62
       7
100
AcDbLine
 10
-335.54365554
 20
71.21676989
 30
0.0
 11
-333.93891244
 21
69.61202663
 31
0.0
  0
LINE
  5
479
100
AcDbEntity
  8
LAYER0001
  6
CONTINUOUS
 62
       7
100
AcDbLine
 10
-297.14839953
 20
69.61202663
 30
0.0
 11
-295.54365643
 21
71.21676989
 31
0.0
  0
LINE
  5
47A
100
AcDbEntity
  8
LAYER0001
  6
CONTINUOUS
 62
       7
100
AcDbLine
 10
-328.21080676
 20
66.71672512
 30
0.0
 11
-327.56050744
 21
48.09457599
 31
0.0
  0
LINE
  5
47B
100
AcDbEntity
  8
LAYER0001
  6
CONTINUOUS
 62
       7
100
AcDbLine
 10
-303.52680499
 20
48.09457599
 30
0.0
 11
-302.87650567
 21
66.71672512
 31
0.0
  0
LINE
  5
47C
100
AcDbEntity
  8
LAYER0001
  6
CONTINUOUS
 62
       7
100
AcDbLine
 10
-335.54365479
 20
221.6120235
 30
0.0
 11
-295.54365718
 21
221.6120235
 31
0.0
  0
LINE
  5
47D
100
AcDbEntity
  8
LAYER0001
  6
CONTINUOUS
 62
       7
100
AcDbLine
 10
-295.54365643
 20
190.91202668
 30
0.0
 11
-295.54365718
 21
221.6120235
 31
0.0
  0
LINE
  5
47E
100
AcDbEntity
  8
LAYER0001
  6
CONTINUOUS
 62
       7
100
AcDbLine
 10
-335.54365569
 20
253.61201335
 30
0.0
 11
-335.54365934
 21
222.91203192
 31
0.0
  0
LINE
  5
47F
100
AcDbEntity
  8
LAYER0001
  6
CONTINUOUS
 62
       7
100
AcDbLine
 10
-315.54365599
 20
265.19707194
 30
0.0
 11
-323.57112498
 21
265.19707454
 31
0.0
  0
LINE
  5
480
100
AcDbEntity
  8
LAYER0001
  6
CONTINUOUS
 62
       7
100
AcDbLine
 10
-335.54365455
 20
263.19565534
 30
0.0
 11
-335.54365554
 21
254.91202227
 31
0.0
  0
LINE
  5
481
100
AcDbEntity
  8
LAYER0001
  6
CONTINUOUS
 62
       7
100
AcDbLine
 10
-335.54365554
 20
158.91203633
 30
0.0
 11
-295.54365643
 21
158.91203633
 31
0.0
  0
LINE
  5
482
100
AcDbEntity
  8
LAYER0001
  6
CONTINUOUS
 62
       7
100
AcDbLine
 10
-335.54365569
 20
253.61201335
 30
0.0
 11
-295.54365807
 21
253.61200714
 31
0.0
  0
LINE
  5
483
100
AcDbEntity
  8
LAYER0001
  6
CONTINUOUS
 62
       7
100
AcDbLine
 10
-295.54365643
 20
158.91203633
 30
0.0
 11
-295.54365718
 21
189.61203316
 31
0.0
  0
LINE
  5
484
100
AcDbEntity
  8
LAYER0001
  6
CONTINUOUS
 62
       7
100
AcDbLine
 10
-335.54365479
 20
157.61202791
 30
0.0
 11
-295.54365718
 21
157.61202791
 31
0.0
  0
LINE
  5
485
100
AcDbEntity
  8
LAYER0001
  6
CONTINUOUS
 62
       7
100
AcDbLine
 10
-315.54365599
 20
254.91202227
 30
0.0
 11
-335.54365554
 21
254.91202227
 31
0.0
  0
LINE
  5
486
100
AcDbEntity
  8
LAYER0001
  6
CONTINUOUS
 62
       7
100
AcDbLine
 10
-335.54365479
 20
221.6120235
 30
0.0
 11
-335.54365554
 21
190.91202668
 31
0.0
  0
LINE
  5
487
100
AcDbEntity
  8
LAYER0001
  6
CONTINUOUS
 62
       7
100
AcDbLine
 10
-335.54365554
 20
94.91202584
 30
0.0
 11
-295.54365643
 21
94.91202584
 31
0.0
  0
LINE
  5
488
100
AcDbEntity
  8
LAYER0001
  6
CONTINUOUS
 62
       7
100
AcDbLine
 10
-307.51618699
 20
265.19707454
 30
0.0
 11
-315.54365599
 21
265.19707194
 31
0.0
  0
LINE
  5
489
100
AcDbEntity
  8
LAYER0001
  6
CONTINUOUS
 62
       7
100
AcDbLine
 10
-295.54365643
 20
126.91203109
 30
0.0
 11
-295.54365718
 21
157.61202791
 31
0.0
  0
LINE
  5
48A
100
AcDbEntity
  8
LAYER0001
  6
CONTINUOUS
 62
       7
100
AcDbLine
 10
-335.54365479
 20
189.61203316
 30
0.0
 11
-295.54365718
 21
189.61203316
 31
0.0
  0
LINE
  5
48B
100
AcDbEntity
  8
LAYER0001
  6
CONTINUOUS
 62
       7
100
AcDbLine
 10
-295.54365643
 20
94.91202584
 30
0.0
 11
-295.54365718
 21
125.61202267
 31
0.0
  0
LINE
  5
48C
100
AcDbEntity
  8
LAYER0001
  6
CONTINUOUS
 62
       7
100
AcDbLine
 10
-335.54365479
 20
189.61203316
 30
0.0
 11
-335.54365554
 21
158.91203633
 31
0.0
  0
LINE
  5
48D
100
AcDbEntity
  8
LAYER0001
  6
CONTINUOUS
 62
       7
100
AcDbLine
 10
-335.54365554
 20
190.91202668
 30
0.0
 11
-295.54365643
 21
190.91202668
 31
0.0
  0
LINE
  5
48E
100
AcDbEntity
  8
LAYER0001
  6
CONTINUOUS
 62
       7
100
AcDbLine
 10
-295.54365798
 20
254.91202227
 30
0.0
 11
-315.54365599
 21
254.91202227
 31
0.0
  0
LINE
  5
48F
100
AcDbEntity
  8
LAYER0001
  6
CONTINUOUS
 62
       7
100
AcDbLine
 10
-295.54365643
 20
93.61202619
 30
0.0
 11
-335.54365554
 21
93.61202619
 31
0.0
  0
LINE
  5
490
100
AcDbEntity
  8
LAYER0001
  6
CONTINUOUS
 62
       7
100
AcDbLine
 10
-295.54365798
 20
254.91202227
 30
0.0
 11
-295.54365742
 21
263.19565515
 31
0.0
  0
LINE
  5
491
100
AcDbEntity
  8
LAYER0001
  6
CONTINUOUS
 62
       7
100
AcDbLine
 10
-335.54365479
 20
125.61202267
 30
0.0
 11
-295.54365718
 21
125.61202267
 31
0.0
  0
LINE
  5
492
100
AcDbEntity
  8
LAYER0001
  6
CONTINUOUS
 62
       7
100
AcDbLine
 10
-295.54366017
 20
222.91203192
 30
0.0
 11
-295.54365807
 21
253.61200714
 31
0.0
  0
LINE
  5
493
100
AcDbEntity
  8
LAYER0001
  6
CONTINUOUS
 62
       7
100
AcDbLine
 10
-335.54365479
 20
157.61202791
 30
0.0
 11
-335.54365554
 21
126.91203109
 31
0.0
  0
LINE
  5
494
100
AcDbEntity
  8
LAYER0001
  6
CONTINUOUS
 62
       7
100
AcDbLine
 10
-335.54365934
 20
222.91203192
 30
0.0
 11
-295.54366017
 21
222.91203192
 31
0.0
  0
LINE
  5
495
100
AcDbEntity
  8
LAYER0001
  6
CONTINUOUS
 62
       7
100
AcDbLine
 10
-335.54365479
 20
125.61202267
 30
0.0
 11
-335.54365554
 21
94.91202584
 31
0.0
  0
LINE
  5
496
100
AcDbEntity
  8
LAYER0001
  6
CONTINUOUS
 62
       7
100
AcDbLine
 10
-335.54365554
 20
126.91203109
 30
0.0
 11
-295.54365643
 21
126.91203109
 31
0.0
  0
LINE
  5
497
100
AcDbEntity
  8
LAYER0001
  6
CONTINUOUS
 62
       7
100
AcDbLine
 10
-153.42064159
 20
93.61202619
 30
0.0
 11
-193.4206407
 21
93.61202619
 31
0.0
  0
LINE
  5
498
100
AcDbEntity
  8
LAYER0001
  6
CONTINUOUS
 62
       7
100
AcDbLine
 10
-193.4206407
 20
94.91202584
 30
0.0
 11
-153.42064159
 21
94.91202584
 31
0.0
  0
LINE
  5
499
100
AcDbEntity
  8
LAYER0001
  6
CONTINUOUS
 62
       7
100
AcDbLine
 10
-193.4206445
 20
222.91203192
 30
0.0
 11
-153.42064533
 21
222.91203192
 31
0.0
  0
LINE
  5
49A
100
AcDbEntity
  8
LAYER0001
  6
CONTINUOUS
 62
       7
100
AcDbLine
 10
-153.42064159
 20
73.61202663
 30
0.0
 11
-153.42064159
 21
93.61202619
 31
0.0
  0
LINE
  5
49B
100
AcDbEntity
  8
LAYER0001
  6
CONTINUOUS
 62
       7
100
AcDbLine
 10
-153.42064159
 20
73.61202663
 30
0.0
 11
-173.42064115
 21
73.61202663
 31
0.0
  0
LINE
  5
49C
100
AcDbEntity
  8
LAYER0001
  6
CONTINUOUS
 62
       7
100
AcDbLine
 10
-153.42064159
 20
158.91203633
 30
0.0
 11
-153.42064234
 21
189.61203316
 31
0.0
  0
LINE
  5
49D
100
AcDbEntity
  8
LAYER0001
  6
CONTINUOUS
 62
       7
100
AcDbLine
 10
-193.42063995
 20
189.61203316
 30
0.0
 11
-193.4206407
 21
158.91203633
 31
0.0
  0
LINE
  5
49E
100
AcDbEntity
  8
LAYER0001
  6
CONTINUOUS
 62
       7
100
AcDbLine
 10
-155.02538469
 20
69.61202663
 30
0.0
 11
-153.42064159
 21
71.21676989
 31
0.0
  0
LINE
  5
49F
100
AcDbEntity
  8
LAYER0001
  6
CONTINUOUS
 62
       7
100
AcDbLine
 10
-193.42063972
 20
263.19565534
 30
0.0
 11
-193.4206407
 21
254.91202227
 31
0.0
  0
LINE
  5
4A0
100
AcDbEntity
  8
LAYER0001
  6
CONTINUOUS
 62
       7
100
AcDbLine
 10
-193.42063995
 20
125.61202267
 30
0.0
 11
-153.42064234
 21
125.61202267
 31
0.0
  0
LINE
  5
4A1
100
AcDbEntity
  8
LAYER0001
  6
CONTINUOUS
 62
       7
100
AcDbLine
 10
-153.42064159
 20
73.61202663
 30
0.0
 11
-153.42064159
 21
71.21676989
 31
0.0
  0
LINE
  5
4A2
100
AcDbEntity
  8
LAYER0001
  6
CONTINUOUS
 62
       7
100
AcDbLine
 10
-153.42064159
 20
126.91203109
 30
0.0
 11
-153.42064234
 21
157.61202791
 31
0.0
  0
LINE
  5
4A3
100
AcDbEntity
  8
LAYER0001
  6
CONTINUOUS
 62
       7
100
AcDbLine
 10
-155.02538469
 20
69.61202663
 30
0.0
 11
-191.8158976
 21
69.61202663
 31
0.0
  0
LINE
  5
4A4
100
AcDbEntity
  8
LAYER0001
  6
CONTINUOUS
 62
       7
100
AcDbLine
 10
-173.42064115
 20
254.91202227
 30
0.0
 11
-193.4206407
 21
254.91202227
 31
0.0
  0
LINE
  5
4A5
100
AcDbEntity
  8
LAYER0001
  6
CONTINUOUS
 62
       7
100
AcDbLine
 10
-153.42064314
 20
254.91202227
 30
0.0
 11
-173.42064115
 21
254.91202227
 31
0.0
  0
LINE
  5
4A6
100
AcDbEntity
  8
LAYER0001
  6
CONTINUOUS
 62
       7
100
AcDbLine
 10
-153.42064159
 20
190.91202668
 30
0.0
 11
-153.42064234
 21
221.6120235
 31
0.0
  0
LINE
  5
4A7
100
AcDbEntity
  8
LAYER0001
  6
CONTINUOUS
 62
       7
100
AcDbLine
 10
-193.4206407
 20
126.91203109
 30
0.0
 11
-153.42064159
 21
126.91203109
 31
0.0
  0
LINE
  5
4A8
100
AcDbEntity
  8
LAYER0001
  6
CONTINUOUS
 62
       7
100
AcDbLine
 10
-193.42064085
 20
253.61201335
 30
0.0
 11
-153.42064323
 21
253.61200714
 31
0.0
  0
LINE
  5
4A9
100
AcDbEntity
  8
LAYER0001
  6
CONTINUOUS
 62
       7
100
AcDbLine
 10
-193.42063995
 20
157.61202791
 30
0.0
 11
-193.4206407
 21
126.91203109
 31
0.0
  0
LINE
  5
4AA
100
AcDbEntity
  8
LAYER0001
  6
CONTINUOUS
 62
       7
100
AcDbLine
 10
-193.4206407
 20
71.21676989
 30
0.0
 11
-191.8158976
 21
69.61202663
 31
0.0
  0
LINE
  5
4AB
100
AcDbEntity
  8
LAYER0001
  6
CONTINUOUS
 62
       7
100
AcDbLine
 10
-153.42064159
 20
94.91202584
 30
0.0
 11
-153.42064234
 21
125.61202267
 31
0.0
  0
LINE
  5
4AC
100
AcDbEntity
  8
LAYER0001
  6
CONTINUOUS
 62
       7
100
AcDbLine
 10
-153.42064314
 20
254.91202227
 30
0.0
 11
-153.42064258
 21
263.19565515
 31
0.0
  0
LINE
  5
4AD
100
AcDbEntity
  8
LAYER0001
  6
CONTINUOUS
 62
       7
100
AcDbLine
 10
-173.42064115
 20
265.19707194
 30
0.0
 11
-181.44811014
 21
265.19707454
 31
0.0
  0
LINE
  5
4AE
100
AcDbEntity
  8
LAYER0001
  6
CONTINUOUS
 62
       7
100
AcDbLine
 10
-165.39317215
 20
265.19707454
 30
0.0
 11
-173.42064115
 21
265.19707194
 31
0.0
  0
LINE
  5
4AF
100
AcDbEntity
  8
LAYER0001
  6
CONTINUOUS
 62
       7
100
AcDbLine
 10
-193.4206407
 20
93.61202619
 30
0.0
 11
-193.4206407
 21
73.61202663
 31
0.0
  0
LINE
  5
4B0
100
AcDbEntity
  8
LAYER0001
  6
CONTINUOUS
 62
       7
100
AcDbLine
 10
-193.42063995
 20
157.61202791
 30
0.0
 11
-153.42064234
 21
157.61202791
 31
0.0
  0
LINE
  5
4B1
100
AcDbEntity
  8
LAYER0001
  6
CONTINUOUS
 62
       7
100
AcDbLine
 10
-193.42063995
 20
221.6120235
 30
0.0
 11
-153.42064234
 21
221.6120235
 31
0.0
  0
LINE
  5
4B2
100
AcDbEntity
  8
LAYER0001
  6
CONTINUOUS
 62
       7
100
AcDbLine
 10
-193.4206407
 20
190.91202668
 30
0.0
 11
-153.42064159
 21
190.91202668
 31
0.0
  0
LINE
  5
4B3
100
AcDbEntity
  8
LAYER0001
  6
CONTINUOUS
 62
       7
100
AcDbLine
 10
-193.42063995
 20
221.6120235
 30
0.0
 11
-193.4206407
 21
190.91202668
 31
0.0
  0
LINE
  5
4B4
100
AcDbEntity
  8
LAYER0001
  6
CONTINUOUS
 62
       7
100
AcDbLine
 10
-153.42064533
 20
222.91203192
 30
0.0
 11
-153.42064323
 21
253.61200714
 31
0.0
  0
LINE
  5
4B5
100
AcDbEntity
  8
LAYER0001
  6
CONTINUOUS
 62
       7
100
AcDbLine
 10
-193.4206407
 20
158.91203633
 30
0.0
 11
-153.42064159
 21
158.91203633
 31
0.0
  0
LINE
  5
4B6
100
AcDbEntity
  8
LAYER0001
  6
CONTINUOUS
 62
       7
100
AcDbLine
 10
-193.42063995
 20
189.61203316
 30
0.0
 11
-153.42064234
 21
189.61203316
 31
0.0
  0
LINE
  5
4B7
100
AcDbEntity
  8
LAYER0001
  6
CONTINUOUS
 62
       7
100
AcDbLine
 10
-193.42063995
 20
125.61202267
 30
0.0
 11
-193.4206407
 21
94.91202584
 31
0.0
  0
LINE
  5
4B8
100
AcDbEntity
  8
LAYER0001
  6
CONTINUOUS
 62
       7
100
AcDbLine
 10
-173.42064115
 20
73.61202663
 30
0.0
 11
-193.4206407
 21
73.61202663
 31
0.0
  0
LINE
  5
4B9
100
AcDbEntity
  8
LAYER0001
  6
CONTINUOUS
 62
       7
100
AcDbLine
 10
118.02323843
 20
80.85829848
 30
0.0
 11
118.02323843
 21
78.46304174
 31
0.0
  0
LINE
  5
4BA
100
AcDbEntity
  8
LAYER0001
  6
CONTINUOUS
 62
       7
100
AcDbLine
 10
78.02324008
 20
196.858305
 30
0.0
 11
78.02323933
 21
166.15830818
 31
0.0
  0
LINE
  5
4BB
100
AcDbEntity
  8
LAYER0001
  6
CONTINUOUS
 62
       7
100
AcDbLine
 10
116.41849534
 20
76.85829848
 30
0.0
 11
79.62798242
 21
76.85829848
 31
0.0
  0
LINE
  5
4BC
100
AcDbEntity
  8
LAYER0001
  6
CONTINUOUS
 62
       7
100
AcDbLine
 10
78.02324008
 20
164.85829976
 30
0.0
 11
118.02323768
 21
164.85829976
 31
0.0
  0
LINE
  5
4BD
100
AcDbEntity
  8
LAYER0001
  6
CONTINUOUS
 62
       7
100
AcDbLine
 10
78.02324008
 20
132.85829451
 30
0.0
 11
118.02323768
 21
132.85829451
 31
0.0
  0
LINE
  5
4BE
100
AcDbEntity
  8
LAYER0001
  6
CONTINUOUS
 62
       7
100
AcDbLine
 10
78.02324008
 20
228.85829535
 30
0.0
 11
118.02323768
 21
228.85829535
 31
0.0
  0
LINE
  5
4BF
100
AcDbEntity
  8
LAYER0001
  6
CONTINUOUS
 62
       7
100
AcDbLine
 10
118.02323843
 20
134.15830293
 30
0.0
 11
118.02323768
 21
164.85829976
 31
0.0
  0
LINE
  5
4C0
100
AcDbEntity
  8
LAYER0001
  6
CONTINUOUS
 62
       7
100
AcDbLine
 10
78.02323933
 20
166.15830818
 30
0.0
 11
118.02323843
 21
166.15830818
 31
0.0
  0
LINE
  5
4C1
100
AcDbEntity
  8
LAYER0001
  6
CONTINUOUS
 62
       7
100
AcDbLine
 10
78.02323933
 20
134.15830293
 30
0.0
 11
118.02323843
 21
134.15830293
 31
0.0
  0
LINE
  5
4C2
100
AcDbEntity
  8
LAYER0001
  6
CONTINUOUS
 62
       7
100
AcDbLine
 10
116.41849534
 20
76.85829848
 30
0.0
 11
118.02323843
 21
78.46304174
 31
0.0
  0
LINE
  5
4C3
100
AcDbEntity
  8
LAYER0001
  6
CONTINUOUS
 62
       7
100
AcDbLine
 10
118.02323688
 20
262.15829411
 30
0.0
 11
98.02323888
 21
262.15829411
 31
0.0
  0
LINE
  5
4C4
100
AcDbEntity
  8
LAYER0001
  6
CONTINUOUS
 62
       7
100
AcDbLine
 10
109.54039426
 20
54.85829824
 30
0.0
 11
98.02323865
 21
54.85829771
 31
0.0
  0
LINE
  5
4C5
100
AcDbEntity
  8
LAYER0001
  6
CONTINUOUS
 62
       7
100
AcDbLine
 10
78.02324008
 20
228.85829535
 30
0.0
 11
78.02323933
 21
198.15829852
 31
0.0
  0
LINE
  5
4C6
100
AcDbEntity
  8
LAYER0001
  6
CONTINUOUS
 62
       7
100
AcDbLine
 10
78.02324008
 20
164.85829976
 30
0.0
 11
78.02323933
 21
134.15830293
 31
0.0
  0
LINE
  5
4C7
100
AcDbEntity
  8
LAYER0001
  6
CONTINUOUS
 62
       7
100
AcDbLine
 10
78.02323917
 20
260.8582852
 30
0.0
 11
78.02323553
 21
230.15830377
 31
0.0
  0
LINE
  5
4C8
100
AcDbEntity
  8
LAYER0001
  6
CONTINUOUS
 62
       7
100
AcDbLine
 10
118.02323843
 20
102.15829769
 30
0.0
 11
118.02323768
 21
132.85829451
 31
0.0
  0
LINE
  5
4C9
100
AcDbEntity
  8
LAYER0001
  6
CONTINUOUS
 62
       7
100
AcDbLine
 10
78.02323933
 20
80.85829848
 30
0.0
 11
78.02323933
 21
78.46304174
 31
0.0
  0
LINE
  5
4CA
100
AcDbEntity
  8
LAYER0001
  6
CONTINUOUS
 62
       7
100
AcDbLine
 10
118.02323843
 20
166.15830818
 30
0.0
 11
118.02323768
 21
196.858305
 31
0.0
  0
LINE
  5
4CB
100
AcDbEntity
  8
LAYER0001
  6
CONTINUOUS
 62
       7
100
AcDbLine
 10
78.02323933
 20
100.85829803
 30
0.0
 11
78.02323933
 21
80.85829848
 31
0.0
  0
LINE
  5
4CC
100
AcDbEntity
  8
LAYER0001
  6
CONTINUOUS
 62
       7
100
AcDbLine
 10
110.04008988
 20
55.34084783
 30
0.0
 11
110.69038919
 21
73.96299697
 31
0.0
  0
LINE
  5
4CD
100
AcDbEntity
  8
LAYER0001
  6
CONTINUOUS
 62
       7
100
AcDbLine
 10
118.02323688
 20
262.15829411
 30
0.0
 11
118.02323745
 21
270.44192699
 31
0.0
  0
LINE
  5
4CE
100
AcDbEntity
  8
LAYER0001
  6
CONTINUOUS
 62
       7
100
AcDbLine
 10
118.02323843
 20
80.85829848
 30
0.0
 11
98.02323888
 21
80.85829848
 31
0.0
  0
LINE
  5
4CF
100
AcDbEntity
  8
LAYER0001
  6
CONTINUOUS
 62
       7
100
AcDbLine
 10
106.05070787
 20
272.44334638
 30
0.0
 11
98.02323888
 21
272.44334379
 31
0.0
  0
LINE
  5
4D0
100
AcDbEntity
  8
LAYER0001
  6
CONTINUOUS
 62
       7
100
AcDbLine
 10
78.02324008
 20
132.85829451
 30
0.0
 11
78.02323933
 21
102.15829769
 31
0.0
  0
LINE
  5
4D1
100
AcDbEntity
  8
LAYER0001
  6
CONTINUOUS
 62
       7
100
AcDbLine
 10
78.02324031
 20
270.44192718
 30
0.0
 11
78.02323933
 21
262.15829411
 31
0.0
  0
LINE
  5
4D2
100
AcDbEntity
  8
LAYER0001
  6
CONTINUOUS
 62
       7
100
AcDbLine
 10
78.02323933
 20
198.15829852
 30
0.0
 11
118.02323843
 21
198.15829852
 31
0.0
  0
LINE
  5
4D3
100
AcDbEntity
  8
LAYER0001
  6
CONTINUOUS
 62
       7
100
AcDbLine
 10
78.02323933
 20
78.46304174
 30
0.0
 11
79.62798242
 21
76.85829848
 31
0.0
  0
LINE
  5
4D4
100
AcDbEntity
  8
LAYER0001
  6
CONTINUOUS
 62
       7
100
AcDbLine
 10
98.02323888
 20
262.15829411
 30
0.0
 11
78.02323933
 21
262.15829411
 31
0.0
  0
LINE
  5
4D5
100
AcDbEntity
  8
LAYER0001
  6
CONTINUOUS
 62
       7
100
AcDbLine
 10
98.02323865
 20
54.85829771
 30
0.0
 11
86.50608304
 21
54.85829824
 31
0.0
  0
LINE
  5
4D6
100
AcDbEntity
  8
LAYER0001
  6
CONTINUOUS
 62
       7
100
AcDbLine
 10
118.02323843
 20
198.15829852
 30
0.0
 11
118.02323768
 21
228.85829535
 31
0.0
  0
LINE
  5
4D7
100
AcDbEntity
  8
LAYER0001
  6
CONTINUOUS
 62
       7
100
AcDbLine
 10
118.0232347
 20
230.15830377
 30
0.0
 11
118.0232368
 21
260.85827898
 31
0.0
  0
LINE
  5
4D8
100
AcDbEntity
  8
LAYER0001
  6
CONTINUOUS
 62
       7
100
AcDbLine
 10
-295.54365643
 20
73.61202663
 30
0.0
 11
-295.54365643
 21
93.61202619
 31
0.0
  0
LINE
  5
4D9
100
AcDbEntity
  8
LAYER0001
  6
CONTINUOUS
 62
       7
100
AcDbLine
 10
-335.54365554
 20
93.61202619
 30
0.0
 11
-335.54365554
 21
73.61202663
 31
0.0
  0
LINE
  5
4DA
100
AcDbEntity
  8
LAYER0001
  6
CONTINUOUS
 62
       7
100
AcDbLine
 10
78.02324008
 20
196.858305
 30
0.0
 11
118.02323768
 21
196.858305
 31
0.0
  0
LINE
  5
4DB
100
AcDbEntity
  8
LAYER0001
  6
CONTINUOUS
 62
       7
100
AcDbLine
 10
118.02323843
 20
80.85829848
 30
0.0
 11
118.02323843
 21
100.85829803
 31
0.0
  0
LINE
  5
4DC
100
AcDbEntity
  8
LAYER0001
  6
CONTINUOUS
 62
       7
100
AcDbLine
 10
78.02323917
 20
260.8582852
 30
0.0
 11
118.0232368
 21
260.85827898
 31
0.0
  0
LINE
  5
4DD
100
AcDbEntity
  8
LAYER0001
  6
CONTINUOUS
 62
       7
100
AcDbLine
 10
118.02323843
 20
100.85829803
 30
0.0
 11
78.02323933
 21
100.85829803
 31
0.0
  0
LINE
  5
4DE
100
AcDbEntity
  8
LAYER0001
  6
CONTINUOUS
 62
       7
100
AcDbLine
 10
85.35608811
 20
73.96299697
 30
0.0
 11
86.00638743
 21
55.34084783
 31
0.0
  0
LINE
  5
4DF
100
AcDbEntity
  8
LAYER0001
  6
CONTINUOUS
 62
       7
100
AcDbLine
 10
78.02323933
 20
102.15829769
 30
0.0
 11
118.02323843
 21
102.15829769
 31
0.0
  0
LINE
  5
4E0
100
AcDbEntity
  8
LAYER0001
  6
CONTINUOUS
 62
       7
100
AcDbLine
 10
98.02323888
 20
80.85829848
 30
0.0
 11
78.02323933
 21
80.85829848
 31
0.0
  0
LINE
  5
4E1
100
AcDbEntity
  8
LAYER0001
  6
CONTINUOUS
 62
       7
100
AcDbLine
 10
98.02323888
 20
272.44334379
 30
0.0
 11
89.99576989
 21
272.44334638
 31
0.0
  0
LINE
  5
4E2
100
AcDbEntity
  8
LAYER0001
  6
CONTINUOUS
 62
       7
100
AcDbLine
 10
78.02323553
 20
230.15830377
 30
0.0
 11
118.0232347
 21
230.15830377
 31
0.0
  0
LINE
  5
4E3
100
AcDbEntity
  8
LAYER0001
  6
CONTINUOUS
 62
       7
100
AcDbLine
 10
278.91925399
 20
80.85829848
 30
0.0
 11
278.91925399
 21
78.46304174
 31
0.0
  0
LINE
  5
4E4
100
AcDbEntity
  8
LAYER0001
  6
CONTINUOUS
 62
       7
100
AcDbLine
 10
238.91925563
 20
196.858305
 30
0.0
 11
238.91925488
 21
166.15830818
 31
0.0
  0
LINE
  5
4E5
100
AcDbEntity
  8
LAYER0001
  6
CONTINUOUS
 62
       7
100
AcDbLine
 10
277.31451089
 20
76.85829848
 30
0.0
 11
240.52399798
 21
76.85829848
 31
0.0
  0
LINE
  5
4E6
100
AcDbEntity
  8
LAYER0001
  6
CONTINUOUS
 62
       7
100
AcDbLine
 10
238.91925563
 20
164.85829976
 30
0.0
 11
278.91925324
 21
164.85829976
 31
0.0
  0
LINE
  5
4E7
100
AcDbEntity
  8
LAYER0001
  6
CONTINUOUS
 62
       7
100
AcDbLine
 10
238.91925563
 20
132.85829451
 30
0.0
 11
278.91925324
 21
132.85829451
 31
0.0
  0
LINE
  5
4E8
100
AcDbEntity
  8
LAYER0001
  6
CONTINUOUS
 62
       7
100
AcDbLine
 10
238.91925563
 20
228.85829535
 30
0.0
 11
278.91925324
 21
228.85829535
 31
0.0
  0
LINE
  5
4E9
100
AcDbEntity
  8
LAYER0001
  6
CONTINUOUS
 62
       7
100
AcDbLine
 10
-315.54365599
 20
-224.58801442
 30
0.0
 11
-268.54889163
 21
-224.58801442
 31
0.0
  0
LINE
  5
4EA
100
AcDbEntity
  8
LAYER0001
  6
CONTINUOUS
 62
       7
100
AcDbLine
 10
-362.53842034
 20
-224.58801442
 30
0.0
 11
-315.54365599
 21
-224.58801442
 31
0.0
  0
LINE
  5
4EB
100
AcDbEntity
  8
LAYER0001
  6
CONTINUOUS
 62
       7
100
AcDbLine
 10
-268.8385553
 20
-224.8879748
 30
0.0
 11
-362.24875667
 21
-224.8879748
 31
0.0
  0
LINE
  5
4EC
100
AcDbEntity
  8
LAYER0001
  6
CONTINUOUS
 62
       7
100
AcDbLine
 10
278.91925399
 20
134.15830293
 30
0.0
 11
278.91925324
 21
164.85829976
 31
0.0
  0
LINE
  5
4ED
100
AcDbEntity
  8
LAYER0001
  6
CONTINUOUS
 62
       7
100
AcDbLine
 10
238.91925488
 20
166.15830818
 30
0.0
 11
278.91925399
 21
166.15830818
 31
0.0
  0
LINE
  5
4EE
100
AcDbEntity
  8
LAYER0001
  6
CONTINUOUS
 62
       7
100
AcDbLine
 10
238.91925488
 20
134.15830293
 30
0.0
 11
278.91925399
 21
134.15830293
 31
0.0
  0
LINE
  5
4EF
100
AcDbEntity
  8
LAYER0001
  6
CONTINUOUS
 62
       7
100
AcDbLine
 10
277.31451089
 20
76.85829848
 30
0.0
 11
278.91925399
 21
78.46304174
 31
0.0
  0
LINE
  5
4F0
100
AcDbEntity
  8
LAYER0001
  6
CONTINUOUS
 62
       7
100
AcDbLine
 10
278.91925244
 20
262.15829411
 30
0.0
 11
258.91925443
 21
262.15829411
 31
0.0
  0
LINE
  5
4F1
100
AcDbEntity
  8
LAYER0001
  6
CONTINUOUS
 62
       7
100
AcDbLine
 10
270.43640982
 20
54.85829824
 30
0.0
 11
258.9192542
 21
54.85829771
 31
0.0
  0
LINE
  5
4F2
100
AcDbEntity
  8
LAYER0001
  6
CONTINUOUS
 62
       7
100
AcDbLine
 10
238.91925563
 20
228.85829535
 30
0.0
 11
238.91925488
 21
198.15829852
 31
0.0
  0
LINE
  5
4F3
100
AcDbEntity
  8
LAYER0001
  6
CONTINUOUS
 62
       7
100
AcDbLine
 10
238.91925563
 20
164.85829976
 30
0.0
 11
238.91925488
 21
134.15830293
 31
0.0
  0
LINE
  5
4F4
100
AcDbEntity
  8
LAYER0001
  6
CONTINUOUS
 62
       7
100
AcDbLine
 10
238.91925473
 20
260.8582852
 30
0.0
 11
238.91925108
 21
230.15830377
 31
0.0
  0
LINE
  5
4F5
100
AcDbEntity
  8
LAYER0001
  6
CONTINUOUS
 62
       7
100
AcDbLine
 10
278.91925399
 20
102.15829769
 30
0.0
 11
278.91925324
 21
132.85829451
 31
0.0
  0
LINE
  5
4F6
100
AcDbEntity
  8
LAYER0001
  6
CONTINUOUS
 62
       7
100
AcDbLine
 10
238.91925488
 20
80.85829848
 30
0.0
 11
238.91925488
 21
78.46304174
 31
0.0
  0
LINE
  5
4F7
100
AcDbEntity
  8
LAYER0001
  6
CONTINUOUS
 62
       7
100
AcDbLine
 10
278.91925399
 20
166.15830818
 30
0.0
 11
278.91925324
 21
196.858305
 31
0.0
  0
LINE
  5
4F8
100
AcDbEntity
  8
LAYER0001
  6
CONTINUOUS
 62
       7
100
AcDbLine
 10
238.91925488
 20
100.85829803
 30
0.0
 11
238.91925488
 21
80.85829848
 31
0.0
  0
LINE
  5
4F9
100
AcDbEntity
  8
LAYER0001
  6
CONTINUOUS
 62
       7
100
AcDbLine
 10
270.93610543
 20
55.34084783
 30
0.0
 11
271.58640475
 21
73.96299697
 31
0.0
  0
LINE
  5
4FA
100
AcDbEntity
  8
LAYER0001
  6
CONTINUOUS
 62
       7
100
AcDbLine
 10
278.91925244
 20
262.15829411
 30
0.0
 11
278.919253
 21
270.44192699
 31
0.0
  0
LINE
  5
4FB
100
AcDbEntity
  8
LAYER0001
  6
CONTINUOUS
 62
       7
100
AcDbLine
 10
278.91925399
 20
80.85829848
 30
0.0
 11
258.91925443
 21
80.85829848
 31
0.0
  0
LINE
  5
4FC
100
AcDbEntity
  8
LAYER0001
  6
CONTINUOUS
 62
       7
100
AcDbLine
 10
266.94672343
 20
272.44334638
 30
0.0
 11
258.91925443
 21
272.44334379
 31
0.0
  0
LINE
  5
4FD
100
AcDbEntity
  8
LAYER0001
  6
CONTINUOUS
 62
       7
100
AcDbLine
 10
238.91925563
 20
132.85829451
 30
0.0
 11
238.91925488
 21
102.15829769
 31
0.0
  0
LINE
  5
4FE
100
AcDbEntity
  8
LAYER0001
  6
CONTINUOUS
 62
       7
100
AcDbLine
 10
238.91925587
 20
270.44192718
 30
0.0
 11
238.91925488
 21
262.15829411
 31
0.0
  0
LINE
  5
4FF
100
AcDbEntity
  8
LAYER0001
  6
CONTINUOUS
 62
       7
100
AcDbLine
 10
-315.54365599
 20
-171.8879717
 30
0.0
 11
-303.54365588
 21
-171.8879717
 31
0.0
  0
LINE
  5
500
100
AcDbEntity
  8
LAYER0001
  6
CONTINUOUS
 62
       7
100
AcDbLine
 10
-327.54365609
 20
-171.8879717
 30
0.0
 11
-315.54365599
 21
-171.8879717
 31
0.0
  0
LINE
  5
501
100
AcDbEntity
  8
LAYER0001
  6
CONTINUOUS
 62
       7
100
AcDbLine
 10
238.91925488
 20
198.15829852
 30
0.0
 11
278.91925399
 21
198.15829852
 31
0.0
  0
LINE
  5
502
100
AcDbEntity
  8
LAYER0001
  6
CONTINUOUS
 62
       7
100
AcDbLine
 10
238.91925488
 20
78.46304174
 30
0.0
 11
240.52399798
 21
76.85829848
 31
0.0
  0
LINE
  5
503
100
AcDbEntity
  8
LAYER0001
  6
CONTINUOUS
 62
       7
100
AcDbLine
 10
258.91925443
 20
262.15829411
 30
0.0
 11
238.91925488
 21
262.15829411
 31
0.0
  0
LINE
  5
504
100
AcDbEntity
  8
LAYER0001
  6
CONTINUOUS
 62
       7
100
AcDbLine
 10
258.9192542
 20
54.85829771
 30
0.0
 11
247.40209859
 21
54.85829824
 31
0.0
  0
LINE
  5
505
100
AcDbEntity
  8
LAYER0001
  6
CONTINUOUS
 62
       7
100
AcDbLine
 10
278.91925399
 20
198.15829852
 30
0.0
 11
278.91925324
 21
228.85829535
 31
0.0
  0
LINE
  5
506
100
AcDbEntity
  8
LAYER0001
  6
CONTINUOUS
 62
       7
100
AcDbLine
 10
278.91925025
 20
230.15830377
 30
0.0
 11
278.91925235
 21
260.85827898
 31
0.0
  0
LINE
  5
507
100
AcDbEntity
  8
LAYER0001
  6
CONTINUOUS
 62
       7
100
AcDbLine
 10
238.91925563
 20
196.858305
 30
0.0
 11
278.91925324
 21
196.858305
 31
0.0
  0
LINE
  5
508
100
AcDbEntity
  8
LAYER0001
  6
CONTINUOUS
 62
       7
100
AcDbLine
 10
278.91925399
 20
80.85829848
 30
0.0
 11
278.91925399
 21
100.85829803
 31
0.0
  0
LINE
  5
509
100
AcDbEntity
  8
LAYER0001
  6
CONTINUOUS
 62
       7
100
AcDbLine
 10
238.91925473
 20
260.8582852
 30
0.0
 11
278.91925235
 21
260.85827898
 31
0.0
  0
LINE
  5
50A
100
AcDbEntity
  8
LAYER0001
  6
CONTINUOUS
 62
       7
100
AcDbLine
 10
278.91925399
 20
100.85829803
 30
0.0
 11
238.91925488
 21
100.85829803
 31
0.0
  0
LINE
  5
50B
100
AcDbEntity
  8
LAYER0001
  6
CONTINUOUS
 62
       7
100
AcDbLine
 10
246.25210366
 20
73.96299697
 30
0.0
 11
246.90240298
 21
55.34084783
 31
0.0
  0
LINE
  5
50C
100
AcDbEntity
  8
LAYER0001
  6
CONTINUOUS
 62
       7
100
AcDbLine
 10
238.91925488
 20
102.15829769
 30
0.0
 11
278.91925399
 21
102.15829769
 31
0.0
  0
LINE
  5
50D
100
AcDbEntity
  8
LAYER0001
  6
CONTINUOUS
 62
       7
100
AcDbLine
 10
258.91925443
 20
80.85829848
 30
0.0
 11
238.91925488
 21
80.85829848
 31
0.0
  0
LINE
  5
50E
100
AcDbEntity
  8
LAYER0001
  6
CONTINUOUS
 62
       7
100
AcDbLine
 10
258.91925443
 20
272.44334379
 30
0.0
 11
250.89178544
 21
272.44334638
 31
0.0
  0
LINE
  5
50F
100
AcDbEntity
  8
LAYER0001
  6
CONTINUOUS
 62
       7
100
AcDbLine
 10
238.91925108
 20
230.15830377
 30
0.0
 11
278.91925025
 21
230.15830377
 31
0.0
  0
LINE
  5
510
100
AcDbEntity
  8
LAYER0001
  6
CONTINUOUS
 62
       7
100
AcDbLine
 10
-297.14839953
 20
69.61202663
 30
0.0
 11
-333.93891244
 21
69.61202663
 31
0.0
  0
LINE
  5
511
100
AcDbEntity
  8
LAYER0001
  6
CONTINUOUS
 62
       7
100
AcDbLine
 10
-315.54365622
 20
47.61202586
 30
0.0
 11
-327.06081183
 21
47.6120264
 31
0.0
  0
LINE
  5
512
100
AcDbEntity
  8
LAYER0001
  6
CONTINUOUS
 62
       7
100
AcDbLine
 10
-304.0265006
 20
47.6120264
 30
0.0
 11
-315.54365622
 21
47.61202586
 31
0.0
  0
LINE
  5
513
100
AcDbEntity
  8
LAYER0001
  6
CONTINUOUS
 62
       7
100
AcDbLine
 10
-315.54365599
 20
73.61202663
 30
0.0
 11
-335.54365554
 21
73.61202663
 31
0.0
  0
LINE
  5
514
100
AcDbEntity
  8
LAYER0001
  6
CONTINUOUS
 62
       7
100
AcDbLine
 10
-295.54365643
 20
73.61202663
 30
0.0
 11
-315.54365599
 21
73.61202663
 31
0.0
  0
LINE
  5
515
100
AcDbEntity
  8
LAYER0001
  6
CONTINUOUS
 62
       7
100
AcDbLine
 10
272.91925487
 20
-220.64169413
 30
0.0
 11
272.91925487
 21
-219.04169685
 31
0.0
  0
LINE
  5
516
100
AcDbEntity
  8
LAYER0001
  6
CONTINUOUS
 62
       7
100
AcDbLine
 10
244.919254
 20
-219.04169685
 30
0.0
 11
244.919254
 21
-220.64169413
 31
0.0
  0
LINE
  5
517
100
AcDbEntity
  8
LAYER0001
  6
CONTINUOUS
 62
       7
100
AcDbLine
 10
272.91925487
 20
-225.24171239
 30
0.0
 11
272.91925487
 21
-223.64171511
 31
0.0
  0
LINE
  5
518
100
AcDbEntity
  8
LAYER0001
  6
CONTINUOUS
 62
       7
100
AcDbLine
 10
244.919254
 20
-223.64171511
 30
0.0
 11
244.919254
 21
-225.24171239
 31
0.0
  0
LINE
  5
519
100
AcDbEntity
  8
LAYER0001
  6
CONTINUOUS
 62
       7
100
AcDbLine
 10
267.56925464
 20
-206.141702
 30
0.0
 11
267.56925464
 21
54.85829794
 31
0.0
  0
LINE
  5
51A
100
AcDbEntity
  8
LAYER0001
  6
CONTINUOUS
 62
       7
100
AcDbLine
 10
250.26925423
 20
54.85829794
 30
0.0
 11
250.26925423
 21
-206.141702
 31
0.0
  0
LINE
  5
51B
100
AcDbEntity
  8
LAYER0001
  6
CONTINUOUS
 62
       7
100
AcDbLine
 10
250.26925423
 20
-206.141702
 30
0.0
 11
251.24506096
 21
-207.11751944
 31
0.0
  0
LINE
  5
51C
100
AcDbEntity
  8
LAYER0001
  6
CONTINUOUS
 62
       7
100
AcDbLine
 10
266.59344791
 20
-207.11751944
 30
0.0
 11
267.56925464
 21
-206.141702
 31
0.0
  0
LINE
  5
51D
100
AcDbEntity
  8
LAYER0001
  6
CONTINUOUS
 62
       7
100
AcDbLine
 10
267.4192549
 20
-210.89171535
 30
0.0
 11
266.61925439
 21
-210.1417101
 31
0.0
  0
LINE
  5
51E
100
AcDbEntity
  8
LAYER0001
  6
CONTINUOUS
 62
       7
100
AcDbLine
 10
251.21925448
 20
-210.1417101
 30
0.0
 11
250.41925397
 21
-210.89171535
 31
0.0
  0
LINE
  5
51F
100
AcDbEntity
  8
LAYER0001
  6
CONTINUOUS
 62
       7
100
AcDbLine
 10
267.41925494
 20
-233.39169389
 30
0.0
 11
266.72592114
 21
-232.74170524
 31
0.0
  0
LINE
  5
520
100
AcDbEntity
  8
LAYER0001
  6
CONTINUOUS
 62
       7
100
AcDbLine
 10
251.11258777
 20
-232.74170524
 30
0.0
 11
250.41925397
 21
-233.39169389
 31
0.0
  0
LINE
  5
521
100
AcDbEntity
  8
LAYER0001
  6
CONTINUOUS
 62
       7
100
AcDbLine
 10
250.41925397
 20
-239.39170605
 30
0.0
 11
251.21925448
 21
-240.1417113
 31
0.0
  0
LINE
  5
522
100
AcDbEntity
  8
LAYER0001
  6
CONTINUOUS
 62
       7
100
AcDbLine
 10
266.61925443
 20
-240.14171129
 30
0.0
 11
267.41925494
 21
-239.39170605
 31
0.0
  0
LINE
  5
523
100
AcDbEntity
  8
LAYER0001
  6
CONTINUOUS
 62
       7
100
AcDbLine
 10
250.41925397
 20
-234.89170438
 30
0.0
 11
251.21925448
 21
-235.64170963
 31
0.0
  0
LINE
  5
524
100
AcDbEntity
  8
LAYER0001
  6
CONTINUOUS
 62
       7
100
AcDbLine
 10
266.61925443
 20
-235.64170963
 30
0.0
 11
267.41925494
 21
-234.89170438
 31
0.0
  0
LINE
  5
525
100
AcDbEntity
  8
LAYER0001
  6
CONTINUOUS
 62
       7
100
AcDbLine
 10
267.41925494
 20
-236.39171487
 30
0.0
 11
266.61925443
 21
-235.64170963
 31
0.0
  0
LINE
  5
526
100
AcDbEntity
  8
LAYER0001
  6
CONTINUOUS
 62
       7
100
AcDbLine
 10
251.21925448
 20
-235.64170963
 30
0.0
 11
250.41925397
 21
-236.39171487
 31
0.0
  0
LINE
  5
527
100
AcDbEntity
  8
LAYER0001
  6
CONTINUOUS
 62
       7
100
AcDbLine
 10
250.41925397
 20
-236.39171487
 30
0.0
 11
251.21925448
 21
-237.14169031
 31
0.0
  0
LINE
  5
528
100
AcDbEntity
  8
LAYER0001
  6
CONTINUOUS
 62
       7
100
AcDbLine
 10
266.61925443
 20
-237.14169031
 30
0.0
 11
267.41925494
 21
-236.39171487
 31
0.0
  0
LINE
  5
529
100
AcDbEntity
  8
LAYER0001
  6
CONTINUOUS
 62
       7
100
AcDbLine
 10
250.41925397
 20
-243.89170772
 30
0.0
 11
251.21925448
 21
-244.64171296
 31
0.0
  0
LINE
  5
52A
100
AcDbEntity
  8
LAYER0001
  6
CONTINUOUS
 62
       7
100
AcDbLine
 10
266.61925443
 20
-244.64171296
 30
0.0
 11
267.41925494
 21
-243.89170772
 31
0.0
  0
LINE
  5
52B
100
AcDbEntity
  8
LAYER0001
  6
CONTINUOUS
 62
       7
100
AcDbLine
 10
250.41925397
 20
-233.39169389
 30
0.0
 11
251.21925448
 21
-234.14169914
 31
0.0
  0
LINE
  5
52C
100
AcDbEntity
  8
LAYER0001
  6
CONTINUOUS
 62
       7
100
AcDbLine
 10
266.61925443
 20
-234.14169914
 30
0.0
 11
267.41925494
 21
-233.39169389
 31
0.0
  0
LINE
  5
52D
100
AcDbEntity
  8
LAYER0001
  6
CONTINUOUS
 62
       7
100
AcDbLine
 10
267.41925494
 20
-234.89170438
 30
0.0
 11
266.61925443
 21
-234.14169914
 31
0.0
  0
LINE
  5
52E
100
AcDbEntity
  8
LAYER0001
  6
CONTINUOUS
 62
       7
100
AcDbLine
 10
251.21925448
 20
-234.14169914
 30
0.0
 11
250.41925397
 21
-234.89170438
 31
0.0
  0
LINE
  5
52F
100
AcDbEntity
  8
LAYER0001
  6
CONTINUOUS
 62
       7
100
AcDbLine
 10
267.41925494
 20
-237.89169556
 30
0.0
 11
266.61925443
 21
-237.14169031
 31
0.0
  0
LINE
  5
530
100
AcDbEntity
  8
LAYER0001
  6
CONTINUOUS
 62
       7
100
AcDbLine
 10
251.21925448
 20
-237.14169031
 30
0.0
 11
250.41925397
 21
-237.89169556
 31
0.0
  0
LINE
  5
531
100
AcDbEntity
  8
LAYER0001
  6
CONTINUOUS
 62
       7
100
AcDbLine
 10
267.41925494
 20
-239.39170605
 30
0.0
 11
266.61925443
 21
-238.6417008
 31
0.0
  0
LINE
  5
532
100
AcDbEntity
  8
LAYER0001
  6
CONTINUOUS
 62
       7
100
AcDbLine
 10
251.21925448
 20
-238.6417008
 30
0.0
 11
250.41925397
 21
-239.39170605
 31
0.0
  0
LINE
  5
533
100
AcDbEntity
  8
LAYER0001
  6
CONTINUOUS
 62
       7
100
AcDbLine
 10
267.4192549
 20
-207.89169437
 30
0.0
 11
266.59344791
 21
-207.11751944
 31
0.0
  0
LINE
  5
534
100
AcDbEntity
  8
LAYER0001
  6
CONTINUOUS
 62
       7
100
AcDbLine
 10
251.24506096
 20
-207.11751944
 30
0.0
 11
250.41925397
 21
-207.89169437
 31
0.0
  0
LINE
  5
535
100
AcDbEntity
  8
LAYER0001
  6
CONTINUOUS
 62
       7
100
AcDbLine
 10
267.41925494
 20
-240.89168674
 30
0.0
 11
266.61925443
 21
-240.14171129
 31
0.0
  0
LINE
  5
536
100
AcDbEntity
  8
LAYER0001
  6
CONTINUOUS
 62
       7
100
AcDbLine
 10
251.21925448
 20
-240.1417113
 30
0.0
 11
250.41925397
 21
-240.89168674
 31
0.0
  0
LINE
  5
537
100
AcDbEntity
  8
LAYER0001
  6
CONTINUOUS
 62
       7
100
AcDbLine
 10
267.41925494
 20
-243.89170772
 30
0.0
 11
266.61925443
 21
-243.14170247
 31
0.0
  0
LINE
  5
538
100
AcDbEntity
  8
LAYER0001
  6
CONTINUOUS
 62
       7
100
AcDbLine
 10
251.21925448
 20
-243.14170247
 30
0.0
 11
250.41925397
 21
-243.89170772
 31
0.0
  0
LINE
  5
539
100
AcDbEntity
  8
LAYER0001
  6
CONTINUOUS
 62
       7
100
AcDbLine
 10
250.41925397
 20
-240.89168674
 30
0.0
 11
251.21925448
 21
-241.64169198
 31
0.0
  0
LINE
  5
53A
100
AcDbEntity
  8
LAYER0001
  6
CONTINUOUS
 62
       7
100
AcDbLine
 10
266.61925443
 20
-241.64169198
 30
0.0
 11
267.41925494
 21
-240.89168674
 31
0.0
  0
LINE
  5
53B
100
AcDbEntity
  8
LAYER0001
  6
CONTINUOUS
 62
       7
100
AcDbLine
 10
250.41925397
 20
-210.89171535
 30
0.0
 11
251.11258777
 21
-211.541704
 31
0.0
  0
LINE
  5
53C
100
AcDbEntity
  8
LAYER0001
  6
CONTINUOUS
 62
       7
100
AcDbLine
 10
266.7259211
 20
-211.541704
 30
0.0
 11
267.4192549
 21
-210.89171535
 31
0.0
  0
LINE
  5
53D
100
AcDbEntity
  8
LAYER0001
  6
CONTINUOUS
 62
       7
100
AcDbLine
 10
267.41925494
 20
-242.39169723
 30
0.0
 11
266.61925443
 21
-241.64169198
 31
0.0
  0
LINE
  5
53E
100
AcDbEntity
  8
LAYER0001
  6
CONTINUOUS
 62
       7
100
AcDbLine
 10
251.21925448
 20
-241.64169198
 30
0.0
 11
250.41925397
 21
-242.39169723
 31
0.0
  0
LINE
  5
53F
100
AcDbEntity
  8
LAYER0001
  6
CONTINUOUS
 62
       7
100
AcDbLine
 10
267.41925494
 20
-246.8916989
 30
0.0
 11
266.61925443
 21
-246.14169365
 31
0.0
  0
LINE
  5
540
100
AcDbEntity
  8
LAYER0001
  6
CONTINUOUS
 62
       7
100
AcDbLine
 10
251.21925448
 20
-246.14169365
 30
0.0
 11
250.41925397
 21
-246.8916989
 31
0.0
  0
LINE
  5
541
100
AcDbEntity
  8
LAYER0001
  6
CONTINUOUS
 62
       7
100
AcDbLine
 10
250.41925397
 20
-209.39170486
 30
0.0
 11
251.21925448
 21
-210.1417101
 31
0.0
  0
LINE
  5
542
100
AcDbEntity
  8
LAYER0001
  6
CONTINUOUS
 62
       7
100
AcDbLine
 10
266.61925439
 20
-210.1417101
 30
0.0
 11
267.4192549
 21
-209.39170486
 31
0.0
  0
LINE
  5
543
100
AcDbEntity
  8
LAYER0001
  6
CONTINUOUS
 62
       7
100
AcDbLine
 10
250.41925397
 20
-237.89169556
 30
0.0
 11
251.21925448
 21
-238.6417008
 31
0.0
  0
LINE
  5
544
100
AcDbEntity
  8
LAYER0001
  6
CONTINUOUS
 62
       7
100
AcDbLine
 10
266.61925443
 20
-238.6417008
 30
0.0
 11
267.41925494
 21
-237.89169556
 31
0.0
  0
LINE
  5
545
100
AcDbEntity
  8
LAYER0001
  6
CONTINUOUS
 62
       7
100
AcDbLine
 10
267.4192549
 20
-209.39170486
 30
0.0
 11
266.61925439
 21
-208.64169961
 31
0.0
  0
LINE
  5
546
100
AcDbEntity
  8
LAYER0001
  6
CONTINUOUS
 62
       7
100
AcDbLine
 10
251.21925448
 20
-208.64169961
 30
0.0
 11
250.41925397
 21
-209.39170486
 31
0.0
  0
LINE
  5
547
100
AcDbEntity
  8
LAYER0001
  6
CONTINUOUS
 62
       7
100
AcDbLine
 10
250.41925397
 20
-207.89169437
 30
0.0
 11
251.21925448
 21
-208.64169961
 31
0.0
  0
LINE
  5
548
100
AcDbEntity
  8
LAYER0001
  6
CONTINUOUS
 62
       7
100
AcDbLine
 10
266.61925439
 20
-208.64169961
 30
0.0
 11
267.4192549
 21
-207.89169437
 31
0.0
  0
LINE
  5
549
100
AcDbEntity
  8
LAYER0001
  6
CONTINUOUS
 62
       7
100
AcDbLine
 10
250.41925397
 20
-248.39170939
 30
0.0
 11
251.21925448
 21
-249.14171463
 31
0.0
  0
LINE
  5
54A
100
AcDbEntity
  8
LAYER0001
  6
CONTINUOUS
 62
       7
100
AcDbLine
 10
266.61925443
 20
-249.14171463
 30
0.0
 11
267.41925494
 21
-248.39170939
 31
0.0
  0
LINE
  5
54B
100
AcDbEntity
  8
LAYER0001
  6
CONTINUOUS
 62
       7
100
AcDbLine
 10
250.41925397
 20
-246.8916989
 30
0.0
 11
251.21925448
 21
-247.64170414
 31
0.0
  0
LINE
  5
54C
100
AcDbEntity
  8
LAYER0001
  6
CONTINUOUS
 62
       7
100
AcDbLine
 10
266.61925443
 20
-247.64170414
 30
0.0
 11
267.41925494
 21
-246.8916989
 31
0.0
  0
LINE
  5
54D
100
AcDbEntity
  8
LAYER0001
  6
CONTINUOUS
 62
       7
100
AcDbLine
 10
267.41925494
 20
-245.39168841
 30
0.0
 11
266.61925443
 21
-244.64171296
 31
0.0
  0
LINE
  5
54E
100
AcDbEntity
  8
LAYER0001
  6
CONTINUOUS
 62
       7
100
AcDbLine
 10
251.21925448
 20
-244.64171296
 30
0.0
 11
250.41925397
 21
-245.39168841
 31
0.0
  0
LINE
  5
54F
100
AcDbEntity
  8
LAYER0001
  6
CONTINUOUS
 62
       7
100
AcDbLine
 10
267.41925494
 20
-248.39170939
 30
0.0
 11
266.61925443
 21
-247.64170414
 31
0.0
  0
LINE
  5
550
100
AcDbEntity
  8
LAYER0001
  6
CONTINUOUS
 62
       7
100
AcDbLine
 10
251.21925448
 20
-247.64170414
 30
0.0
 11
250.41925397
 21
-248.39170939
 31
0.0
  0
LINE
  5
551
100
AcDbEntity
  8
LAYER0001
  6
CONTINUOUS
 62
       7
100
AcDbLine
 10
250.41925397
 20
-242.39169723
 30
0.0
 11
251.21925448
 21
-243.14170247
 31
0.0
  0
LINE
  5
552
100
AcDbEntity
  8
LAYER0001
  6
CONTINUOUS
 62
       7
100
AcDbLine
 10
266.61925443
 20
-243.14170247
 30
0.0
 11
267.41925494
 21
-242.39169723
 31
0.0
  0
LINE
  5
553
100
AcDbEntity
  8
LAYER0001
  6
CONTINUOUS
 62
       7
100
AcDbLine
 10
250.41925397
 20
-245.39168841
 30
0.0
 11
251.21925448
 21
-246.14169365
 31
0.0
  0
LINE
  5
554
100
AcDbEntity
  8
LAYER0001
  6
CONTINUOUS
 62
       7
100
AcDbLine
 10
266.61925443
 20
-246.14169365
 30
0.0
 11
267.41925494
 21
-245.39168841
 31
0.0
  0
LINE
  5
555
100
AcDbEntity
  8
LAYER0001
  6
CONTINUOUS
 62
       7
100
AcDbLine
 10
266.61925443
 20
-250.14170176
 30
0.0
 11
266.61925443
 21
-249.14171463
 31
0.0
  0
LINE
  5
556
100
AcDbEntity
  8
LAYER0001
  6
CONTINUOUS
 62
       7
100
AcDbLine
 10
251.21925448
 20
-249.14171463
 30
0.0
 11
251.21925448
 21
-250.14170176
 31
0.0
  0
LINE
  5
557
100
AcDbEntity
  8
LAYER0001
  6
CONTINUOUS
 62
       7
100
AcDbLine
 10
251.9692546
 20
-250.64169532
 30
0.0
 11
252.05449716
 21
-250.87591177
 31
0.0
  0
LINE
  5
558
100
AcDbEntity
  8
LAYER0001
  6
CONTINUOUS
 62
       7
100
AcDbLine
 10
265.78401171
 20
-250.87591177
 30
0.0
 11
265.86925427
 21
-250.64169532
 31
0.0
  0
LINE
  5
559
100
AcDbEntity
  8
LAYER0001
  6
CONTINUOUS
 62
       7
100
AcDbLine
 10
273.41925771
 20
-223.64171881
 30
0.0
 11
273.41925771
 21
-220.64169782
 31
0.0
  0
LINE
  5
55A
100
AcDbEntity
  8
LAYER0001
  6
CONTINUOUS
 62
       7
100
AcDbLine
 10
228.9192551
 20
-277.64170533
 30
0.0
 11
231.91925743
 21
-277.64170533
 31
0.0
  0
LINE
  5
55B
100
AcDbEntity
  8
LAYER0001
  6
CONTINUOUS
 62
       7
100
AcDbLine
 10
264.66925445
 20
-232.74170524
 30
0.0
 11
253.16925442
 21
-232.74170524
 31
0.0
  0
LINE
  5
55C
100
AcDbEntity
  8
LAYER0001
  6
CONTINUOUS
 62
       7
100
AcDbLine
 10
270.41925446
 20
-226.26884943
 30
0.0
 11
270.41925446
 21
-231.7145682
 31
0.0
  0
LINE
  5
55D
100
AcDbEntity
  8
LAYER0001
  6
CONTINUOUS
 62
       7
100
AcDbLine
 10
258.91925443
 20
-226.26884943
 30
0.0
 11
258.91925443
 21
-231.7145682
 31
0.0
  0
LINE
  5
55E
100
AcDbEntity
  8
LAYER0001
  6
CONTINUOUS
 62
       7
100
AcDbLine
 10
247.41925441
 20
-226.26884943
 30
0.0
 11
247.41925441
 21
-231.7145682
 31
0.0
  0
LINE
  5
55F
100
AcDbEntity
  8
LAYER0001
  6
CONTINUOUS
 62
       7
100
AcDbLine
 10
270.41925446
 20
-232.74170524
 30
0.0
 11
264.66925445
 21
-232.74170524
 31
0.0
  0
LINE
  5
560
100
AcDbEntity
  8
LAYER0001
  6
CONTINUOUS
 62
       7
100
AcDbLine
 10
253.16925442
 20
-232.74170524
 30
0.0
 11
247.41925441
 21
-232.74170524
 31
0.0
  0
LINE
  5
561
100
AcDbEntity
  8
LAYER0001
  6
CONTINUOUS
 62
       7
100
AcDbLine
 10
270.41925446
 20
-212.56884104
 30
0.0
 11
270.41925446
 21
-218.01455981
 31
0.0
  0
LINE
  5
562
100
AcDbEntity
  8
LAYER0001
  6
CONTINUOUS
 62
       7
100
AcDbLine
 10
258.91925443
 20
-212.56884104
 30
0.0
 11
258.91925443
 21
-218.01455981
 31
0.0
  0
LINE
  5
563
100
AcDbEntity
  8
LAYER0001
  6
CONTINUOUS
 62
       7
100
AcDbLine
 10
247.41925441
 20
-212.56884104
 30
0.0
 11
247.41925441
 21
-218.01455981
 31
0.0
  0
LINE
  5
564
100
AcDbEntity
  8
LAYER0001
  6
CONTINUOUS
 62
       7
100
AcDbLine
 10
264.66925445
 20
-211.541704
 30
0.0
 11
253.16925442
 21
-211.541704
 31
0.0
  0
LINE
  5
565
100
AcDbEntity
  8
LAYER0001
  6
CONTINUOUS
 62
       7
100
AcDbLine
 10
253.16925442
 20
-211.541704
 30
0.0
 11
247.41925441
 21
-211.541704
 31
0.0
  0
LINE
  5
566
100
AcDbEntity
  8
LAYER0001
  6
CONTINUOUS
 62
       7
100
AcDbLine
 10
270.41925446
 20
-211.541704
 30
0.0
 11
264.66925445
 21
-211.541704
 31
0.0
  0
LINE
  5
567
100
AcDbEntity
  8
LAYER0001
  6
CONTINUOUS
 62
       7
100
AcDbLine
 10
258.91925443
 20
-219.04169685
 30
0.0
 11
272.91925487
 21
-219.04169685
 31
0.0
  0
LINE
  5
568
100
AcDbEntity
  8
LAYER0001
  6
CONTINUOUS
 62
       7
100
AcDbLine
 10
244.919254
 20
-219.04169685
 30
0.0
 11
258.91925443
 21
-219.04169685
 31
0.0
  0
LINE
  5
569
100
AcDbEntity
  8
LAYER0001
  6
CONTINUOUS
 62
       7
100
AcDbLine
 10
258.91925443
 20
-225.24171239
 30
0.0
 11
272.91925487
 21
-225.24171239
 31
0.0
  0
LINE
  5
56A
100
AcDbEntity
  8
LAYER0001
  6
CONTINUOUS
 62
       7
100
AcDbLine
 10
244.919254
 20
-225.24171239
 30
0.0
 11
258.91925443
 21
-225.24171239
 31
0.0
  0
LINE
  5
56B
100
AcDbEntity
  8
LAYER0001
  6
CONTINUOUS
 62
       7
100
AcDbLine
 10
258.91925443
 20
-206.141702
 30
0.0
 11
267.56925464
 21
-206.141702
 31
0.0
  0
LINE
  5
56C
100
AcDbEntity
  8
LAYER0001
  6
CONTINUOUS
 62
       7
100
AcDbLine
 10
250.26925423
 20
-206.141702
 30
0.0
 11
258.91925443
 21
-206.141702
 31
0.0
  0
LINE
  5
56D
100
AcDbEntity
  8
LAYER0001
  6
CONTINUOUS
 62
       7
100
AcDbLine
 10
266.11925446
 20
-250.6417015
 30
0.0
 11
251.71925446
 21
-250.6417015
 31
0.0
  0
LINE
  5
56E
100
AcDbEntity
  8
LAYER0001
  6
CONTINUOUS
 62
       7
100
AcDbLine
 10
265.69004266
 20
-250.9417153
 30
0.0
 11
252.14846621
 21
-250.9417153
 31
0.0
  0
LINE
  5
56F
100
AcDbEntity
  8
LAYER0001
  6
CONTINUOUS
 62
       7
100
AcDbLine
 10
231.91925743
 20
-268.59616405
 30
0.0
 11
231.91925743
 21
-270.52929169
 31
0.0
  0
LINE
  5
570
100
AcDbEntity
  8
LAYER0001
  6
CONTINUOUS
 62
       7
100
AcDbLine
 10
228.9192551
 20
-270.52929169
 30
0.0
 11
228.9192551
 21
-268.59616405
 31
0.0
  0
LINE
  5
571
100
AcDbEntity
  8
LAYER0001
  6
CONTINUOUS
 62
       7
100
AcDbLine
 10
264.37370944
 20
-220.64169782
 30
0.0
 11
266.30684779
 21
-220.64169782
 31
0.0
  0
LINE
  5
572
100
AcDbEntity
  8
LAYER0001
  6
CONTINUOUS
 62
       7
100
AcDbLine
 10
266.30684779
 20
-223.64171881
 30
0.0
 11
264.37370944
 21
-223.64171881
 31
0.0
  0
LINE
  5
573
100
AcDbEntity
  8
LAYER0001
  6
CONTINUOUS
 62
       7
100
AcDbLine
 10
264.37370944
 20
-220.64169782
 30
0.0
 11
236.91925825
 21
-220.64169782
 31
0.0
  0
LINE
  5
574
100
AcDbEntity
  8
LAYER0001
  6
CONTINUOUS
 62
       7
100
AcDbLine
 10
264.37370944
 20
-223.64171881
 30
0.0
 11
236.91925825
 21
-223.64171881
 31
0.0
  0
LINE
  5
575
100
AcDbEntity
  8
LAYER0001
  6
CONTINUOUS
 62
       7
100
AcDbLine
 10
231.91925813
 20
-228.64170152
 30
0.0
 11
231.91925743
 21
-268.59616405
 31
0.0
  0
LINE
  5
576
100
AcDbEntity
  8
LAYER0001
  6
CONTINUOUS
 62
       7
100
AcDbLine
 10
228.91925443
 20
-228.64170152
 30
0.0
 11
228.9192551
 21
-268.59616405
 31
0.0
  0
LINE
  5
577
100
AcDbEntity
  8
LAYER0001
  6
CONTINUOUS
 62
       7
100
AcDbLine
 10
273.41925771
 20
-220.64169782
 30
0.0
 11
266.30684779
 21
-220.64169782
 31
0.0
  0
LINE
  5
578
100
AcDbEntity
  8
LAYER0001
  6
CONTINUOUS
 62
       7
100
AcDbLine
 10
266.30684779
 20
-223.64171881
 30
0.0
 11
273.41925771
 21
-223.64171881
 31
0.0
  0
LINE
  5
579
100
AcDbEntity
  8
LAYER0001
  6
CONTINUOUS
 62
       7
100
AcDbLine
 10
231.91925743
 20
-277.64170533
 30
0.0
 11
231.91925743
 21
-270.52929169
 31
0.0
  0
LINE
  5
57A
100
AcDbEntity
  8
LAYER0001
  6
CONTINUOUS
 62
       7
100
AcDbLine
 10
228.9192551
 20
-270.52929169
 30
0.0
 11
228.9192551
 21
-277.64170533
 31
0.0
  0
LINE
  5
57B
100
AcDbEntity
  8
LAYER0001
  6
CONTINUOUS
 62
       7
100
AcDbLine
 10
-164.77064094
 20
-171.8879717
 30
0.0
 11
-164.77064094
 21
47.6120261
 31
0.0
  0
LINE
  5
57C
100
AcDbEntity
  8
LAYER0001
  6
CONTINUOUS
 62
       7
100
AcDbLine
 10
-182.07064135
 20
47.6120261
 30
0.0
 11
-182.07064135
 21
-171.8879717
 31
0.0
  0
LINE
  5
57D
100
AcDbEntity
  8
LAYER0001
  6
CONTINUOUS
 62
       7
100
AcDbLine
 10
-126.42587679
 20
-224.58801442
 30
0.0
 11
-126.53757962
 21
-218.18850213
 31
0.0
  0
LINE
  5
57E
100
AcDbEntity
  8
LAYER0001
  6
CONTINUOUS
 62
       7
100
AcDbLine
 10
-220.30370267
 20
-218.18850213
 30
0.0
 11
-220.4154055
 21
-224.58801442
 31
0.0
  0
LINE
  5
57F
100
AcDbEntity
  8
LAYER0001
  6
CONTINUOUS
 62
       7
100
AcDbLine
 10
-220.4154055
 20
-224.58801442
 30
0.0
 11
-220.12574183
 21
-224.8879748
 31
0.0
  0
LINE
  5
580
100
AcDbEntity
  8
LAYER0001
  6
CONTINUOUS
 62
       7
100
AcDbLine
 10
-126.71554046
 20
-224.8879748
 30
0.0
 11
-126.42587679
 21
-224.58801442
 31
0.0
  0
LINE
  5
581
100
AcDbEntity
  8
LAYER0001
  6
CONTINUOUS
 62
       7
100
AcDbLine
 10
-128.362964
 20
-216.23102197
 30
0.0
 11
-149.07158802
 21
-214.41925278
 31
0.0
  0
LINE
  5
582
100
AcDbEntity
  8
LAYER0001
  6
CONTINUOUS
 62
       7
100
AcDbLine
 10
-197.76969428
 20
-214.41925278
 30
0.0
 11
-218.47831829
 21
-216.23102197
 31
0.0
  0
LINE
  5
583
100
AcDbEntity
  8
LAYER0001
  6
CONTINUOUS
 62
       7
100
AcDbLine
 10
-158.18632663
 20
-204.9806788
 30
0.0
 11
-159.8376817
 21
-173.47093666
 31
0.0
  0
LINE
  5
584
100
AcDbEntity
  8
LAYER0001
  6
CONTINUOUS
 62
       7
100
AcDbLine
 10
-187.00360124
 20
-173.47093666
 30
0.0
 11
-188.65495596
 21
-204.98066505
 31
0.0
  0
LINE
  5
585
100
AcDbEntity
  8
LAYER0001
  6
CONTINUOUS
 62
       7
100
AcDbLine
 10
-159.8376817
 20
-173.47093666
 30
0.0
 11
-161.42064136
 21
-171.88797141
 31
0.0
  0
LINE
  5
586
100
AcDbEntity
  8
LAYER0001
  6
CONTINUOUS
 62
       7
100
AcDbLine
 10
-185.42064157
 20
-171.88797141
 30
0.0
 11
-187.00360124
 21
-173.47093666
 31
0.0
  0
LINE
  5
587
100
AcDbEntity
  8
LAYER0001
  6
CONTINUOUS
 62
       7
100
AcDbLine
 10
-186.08779192
 20
66.71672512
 30
0.0
 11
-185.4374926
 21
48.09457599
 31
0.0
  0
LINE
  5
588
100
AcDbEntity
  8
LAYER0001
  6
CONTINUOUS
 62
       7
100
AcDbLine
 10
-161.40379015
 20
48.09457599
 30
0.0
 11
-160.75349083
 21
66.71672512
 31
0.0
  0
LINE
  5
589
100
AcDbEntity
  8
LAYER0001
  6
CONTINUOUS
 62
       7
100
AcDbLine
 10
-220.4154055
 20
-224.58801442
 30
0.0
 11
-126.42587679
 21
-224.58801442
 31
0.0
  0
LINE
  5
58A
100
AcDbEntity
  8
LAYER0001
  6
CONTINUOUS
 62
       7
100
AcDbLine
 10
-126.71554046
 20
-224.8879748
 30
0.0
 11
-220.12574183
 21
-224.8879748
 31
0.0
  0
LINE
  5
58B
100
AcDbEntity
  8
LAYER0001
  6
CONTINUOUS
 62
       7
100
AcDbLine
 10
-185.42064157
 20
-171.88797141
 30
0.0
 11
-161.42064136
 21
-171.88797141
 31
0.0
  0
LINE
  5
58C
100
AcDbEntity
  8
LAYER0001
  6
CONTINUOUS
 62
       7
100
AcDbLine
 10
-161.90348576
 20
47.6120264
 30
0.0
 11
-184.93779699
 21
47.6120264
 31
0.0
  0
LINE
  5
58D
100
AcDbEntity
  8
LAYER0001
  6
CONTINUOUS
 62
       7
100
AcDbLine
 10
84.7441827
 20
-218.01455981
 30
0.0
 11
86.52323886
 21
-219.04169685
 31
0.0
  0
LINE
  5
58E
100
AcDbEntity
  8
LAYER0001
  6
CONTINUOUS
 62
       7
100
AcDbLine
 10
86.52323886
 20
-211.541704
 30
0.0
 11
84.7441827
 21
-212.56884104
 31
0.0
  0
LINE
  5
58F
100
AcDbEntity
  8
LAYER0001
  6
CONTINUOUS
 62
       7
100
AcDbLine
 10
111.30229506
 20
-212.56884104
 30
0.0
 11
109.5232389
 21
-211.541704
 31
0.0
  0
LINE
  5
590
100
AcDbEntity
  8
LAYER0001
  6
CONTINUOUS
 62
       7
100
AcDbLine
 10
109.5232389
 20
-219.04169685
 30
0.0
 11
111.30229506
 21
-218.01455981
 31
0.0
  0
LINE
  5
591
100
AcDbEntity
  8
LAYER0001
  6
CONTINUOUS
 62
       7
100
AcDbLine
 10
112.02323931
 20
-220.64169413
 30
0.0
 11
112.02323931
 21
-219.04169685
 31
0.0
  0
LINE
  5
592
100
AcDbEntity
  8
LAYER0001
  6
CONTINUOUS
 62
       7
100
AcDbLine
 10
84.02323845
 20
-219.04169685
 30
0.0
 11
84.02323845
 21
-220.64169413
 31
0.0
  0
LINE
  5
593
100
AcDbEntity
  8
LAYER0001
  6
CONTINUOUS
 62
       7
100
AcDbLine
 10
89.37323867
 20
-206.141702
 30
0.0
 11
90.3490454
 21
-207.11751944
 31
0.0
  0
LINE
  5
594
100
AcDbEntity
  8
LAYER0001
  6
CONTINUOUS
 62
       7
100
AcDbLine
 10
105.69743236
 20
-207.11751944
 30
0.0
 11
106.67323909
 21
-206.141702
 31
0.0
  0
LINE
  5
595
100
AcDbEntity
  8
LAYER0001
  6
CONTINUOUS
 62
       7
100
AcDbLine
 10
106.67323909
 20
-206.141702
 30
0.0
 11
106.67323909
 21
54.85829794
 31
0.0
  0
LINE
  5
596
100
AcDbEntity
  8
LAYER0001
  6
CONTINUOUS
 62
       7
100
AcDbLine
 10
89.37323867
 20
54.85829794
 30
0.0
 11
89.37323867
 21
-206.141702
 31
0.0
  0
LINE
  5
597
100
AcDbEntity
  8
LAYER0001
  6
CONTINUOUS
 62
       7
100
AcDbLine
 10
106.52323934
 20
-207.89169437
 30
0.0
 11
105.69743236
 21
-207.11751944
 31
0.0
  0
LINE
  5
598
100
AcDbEntity
  8
LAYER0001
  6
CONTINUOUS
 62
       7
100
AcDbLine
 10
90.3490454
 20
-207.11751944
 30
0.0
 11
89.52323842
 21
-207.89169437
 31
0.0
  0
LINE
  5
599
100
AcDbEntity
  8
LAYER0001
  6
CONTINUOUS
 62
       7
100
AcDbLine
 10
89.52323842
 20
-207.89169437
 30
0.0
 11
90.32323892
 21
-208.64169961
 31
0.0
  0
LINE
  5
59A
100
AcDbEntity
  8
LAYER0001
  6
CONTINUOUS
 62
       7
100
AcDbLine
 10
105.72323884
 20
-208.64169961
 30
0.0
 11
106.52323934
 21
-207.89169437
 31
0.0
  0
LINE
  5
59B
100
AcDbEntity
  8
LAYER0001
  6
CONTINUOUS
 62
       7
100
AcDbLine
 10
89.52323842
 20
-209.39170486
 30
0.0
 11
90.32323892
 21
-210.1417101
 31
0.0
  0
LINE
  5
59C
100
AcDbEntity
  8
LAYER0001
  6
CONTINUOUS
 62
       7
100
AcDbLine
 10
105.72323884
 20
-210.1417101
 30
0.0
 11
106.52323934
 21
-209.39170486
 31
0.0
  0
LINE
  5
59D
100
AcDbEntity
  8
LAYER0001
  6
CONTINUOUS
 62
       7
100
AcDbLine
 10
106.52323934
 20
-209.39170486
 30
0.0
 11
105.72323884
 21
-208.64169961
 31
0.0
  0
LINE
  5
59E
100
AcDbEntity
  8
LAYER0001
  6
CONTINUOUS
 62
       7
100
AcDbLine
 10
90.32323892
 20
-208.64169961
 30
0.0
 11
89.52323842
 21
-209.39170486
 31
0.0
  0
LINE
  5
59F
100
AcDbEntity
  8
LAYER0001
  6
CONTINUOUS
 62
       7
100
AcDbLine
 10
106.52323934
 20
-210.89171535
 30
0.0
 11
105.72323884
 21
-210.1417101
 31
0.0
  0
LINE
  5
5A0
100
AcDbEntity
  8
LAYER0001
  6
CONTINUOUS
 62
       7
100
AcDbLine
 10
90.32323892
 20
-210.1417101
 30
0.0
 11
89.52323842
 21
-210.89171535
 31
0.0
  0
LINE
  5
5A1
100
AcDbEntity
  8
LAYER0001
  6
CONTINUOUS
 62
       7
100
AcDbLine
 10
89.52323842
 20
-210.89171535
 30
0.0
 11
90.21657222
 21
-211.541704
 31
0.0
  0
LINE
  5
5A2
100
AcDbEntity
  8
LAYER0001
  6
CONTINUOUS
 62
       7
100
AcDbLine
 10
105.82990554
 20
-211.541704
 30
0.0
 11
106.52323934
 21
-210.89171535
 31
0.0
  0
LINE
  5
5A3
100
AcDbEntity
  8
LAYER0001
  6
CONTINUOUS
 62
       7
100
AcDbLine
 10
91.38371079
 20
-212.56884104
 30
0.0
 11
91.38371079
 21
-218.01455981
 31
0.0
  0
LINE
  5
5A4
100
AcDbEntity
  8
LAYER0001
  6
CONTINUOUS
 62
       7
100
AcDbLine
 10
84.7441827
 20
-212.56884104
 30
0.0
 11
84.7441827
 21
-218.01455981
 31
0.0
  0
LINE
  5
5A5
100
AcDbEntity
  8
LAYER0001
  6
CONTINUOUS
 62
       7
100
AcDbLine
 10
98.02323888
 20
-211.541704
 30
0.0
 11
88.06394628
 21
-211.541704
 31
0.0
  0
LINE
  5
5A6
100
AcDbEntity
  8
LAYER0001
  6
CONTINUOUS
 62
       7
100
AcDbLine
 10
104.66276697
 20
-212.56884104
 30
0.0
 11
104.66276697
 21
-218.01455981
 31
0.0
  0
LINE
  5
5A7
100
AcDbEntity
  8
LAYER0001
  6
CONTINUOUS
 62
       7
100
AcDbLine
 10
107.98253148
 20
-211.541704
 30
0.0
 11
98.02323888
 21
-211.541704
 31
0.0
  0
LINE
  5
5A8
100
AcDbEntity
  8
LAYER0001
  6
CONTINUOUS
 62
       7
100
AcDbLine
 10
111.30229506
 20
-212.56884104
 30
0.0
 11
111.30229506
 21
-218.01455981
 31
0.0
  0
LINE
  5
5A9
100
AcDbEntity
  8
LAYER0001
  6
CONTINUOUS
 62
       7
100
AcDbLine
 10
88.06394628
 20
-211.541704
 30
0.0
 11
86.52323886
 21
-211.541704
 31
0.0
  0
LINE
  5
5AA
100
AcDbEntity
  8
LAYER0001
  6
CONTINUOUS
 62
       7
100
AcDbLine
 10
109.5232389
 20
-211.541704
 30
0.0
 11
107.98253148
 21
-211.541704
 31
0.0
  0
LINE
  5
5AB
100
AcDbEntity
  8
LAYER0001
  6
CONTINUOUS
 62
       7
100
AcDbLine
 10
84.02323845
 20
-219.04169685
 30
0.0
 11
112.02323931
 21
-219.04169685
 31
0.0
  0
LINE
  5
5AC
100
AcDbEntity
  8
LAYER0001
  6
CONTINUOUS
 62
       7
100
AcDbLine
 10
89.37323867
 20
-206.141702
 30
0.0
 11
106.67323909
 21
-206.141702
 31
0.0
  0
LINE
  5
5AD
100
AcDbEntity
  8
LAYER0001
  6
CONTINUOUS
 62
       7
100
AcDbLine
 10
114.02323964
 20
-228.64171034
 30
0.0
 11
114.02323964
 21
-268.59616405
 31
0.0
  0
LINE
  5
5AE
100
AcDbEntity
  8
LAYER0001
  6
CONTINUOUS
 62
       7
100
AcDbLine
 10
82.02323812
 20
-228.64171034
 30
0.0
 11
82.02323812
 21
-268.59616405
 31
0.0
  0
LINE
  5
5AF
100
AcDbEntity
  8
LAYER0001
  6
CONTINUOUS
 62
       7
100
AcDbLine
 10
82.02323812
 20
-220.64169413
 30
0.0
 11
114.02323964
 21
-220.64169413
 31
0.0
  0
LINE
  5
5B0
100
AcDbEntity
  8
LAYER0001
  6
CONTINUOUS
 62
       7
100
AcDbLine
 10
114.02323964
 20
-220.64169413
 30
0.0
 11
114.02323964
 21
-228.64171034
 31
0.0
  0
LINE
  5
5B1
100
AcDbEntity
  8
LAYER0001
  6
CONTINUOUS
 62
       7
100
AcDbLine
 10
82.02323812
 20
-220.64169413
 30
0.0
 11
82.02323812
 21
-228.64171034
 31
0.0
  0
ARC
  5
5B2
100
AcDbEntity
  8
LAYER0001
  6
CONTINUOUS
 62
       7
100
AcDbCircle
 10
-360.4270216
 20
-218.22341198
 30
0.0
 40
2.00000062
100
AcDbArc
 50
95.0
 51
178.99985587
  0
ARC
  5
5B3
100
AcDbEntity
  8
LAYER0001
  6
CONTINUOUS
 62
       7
100
AcDbCircle
 10
-270.66029038
 20
-218.22341198
 30
0.0
 40
2.00000062
100
AcDbArc
 50
1.00014413
 51
85.0
  0
ARC
  5
5B4
100
AcDbEntity
  8
LAYER0001
  6
CONTINUOUS
 62
       7
100
AcDbCircle
 10
-290.32304547
 20
-204.45730515
 30
0.0
 40
10.00000064
100
AcDbArc
 50
183.0
 51
265.00000057
  0
ARC
  5
5B5
100
AcDbEntity
  8
LAYER0001
  6
CONTINUOUS
 62
       7
100
AcDbCircle
 10
-340.7642665
 20
-204.45730515
 30
0.0
 40
10.00000064
100
AcDbArc
 50
274.99999943
 51
357.0
  0
ARC
  5
5B6
100
AcDbEntity
  8
LAYER0001
  6
CONTINUOUS
 62
       7
100
AcDbCircle
 10
-191.67064115
 20
254.2620355
 30
0.0
 40
0.75
100
AcDbArc
 50
119.92643487
 51
240.07356513
  0
ARC
  5
5B7
100
AcDbEntity
  8
LAYER0001
  6
CONTINUOUS
 62
       7
100
AcDbCircle
 10
-191.67064115
 20
158.26203466
 30
0.0
 40
0.75
100
AcDbArc
 50
119.92643487
 51
240.07356513
  0
ARC
  5
5B8
100
AcDbEntity
  8
LAYER0001
  6
CONTINUOUS
 62
       7
100
AcDbCircle
 10
-191.67064115
 20
190.26203991
 30
0.0
 40
0.75
100
AcDbArc
 50
119.92643487
 51
240.07356513
  0
ARC
  5
5B9
100
AcDbEntity
  8
LAYER0001
  6
CONTINUOUS
 62
       7
100
AcDbCircle
 10
-154.42064258
 20
263.19565522
 30
0.0
 40
1.0
100
AcDbArc
 50
359.99999609
 51
442.67388065
  0
ARC
  5
5BA
100
AcDbEntity
  8
LAYER0001
  6
CONTINUOUS
 62
       7
100
AcDbCircle
 10
-331.20897924
 20
66.61202663
 30
0.0
 40
3.0
100
AcDbArc
 50
2.0
 51
90.0
  0
ARC
  5
5BB
100
AcDbEntity
  8
LAYER0001
  6
CONTINUOUS
 62
       7
100
AcDbCircle
 10
-299.87833319
 20
66.61202663
 30
0.0
 40
3.0
100
AcDbArc
 50
90.0
 51
178.0
  0
ARC
  5
5BC
100
AcDbEntity
  8
LAYER0001
  6
CONTINUOUS
 62
       7
100
AcDbCircle
 10
-304.0265006
 20
48.11202663
 30
0.0
 40
0.50000023
100
AcDbArc
 50
270.0
 51
357.99989896
  0
ARC
  5
5BD
100
AcDbEntity
  8
LAYER0001
  6
CONTINUOUS
 62
       7
100
AcDbCircle
 10
-327.06081183
 20
48.11202663
 30
0.0
 40
0.50000023
100
AcDbArc
 50
182.00010104
 51
270.0
  0
ARC
  5
5BE
100
AcDbEntity
  8
LAYER0001
  6
CONTINUOUS
 62
       7
100
AcDbCircle
 10
-315.54365599
 20
115.41202942
 30
0.0
 40
150.0
100
AcDbArc
 50
82.67388065
 51
86.93226718
  0
ARC
  5
5BF
100
AcDbEntity
  8
LAYER0001
  6
CONTINUOUS
 62
       7
100
AcDbCircle
 10
-308.94365599
 20
264.96646767
 30
0.0
 40
0.3
100
AcDbArc
 50
50.2363587
 51
87.4731145
  0
ARC
  5
5C0
100
AcDbEntity
  8
LAYER0001
  6
CONTINUOUS
 62
       7
100
AcDbCircle
 10
-333.79365599
 20
254.2620355
 30
0.0
 40
0.75
100
AcDbArc
 50
119.92643487
 51
240.07356513
  0
ARC
  5
5C1
100
AcDbEntity
  8
LAYER0001
  6
CONTINUOUS
 62
       7
100
AcDbCircle
 10
-297.29365599
 20
158.26203466
 30
0.0
 40
0.75
100
AcDbArc
 50
299.92643487
 51
420.07356513
  0
ARC
  5
5C2
100
AcDbEntity
  8
LAYER0001
  6
CONTINUOUS
 62
       7
100
AcDbCircle
 10
-333.79365599
 20
94.26202942
 30
0.0
 40
0.75
100
AcDbArc
 50
119.92643487
 51
240.07356513
  0
ARC
  5
5C3
100
AcDbEntity
  8
LAYER0001
  6
CONTINUOUS
 62
       7
100
AcDbCircle
 10
-296.54365742
 20
263.19565522
 30
0.0
 40
1.0
100
AcDbArc
 50
359.99999609
 51
442.67388065
  0
ARC
  5
5C4
100
AcDbEntity
  8
LAYER0001
  6
CONTINUOUS
 62
       7
100
AcDbCircle
 10
-333.79365599
 20
222.26203025
 30
0.0
 40
0.75
100
AcDbArc
 50
119.92643487
 51
240.07356513
  0
ARC
  5
5C5
100
AcDbEntity
  8
LAYER0001
  6
CONTINUOUS
 62
       7
100
AcDbCircle
 10
-315.54365599
 20
115.41202942
 30
0.0
 40
150.0
100
AcDbArc
 50
93.06773282
 51
97.32611935
  0
ARC
  5
5C6
100
AcDbEntity
  8
LAYER0001
  6
CONTINUOUS
 62
       7
100
AcDbCircle
 10
-297.29365599
 20
254.2620355
 30
0.0
 40
0.75
100
AcDbArc
 50
299.92643487
 51
420.07356513
  0
ARC
  5
5C7
100
AcDbEntity
  8
LAYER0001
  6
CONTINUOUS
 62
       7
100
AcDbCircle
 10
-322.14365599
 20
264.96646767
 30
0.0
 40
0.3
100
AcDbArc
 50
92.5268855
 51
129.7636413
  0
ARC
  5
5C8
100
AcDbEntity
  8
LAYER0001
  6
CONTINUOUS
 62
       7
100
AcDbCircle
 10
-333.79365599
 20
190.26203991
 30
0.0
 40
0.75
100
AcDbArc
 50
119.92643487
 51
240.07356513
  0
ARC
  5
5C9
100
AcDbEntity
  8
LAYER0001
  6
CONTINUOUS
 62
       7
100
AcDbCircle
 10
-334.54365455
 20
263.19565522
 30
0.0
 40
1.0
100
AcDbArc
 50
97.32611934
 51
179.9999932
  0
ARC
  5
5CA
100
AcDbEntity
  8
LAYER0001
  6
CONTINUOUS
 62
       7
100
AcDbCircle
 10
-297.29365599
 20
126.26202942
 30
0.0
 40
0.75
100
AcDbArc
 50
299.92643487
 51
420.07356513
  0
ARC
  5
5CB
100
AcDbEntity
  8
LAYER0001
  6
CONTINUOUS
 62
       7
100
AcDbCircle
 10
-297.29365599
 20
222.26203025
 30
0.0
 40
0.75
100
AcDbArc
 50
299.92643487
 51
420.07356513
  0
ARC
  5
5CC
100
AcDbEntity
  8
LAYER0001
  6
CONTINUOUS
 62
       7
100
AcDbCircle
 10
-333.79365599
 20
158.26203466
 30
0.0
 40
0.75
100
AcDbArc
 50
119.92643487
 51
240.07356513
  0
ARC
  5
5CD
100
AcDbEntity
  8
LAYER0001
  6
CONTINUOUS
 62
       7
100
AcDbCircle
 10
-315.54365599
 20
115.41202942
 30
0.0
 40
150.0
100
AcDbArc
 50
87.4731145
 51
92.5268855
  0
ARC
  5
5CE
100
AcDbEntity
  8
LAYER0001
  6
CONTINUOUS
 62
       7
100
AcDbCircle
 10
-297.29365599
 20
94.26202942
 30
0.0
 40
0.75
100
AcDbArc
 50
299.92643487
 51
420.07356513
  0
ARC
  5
5CF
100
AcDbEntity
  8
LAYER0001
  6
CONTINUOUS
 62
       7
100
AcDbCircle
 10
-297.29365599
 20
190.26203991
 30
0.0
 40
0.75
100
AcDbArc
 50
299.92643487
 51
420.07356513
  0
ARC
  5
5D0
100
AcDbEntity
  8
LAYER0001
  6
CONTINUOUS
 62
       7
100
AcDbCircle
 10
-333.79365599
 20
126.26202942
 30
0.0
 40
0.75
100
AcDbArc
 50
119.92643487
 51
240.07356513
  0
ARC
  5
5D1
100
AcDbEntity
  8
LAYER0001
  6
CONTINUOUS
 62
       7
100
AcDbCircle
 10
-155.17064115
 20
190.26203991
 30
0.0
 40
0.75
100
AcDbArc
 50
299.92643487
 51
420.07356513
  0
ARC
  5
5D2
100
AcDbEntity
  8
LAYER0001
  6
CONTINUOUS
 62
       7
100
AcDbCircle
 10
-173.42064115
 20
115.41202942
 30
0.0
 40
150.0
100
AcDbArc
 50
82.67388065
 51
86.93226718
  0
ARC
  5
5D3
100
AcDbEntity
  8
LAYER0001
  6
CONTINUOUS
 62
       7
100
AcDbCircle
 10
-155.17064115
 20
254.2620355
 30
0.0
 40
0.75
100
AcDbArc
 50
299.92643487
 51
420.07356513
  0
ARC
  5
5D4
100
AcDbEntity
  8
LAYER0001
  6
CONTINUOUS
 62
       7
100
AcDbCircle
 10
-155.17064115
 20
158.26203466
 30
0.0
 40
0.75
100
AcDbArc
 50
299.92643487
 51
420.07356513
  0
ARC
  5
5D5
100
AcDbEntity
  8
LAYER0001
  6
CONTINUOUS
 62
       7
100
AcDbCircle
 10
-173.42064115
 20
115.41202942
 30
0.0
 40
150.0
100
AcDbArc
 50
87.4731145
 51
92.5268855
  0
ARC
  5
5D6
100
AcDbEntity
  8
LAYER0001
  6
CONTINUOUS
 62
       7
100
AcDbCircle
 10
-189.0859644
 20
66.61202663
 30
0.0
 40
3.0
100
AcDbArc
 50
2.0
 51
90.0
  0
ARC
  5
5D7
100
AcDbEntity
  8
LAYER0001
  6
CONTINUOUS
 62
       7
100
AcDbCircle
 10
-192.42063972
 20
263.19565522
 30
0.0
 40
1.0
100
AcDbArc
 50
97.32611935
 51
179.9999932
  0
ARC
  5
5D8
100
AcDbEntity
  8
LAYER0001
  6
CONTINUOUS
 62
       7
100
AcDbCircle
 10
-191.67064115
 20
222.26203025
 30
0.0
 40
0.75
100
AcDbArc
 50
119.92643487
 51
240.07356513
  0
ARC
  5
5D9
100
AcDbEntity
  8
LAYER0001
  6
CONTINUOUS
 62
       7
100
AcDbCircle
 10
-191.67064115
 20
126.26202942
 30
0.0
 40
0.75
100
AcDbArc
 50
119.92643487
 51
240.07356513
  0
ARC
  5
5DA
100
AcDbEntity
  8
LAYER0001
  6
CONTINUOUS
 62
       7
100
AcDbCircle
 10
-166.82064115
 20
264.96646767
 30
0.0
 40
0.3
100
AcDbArc
 50
50.2363587
 51
87.47311452
  0
ARC
  5
5DB
100
AcDbEntity
  8
LAYER0001
  6
CONTINUOUS
 62
       7
100
AcDbCircle
 10
-155.17064115
 20
222.26203025
 30
0.0
 40
0.75
100
AcDbArc
 50
299.92643487
 51
420.07356513
  0
ARC
  5
5DC
100
AcDbEntity
  8
LAYER0001
  6
CONTINUOUS
 62
       7
100
AcDbCircle
 10
-180.02064115
 20
264.96646767
 30
0.0
 40
0.3
100
AcDbArc
 50
92.52688548
 51
129.7636413
  0
ARC
  5
5DD
100
AcDbEntity
  8
LAYER0001
  6
CONTINUOUS
 62
       7
100
AcDbCircle
 10
-191.67064115
 20
94.26202942
 30
0.0
 40
0.75
100
AcDbArc
 50
119.92643487
 51
240.07356513
  0
ARC
  5
5DE
100
AcDbEntity
  8
LAYER0001
  6
CONTINUOUS
 62
       7
100
AcDbCircle
 10
-155.17064115
 20
94.26202942
 30
0.0
 40
0.75
100
AcDbArc
 50
299.92643487
 51
420.07356513
  0
ARC
  5
5DF
100
AcDbEntity
  8
LAYER0001
  6
CONTINUOUS
 62
       7
100
AcDbCircle
 10
-155.17064115
 20
126.26202942
 30
0.0
 40
0.75
100
AcDbArc
 50
299.92643487
 51
420.07356513
  0
ARC
  5
5E0
100
AcDbEntity
  8
LAYER0001
  6
CONTINUOUS
 62
       7
100
AcDbCircle
 10
-157.75531835
 20
66.61202663
 30
0.0
 40
3.0
100
AcDbArc
 50
90.0
 51
178.0
  0
ARC
  5
5E1
100
AcDbEntity
  8
LAYER0001
  6
CONTINUOUS
 62
       7
100
AcDbCircle
 10
-173.42064115
 20
115.41202942
 30
0.0
 40
150.0
100
AcDbArc
 50
93.06773282
 51
97.32611935
  0
ARC
  5
5E2
100
AcDbEntity
  8
LAYER0001
  6
CONTINUOUS
 62
       7
100
AcDbCircle
 10
116.27323888
 20
133.50830126
 30
0.0
 40
0.75
100
AcDbArc
 50
299.92643487
 51
420.07356513
  0
ARC
  5
5E3
100
AcDbEntity
  8
LAYER0001
  6
CONTINUOUS
 62
       7
100
AcDbCircle
 10
79.77323888
 20
101.50830126
 30
0.0
 40
0.75
100
AcDbArc
 50
119.92643487
 51
240.07356513
  0
ARC
  5
5E4
100
AcDbEntity
  8
LAYER0001
  6
CONTINUOUS
 62
       7
100
AcDbCircle
 10
116.27323888
 20
197.50831175
 30
0.0
 40
0.75
100
AcDbArc
 50
299.92643487
 51
420.07356513
  0
ARC
  5
5E5
100
AcDbEntity
  8
LAYER0001
  6
CONTINUOUS
 62
       7
100
AcDbCircle
 10
82.35791563
 20
73.85829848
 30
0.0
 40
3.0
100
AcDbArc
 50
2.0
 51
90.0
  0
ARC
  5
5E6
100
AcDbEntity
  8
LAYER0001
  6
CONTINUOUS
 62
       7
100
AcDbCircle
 10
91.42323888
 20
272.21273951
 30
0.0
 40
0.3
100
AcDbArc
 50
92.5268855
 51
129.7636413
  0
ARC
  5
5E7
100
AcDbEntity
  8
LAYER0001
  6
CONTINUOUS
 62
       7
100
AcDbCircle
 10
104.62323888
 20
272.21273951
 30
0.0
 40
0.3
100
AcDbArc
 50
50.2363587
 51
87.4731145
  0
ARC
  5
5E8
100
AcDbEntity
  8
LAYER0001
  6
CONTINUOUS
 62
       7
100
AcDbCircle
 10
79.77323888
 20
165.50830651
 30
0.0
 40
0.75
100
AcDbArc
 50
119.92643487
 51
240.07356513
  0
ARC
  5
5E9
100
AcDbEntity
  8
LAYER0001
  6
CONTINUOUS
 62
       7
100
AcDbCircle
 10
79.77323888
 20
229.5083021
 30
0.0
 40
0.75
100
AcDbArc
 50
119.92643487
 51
240.07356513
  0
ARC
  5
5EA
100
AcDbEntity
  8
LAYER0001
  6
CONTINUOUS
 62
       7
100
AcDbCircle
 10
109.54039426
 20
55.35829847
 30
0.0
 40
0.50000023
100
AcDbArc
 50
270.0
 51
357.99989896
  0
ARC
  5
5EB
100
AcDbEntity
  8
LAYER0001
  6
CONTINUOUS
 62
       7
100
AcDbCircle
 10
79.02324031
 20
270.44192706
 30
0.0
 40
1.0
100
AcDbArc
 50
97.32611935
 51
179.9999932
  0
ARC
  5
5EC
100
AcDbEntity
  8
LAYER0001
  6
CONTINUOUS
 62
       7
100
AcDbCircle
 10
116.27323888
 20
165.50830651
 30
0.0
 40
0.75
100
AcDbArc
 50
299.92643487
 51
420.07356513
  0
ARC
  5
5ED
100
AcDbEntity
  8
LAYER0001
  6
CONTINUOUS
 62
       7
100
AcDbCircle
 10
116.27323888
 20
101.50830126
 30
0.0
 40
0.75
100
AcDbArc
 50
299.92643487
 51
420.07356513
  0
ARC
  5
5EE
100
AcDbEntity
  8
LAYER0001
  6
CONTINUOUS
 62
       7
100
AcDbCircle
 10
116.27323888
 20
261.50830734
 30
0.0
 40
0.75
100
AcDbArc
 50
299.92643487
 51
420.07356513
  0
ARC
  5
5EF
100
AcDbEntity
  8
LAYER0001
  6
CONTINUOUS
 62
       7
100
AcDbCircle
 10
98.02323888
 20
122.65830126
 30
0.0
 40
150.0
100
AcDbArc
 50
82.67388065
 51
86.93226718
  0
ARC
  5
5F0
100
AcDbEntity
  8
LAYER0001
  6
CONTINUOUS
 62
       7
100
AcDbCircle
 10
116.27323888
 20
229.5083021
 30
0.0
 40
0.75
100
AcDbArc
 50
299.92643487
 51
420.07356513
  0
ARC
  5
5F1
100
AcDbEntity
  8
LAYER0001
  6
CONTINUOUS
 62
       7
100
AcDbCircle
 10
117.02323745
 20
270.44192706
 30
0.0
 40
1.0
100
AcDbArc
 50
359.99999609
 51
442.67388065
  0
ARC
  5
5F2
100
AcDbEntity
  8
LAYER0001
  6
CONTINUOUS
 62
       7
100
AcDbCircle
 10
113.68856167
 20
73.85829848
 30
0.0
 40
3.0
100
AcDbArc
 50
90.0
 51
178.0
  0
ARC
  5
5F3
100
AcDbEntity
  8
LAYER0001
  6
CONTINUOUS
 62
       7
100
AcDbCircle
 10
79.77323888
 20
133.50830126
 30
0.0
 40
0.75
100
AcDbArc
 50
119.92643487
 51
240.07356513
  0
ARC
  5
5F4
100
AcDbEntity
  8
LAYER0001
  6
CONTINUOUS
 62
       7
100
AcDbCircle
 10
79.77323888
 20
197.50831175
 30
0.0
 40
0.75
100
AcDbArc
 50
119.92643487
 51
240.07356513
  0
ARC
  5
5F5
100
AcDbEntity
  8
LAYER0001
  6
CONTINUOUS
 62
       7
100
AcDbCircle
 10
79.77323888
 20
261.50830734
 30
0.0
 40
0.75
100
AcDbArc
 50
119.92643487
 51
240.07356513
  0
ARC
  5
5F6
100
AcDbEntity
  8
LAYER0001
  6
CONTINUOUS
 62
       7
100
AcDbCircle
 10
98.02323888
 20
122.65830126
 30
0.0
 40
150.0
100
AcDbArc
 50
87.4731145
 51
92.5268855
  0
ARC
  5
5F7
100
AcDbEntity
  8
LAYER0001
  6
CONTINUOUS
 62
       7
100
AcDbCircle
 10
98.02323888
 20
122.65830126
 30
0.0
 40
150.0
100
AcDbArc
 50
93.06773282
 51
97.32611935
  0
ARC
  5
5F8
100
AcDbEntity
  8
LAYER0001
  6
CONTINUOUS
 62
       7
100
AcDbCircle
 10
86.50608304
 20
55.35829847
 30
0.0
 40
0.50000023
100
AcDbArc
 50
182.00010104
 51
270.0
  0
ARC
  5
5F9
100
AcDbEntity
  8
LAYER0001
  6
CONTINUOUS
 62
       7
100
AcDbCircle
 10
277.16925443
 20
133.50830126
 30
0.0
 40
0.75
100
AcDbArc
 50
299.92643487
 51
420.07356513
  0
ARC
  5
5FA
100
AcDbEntity
  8
LAYER0001
  6
CONTINUOUS
 62
       7
100
AcDbCircle
 10
240.66925443
 20
101.50830126
 30
0.0
 40
0.75
100
AcDbArc
 50
119.92643487
 51
240.07356513
  0
ARC
  5
5FB
100
AcDbEntity
  8
LAYER0001
  6
CONTINUOUS
 62
       7
100
AcDbCircle
 10
277.16925443
 20
197.50831175
 30
0.0
 40
0.75
100
AcDbArc
 50
299.92643487
 51
420.07356513
  0
ARC
  5
5FC
100
AcDbEntity
  8
LAYER0001
  6
CONTINUOUS
 62
       7
100
AcDbCircle
 10
243.25393118
 20
73.85829848
 30
0.0
 40
3.0
100
AcDbArc
 50
2.0
 51
90.0
  0
ARC
  5
5FD
100
AcDbEntity
  8
LAYER0001
  6
CONTINUOUS
 62
       7
100
AcDbCircle
 10
252.31925443
 20
272.21273951
 30
0.0
 40
0.3
100
AcDbArc
 50
92.5268855
 51
129.7636413
  0
ARC
  5
5FE
100
AcDbEntity
  8
LAYER0001
  6
CONTINUOUS
 62
       7
100
AcDbCircle
 10
265.51925443
 20
272.21273951
 30
0.0
 40
0.3
100
AcDbArc
 50
50.2363587
 51
87.4731145
  0
ARC
  5
5FF
100
AcDbEntity
  8
LAYER0001
  6
CONTINUOUS
 62
       7
100
AcDbCircle
 10
240.66925443
 20
165.50830651
 30
0.0
 40
0.75
100
AcDbArc
 50
119.92643487
 51
240.07356513
  0
ARC
  5
600
100
AcDbEntity
  8
LAYER0001
  6
CONTINUOUS
 62
       7
100
AcDbCircle
 10
240.66925443
 20
229.5083021
 30
0.0
 40
0.75
100
AcDbArc
 50
119.92643487
 51
240.07356513
  0
ARC
  5
601
100
AcDbEntity
  8
LAYER0001
  6
CONTINUOUS
 62
       7
100
AcDbCircle
 10
270.43640982
 20
55.35829847
 30
0.0
 40
0.50000023
100
AcDbArc
 50
270.0
 51
357.99989896
  0
ARC
  5
602
100
AcDbEntity
  8
LAYER0001
  6
CONTINUOUS
 62
       7
100
AcDbCircle
 10
239.91925587
 20
270.44192706
 30
0.0
 40
1.0
100
AcDbArc
 50
97.32611935
 51
179.9999932
  0
ARC
  5
603
100
AcDbEntity
  8
LAYER0001
  6
CONTINUOUS
 62
       7
100
AcDbCircle
 10
277.16925443
 20
165.50830651
 30
0.0
 40
0.75
100
AcDbArc
 50
299.92643487
 51
420.07356513
  0
ARC
  5
604
100
AcDbEntity
  8
LAYER0001
  6
CONTINUOUS
 62
       7
100
AcDbCircle
 10
277.16925443
 20
101.50830126
 30
0.0
 40
0.75
100
AcDbArc
 50
299.92643487
 51
420.07356513
  0
ARC
  5
605
100
AcDbEntity
  8
LAYER0001
  6
CONTINUOUS
 62
       7
100
AcDbCircle
 10
277.16925443
 20
261.50830734
 30
0.0
 40
0.75
100
AcDbArc
 50
299.92643487
 51
420.07356513
  0
ARC
  5
606
100
AcDbEntity
  8
LAYER0001
  6
CONTINUOUS
 62
       7
100
AcDbCircle
 10
258.91925443
 20
122.65830126
 30
0.0
 40
150.0
100
AcDbArc
 50
82.67388065
 51
86.93226718
  0
ARC
  5
607
100
AcDbEntity
  8
LAYER0001
  6
CONTINUOUS
 62
       7
100
AcDbCircle
 10
277.16925443
 20
229.5083021
 30
0.0
 40
0.75
100
AcDbArc
 50
299.92643487
 51
420.07356513
  0
ARC
  5
608
100
AcDbEntity
  8
LAYER0001
  6
CONTINUOUS
 62
       7
100
AcDbCircle
 10
277.919253
 20
270.44192706
 30
0.0
 40
1.0
100
AcDbArc
 50
359.99999609
 51
442.67388065
  0
ARC
  5
609
100
AcDbEntity
  8
LAYER0001
  6
CONTINUOUS
 62
       7
100
AcDbCircle
 10
274.58457723
 20
73.85829848
 30
0.0
 40
3.0
100
AcDbArc
 50
90.0
 51
178.0
  0
ARC
  5
60A
100
AcDbEntity
  8
LAYER0001
  6
CONTINUOUS
 62
       7
100
AcDbCircle
 10
240.66925443
 20
133.50830126
 30
0.0
 40
0.75
100
AcDbArc
 50
119.92643487
 51
240.07356513
  0
ARC
  5
60B
100
AcDbEntity
  8
LAYER0001
  6
CONTINUOUS
 62
       7
100
AcDbCircle
 10
240.66925443
 20
197.50831175
 30
0.0
 40
0.75
100
AcDbArc
 50
119.92643487
 51
240.07356513
  0
ARC
  5
60C
100
AcDbEntity
  8
LAYER0001
  6
CONTINUOUS
 62
       7
100
AcDbCircle
 10
240.66925443
 20
261.50830734
 30
0.0
 40
0.75
100
AcDbArc
 50
119.92643487
 51
240.07356513
  0
ARC
  5
60D
100
AcDbEntity
  8
LAYER0001
  6
CONTINUOUS
 62
       7
100
AcDbCircle
 10
258.91925443
 20
122.65830126
 30
0.0
 40
150.0
100
AcDbArc
 50
87.4731145
 51
92.5268855
  0
ARC
  5
60E
100
AcDbEntity
  8
LAYER0001
  6
CONTINUOUS
 62
       7
100
AcDbCircle
 10
258.91925443
 20
122.65830126
 30
0.0
 40
150.0
100
AcDbArc
 50
93.06773282
 51
97.32611935
  0
ARC
  5
60F
100
AcDbEntity
  8
LAYER0001
  6
CONTINUOUS
 62
       7
100
AcDbCircle
 10
247.40209859
 20
55.35829847
 30
0.0
 40
0.50000023
100
AcDbArc
 50
182.00010104
 51
270.0
  0
ARC
  5
610
100
AcDbEntity
  8
LAYER0001
  6
CONTINUOUS
 62
       7
100
AcDbCircle
 10
266.11925446
 20
-250.14170152
 30
0.0
 40
0.49999998
100
AcDbArc
 50
270.0
 51
359.99997268
  0
ARC
  5
611
100
AcDbEntity
  8
LAYER0001
  6
CONTINUOUS
 62
       7
100
AcDbCircle
 10
251.71925446
 20
-250.14170152
 30
0.0
 40
0.49999998
100
AcDbArc
 50
180.00002732
 51
270.0
  0
ARC
  5
612
100
AcDbEntity
  8
LAYER0001
  6
CONTINUOUS
 62
       7
100
AcDbCircle
 10
265.69004261
 20
-250.84170152
 30
0.0
 40
0.10000267
100
AcDbArc
 50
270.0
 51
339.99553297
  0
ARC
  5
613
100
AcDbEntity
  8
LAYER0001
  6
CONTINUOUS
 62
       7
100
AcDbCircle
 10
252.14846626
 20
-250.84170152
 30
0.0
 40
0.10000267
100
AcDbArc
 50
200.00446705
 51
270.0
  0
ARC
  5
614
100
AcDbEntity
  8
LAYER0001
  6
CONTINUOUS
 62
       7
100
AcDbCircle
 10
236.91925813
 20
-228.64170152
 30
0.0
 40
5.0
100
AcDbArc
 50
90.0
 51
180.0
  0
ARC
  5
615
100
AcDbEntity
  8
LAYER0001
  6
CONTINUOUS
 62
       7
100
AcDbCircle
 10
236.91925813
 20
-228.64170152
 30
0.0
 40
8.0000037
100
AcDbArc
 50
89.99999915
 51
180.0
  0
ARC
  5
616
100
AcDbEntity
  8
LAYER0001
  6
CONTINUOUS
 62
       7
100
AcDbCircle
 10
-218.30400676
 20
-218.22341198
 30
0.0
 40
2.00000062
100
AcDbArc
 50
95.0
 51
178.99985587
  0
ARC
  5
617
100
AcDbEntity
  8
LAYER0001
  6
CONTINUOUS
 62
       7
100
AcDbCircle
 10
-128.53727554
 20
-218.22341198
 30
0.0
 40
2.00000062
100
AcDbArc
 50
1.00014413
 51
85.0
  0
ARC
  5
618
100
AcDbEntity
  8
LAYER0001
  6
CONTINUOUS
 62
       7
100
AcDbCircle
 10
-148.20003063
 20
-204.45730515
 30
0.0
 40
10.00000064
100
AcDbArc
 50
183.0
 51
265.00000057
  0
ARC
  5
619
100
AcDbEntity
  8
LAYER0001
  6
CONTINUOUS
 62
       7
100
AcDbCircle
 10
-198.64125163
 20
-204.45730547
 30
0.0
 40
10.00000032
100
AcDbArc
 50
274.99999944
 51
357.0
  0
ARC
  5
61A
100
AcDbEntity
  8
LAYER0001
  6
CONTINUOUS
 62
       7
100
AcDbCircle
 10
-161.90348576
 20
48.11202663
 30
0.0
 40
0.50000023
100
AcDbArc
 50
270.0
 51
357.99989897
  0
ARC
  5
61B
100
AcDbEntity
  8
LAYER0001
  6
CONTINUOUS
 62
       7
100
AcDbCircle
 10
-184.93779699
 20
48.11202663
 30
0.0
 40
0.50000023
100
AcDbArc
 50
182.00010104
 51
270.0
  0
ARC
  5
61C
100
AcDbEntity
  8
LAYER0001
  6
CONTINUOUS
 62
       7
100
AcDbCircle
 10
111.02323888
 20
-268.59615267
 30
0.0
 40
3.0
100
AcDbArc
 50
319.8808331
 51
360.0
  0
ARC
  5
61D
100
AcDbEntity
  8
LAYER0001
  6
CONTINUOUS
 62
       7
100
AcDbCircle
 10
98.02323888
 20
-257.64170152
 30
0.0
 40
20.0
100
AcDbArc
 50
220.1191669
 51
319.8808331
  0
CIRCLE
  5
61E
100
AcDbEntity
  8
LAYER0001
  6
CONTINUOUS
 62
       7
100
AcDbCircle
 10
98.02323888
 20
-247.64170152
 30
0.0
 40
4.5
  0
CIRCLE
  5
61F
100
AcDbEntity
  8
LAYER0001
  6
CONTINUOUS
 62
       7
100
AcDbCircle
 10
98.02323888
 20
-267.64170152
 30
0.0
 40
4.5
  0
ARC
  5
620
100
AcDbEntity
  8
LAYER0001
  6
CONTINUOUS
 62
       7
100
AcDbCircle
 10
85.02323888
 20
-268.59615267
 30
0.0
 40
3.0
100
AcDbArc
 50
180.0
 51
220.1191669
  0
LINE
  5
621
100
AcDbEntity
  8
LAYER0001
  6
CONTINUOUS
 62
       7
100
AcDbLine
 10
-335.54365554
 20
73.61202663
 30
0.0
 11
-335.54365554
 21
71.21676989
 31
0.0
  0
LINE
  5
622
100
AcDbEntity
  8
LAYER0001
  6
CONTINUOUS
 62
       7
100
AcDbLine
 10
-295.54365643
 20
73.61202663
 30
0.0
 11
-295.54365643
 21
71.21676989
 31
0.0
  0
INSERT
  5
623
100
AcDbEntity
  8
LAYER0001
  6
CONTINUOUS
100
AcDbBlockReference
  2
GROUP_1
 10
0.0
 20
0.0
 30
0.0
  0
INSERT
  5
624
100
AcDbEntity
  8
LAYER0001
  6
CONTINUOUS
100
AcDbBlockReference
  2
GROUP_2
 10
0.0
 20
0.0
 30
0.0
  0
INSERT
  5
625
100
AcDbEntity
  8
LAYER0001
  6
CONTINUOUS
100
AcDbBlockReference
  2
GROUP_3
 10
0.0
 20
0.0
 30
0.0
  0
INSERT
  5
626
100
AcDbEntity
  8
LAYER0001
  6
CONTINUOUS
100
AcDbBlockReference
  2
GROUP_4
 10
0.0
 20
0.0
 30
0.0
  0
INSERT
  5
627
100
AcDbEntity
  8
LAYER0001
  6
CONTINUOUS
100
AcDbBlockReference
  2
GROUP_5
 10
0.0
 20
0.0
 30
0.0
  0
INSERT
  5
628
100
AcDbEntity
  8
LAYER0001
  6
CONTINUOUS
100
AcDbBlockReference
  2
GROUP_6
 10
0.0
 20
0.0
 30
0.0
  0
INSERT
  5
629
100
AcDbEntity
  8
LAYER0001
  6
CONTINUOUS
100
AcDbBlockReference
  2
GROUP_7
 10
0.0
 20
0.0
 30
0.0
  0
INSERT
  5
62A
100
AcDbEntity
  8
LAYER0001
  6
CONTINUOUS
100
AcDbBlockReference
  2
GROUP_8
 10
0.0
 20
0.0
 30
0.0
  0
INSERT
  5
62B
100
AcDbEntity
  8
LAYER0001
  6
CONTINUOUS
100
AcDbBlockReference
  2
GROUP_9
 10
0.0
 20
0.0
 30
0.0
  0
INSERT
  5
62C
100
AcDbEntity
  8
LAYER0001
  6
CONTINUOUS
100
AcDbBlockReference
  2
GROUP_10
 10
0.0
 20
0.0
 30
0.0
  0
INSERT
  5
62D
100
AcDbEntity
  8
LAYER0001
  6
CONTINUOUS
100
AcDbBlockReference
  2
GROUP_11
 10
0.0
 20
0.0
 30
0.0
  0
INSERT
  5
62E
100
AcDbEntity
  8
LAYER0001
  6
CONTINUOUS
100
AcDbBlockReference
  2
GROUP_12
 10
0.0
 20
0.0
 30
0.0
  0
INSERT
  5
62F
100
AcDbEntity
  8
LAYER0001
  6
CONTINUOUS
100
AcDbBlockReference
  2
GROUP_13
 10
0.0
 20
0.0
 30
0.0
  0
INSERT
  5
630
100
AcDbEntity
  8
LAYER0001
  6
CONTINUOUS
100
AcDbBlockReference
  2
GROUP_14
 10
0.0
 20
0.0
 30
0.0
  0
INSERT
  5
631
100
AcDbEntity
  8
LAYER0001
  6
CONTINUOUS
100
AcDbBlockReference
  2
GROUP_15
 10
0.0
 20
0.0
 30
0.0
  0
INSERT
  5
632
100
AcDbEntity
  8
LAYER0001
  6
CONTINUOUS
100
AcDbBlockReference
  2
GROUP_16
 10
0.0
 20
0.0
 30
0.0
  0
INSERT
  5
633
100
AcDbEntity
  8
LAYER0001
  6
CONTINUOUS
100
AcDbBlockReference
  2
GROUP_17
 10
0.0
 20
0.0
 30
0.0
  0
INSERT
  5
634
100
AcDbEntity
  8
LAYER0001
  6
CONTINUOUS
100
AcDbBlockReference
  2
GROUP_18
 10
0.0
 20
0.0
 30
0.0
  0
INSERT
  5
635
100
AcDbEntity
  8
LAYER0001
  6
CONTINUOUS
100
AcDbBlockReference
  2
GROUP_19
 10
0.0
 20
0.0
 30
0.0
  0
INSERT
  5
636
100
AcDbEntity
  8
LAYER0001
  6
CONTINUOUS
100
AcDbBlockReference
  2
GROUP_20
 10
0.0
 20
0.0
 30
0.0
  0
INSERT
  5
637
100
AcDbEntity
  8
LAYER0001
  6
CONTINUOUS
100
AcDbBlockReference
  2
GROUP_21
 10
0.0
 20
0.0
 30
0.0
  0
INSERT
  5
638
100
AcDbEntity
  8
LAYER0001
  6
CONTINUOUS
100
AcDbBlockReference
  2
GROUP_22
 10
0.0
 20
0.0
 30
0.0
  0
INSERT
  5
639
100
AcDbEntity
  8
LAYER0001
  6
CONTINUOUS
100
AcDbBlockReference
  2
GROUP_23
 10
0.0
 20
0.0
 30
0.0
  0
INSERT
  5
63A
100
AcDbEntity
  8
LAYER0001
  6
CONTINUOUS
100
AcDbBlockReference
  2
GROUP_24
 10
0.0
 20
0.0
 30
0.0
  0
INSERT
  5
63B
100
AcDbEntity
  8
LAYER0001
  6
CONTINUOUS
100
AcDbBlockReference
  2
GROUP_25
 10
0.0
 20
0.0
 30
0.0
  0
INSERT
  5
63C
100
AcDbEntity
  8
LAYER0001
  6
CONTINUOUS
100
AcDbBlockReference
  2
GROUP_26
 10
0.0
 20
0.0
 30
0.0
  0
INSERT
  5
63D
100
AcDbEntity
  8
LAYER0001
  6
CONTINUOUS
100
AcDbBlockReference
  2
GROUP_27
 10
0.0
 20
0.0
 30
0.0
  0
INSERT
  5
63E
100
AcDbEntity
  8
LAYER0001
  6
CONTINUOUS
100
AcDbBlockReference
  2
GROUP_28
 10
0.0
 20
0.0
 30
0.0
  0
INSERT
  5
63F
100
AcDbEntity
  8
LAYER0001
  6
CONTINUOUS
100
AcDbBlockReference
  2
GROUP_29
 10
0.0
 20
0.0
 30
0.0
  0
INSERT
  5
640
100
AcDbEntity
  8
LAYER0001
  6
CONTINUOUS
100
AcDbBlockReference
  2
GROUP_30
 10
0.0
 20
0.0
 30
0.0
  0
INSERT
  5
641
100
AcDbEntity
  8
LAYER0001
  6
CONTINUOUS
100
AcDbBlockReference
  2
GROUP_31
 10
0.0
 20
0.0
 30
0.0
  0
INSERT
  5
642
100
AcDbEntity
  8
LAYER0001
  6
CONTINUOUS
100
AcDbBlockReference
  2
GROUP_32
 10
0.0
 20
0.0
 30
0.0
  0
INSERT
  5
643
100
AcDbEntity
  8
LAYER0001
  6
CONTINUOUS
100
AcDbBlockReference
  2
GROUP_33
 10
0.0
 20
0.0
 30
0.0
  0
INSERT
  5
644
100
AcDbEntity
  8
LAYER0001
  6
CONTINUOUS
100
AcDbBlockReference
  2
GROUP_34
 10
0.0
 20
0.0
 30
0.0
  0
INSERT
  5
645
100
AcDbEntity
  8
LAYER0001
  6
CONTINUOUS
100
AcDbBlockReference
  2
GROUP_35
 10
0.0
 20
0.0
 30
0.0
  0
INSERT
  5
646
100
AcDbEntity
  8
LAYER0001
  6
CONTINUOUS
100
AcDbBlockReference
  2
GROUP_36
 10
0.0
 20
0.0
 30
0.0
  0
TEXT
  5
647
100
AcDbEntity
  8
LAYER0001
 62
       7
100
AcDbText
 10
314.40995689
 20
-269.52175975
 30
0.0
 40
9.525
  1
000
 72
       5
 11
342.98495689
 21
-269.52175975
 31
0.0
100
AcDbText
  0
TEXT
  5
648
100
AcDbEntity
  8
LAYER0001
 62
       7
100
AcDbText
 10
-150.68796518
 20
-250.36666208
 30
0.0
 40
6.35
  1
Lamp 5 Layers shown
 72
       5
 11
-30.03796518
 21
-250.36666208
 31
0.0
100
AcDbText
  0
TEXT
  5
649
100
AcDbEntity
  8
LAYER0001
 62
       7
100
AcDbText
 10
301.95942031
 20
-250.36666208
 30
0.0
 40
6.35
  1
Lamp 5 Layers shown
 72
       5
 11
422.60942031
 21
-250.36666208
 31
0.0
100
AcDbText
  0
ENDSEC
  0
SECTION
  2
OBJECTS
  0
DICTIONARY
  5
19
100
AcDbDictionary
  3
ACAD_GROUP
350
1A
  3
ACAD_MLINESTYLE
350
1B
  0
DICTIONARY
  5
1A
102
{ACAD_REACTORS
330
19
102
}
100
AcDbDictionary
  0
DICTIONARY
  5
1B
102
{ACAD_REACTORS
330
19
102
}
100
AcDbDictionary
  3
STANDARD
350
1C
  0
MLINESTYLE
  5
1C
102
{ACAD_REACTORS
330
1B
102
}
100
AcDbMlineStyle
  2
STANDARD
 70
       0
  3

 62
       0
 51
90.0
 52
90.0
 71
       2
 49
0.5
 62
     256
  6
BYLAYER
 49
-0.5
 62
     256
  6
BYLAYER
  0
ENDSEC
  0
EOF

