  0
SECTION
  2
HEADER
  9
$ACADVER
  1
AC1014
  9
$ACADMAINTVER
 70
     9
  9
$DWGCODEPAGE
  3
ANSI_932
  9
$INSBASE
 10
0.0
 20
0.0
 30
0.0
  9
$EXTMIN
 10
-1261.5
 20
-1713.674317893063
 30
0.0
  9
$EXTMAX
 10
1261.5
 20
1731.136174646501
 30
0.0
  9
$LIMMIN
 10
-420.5
 20
-594.5
  9
$LIMMAX
 10
420.5
 20
594.5
  9
$ORTHOMODE
 70
     0
  9
$REGENMODE
 70
     1
  9
$FILLMODE
 70
     1
  9
$QTEXTMODE
 70
     0
  9
$MIRRTEXT
 70
     1
  9
$DRAGMODE
 70
     2
  9
$LTSCALE
 40
0.25
  9
$OSMODE
 70
    37
  9
$ATTMODE
 70
     1
  9
$TEXTSIZE
 40
0.2
  9
$TRACEWID
 40
0.05
  9
$TEXTSTYLE
  7
STANDARD
  9
$CLAYER
  8
0
  9
$CELTYPE
  6
BYLAYER
  9
$CECOLOR
 62
   256
  9
$CELTSCALE
 40
1.0
  9
$DELOBJ
 70
     1
  9
$DISPSILH
 70
     0
  9
$DIMSCALE
 40
1.0
  9
$DIMASZ
 40
2.000107526779175
  9
$DIMEXO
 40
1.0
  9
$DIMDLI
 40
10.0
  9
$DIMRND
 40
0.0
  9
$DIMDLE
 40
0.0
  9
$DIMEXE
 40
1.0
  9
$DIMTP
 40
0.0
  9
$DIMTM
 40
0.0
  9
$DIMTXT
 40
3.5
  9
$DIMCEN
 40
0.0
  9
$DIMTSZ
 40
0.0
  9
$DIMTOL
 70
     0
  9
$DIMLIM
 70
     0
  9
$DIMTIH
 70
     0
  9
$DIMTOH
 70
     0
  9
$DIMSE1
 70
     0
  9
$DIMSE2
 70
     0
  9
$DIMTAD
 70
     1
  9
$DIMZIN
 70
     8
  9
$DIMBLK
  1

  9
$DIMASO
 70
     1
  9
$DIMSHO
 70
     1
  9
$DIMPOST
  1

  9
$DIMAPOST
  1

  9
$DIMALT
 70
     0
  9
$DIMALTD
 70
     2
  9
$DIMALTF
 40
0.0393700787401575
  9
$DIMLFAC
 40
1.0
  9
$DIMTOFL
 70
     0
  9
$DIMTVP
 40
0.0
  9
$DIMTIX
 70
     0
  9
$DIMSOXD
 70
     0
  9
$DIMSAH
 70
     0
  9
$DIMBLK1
  1

  9
$DIMBLK2
  1

  9
$DIMSTYLE
  2
STANDARD
  9
$DIMCLRD
 70
     0
  9
$DIMCLRE
 70
     0
  9
$DIMCLRT
 70
     0
  9
$DIMTFAC
 40
0.65
  9
$DIMGAP
 40
0.09
  9
$DIMJUST
 70
     0
  9
$DIMSD1
 70
     0
  9
$DIMSD2
 70
     0
  9
$DIMTOLJ
 70
     0
  9
$DIMTZIN
 70
     0
  9
$DIMALTZ
 70
     0
  9
$DIMALTTZ
 70
     0
  9
$DIMFIT
 70
     3
  9
$DIMUPT
 70
     0
  9
$DIMUNIT
 70
     2
  9
$DIMDEC
 70
     3
  9
$DIMTDEC
 70
     3
  9
$DIMALTU
 70
     2
  9
$DIMALTTD
 70
     3
  9
$DIMTXSTY
  7
STANDARD
  9
$DIMAUNIT
 70
     0
  9
$LUNITS
 70
     2
  9
$LUPREC
 70
     4
  9
$SKETCHINC
 40
0.1
  9
$FILLETRAD
 40
0.5
  9
$AUNITS
 70
     0
  9
$AUPREC
 70
     0
  9
$MENU
  1
.
  9
$ELEVATION
 40
0.0
  9
$PELEVATION
 40
0.0
  9
$THICKNESS
 40
0.0
  9
$LIMCHECK
 70
     0
  9
$CHAMFERA
 40
0.0
  9
$CHAMFERB
 40
0.0
  9
$CHAMFERC
 40
0.0
  9
$CHAMFERD
 40
0.0
  9
$SKPOLY
 70
     0
  9
$TDCREATE
 40
2458457.408109849
  9
$TDUPDATE
 40
2458457.408111655
  9
$TDINDWG
 40
0.0000000116
  9
$TDUSRTIMER
 40
0.0000000116
  9
$USRTIMER
 70
     1
  9
$ANGBASE
 50
0.0
  9
$ANGDIR
 70
     0
  9
$PDMODE
 70
     0
  9
$PDSIZE
 40
1.0
  9
$PLINEWID
 40
0.0
  9
$COORDS
 70
     1
  9
$SPLFRAME
 70
     0
  9
$SPLINETYPE
 70
     6
  9
$SPLINESEGS
 70
     8
  9
$ATTDIA
 70
     0
  9
$ATTREQ
 70
     1
  9
$HANDLING
 70
     1
  9
$HANDSEED
  5
53A
  9
$SURFTAB1
 70
     6
  9
$SURFTAB2
 70
     6
  9
$SURFTYPE
 70
     6
  9
$SURFU
 70
     6
  9
$SURFV
 70
     6
  9
$UCSNAME
  2

  9
$UCSORG
 10
0.0
 20
0.0
 30
0.0
  9
$UCSXDIR
 10
1.0
 20
0.0
 30
0.0
  9
$UCSYDIR
 10
0.0
 20
1.0
 30
0.0
  9
$PUCSNAME
  2

  9
$PUCSORG
 10
0.0
 20
0.0
 30
0.0
  9
$PUCSXDIR
 10
1.0
 20
0.0
 30
0.0
  9
$PUCSYDIR
 10
0.0
 20
1.0
 30
0.0
  9
$USERI1
 70
     0
  9
$USERI2
 70
     0
  9
$USERI3
 70
     0
  9
$USERI4
 70
     0
  9
$USERI5
 70
     0
  9
$USERR1
 40
0.0
  9
$USERR2
 40
0.0
  9
$USERR3
 40
0.0
  9
$USERR4
 40
0.0
  9
$USERR5
 40
0.0
  9
$WORLDVIEW
 70
     1
  9
$SHADEDGE
 70
     3
  9
$SHADEDIF
 70
    70
  9
$TILEMODE
 70
     1
  9
$MAXACTVP
 70
    64
  9
$PINSBASE
 10
0.0
 20
0.0
 30
0.0
  9
$PLIMCHECK
 70
     0
  9
$PEXTMIN
 10
1.000000000000000E+20
 20
1.000000000000000E+20
 30
1.000000000000000E+20
  9
$PEXTMAX
 10
-1.000000000000000E+20
 20
-1.000000000000000E+20
 30
-1.000000000000000E+20
  9
$PLIMMIN
 10
0.0
 20
0.0
  9
$PLIMMAX
 10
12.0
 20
9.0
  9
$UNITMODE
 70
     0
  9
$VISRETAIN
 70
     0
  9
$PLINEGEN
 70
     1
  9
$PSLTSCALE
 70
     0
  9
$TREEDEPTH
 70
  3020
  9
$PICKSTYLE
 70
     1
  9
$CMLSTYLE
  2
STANDARD
  9
$CMLJUST
 70
     0
  9
$CMLSCALE
 40
1.0
  9
$PROXYGRAPHICS
 70
     0
  9
$MEASUREMENT
 70
     1
  0
ENDSEC
  0
SECTION
  2
CLASSES
  0
CLASS
  1
ACDBDICTIONARYWDFLT
  2
AcDbDictionaryWithDefault
  3
ObjectDBX Classes
 90
        0
280
     0
281
     0
  0
CLASS
  1
VISUALSTYLE
  2
AcDbVisualStyle
  3
ObjectDBX Classes
 90
     4095
280
     0
281
     0
  0
CLASS
  1
MATERIAL
  2
AcDbMaterial
  3
ObjectDBX Classes
 90
     1153
280
     0
281
     0
  0
CLASS
  1
SCALE
  2
AcDbScale
  3
ObjectDBX Classes
 90
     1153
280
     0
281
     0
  0
CLASS
  1
TABLESTYLE
  2
AcDbTableStyle
  3
ObjectDBX Classes
 90
     4095
280
     0
281
     0
  0
CLASS
  1
MLEADERSTYLE
  2
AcDbMLeaderStyle
  3
ACDB_MLEADERSTYLE_CLASS
 90
     4095
280
     0
281
     0
  0
CLASS
  1
SUN
  2
AcDbSun
  3
SCENEOE
 90
     1153
280
     0
281
     0
  0
CLASS
  1
DICTIONARYVAR
  2
AcDbDictionaryVar
  3
ObjectDBX Classes
 90
        0
280
     0
281
     0
  0
CLASS
  1
XRECORD
  2
AcDbXrecord
  3
ObjectDBX Classes
 90
        0
280
     0
281
     0
  0
CLASS
  1
LWPOLYLINE
  2
AcDbPolyline
  3
ObjectDBX Classes
 90
        0
280
     0
281
     1
  0
CLASS
  1
HATCH
  2
AcDbHatch
  3
ObjectDBX Classes
 90
        0
280
     0
281
     1
  0
CLASS
  1
ACDBPLACEHOLDER
  2
AcDbPlaceHolder
  3
ObjectDBX Classes
 90
        0
280
     0
281
     0
  0
CLASS
  1
LAYOUT
  2
AcDbLayout
  3
ObjectDBX Classes
 90
        0
280
     0
281
     0
  0
ENDSEC
  0
SECTION
  2
TABLES
  0
TABLE
  2
VPORT
  5
8
102
{ACAD_XDICTIONARY
360
52F
102
}
330
0
100
AcDbSymbolTable
 70
     1
  0
VPORT
  5
29
330
8
100
AcDbSymbolTableRecord
100
AcDbViewportTableRecord
  2
*ACTIVE
 70
     0
 10
0.0
 20
0.0
 11
1.0
 21
1.0
 12
-0.0000000000007425
 22
7.208091687960746
 13
0.0
 23
0.0
 14
0.5
 24
0.5
 15
0.5
 25
0.5
 16
0.0
 26
0.0
 36
1.0
 17
0.0
 27
0.0
 37
0.0
 40
1174.342154308519
 41
0.7304685409211965
 42
50.0
 43
0.0
 44
0.0
 50
0.0
 51
0.0
 71
     0
 72
  1000
 73
     1
 74
     1
 75
     0
 76
     0
 77
     0
 78
     0
  0
ENDTAB
  0
TABLE
  2
LTYPE
  5
5
330
0
100
AcDbSymbolTable
 70
    67
  0
LTYPE
  5
14
330
5
100
AcDbSymbolTableRecord
100
AcDbLinetypeTableRecord
  2
BYBLOCK
 70
     0
  3

 72
    65
 73
     0
 40
0.0
  0
LTYPE
  5
15
330
5
100
AcDbSymbolTableRecord
100
AcDbLinetypeTableRecord
  2
BYLAYER
 70
     0
  3

 72
    65
 73
     0
 40
0.0
  0
LTYPE
  5
16
330
5
100
AcDbSymbolTableRecord
100
AcDbLinetypeTableRecord
  2
CONTINUOUS
 70
     0
  3
Solid line
 72
    65
 73
     0
 40
0.0
  0
LTYPE
  5
6F
330
5
100
AcDbSymbolTableRecord
100
AcDbLinetypeTableRecord
  2
HIDDENX2
 70
     0
  3
Hidden (2x) ____ ____ ____ ____ ____ ____ ____ 
 72
    65
 73
     2
 40
19.05
 49
12.7
 74
     0
 49
-6.35
 74
     0
  0
LTYPE
  5
70
330
5
100
AcDbSymbolTableRecord
100
AcDbLinetypeTableRecord
  2
HIDDEN
 70
     0
  3
Hidden __ __ __ __ __ __ __ __ __ __ __ __ __ __
 72
    65
 73
     2
 40
9.524999999999999
 49
6.35
 74
     0
 49
-3.175
 74
     0
  0
LTYPE
  5
71
330
5
100
AcDbSymbolTableRecord
100
AcDbLinetypeTableRecord
  2
HIDDEN2
 70
     0
  3
Hidden (.5x) _ _ _ _ _ _ _ _ _ _ _ _ _ _ _ _ _ 
 72
    65
 73
     2
 40
4.762499999999999
 49
3.175
 74
     0
 49
-1.5875
 74
     0
  0
LTYPE
  5
72
330
5
100
AcDbSymbolTableRecord
100
AcDbLinetypeTableRecord
  2
DASHED
 70
     0
  3
Dashed __ __ __ __ __ __ __ __ __ __ __ __ __ _
 72
    65
 73
     2
 40
19.05
 49
12.7
 74
     0
 49
-6.35
 74
     0
  0
LTYPE
  5
73
330
5
100
AcDbSymbolTableRecord
100
AcDbLinetypeTableRecord
  2
DASHED2
 70
     0
  3
Dashed (.5x) _ _ _ _ _ _ _ _ _ _ _ _ _ _ _ _ _ 
 72
    65
 73
     2
 40
9.524999999999999
 49
6.35
 74
     0
 49
-3.175
 74
     0
  0
LTYPE
  5
74
330
5
100
AcDbSymbolTableRecord
100
AcDbLinetypeTableRecord
  2
DASHEDX2
 70
     0
  3
Dashed (2x) ____  ____  ____  ____  ____  ___
 72
    65
 73
     2
 40
38.09999999999999
 49
25.4
 74
     0
 49
-12.7
 74
     0
  0
LTYPE
  5
75
330
5
100
AcDbSymbolTableRecord
100
AcDbLinetypeTableRecord
  2
DOTX2
 70
     0
  3
Dot (2x) .  .  .  .  .  .  .  .  .  .  .  .  .  .
 72
    65
 73
     2
 40
12.7
 49
0.0
 74
     0
 49
-12.7
 74
     0
  0
LTYPE
  5
76
330
5
100
AcDbSymbolTableRecord
100
AcDbLinetypeTableRecord
  2
DOT
 70
     0
  3
Dot . . . . . . . . . . . . . . . . . . . . . . . .
 72
    65
 73
     2
 40
6.35
 49
0.0
 74
     0
 49
-6.35
 74
     0
  0
LTYPE
  5
77
330
5
100
AcDbSymbolTableRecord
100
AcDbLinetypeTableRecord
  2
DOT2
 70
     0
  3
Dot (.5x) ........................................
 72
    65
 73
     2
 40
3.175
 49
0.0
 74
     0
 49
-3.175
 74
     0
  0
LTYPE
  5
78
330
5
100
AcDbSymbolTableRecord
100
AcDbLinetypeTableRecord
  2
CENTERX2
 70
     0
  3
Center (2x) ________  __  ________  __  _____
 72
    65
 73
     4
 40
101.6
 49
63.5
 74
     0
 49
-12.7
 74
     0
 49
12.7
 74
     0
 49
-12.7
 74
     0
  0
LTYPE
  5
79
330
5
100
AcDbSymbolTableRecord
100
AcDbLinetypeTableRecord
  2
CENTER
 70
     0
  3
Center ____ _ ____ _ ____ _ ____ _ ____ _ ____
 72
    65
 73
     4
 40
50.8
 49
31.75
 74
     0
 49
-6.35
 74
     0
 49
6.35
 74
     0
 49
-6.35
 74
     0
  0
LTYPE
  5
7A
330
5
100
AcDbSymbolTableRecord
100
AcDbLinetypeTableRecord
  2
CENTER2
 70
     0
  3
Center (.5x) ___ _ ___ _ ___ _ ___ _ ___ _ ___
 72
    65
 73
     4
 40
28.575
 49
19.05
 74
     0
 49
-3.175
 74
     0
 49
3.175
 74
     0
 49
-3.175
 74
     0
  0
LTYPE
  5
7B
330
5
100
AcDbSymbolTableRecord
100
AcDbLinetypeTableRecord
  2
DASHDOTX2
 70
     0
  3
Dash dot (2x) ____  .  ____  .  ____  .  ___
 72
    65
 73
     4
 40
50.8
 49
25.4
 74
     0
 49
-12.7
 74
     0
 49
0.0
 74
     0
 49
-12.7
 74
     0
  0
LTYPE
  5
7C
330
5
100
AcDbSymbolTableRecord
100
AcDbLinetypeTableRecord
  2
DASHDOT
 70
     0
  3
Dash dot __ . __ . __ . __ . __ . __ . __ . __
 72
    65
 73
     4
 40
25.4
 49
12.7
 74
     0
 49
-6.35
 74
     0
 49
0.0
 74
     0
 49
-6.35
 74
     0
  0
LTYPE
  5
7D
330
5
100
AcDbSymbolTableRecord
100
AcDbLinetypeTableRecord
  2
DASHDOT2
 70
     0
  3
Dash dot (.5x) _._._._._._._._._._._._._._._.
 72
    65
 73
     4
 40
12.7
 49
6.35
 74
     0
 49
-3.175
 74
     0
 49
0.0
 74
     0
 49
-3.175
 74
     0
  0
LTYPE
  5
7E
330
5
100
AcDbSymbolTableRecord
100
AcDbLinetypeTableRecord
  2
DIVIDEX2
 70
     0
  3
Divide (2x) ________  .  .  ________  .  .  _
 72
    65
 73
     6
 40
63.5
 49
25.4
 74
     0
 49
-12.7
 74
     0
 49
0.0
 74
     0
 49
-12.7
 74
     0
 49
0.0
 74
     0
 49
-12.7
 74
     0
  0
LTYPE
  5
7F
330
5
100
AcDbSymbolTableRecord
100
AcDbLinetypeTableRecord
  2
DIVIDE
 70
     0
  3
Divide ____ . . ____ . . ____ . . ____ . . ____
 72
    65
 73
     6
 40
31.75
 49
12.7
 74
     0
 49
-6.35
 74
     0
 49
0.0
 74
     0
 49
-6.35
 74
     0
 49
0.0
 74
     0
 49
-6.35
 74
     0
  0
LTYPE
  5
80
330
5
100
AcDbSymbolTableRecord
100
AcDbLinetypeTableRecord
  2
DIVIDE2
 70
     0
  3
Divide (.5x) __..__..__..__..__..__..__..__.._
 72
    65
 73
     6
 40
15.875
 49
6.35
 74
     0
 49
-3.175
 74
     0
 49
0.0
 74
     0
 49
-3.175
 74
     0
 49
0.0
 74
     0
 49
-3.175
 74
     0
  0
LTYPE
  5
81
330
5
100
AcDbSymbolTableRecord
100
AcDbLinetypeTableRecord
  2
BORDERX2
 70
     0
  3
Border (2x) ____  ____  .  ____  ____  .  ___
 72
    65
 73
     6
 40
88.89999999999999
 49
25.4
 74
     0
 49
-12.7
 74
     0
 49
25.4
 74
     0
 49
-12.7
 74
     0
 49
0.0
 74
     0
 49
-12.7
 74
     0
  0
LTYPE
  5
82
330
5
100
AcDbSymbolTableRecord
100
AcDbLinetypeTableRecord
  2
BORDER
 70
     0
  3
Border __ __ . __ __ . __ __ . __ __ . __ __ .
 72
    65
 73
     6
 40
44.45
 49
12.7
 74
     0
 49
-6.35
 74
     0
 49
12.7
 74
     0
 49
-6.35
 74
     0
 49
0.0
 74
     0
 49
-6.35
 74
     0
  0
LTYPE
  5
83
330
5
100
AcDbSymbolTableRecord
100
AcDbLinetypeTableRecord
  2
BORDER2
 70
     0
  3
Border (.5x) __.__.__.__.__.__.__.__.__.__.__.
 72
    65
 73
     6
 40
22.225
 49
6.35
 74
     0
 49
-3.175
 74
     0
 49
6.35
 74
     0
 49
-3.175
 74
     0
 49
0.0
 74
     0
 49
-3.175
 74
     0
  0
LTYPE
  5
84
330
5
100
AcDbSymbolTableRecord
100
AcDbLinetypeTableRecord
  2
PHANTOMX2
 70
     0
  3
Phantom (2x) ____________    ____    ____   _
 72
    65
 73
     6
 40
127.0
 49
63.5
 74
     0
 49
-12.7
 74
     0
 49
12.7
 74
     0
 49
-12.7
 74
     0
 49
12.7
 74
     0
 49
-12.7
 74
     0
  0
LTYPE
  5
85
330
5
100
AcDbSymbolTableRecord
100
AcDbLinetypeTableRecord
  2
PHANTOM
 70
     0
  3
Phantom ______  __  __  ______  __  __  ______ 
 72
    65
 73
     6
 40
63.5
 49
31.75
 74
     0
 49
-6.35
 74
     0
 49
6.35
 74
     0
 49
-6.35
 74
     0
 49
6.35
 74
     0
 49
-6.35
 74
     0
  0
LTYPE
  5
86
330
5
100
AcDbSymbolTableRecord
100
AcDbLinetypeTableRecord
  2
PHANTOM2
 70
     0
  3
Phantom (.5x) ___ _ _ ___ _ _ ___ _ _ ___ _ _
 72
    65
 73
     6
 40
31.75
 49
15.875
 74
     0
 49
-3.175
 74
     0
 49
3.175
 74
     0
 49
-3.175
 74
     0
 49
3.175
 74
     0
 49
-3.175
 74
     0
  0
LTYPE
  5
87
330
5
100
AcDbSymbolTableRecord
100
AcDbLinetypeTableRecord
  2
ACAD_ISO06W100
 70
     0
  3
ISO long-dash triple-dot ____ ... ____ ... ____
 72
    65
 73
     8
 40
36.0
 49
24.0
 74
     0
 49
-3.0
 74
     0
 49
0.0
 74
     0
 49
-3.0
 74
     0
 49
0.0
 74
     0
 49
-3.0
 74
     0
 49
0.0
 74
     0
 49
-3.0
 74
     0
  0
LTYPE
  5
88
330
5
100
AcDbSymbolTableRecord
100
AcDbLinetypeTableRecord
  2
ACAD_ISO13W100
 70
     0
  3
ISO double-dash double-dot __ __ . . __ __ . . _
 72
    65
 73
     8
 40
36.0
 49
12.0
 74
     0
 49
-3.0
 74
     0
 49
12.0
 74
     0
 49
-3.0
 74
     0
 49
0.0
 74
     0
 49
-3.0
 74
     0
 49
0.0
 74
     0
 49
-3.0
 74
     0
  0
LTYPE
  5
89
330
5
100
AcDbSymbolTableRecord
100
AcDbLinetypeTableRecord
  2
ACAD_ISO14W100
 70
     0
  3
ISO dash triple-dot __ . . . __ . . . __ . . . _
 72
    65
 73
     8
 40
24.0
 49
12.0
 74
     0
 49
-3.0
 74
     0
 49
0.0
 74
     0
 49
-3.0
 74
     0
 49
0.0
 74
     0
 49
-3.0
 74
     0
 49
0.0
 74
     0
 49
-3.0
 74
     0
  0
LTYPE
  5
8A
330
5
100
AcDbSymbolTableRecord
100
AcDbLinetypeTableRecord
  2
ACAD_ISO02W100
 70
     0
  3
ISO dash __ __ __ __ __ __ __ __ __ __ __ __ __
 72
    65
 73
     2
 40
15.0
 49
12.0
 74
     0
 49
-3.0
 74
     0
  0
LTYPE
  5
8B
330
5
100
AcDbSymbolTableRecord
100
AcDbLinetypeTableRecord
  2
ACAD_ISO03W100
 70
     0
  3
ISO dash space __    __    __    __    __    __
 72
    65
 73
     2
 40
30.0
 49
12.0
 74
     0
 49
-18.0
 74
     0
  0
LTYPE
  5
8C
330
5
100
AcDbSymbolTableRecord
100
AcDbLinetypeTableRecord
  2
ACAD_ISO04W100
 70
     0
  3
ISO long-dash dot ____ . ____ . ____ . ____ . _
 72
    65
 73
     4
 40
30.0
 49
24.0
 74
     0
 49
-3.0
 74
     0
 49
0.0
 74
     0
 49
-3.0
 74
     0
  0
LTYPE
  5
8D
330
5
100
AcDbSymbolTableRecord
100
AcDbLinetypeTableRecord
  2
ACAD_ISO05W100
 70
     0
  3
ISO long-dash double-dot ____ .. ____ .. ____ . 
 72
    65
 73
     6
 40
33.0
 49
24.0
 74
     0
 49
-3.0
 74
     0
 49
0.0
 74
     0
 49
-3.0
 74
     0
 49
0.0
 74
     0
 49
-3.0
 74
     0
  0
LTYPE
  5
8E
330
5
100
AcDbSymbolTableRecord
100
AcDbLinetypeTableRecord
  2
ACAD_ISO07W100
 70
     0
  3
ISO dot . . . . . . . . . . . . . . . . . . . . 
 72
    65
 73
     2
 40
3.0
 49
0.0
 74
     0
 49
-3.0
 74
     0
  0
LTYPE
  5
8F
330
5
100
AcDbSymbolTableRecord
100
AcDbLinetypeTableRecord
  2
ACAD_ISO08W100
 70
     0
  3
ISO long-dash short-dash ____ __ ____ __ ____ _
 72
    65
 73
     4
 40
36.0
 49
24.0
 74
     0
 49
-3.0
 74
     0
 49
6.0
 74
     0
 49
-3.0
 74
     0
  0
LTYPE
  5
90
330
5
100
AcDbSymbolTableRecord
100
AcDbLinetypeTableRecord
  2
ACAD_ISO09W100
 70
     0
  3
ISO long-dash double-short-dash ____ __ __ ____
 72
    65
 73
     6
 40
45.0
 49
24.0
 74
     0
 49
-3.0
 74
     0
 49
6.0
 74
     0
 49
-3.0
 74
     0
 49
6.0
 74
     0
 49
-3.0
 74
     0
  0
LTYPE
  5
91
330
5
100
AcDbSymbolTableRecord
100
AcDbLinetypeTableRecord
  2
ACAD_ISO10W100
 70
     0
  3
ISO dash dot __ . __ . __ . __ . __ . __ . __ . 
 72
    65
 73
     4
 40
18.0
 49
12.0
 74
     0
 49
-3.0
 74
     0
 49
0.0
 74
     0
 49
-3.0
 74
     0
  0
LTYPE
  5
92
330
5
100
AcDbSymbolTableRecord
100
AcDbLinetypeTableRecord
  2
ACAD_ISO11W100
 70
     0
  3
ISO double-dash dot __ __ . __ __ . __ __ . __ _
 72
    65
 73
     6
 40
33.0
 49
12.0
 74
     0
 49
-3.0
 74
     0
 49
12.0
 74
     0
 49
-3.0
 74
     0
 49
0.0
 74
     0
 49
-3.0
 74
     0
  0
LTYPE
  5
93
330
5
100
AcDbSymbolTableRecord
100
AcDbLinetypeTableRecord
  2
ACAD_ISO12W100
 70
     0
  3
ISO dash double-dot __ . . __ . . __ . . __ . . 
 72
    65
 73
     6
 40
21.0
 49
12.0
 74
     0
 49
-3.0
 74
     0
 49
0.0
 74
     0
 49
-3.0
 74
     0
 49
0.0
 74
     0
 49
-3.0
 74
     0
  0
LTYPE
  5
94
330
5
100
AcDbSymbolTableRecord
100
AcDbLinetypeTableRecord
  2
ACAD_ISO15W100
 70
     0
  3
ISO double-dash triple-dot __ __ . . . __ __ . .
 72
    65
 73
    10
 40
39.0
 49
12.0
 74
     0
 49
-3.0
 74
     0
 49
12.0
 74
     0
 49
-3.0
 74
     0
 49
0.0
 74
     0
 49
-3.0
 74
     0
 49
0.0
 74
     0
 49
-3.0
 74
     0
 49
0.0
 74
     0
 49
-3.0
 74
     0
  0
LTYPE
  5
95
330
5
100
AcDbSymbolTableRecord
100
AcDbLinetypeTableRecord
  2
JIS_02_0_7
 70
     0
  3
HIDDEN0.75 _ _ _ _ _ _ _ _ _ _ _ _ _ _ _ _ _ 
 72
    65
 73
     2
 40
1.35
 49
0.75
 74
     0
 49
-0.6
 74
     0
  0
LTYPE
  5
96
330
5
100
AcDbSymbolTableRecord
100
AcDbLinetypeTableRecord
  2
JIS_02_1_0
 70
     0
  3
HIDDEN01 _ _ _ _ _ _ _ _ _ _ _ _ _ _ _ _ _ 
 72
    65
 73
     2
 40
2.0
 49
1.0
 74
     0
 49
-1.0
 74
     0
  0
LTYPE
  5
97
330
5
100
AcDbSymbolTableRecord
100
AcDbLinetypeTableRecord
  2
JIS_02_1_2
 70
     0
  3
HIDDEN01.25  _ _ _ _ _ _ _ _ _ _ _ _ _ _ _ _ _ 
 72
    65
 73
     2
 40
2.5
 49
1.25
 74
     0
 49
-1.25
 74
     0
  0
LTYPE
  5
98
330
5
100
AcDbSymbolTableRecord
100
AcDbLinetypeTableRecord
  2
JIS_02_2_0
 70
     0
  3
HIDDEN02 __ __ __ __ __ __ __ __ __ __ __ 
 72
    65
 73
     2
 40
3.0
 49
2.0
 74
     0
 49
-1.0
 74
     0
  0
LTYPE
  5
99
330
5
100
AcDbSymbolTableRecord
100
AcDbLinetypeTableRecord
  2
JIS_02_4_0
 70
     0
  3
HIDDEN04 ____ ____ ____ ____ ____ ____ ____ 
 72
    65
 73
     2
 40
5.5
 49
4.0
 74
     0
 49
-1.5
 74
     0
  0
LTYPE
  5
9A
330
5
100
AcDbSymbolTableRecord
100
AcDbLinetypeTableRecord
  2
JIS_08_11
 70
     0
  3
1SASEN11 ___ _ ___ _ ___ _ ___ _ ___ _ ___
 72
    65
 73
     4
 40
12.8
 49
11.0
 74
     0
 49
-0.6
 74
     0
 49
0.6
 74
     0
 49
-0.6
 74
     0
  0
LTYPE
  5
9B
330
5
100
AcDbSymbolTableRecord
100
AcDbLinetypeTableRecord
  2
JIS_08_15
 70
     0
  3
1SASEN15 ____ _ ____ _ ____ _ ____ _ ____ 
 72
    65
 73
     4
 40
17.25
 49
15.0
 74
     0
 49
-0.75
 74
     0
 49
0.75
 74
     0
 49
-0.75
 74
     0
  0
LTYPE
  5
9C
330
5
100
AcDbSymbolTableRecord
100
AcDbLinetypeTableRecord
  2
JIS_08_25
 70
     0
  3
1SASEN25 ________  __  ________  __  _____
 72
    65
 73
     4
 40
28.0
 49
25.0
 74
     0
 49
-1.125
 74
     0
 49
0.75
 74
     0
 49
-1.125
 74
     0
  0
LTYPE
  5
9D
330
5
100
AcDbSymbolTableRecord
100
AcDbLinetypeTableRecord
  2
JIS_08_37
 70
     0
  3
1SASEN37 ________  __  ________  __  _____
 72
    65
 73
     4
 40
40.5
 49
37.5
 74
     0
 49
-1.125
 74
     0
 49
0.75
 74
     0
 49
-1.125
 74
     0
  0
LTYPE
  5
9E
330
5
100
AcDbSymbolTableRecord
100
AcDbLinetypeTableRecord
  2
JIS_08_50
 70
     0
  3
1SASEN50 _______________  __  ____________
 72
    65
 73
     4
 40
53.0
 49
50.0
 74
     0
 49
-1.125
 74
     0
 49
0.75
 74
     0
 49
-1.125
 74
     0
  0
LTYPE
  5
9F
330
5
100
AcDbSymbolTableRecord
100
AcDbLinetypeTableRecord
  2
JIS_09_08
 70
     0
  3
2SASEN8 __ _ _ __ _ _ __ _ _ __ _ _ __ _ _ 
 72
    65
 73
     6
 40
10.75
 49
8.0
 74
     0
 49
-0.55
 74
     0
 49
0.55
 74
     0
 49
-0.55
 74
     0
 49
0.55
 74
     0
 49
-0.55
 74
     0
  0
LTYPE
  5
A0
330
5
100
AcDbSymbolTableRecord
100
AcDbLinetypeTableRecord
  2
JIS_09_15
 70
     0
  3
2SASEN15 ___ _ _ ___ _ _ ___ _ _ ___ _ _ ___ 
 72
    65
 73
     6
 40
18.9
 49
15.0
 74
     0
 49
-0.9
 74
     0
 49
0.6
 74
     0
 49
-0.9
 74
     0
 49
0.6
 74
     0
 49
-0.9
 74
     0
  0
LTYPE
  5
A1
330
5
100
AcDbSymbolTableRecord
100
AcDbLinetypeTableRecord
  2
JIS_09_29
 70
     0
  3
2SASEN29 ______　__  __  ______　__  __  ___
 72
    65
 73
     6
 40
34.0
 49
29.0
 74
     0
 49
-1.2
 74
     0
 49
0.7
 74
     0
 49
-1.2
 74
     0
 49
0.7
 74
     0
 49
-1.2
 74
     0
  0
LTYPE
  5
A2
330
5
100
AcDbSymbolTableRecord
100
AcDbLinetypeTableRecord
  2
JIS_09_50
 70
     0
  3
2SASEN50 ____________　__  __  _____________
 72
    65
 73
     6
 40
55.0
 49
50.0
 74
     0
 49
-1.2
 74
     0
 49
0.7
 74
     0
 49
-1.2
 74
     0
 49
0.7
 74
     0
 49
-1.2
 74
     0
  0
LTYPE
  5
A3
330
5
100
AcDbSymbolTableRecord
100
AcDbLinetypeTableRecord
  2
SXF_破線
 70
     0
  3
02 dashed -- -- -- -- -- --
 72
    65
 73
     2
 40
7.5
 49
6.0
 74
     0
 49
-1.5
 74
     0
  0
LTYPE
  5
A4
330
5
100
AcDbSymbolTableRecord
100
AcDbLinetypeTableRecord
  2
SXF_跳び破線
 70
     0
  3
03 dashed_spaced --  --  --  --
 72
    65
 73
     2
 40
12.0
 49
6.0
 74
     0
 49
-6.0
 74
     0
  0
LTYPE
  5
A5
330
5
100
AcDbSymbolTableRecord
100
AcDbLinetypeTableRecord
  2
SXF_一点長鎖線
 70
     0
  3
04 long_dashed_dotted ---- . ---- . ----
 72
    65
 73
     4
 40
15.25
 49
12.0
 74
     0
 49
-1.5
 74
     0
 49
0.25
 74
     0
 49
-1.5
 74
     0
  0
LTYPE
  5
A6
330
5
100
AcDbSymbolTableRecord
100
AcDbLinetypeTableRecord
  2
SXF_二点長鎖線
 70
     0
  3
05 long_dashed_double-dotted ---- . . ---- 
 72
    65
 73
     6
 40
17.0
 49
12.0
 74
     0
 49
-1.5
 74
     0
 49
0.25
 74
     0
 49
-1.5
 74
     0
 49
0.25
 74
     0
 49
-1.5
 74
     0
  0
LTYPE
  5
A7
330
5
100
AcDbSymbolTableRecord
100
AcDbLinetypeTableRecord
  2
SXF_三点長鎖線
 70
     0
  3
06 long_dashed_triplicate-dotted ---- ... ---- 
 72
    65
 73
     8
 40
18.75
 49
12.0
 74
     0
 49
-1.5
 74
     0
 49
0.25
 74
     0
 49
-1.5
 74
     0
 49
0.25
 74
     0
 49
-1.5
 74
     0
 49
0.25
 74
     0
 49
-1.5
 74
     0
  0
LTYPE
  5
A8
330
5
100
AcDbSymbolTableRecord
100
AcDbLinetypeTableRecord
  2
SXF_点線
 70
     0
  3
07 dotted . . . . . . . . . . . . 
 72
    65
 73
     2
 40
1.75
 49
0.25
 74
     0
 49
-1.5
 74
     0
  0
LTYPE
  5
A9
330
5
100
AcDbSymbolTableRecord
100
AcDbLinetypeTableRecord
  2
SXF_一点鎖線
 70
     0
  3
08 chain ---- - --- - --- - ---
 72
    65
 73
     4
 40
18.5
 49
12.0
 74
     0
 49
-1.5
 74
     0
 49
3.5
 74
     0
 49
-1.5
 74
     0
  0
LTYPE
  5
AA
330
5
100
AcDbSymbolTableRecord
100
AcDbLinetypeTableRecord
  2
SXF_二点鎖線
 70
     0
  3
09 chain_double_dash ---- - - ---- - - ----
 72
    65
 73
     6
 40
23.5
 49
12.0
 74
     0
 49
-1.5
 74
     0
 49
3.5
 74
     0
 49
-1.5
 74
     0
 49
3.5
 74
     0
 49
-1.5
 74
     0
  0
LTYPE
  5
AB
330
5
100
AcDbSymbolTableRecord
100
AcDbLinetypeTableRecord
  2
SXF_一点短鎖線
 70
     0
  3
10 dashed_dotted -- . -- . -- . --
 72
    65
 73
     4
 40
9.25
 49
6.0
 74
     0
 49
-1.5
 74
     0
 49
0.25
 74
     0
 49
-1.5
 74
     0
  0
LTYPE
  5
AC
330
5
100
AcDbSymbolTableRecord
100
AcDbLinetypeTableRecord
  2
SXF_一点二短鎖線
 70
     0
  3
11 double-dashed_dotted -- -- . -- --
 72
    65
 73
     6
 40
16.75
 49
6.0
 74
     0
 49
-1.5
 74
     0
 49
6.0
 74
     0
 49
-1.5
 74
     0
 49
0.25
 74
     0
 49
-1.5
 74
     0
  0
LTYPE
  5
AD
330
5
100
AcDbSymbolTableRecord
100
AcDbLinetypeTableRecord
  2
SXF_二点短鎖線
 70
     0
  3
12 dashed_double_dotted -- . . -- . . --
 72
    65
 73
     6
 40
11.0
 49
6.0
 74
     0
 49
-1.5
 74
     0
 49
0.25
 74
     0
 49
-1.5
 74
     0
 49
0.25
 74
     0
 49
-1.5
 74
     0
  0
LTYPE
  5
AE
330
5
100
AcDbSymbolTableRecord
100
AcDbLinetypeTableRecord
  2
SXF_二点二短鎖線
 70
     0
  3
13 double-dashed_double-dotted -- -- . . -- --
 72
    65
 73
     8
 40
18.5
 49
6.0
 74
     0
 49
-1.5
 74
     0
 49
6.0
 74
     0
 49
-1.5
 74
     0
 49
0.25
 74
     0
 49
-1.5
 74
     0
 49
0.25
 74
     0
 49
-1.5
 74
     0
  0
LTYPE
  5
AF
330
5
100
AcDbSymbolTableRecord
100
AcDbLinetypeTableRecord
  2
SXF_三点短鎖線
 70
     0
  3
14 dashed triplicate-dotted -- . . . -- . . . --
 72
    65
 73
     8
 40
12.75
 49
6.0
 74
     0
 49
-1.5
 74
     0
 49
0.25
 74
     0
 49
-1.5
 74
     0
 49
0.25
 74
     0
 49
-1.5
 74
     0
 49
0.25
 74
     0
 49
-1.5
 74
     0
  0
LTYPE
  5
B0
330
5
100
AcDbSymbolTableRecord
100
AcDbLinetypeTableRecord
  2
SXF_三点二短鎖線
 70
     0
  3
15 double-dashed triplicate-dotted -- -- . . . -- -- 
 72
    65
 73
    10
 40
20.25
 49
6.0
 74
     0
 49
-1.5
 74
     0
 49
6.0
 74
     0
 49
-1.5
 74
     0
 49
0.25
 74
     0
 49
-1.5
 74
     0
 49
0.25
 74
     0
 49
-1.5
 74
     0
 49
0.25
 74
     0
 49
-1.5
 74
     0
  0
ENDTAB
  0
TABLE
  2
LAYER
  5
2
330
0
100
AcDbSymbolTable
 70
     2
  0
LAYER
  5
10
330
2
100
AcDbSymbolTableRecord
100
AcDbLayerTableRecord
  2
0
 70
     0
 62
     7
  6
CONTINUOUS
  0
LAYER
  5
B1
330
2
100
AcDbSymbolTableRecord
100
AcDbLayerTableRecord
  2
LAYER0016
 70
     0
 62
     7
  6
CONTINUOUS
  0
ENDTAB
  0
TABLE
  2
STYLE
  5
3
330
0
100
AcDbSymbolTable
 70
     2
  0
STYLE
  5
11
330
3
100
AcDbSymbolTableRecord
100
AcDbTextStyleTableRecord
  2
STANDARD
 70
     0
 40
0.0
 41
1.0
 50
0.0
 71
     0
 42
0.2
  3
txt.shx
  4
bigfont.shx
  0
STYLE
  5
3E8
330
3
100
AcDbSymbolTableRecord
100
AcDbTextStyleTableRecord
  2
DCSTYLE0
 70
     0
 40
0.0
 41
0.8
 50
0.0
 71
     0
 42
0.2
  3
ＭＳ ゴシック
  4

1001
ACAD
1000
ＭＳ ゴシック
1071
    32802
  0
ENDTAB
  0
TABLE
  2
VIEW
  5
6
330
0
100
AcDbSymbolTable
 70
     0
  0
ENDTAB
  0
TABLE
  2
UCS
  5
7
330
0
100
AcDbSymbolTable
 70
     0
  0
ENDTAB
  0
TABLE
  2
APPID
  5
9
330
0
100
AcDbSymbolTable
 70
     3
  0
APPID
  5
12
330
9
100
AcDbSymbolTableRecord
100
AcDbRegAppTableRecord
  2
ACAD
 70
     0
  0
APPID
  5
6E
330
9
100
AcDbSymbolTableRecord
100
AcDbRegAppTableRecord
  2
DAFUSIONOUT
 70
     0
  0
APPID
  5
539
330
9
100
AcDbSymbolTableRecord
100
AcDbRegAppTableRecord
  2
ACAD_MLEADERVER
 70
     0
  0
ENDTAB
  0
TABLE
  2
DIMSTYLE
  5
A
330
0
100
AcDbSymbolTable
 70
     1
  0
DIMSTYLE
105
27
330
A
100
AcDbSymbolTableRecord
100
AcDbDimStyleTableRecord
  2
STANDARD
 70
     0
  3

  4

  5

  6

  7

 40
1.0
 41
0.18
 42
0.0625
 43
0.38
 44
0.18
 45
0.0
 46
0.0
 47
0.0
 48
0.0
140
0.18
141
0.09
142
0.0
143
25.4
144
1.0
145
0.0
146
1.0
147
0.09
 71
     0
 72
     0
 73
     1
 74
     1
 75
     0
 76
     0
 77
     0
 78
     0
170
     0
171
     2
172
     0
173
     0
174
     0
175
     0
176
     0
177
     0
178
     0
270
     2
271
     4
272
     4
273
     2
274
     2
340
11
275
     0
280
     0
281
     0
282
     0
283
     1
284
     0
285
     0
286
     0
287
     3
288
     0
  0
ENDTAB
  0
TABLE
  2
BLOCK_RECORD
  5
1
330
0
100
AcDbSymbolTable
 70
     1
  0
BLOCK_RECORD
  5
1F
330
1
100
AcDbSymbolTableRecord
100
AcDbBlockTableRecord
  2
*MODEL_SPACE
  0
BLOCK_RECORD
  5
1B
330
1
100
AcDbSymbolTableRecord
100
AcDbBlockTableRecord
  2
*PAPER_SPACE
  0
BLOCK_RECORD
  5
B3
330
1
100
AcDbSymbolTableRecord
100
AcDbBlockTableRecord
  2
DC_GROUP_1
  0
ENDTAB
  0
ENDSEC
  0
SECTION
  2
BLOCKS
  0
BLOCK
  5
20
330
1F
100
AcDbEntity
  8
0
100
AcDbBlockBegin
  2
*MODEL_SPACE
 70
     0
 10
0.0
 20
0.0
 30
0.0
  3
*MODEL_SPACE
  1

  0
ENDBLK
  5
21
330
1F
100
AcDbEntity
  8
0
100
AcDbBlockEnd
  0
BLOCK
  5
1C
330
1B
100
AcDbEntity
 67
     1
  8
0
100
AcDbBlockBegin
  2
*PAPER_SPACE
 70
     0
 10
0.0
 20
0.0
 30
0.0
  3
*PAPER_SPACE
  1

  0
ENDBLK
  5
1D
330
1B
100
AcDbEntity
 67
     1
  8
0
100
AcDbBlockEnd
  0
BLOCK
  5
B4
330
B3
100
AcDbEntity
  8
0
100
AcDbBlockBegin
  2
DC_GROUP_1
 70
     0
 10
0.0
 20
0.0
 30
0.0
  3
DC_GROUP_1
  1

  0
CIRCLE
  5
B6
330
B3
100
AcDbEntity
  8
LAYER0016
  6
CONTINUOUS
 62
     3
100
AcDbCircle
 10
176.430168
 20
494.5660064666466
 30
0.0
 40
3.8
  0
CIRCLE
  5
B7
330
B3
100
AcDbEntity
  8
LAYER0016
  6
CONTINUOUS
 62
     3
100
AcDbCircle
 10
176.430168
 20
494.5660064666466
 30
0.0
 40
3.5
  0
LINE
  5
B8
330
B3
100
AcDbEntity
  8
LAYER0016
  6
CONTINUOUS
 62
     3
100
AcDbLine
 10
177.9150922404917
 20
496.0509307071383
 30
0.0
 11
174.9452437595083
 21
493.0810822261548
 31
0.0
  0
LINE
  5
B9
330
B3
100
AcDbEntity
  8
LAYER0016
  6
CONTINUOUS
 62
     3
100
AcDbLine
 10
174.9452437595083
 20
496.0509307071383
 30
0.0
 11
177.9150922404917
 21
493.0810822261548
 31
0.0
  0
ENDBLK
  5
B5
330
B3
100
AcDbEntity
  8
0
100
AcDbBlockEnd
  0
ENDSEC
  0
SECTION
  2
ENTITIES
  0
LINE
  5
BA
330
1F
100
AcDbEntity
  8
LAYER0016
  6
CENTER
 62
     4
100
AcDbLine
 10
176.4301679999999
 20
578.3742879282045
 30
0.0
 11
176.4301679999999
 21
344.5660064666464
 31
0.0
  0
LINE
  5
BB
330
1F
100
AcDbEntity
  8
LAYER0016
  6
CENTER
 62
     4
100
AcDbLine
 10
-119.0914369213005
 20
494.5660064666466
 30
0.0
 11
347.680168
 21
494.5660064666466
 31
0.0
  0
LINE
  5
BC
330
1F
100
AcDbEntity
  8
LAYER0016
  6
CENTER
 62
     4
100
AcDbLine
 10
-255.5115382234684
 20
237.0661304666463
 30
0.0
 11
-255.5115382234684
 21
32.89947446664627
 31
0.0
  0
LINE
  5
BD
330
1F
100
AcDbEntity
  8
LAYER0016
  6
CENTER
 62
     4
100
AcDbLine
 10
176.4301679999999
 20
241.6503075808455
 30
0.0
 11
176.4301679999999
 21
34.56799015370058
 31
0.0
  0
LINE
  5
BE
330
1F
100
AcDbEntity
  8
LAYER0016
  6
CENTER
 62
     4
100
AcDbLine
 10
-337.8462542234683
 20
139.5661304666463
 30
0.0
 11
-155.5115382234684
 21
139.5661304666463
 31
0.0
  0
LINE
  5
BF
330
1F
100
AcDbEntity
  8
LAYER0016
  6
CENTER
 62
     4
100
AcDbLine
 10
154.4301679999999
 20
420.5660064666463
 30
0.0
 11
154.4301679999999
 21
354.5660064666464
 31
0.0
  0
LINE
  5
C0
330
1F
100
AcDbEntity
  8
LAYER0016
  6
CENTER
 62
     4
100
AcDbLine
 10
154.4301679999999
 20
164.0661304666463
 30
0.0
 11
154.4301679999999
 21
89.5661304666463
 31
0.0
  0
LINE
  5
C1
330
1F
100
AcDbEntity
  8
LAYER0016
  6
CENTER
 62
     4
100
AcDbLine
 10
-115.2615382234684
 20
129.5661304666463
 30
0.0
 11
-183.3448822234684
 21
129.5661304666463
 31
0.0
  0
LINE
  5
C2
330
1F
100
AcDbEntity
  8
LAYER0016
  6
CENTER
 62
     4
100
AcDbLine
 10
56.43016799999995
 20
571.9882184666465
 30
0.0
 11
56.43016799999995
 21
547.4993424666466
 31
0.0
  0
LINE
  5
C3
330
1F
100
AcDbEntity
  8
LAYER0016
  6
CENTER
 62
     4
100
AcDbLine
 10
209.430168
 20
582.8660104666465
 30
0.0
 11
209.430168
 21
550.3993344666465
 31
0.0
  0
LINE
  5
C4
330
1F
100
AcDbEntity
  8
LAYER0016
  6
CENTER
 62
     4
100
AcDbLine
 10
143.430168
 20
582.8660104666465
 30
0.0
 11
143.430168
 21
550.3993344666465
 31
0.0
  0
LINE
  5
C5
330
1F
100
AcDbEntity
  8
LAYER0016
  6
CENTER
 62
     4
100
AcDbLine
 10
54.41881773666475
 20
129.5661304666463
 30
0.0
 11
349.83016
 21
129.5661304666463
 31
0.0
  0
LINE
  5
C6
330
1F
100
AcDbEntity
  8
LAYER0016
  6
CENTER
 62
     4
100
AcDbLine
 10
-327.4448582234684
 20
167.0661304666463
 30
0.0
 11
-308.4448582234684
 21
167.0661304666463
 31
0.0
  0
LINE
  5
C7
330
1F
100
AcDbEntity
  8
LAYER0016
  6
CENTER
 62
     4
100
AcDbLine
 10
-327.4448582234684
 20
112.0661304666463
 30
0.0
 11
-308.4448582234684
 21
112.0661304666463
 31
0.0
  0
LINE
  5
C8
330
1F
100
AcDbEntity
  8
LAYER0016
  6
CENTER
 62
     4
100
AcDbLine
 10
-343.8115262234684
 20
116.5661304666463
 30
0.0
 11
-324.5115382234683
 21
116.5661304666463
 31
0.0
  0
LINE
  5
C9
330
1F
100
AcDbEntity
  8
LAYER0016
  6
CENTER
 62
     4
100
AcDbLine
 10
-35.90317600000005
 20
139.5661304666463
 30
0.0
 11
77.68343098164368
 21
139.5661304666463
 31
0.0
  0
LINE
  5
CA
330
1F
100
AcDbEntity
  8
LAYER0016
  6
CENTER
 62
     4
100
AcDbLine
 10
176.4301679999999
 20
-228.7730504009356
 30
0.0
 11
176.4301679999999
 21
-72.3592572974872
 31
0.0
  0
LINE
  5
CB
330
1F
100
AcDbEntity
  8
LAYER0016
  6
CENTER
 62
     4
100
AcDbLine
 10
104.0893480489917
 20
-153.4045397176195
 30
0.0
 11
253.1873968893402
 21
-153.4045397176195
 31
0.0
  0
LINE
  5
CC
330
1F
100
AcDbEntity
  8
LAYER0016
  6
CENTER
 62
     4
100
AcDbLine
 10
206.12854
 20
-183.1031477176195
 30
0.0
 11
218.8564600000001
 21
-195.8311157176194
 31
0.0
  0
LINE
  5
CD
330
1F
100
AcDbEntity
  8
LAYER0016
  6
CENTER
 62
     4
100
AcDbLine
 10
206.128744
 20
-123.7061757176195
 30
0.0
 11
218.856668
 21
-110.9782717176194
 31
0.0
  0
LINE
  5
CE
330
1F
100
AcDbEntity
  8
LAYER0016
  6
CENTER
 62
     4
100
AcDbLine
 10
146.7316400000001
 20
-123.7061757176195
 30
0.0
 11
134.00372
 21
-110.9782717176194
 31
0.0
  0
LINE
  5
CF
330
1F
100
AcDbEntity
  8
LAYER0016
  6
CENTER
 62
     4
100
AcDbLine
 10
146.731756
 20
-183.1030277176195
 30
0.0
 11
134.0038280000001
 21
-195.8309317176193
 31
0.0
  0
CIRCLE
  5
D0
330
1F
100
AcDbEntity
  8
LAYER0016
  6
CENTER
 62
     4
100
AcDbCircle
 10
176.4301679999999
 20
-153.4045397176195
 30
0.0
 40
51.0
  0
LINE
  5
D1
330
1F
100
AcDbEntity
  8
LAYER0016
  6
DASHED
 62
     4
100
AcDbLine
 10
45.95267599999997
 20
563.5660064666465
 30
0.0
 11
45.95267599999997
 21
553.5660064666465
 31
0.0
  0
LINE
  5
D2
330
1F
100
AcDbEntity
  8
LAYER0016
  6
DASHED
 62
     4
100
AcDbLine
 10
47.11523999999994
 20
563.5660064666465
 30
0.0
 11
47.11523999999994
 21
553.5660064666465
 31
0.0
  0
LINE
  5
D3
330
1F
100
AcDbEntity
  8
LAYER0016
  6
DASHED
 62
     4
100
AcDbLine
 10
65.74509599999996
 20
563.5660064666465
 30
0.0
 11
65.74509599999996
 21
553.5660064666465
 31
0.0
  0
LINE
  5
D4
330
1F
100
AcDbEntity
  8
LAYER0016
  6
DASHED
 62
     4
100
AcDbLine
 10
66.90765999999998
 20
563.5660064666465
 30
0.0
 11
66.90765999999998
 21
553.5660064666465
 31
0.0
  0
LINE
  5
D5
330
1F
100
AcDbEntity
  8
LAYER0016
  6
DASHED
 62
     4
100
AcDbLine
 10
-324.5115382234683
 20
156.5886224666463
 30
0.0
 11
-314.5115382234683
 21
156.5886224666463
 31
0.0
  0
LINE
  5
D6
330
1F
100
AcDbEntity
  8
LAYER0016
  6
DASHED
 62
     4
100
AcDbLine
 10
-324.5115382234683
 20
157.7512184666463
 30
0.0
 11
-314.5115382234683
 21
157.7512184666463
 31
0.0
  0
LINE
  5
D7
330
1F
100
AcDbEntity
  8
LAYER0016
  6
DASHED
 62
     4
100
AcDbLine
 10
-324.5115382234683
 20
176.3810424666462
 30
0.0
 11
-314.5115382234683
 21
176.3810424666462
 31
0.0
  0
LINE
  5
D8
330
1F
100
AcDbEntity
  8
LAYER0016
  6
DASHED
 62
     4
100
AcDbLine
 10
-324.5115382234683
 20
177.5436384666462
 30
0.0
 11
-314.5115382234683
 21
177.5436384666462
 31
0.0
  0
LINE
  5
D9
330
1F
100
AcDbEntity
  8
LAYER0016
  6
DASHED
 62
     4
100
AcDbLine
 10
-324.5115382234683
 20
101.5886224666463
 30
0.0
 11
-314.5115382234683
 21
101.5886224666463
 31
0.0
  0
LINE
  5
DA
330
1F
100
AcDbEntity
  8
LAYER0016
  6
DASHED
 62
     4
100
AcDbLine
 10
-324.5115382234683
 20
102.7512184666463
 30
0.0
 11
-314.5115382234683
 21
102.7512184666463
 31
0.0
  0
LINE
  5
DB
330
1F
100
AcDbEntity
  8
LAYER0016
  6
DASHED
 62
     4
100
AcDbLine
 10
-324.5115382234683
 20
121.3810424666463
 30
0.0
 11
-314.5115382234683
 21
121.3810424666463
 31
0.0
  0
LINE
  5
DC
330
1F
100
AcDbEntity
  8
LAYER0016
  6
DASHED
 62
     4
100
AcDbLine
 10
-324.5115382234683
 20
122.5436384666463
 30
0.0
 11
-314.5115382234683
 21
122.5436384666463
 31
0.0
  0
LINE
  5
DD
330
1F
100
AcDbEntity
  8
LAYER0016
  6
DASHED
 62
     4
100
AcDbLine
 10
-236.0115382234684
 20
-475.9391294006113
 30
0.0
 11
-275.0115382234684
 21
-475.9391294006113
 31
0.0
  0
LINE
  5
DE
330
1F
100
AcDbEntity
  8
LAYER0016
  6
DASHED
 62
     4
100
AcDbLine
 10
-220.5115382234684
 20
-473.9391294006113
 30
0.0
 11
-290.5115382234684
 21
-473.9391294006113
 31
0.0
  0
LINE
  5
DF
330
1F
100
AcDbEntity
  8
LAYER0016
  6
DASHED
 62
     4
100
AcDbLine
 10
-236.0115382234684
 20
-475.9391294006113
 30
0.0
 11
-236.0115382234684
 21
-494.9391294006113
 31
0.0
  0
LINE
  5
E0
330
1F
100
AcDbEntity
  8
LAYER0016
  6
DASHED
 62
     4
100
AcDbLine
 10
-275.0115382234684
 20
-475.9391294006113
 30
0.0
 11
-275.0115382234684
 21
-494.9391294006113
 31
0.0
  0
LINE
  5
E1
330
1F
100
AcDbEntity
  8
LAYER0016
  6
DASHED
 62
     4
100
AcDbLine
 10
-275.0111102234681
 20
-475.9391614006112
 30
0.0
 11
-275.5469982234684
 21
-473.9391294006113
 31
0.0
  0
LINE
  5
E2
330
1F
100
AcDbEntity
  8
LAYER0016
  6
DASHED
 62
     4
100
AcDbLine
 10
-236.0111102234681
 20
-475.9392534006112
 30
0.0
 11
-235.4752222234684
 21
-473.9393134006112
 31
0.0
  0
LINE
  5
E3
330
1F
100
AcDbEntity
  8
LAYER0016
  6
DASHED
 62
     4
100
AcDbLine
 10
-253.7154582234685
 20
-475.9391294006113
 30
0.0
 11
-253.7154582234685
 21
-494.9391294006113
 31
0.0
  0
LINE
  5
E4
330
1F
100
AcDbEntity
  8
LAYER0016
  6
DASHED
 62
     4
100
AcDbLine
 10
-257.3076182234685
 20
-475.9391294006113
 30
0.0
 11
-257.3076182234685
 21
-494.9391294006113
 31
0.0
  0
LINE
  5
E5
330
1F
100
AcDbEntity
  8
LAYER0016
  6
DASHED
 62
     4
100
AcDbLine
 10
-253.7150902234686
 20
-475.9389454006112
 30
0.0
 11
-244.1043065098627
 21
-494.9391294006113
 31
0.0
  0
LINE
  5
E6
330
1F
100
AcDbEntity
  8
LAYER0016
  6
DASHED
 62
     4
100
AcDbLine
 10
-257.3073142234686
 20
-475.9393134006112
 30
0.0
 11
-266.9180005213543
 21
-494.9393387557679
 31
0.0
  0
LINE
  5
E7
330
1F
100
AcDbEntity
  8
LAYER0016
  6
DASHED
 62
     4
100
AcDbLine
 10
-275.0112342234685
 20
-475.9390374006113
 30
0.0
 11
-265.4004794719029
 21
-494.9391294006113
 31
0.0
  0
LINE
  5
E8
330
1F
100
AcDbEntity
  8
LAYER0016
  6
DASHED
 62
     4
100
AcDbLine
 10
-236.0110502234685
 20
-475.9393414006112
 30
0.0
 11
-245.6217929897335
 21
-494.9394270776404
 31
0.0
  0
LINE
  5
E9
330
1F
100
AcDbEntity
  8
LAYER0016
  6
DASHED
 62
     4
100
AcDbLine
 10
-295.5115382234684
 20
-489.9391294006113
 30
0.0
 11
-288.0115382234684
 21
-489.9391294006113
 31
0.0
  0
LINE
  5
EA
330
1F
100
AcDbEntity
  8
LAYER0016
  6
DASHED
 62
     4
100
AcDbLine
 10
-290.5115382234684
 20
-475.9391294006113
 30
0.0
 11
-288.0115382234684
 21
-475.9391294006113
 31
0.0
  0
LINE
  5
EB
330
1F
100
AcDbEntity
  8
LAYER0016
  6
DASHED
 62
     4
100
AcDbLine
 10
-220.5115382234684
 20
-470.9391294006113
 30
0.0
 11
-220.5115382234684
 21
-475.9391294006113
 31
0.0
  0
LINE
  5
EC
330
1F
100
AcDbEntity
  8
LAYER0016
  6
DASHED
 62
     4
100
AcDbLine
 10
-290.5115382234684
 20
-470.9391294006113
 30
0.0
 11
-290.5115382234684
 21
-475.9391294006113
 31
0.0
  0
LINE
  5
ED
330
1F
100
AcDbEntity
  8
LAYER0016
  6
DASHED
 62
     4
100
AcDbLine
 10
-223.0115382234684
 20
-475.9391294006113
 30
0.0
 11
-223.0115382234684
 21
-489.9391294006113
 31
0.0
  0
LINE
  5
EE
330
1F
100
AcDbEntity
  8
LAYER0016
  6
DASHED
 62
     4
100
AcDbLine
 10
-288.0115382234684
 20
-475.9391294006113
 30
0.0
 11
-288.0115382234684
 21
-489.9391294006113
 31
0.0
  0
LINE
  5
EF
330
1F
100
AcDbEntity
  8
LAYER0016
  6
DASHED
 62
     4
100
AcDbLine
 10
-215.5115382234684
 20
-489.9391294006113
 30
0.0
 11
-215.5115382234684
 21
-494.9391294006113
 31
0.0
  0
LINE
  5
F0
330
1F
100
AcDbEntity
  8
LAYER0016
  6
DASHED
 62
     4
100
AcDbLine
 10
-295.5115382234684
 20
-489.9391294006113
 30
0.0
 11
-295.5115382234684
 21
-494.9391294006113
 31
0.0
  0
LINE
  5
F1
330
1F
100
AcDbEntity
  8
LAYER0016
  6
DASHED
 62
     4
100
AcDbLine
 10
-223.0115382234684
 20
-475.9391294006113
 30
0.0
 11
-220.5115382234684
 21
-475.9391294006113
 31
0.0
  0
LINE
  5
F2
330
1F
100
AcDbEntity
  8
LAYER0016
  6
DASHED
 62
     4
100
AcDbLine
 10
-223.0115382234684
 20
-489.9391294006113
 30
0.0
 11
-215.5115382234684
 21
-489.9391294006113
 31
0.0
  0
LINE
  5
F3
330
1F
100
AcDbEntity
  8
LAYER0016
  6
CONTINUOUS
 62
     4
100
AcDbLine
 10
216.430168
 20
579.5660064666465
 30
0.0
 11
216.430168
 21
573.5660064666465
 31
0.0
  0
LINE
  5
F4
330
1F
100
AcDbEntity
  8
LAYER0016
  6
CONTINUOUS
 62
     4
100
AcDbLine
 10
202.430168
 20
579.5660064666465
 30
0.0
 11
202.430168
 21
573.5660064666465
 31
0.0
  0
LINE
  5
F5
330
1F
100
AcDbEntity
  8
LAYER0016
  6
CONTINUOUS
 62
     4
100
AcDbLine
 10
150.4301679999999
 20
579.5660064666465
 30
0.0
 11
150.4301679999999
 21
573.5660064666465
 31
0.0
  0
LINE
  5
F6
330
1F
100
AcDbEntity
  8
LAYER0016
  6
CONTINUOUS
 62
     4
100
AcDbLine
 10
136.430168
 20
579.5660064666465
 30
0.0
 11
136.430168
 21
573.5660064666465
 31
0.0
  0
LINE
  5
F7
330
1F
100
AcDbEntity
  8
LAYER0016
  6
CONTINUOUS
 62
     4
100
AcDbLine
 10
-340.5115382234683
 20
123.5661304666463
 30
0.0
 11
-334.5115382234683
 21
123.5661304666463
 31
0.0
  0
LINE
  5
F8
330
1F
100
AcDbEntity
  8
LAYER0016
  6
CONTINUOUS
 62
     4
100
AcDbLine
 10
-340.5115382234683
 20
109.5661304666463
 30
0.0
 11
-334.5115382234683
 21
109.5661304666463
 31
0.0
  0
CIRCLE
  5
F9
330
1F
100
AcDbEntity
  8
LAYER0016
  6
CONTINUOUS
 62
     4
100
AcDbCircle
 10
212.492608
 20
-189.4669797176195
 30
0.0
 40
5.0
  0
CIRCLE
  5
FA
330
1F
100
AcDbEntity
  8
LAYER0016
  6
CONTINUOUS
 62
     4
100
AcDbCircle
 10
227.430168
 20
-153.4045397176195
 30
0.0
 40
5.0
  0
CIRCLE
  5
FB
330
1F
100
AcDbEntity
  8
LAYER0016
  6
CONTINUOUS
 62
     4
100
AcDbCircle
 10
140.367724
 20
-117.3420997176193
 30
0.0
 40
5.0
  0
CIRCLE
  5
FC
330
1F
100
AcDbEntity
  8
LAYER0016
  6
CONTINUOUS
 62
     4
100
AcDbCircle
 10
140.3677119999999
 20
-189.4669797176195
 30
0.0
 40
5.0
  0
CIRCLE
  5
FD
330
1F
100
AcDbEntity
  8
LAYER0016
  6
CONTINUOUS
 62
     4
100
AcDbCircle
 10
212.492616
 20
-117.3420997176193
 30
0.0
 40
5.0
  0
CIRCLE
  5
FE
330
1F
100
AcDbEntity
  8
LAYER0016
  6
CONTINUOUS
 62
     4
100
AcDbCircle
 10
176.4301679999999
 20
-102.4045397176195
 30
0.0
 40
5.0
  0
CIRCLE
  5
FF
330
1F
100
AcDbEntity
  8
LAYER0016
  6
CONTINUOUS
 62
     4
100
AcDbCircle
 10
125.4301640000001
 20
-153.4045397176195
 30
0.0
 40
5.0
  0
CIRCLE
  5
100
330
1F
100
AcDbEntity
  8
LAYER0016
  6
CONTINUOUS
 62
     4
100
AcDbCircle
 10
176.43016
 20
-204.4045397176195
 30
0.0
 40
5.0
  0
LINE
  5
101
330
1F
100
AcDbEntity
  8
LAYER0016
  6
CONTINUOUS
 62
     4
100
AcDbLine
 10
190.5723036237309
 20
480.4238708429156
 30
0.0
 11
179.1171737685089
 21
491.8790006981375
 31
0.0
  0
LINE
  5
102
330
1F
100
AcDbEntity
  8
LAYER0016
  6
CONTINUOUS
 62
     4
100
AcDbLine
 10
173.7431622314911
 20
497.2530122351556
 30
0.0
 11
162.288032376269
 21
508.7081420903776
 31
0.0
  0
LINE
  5
103
330
1F
100
AcDbEntity
  8
LAYER0016
  6
DIVIDE
 62
     4
100
AcDbLine
 10
-78.64597200000006
 20
558.6392784666464
 30
0.0
 11
-52.59477526398705
 21
559.6316977486732
 31
0.0
  0
LINE
  5
104
330
1F
100
AcDbEntity
  8
LAYER0016
  6
DIVIDE
 62
     4
100
AcDbLine
 10
-80.56983200000005
 20
556.640747773826
 30
0.0
 11
-80.56983200000005
 21
419.4912784666463
 31
0.0
  0
ARC
  5
105
330
1F
100
AcDbEntity
  8
LAYER0016
  6
DIVIDE
 62
     4
100
AcDbCircle
 10
-78.56983200000005
 20
556.6407424666465
 30
0.0
 40
2.0
100
AcDbArc
 50
92.18146078521276
 51
179.9998479605037
  0
ARC
  5
106
330
1F
100
AcDbEntity
  8
LAYER0016
  6
DIVIDE
 62
     4
100
AcDbCircle
 10
-78.56983200000005
 20
419.4912784666463
 30
0.0
 40
2.0
100
AcDbArc
 50
179.9998479605037
 51
267.8176621780005
  0
LINE
  5
107
330
1F
100
AcDbEntity
  8
LAYER0016
  6
DIVIDE
 62
     4
100
AcDbLine
 10
-78.64598800000007
 20
417.4927424666463
 30
0.0
 11
-52.59477526398705
 21
416.5003141766966
 31
0.0
  0
LINE
  5
108
330
1F
100
AcDbEntity
  8
LAYER0016
  6
CONTINUOUS
 62
     3
100
AcDbLine
 10
33.43016799999995
 20
560.5660064666465
 30
0.0
 11
33.43016799999995
 21
415.5660064666463
 31
0.0
  0
LINE
  5
109
330
1F
100
AcDbEntity
  8
LAYER0016
  6
CONTINUOUS
 62
     3
100
AcDbLine
 10
26.93017599999994
 20
560.5660064666465
 30
0.0
 11
331.430168
 21
560.5660064666465
 31
0.0
  0
LINE
  5
10A
330
1F
100
AcDbEntity
  8
LAYER0016
  6
CONTINUOUS
 62
     3
100
AcDbLine
 10
71.43016799999998
 20
412.5660064666463
 30
0.0
 11
340.430168
 21
412.5660064666463
 31
0.0
  0
LINE
  5
10B
330
1F
100
AcDbEntity
  8
LAYER0016
  6
CONTINUOUS
 62
     3
100
AcDbLine
 10
340.430168
 20
427.5660064666463
 30
0.0
 11
340.430168
 21
407.3069744666464
 31
0.0
  0
LINE
  5
10C
330
1F
100
AcDbEntity
  8
LAYER0016
  6
CONTINUOUS
 62
     3
100
AcDbLine
 10
71.43016799999998
 20
413.5660064666463
 30
0.0
 11
71.43016799999998
 21
399.3312184666464
 31
0.0
  0
LINE
  5
10D
330
1F
100
AcDbEntity
  8
LAYER0016
  6
CONTINUOUS
 62
     3
100
AcDbLine
 10
26.93015999999998
 20
415.5660064666463
 30
0.0
 11
97.43009999999987
 21
415.5660064666463
 31
0.0
  0
LINE
  5
10E
330
1F
100
AcDbEntity
  8
LAYER0016
  6
CONTINUOUS
 62
     3
100
AcDbLine
 10
39.43016799999995
 20
563.5660064666465
 30
0.0
 11
73.43016799999998
 21
563.5660064666465
 31
0.0
  0
LINE
  5
10F
330
1F
100
AcDbEntity
  8
LAYER0016
  6
CONTINUOUS
 62
     3
100
AcDbLine
 10
33.43016799999995
 20
196.5661304666463
 30
0.0
 11
33.43016799999995
 21
82.5661304666463
 31
0.0
  0
LINE
  5
110
330
1F
100
AcDbEntity
  8
LAYER0016
  6
CONTINUOUS
 62
     3
100
AcDbLine
 10
96.43016799999998
 20
199.5661304666463
 30
0.0
 11
256.430168
 21
199.5661304666463
 31
0.0
  0
LINE
  5
111
330
1F
100
AcDbEntity
  8
LAYER0016
  6
CONTINUOUS
 62
     3
100
AcDbLine
 10
26.93016799999996
 20
196.5661304666463
 30
0.0
 11
308.944892
 21
196.5661304666463
 31
0.0
  0
LINE
  5
112
330
1F
100
AcDbEntity
  8
LAYER0016
  6
CONTINUOUS
 62
     3
100
AcDbLine
 10
-173.5115382234684
 20
196.5661304666463
 30
0.0
 11
-173.5115382234684
 21
62.56613046664631
 31
0.0
  0
LINE
  5
113
330
1F
100
AcDbEntity
  8
LAYER0016
  6
CONTINUOUS
 62
     3
100
AcDbLine
 10
-321.5115382234683
 20
203.5661304666463
 30
0.0
 11
-321.5115382234683
 21
88.56613046664624
 31
0.0
  0
LINE
  5
114
330
1F
100
AcDbEntity
  8
LAYER0016
  6
CONTINUOUS
 62
     3
100
AcDbLine
 10
-324.5115382234683
 20
184.0661304666463
 30
0.0
 11
-324.5115382234683
 21
95.0661304666463
 31
0.0
  0
LINE
  5
115
330
1F
100
AcDbEntity
  8
LAYER0016
  6
CONTINUOUS
 62
     3
100
AcDbLine
 10
-321.5115382234683
 20
199.5661304666463
 30
0.0
 11
-189.5115382234684
 21
199.5661304666463
 31
0.0
  0
LINE
  5
116
330
1F
100
AcDbEntity
  8
LAYER0016
  6
CONTINUOUS
 62
     3
100
AcDbLine
 10
-187.5115382234684
 20
62.56613046664631
 30
0.0
 11
-166.5115382234684
 21
62.56613046664631
 31
0.0
  0
LINE
  5
117
330
1F
100
AcDbEntity
  8
LAYER0016
  6
CONTINUOUS
 62
     3
100
AcDbLine
 10
-315.5115382234683
 20
196.5661304666463
 30
0.0
 11
-166.5115382234684
 21
196.5661304666463
 31
0.0
  0
LINE
  5
118
330
1F
100
AcDbEntity
  8
LAYER0016
  6
CONTINUOUS
 62
     3
100
AcDbLine
 10
116.430168
 20
214.5661304666463
 30
0.0
 11
236.430168
 21
214.5661304666463
 31
0.0
  0
LINE
  5
119
330
1F
100
AcDbEntity
  8
LAYER0016
  6
CONTINUOUS
 62
     3
100
AcDbLine
 10
98.43016799999998
 20
205.5661304666463
 30
0.0
 11
254.430168
 21
205.5661304666463
 31
0.0
  0
LINE
  5
11A
330
1F
100
AcDbEntity
  8
LAYER0016
  6
CONTINUOUS
 62
     3
100
AcDbLine
 10
116.430168
 20
219.5661304666463
 30
0.0
 11
116.430168
 21
209.5661304666463
 31
0.0
  0
LINE
  5
11B
330
1F
100
AcDbEntity
  8
LAYER0016
  6
CONTINUOUS
 62
     3
100
AcDbLine
 10
236.430168
 20
219.5661304666463
 30
0.0
 11
236.430168
 21
209.5661304666463
 31
0.0
  0
LINE
  5
11C
330
1F
100
AcDbEntity
  8
LAYER0016
  6
CONTINUOUS
 62
     3
100
AcDbLine
 10
96.43016799999998
 20
203.5661304666463
 30
0.0
 11
96.43016799999998
 21
199.5661304666463
 31
0.0
  0
LINE
  5
11D
330
1F
100
AcDbEntity
  8
LAYER0016
  6
CONTINUOUS
 62
     3
100
AcDbLine
 10
256.430168
 20
203.5661304666463
 30
0.0
 11
256.430168
 21
199.5661304666463
 31
0.0
  0
LINE
  5
11E
330
1F
100
AcDbEntity
  8
LAYER0016
  6
CONTINUOUS
 62
     3
100
AcDbLine
 10
244.330168
 20
207.0661304666463
 30
0.0
 11
256.530176
 21
207.0661304666463
 31
0.0
  0
LINE
  5
11F
330
1F
100
AcDbEntity
  8
LAYER0016
  6
CONTINUOUS
 62
     3
100
AcDbLine
 10
255.680168
 20
208.5931384666463
 30
0.0
 11
255.680168
 21
207.0661304666463
 31
0.0
  0
LINE
  5
120
330
1F
100
AcDbEntity
  8
LAYER0016
  6
CONTINUOUS
 62
     3
100
AcDbLine
 10
245.180168
 20
208.5931384666463
 30
0.0
 11
245.180168
 21
207.0661304666463
 31
0.0
  0
LINE
  5
121
330
1F
100
AcDbEntity
  8
LAYER0016
  6
CONTINUOUS
 62
     3
100
AcDbLine
 10
244.330168
 20
207.0661304666463
 30
0.0
 11
244.330168
 21
205.5661304666463
 31
0.0
  0
LINE
  5
122
330
1F
100
AcDbEntity
  8
LAYER0016
  6
CONTINUOUS
 62
     3
100
AcDbLine
 10
256.530176
 20
207.0661304666463
 30
0.0
 11
256.530176
 21
205.5661304666463
 31
0.0
  0
LINE
  5
123
330
1F
100
AcDbEntity
  8
LAYER0016
  6
CONTINUOUS
 62
     3
100
AcDbLine
 10
250.430152
 20
207.0661464666464
 30
0.0
 11
251.93016
 21
205.5661304666463
 31
0.0
  0
LINE
  5
124
330
1F
100
AcDbEntity
  8
LAYER0016
  6
CONTINUOUS
 62
     3
100
AcDbLine
 10
250.430152
 20
205.5661464666464
 30
0.0
 11
248.930168
 21
207.0661304666463
 31
0.0
  0
LINE
  5
125
330
1F
100
AcDbEntity
  8
LAYER0016
  6
CONTINUOUS
 62
     3
100
AcDbLine
 10
96.33016799999999
 20
207.0661304666463
 30
0.0
 11
108.5301679999999
 21
207.0661304666463
 31
0.0
  0
LINE
  5
126
330
1F
100
AcDbEntity
  8
LAYER0016
  6
CONTINUOUS
 62
     3
100
AcDbLine
 10
107.680168
 20
208.5931384666463
 30
0.0
 11
107.680168
 21
207.0661304666463
 31
0.0
  0
LINE
  5
127
330
1F
100
AcDbEntity
  8
LAYER0016
  6
CONTINUOUS
 62
     3
100
AcDbLine
 10
97.18016799999998
 20
208.5931384666463
 30
0.0
 11
97.18016799999998
 21
207.0661304666463
 31
0.0
  0
LINE
  5
128
330
1F
100
AcDbEntity
  8
LAYER0016
  6
CONTINUOUS
 62
     3
100
AcDbLine
 10
96.33016799999999
 20
207.0661304666463
 30
0.0
 11
96.33016799999999
 21
205.5661304666463
 31
0.0
  0
LINE
  5
129
330
1F
100
AcDbEntity
  8
LAYER0016
  6
CONTINUOUS
 62
     3
100
AcDbLine
 10
108.5301679999999
 20
207.0661304666463
 30
0.0
 11
108.5301679999999
 21
205.5661304666463
 31
0.0
  0
LINE
  5
12A
330
1F
100
AcDbEntity
  8
LAYER0016
  6
CONTINUOUS
 62
     3
100
AcDbLine
 10
102.430196
 20
207.0661464666464
 30
0.0
 11
103.9301879999999
 21
205.5661464666464
 31
0.0
  0
LINE
  5
12B
330
1F
100
AcDbEntity
  8
LAYER0016
  6
CONTINUOUS
 62
     3
100
AcDbLine
 10
102.430196
 20
205.5661744666463
 30
0.0
 11
100.930208
 21
207.0661624666463
 31
0.0
  0
LINE
  5
12C
330
1F
100
AcDbEntity
  8
LAYER0016
  6
CONTINUOUS
 62
     3
100
AcDbLine
 10
256.430168
 20
554.5660064666465
 30
0.0
 11
256.430168
 21
434.5660064666463
 31
0.0
  0
LINE
  5
12D
330
1F
100
AcDbEntity
  8
LAYER0016
  6
CONTINUOUS
 62
     3
100
AcDbLine
 10
96.43016799999998
 20
554.5660064666465
 30
0.0
 11
96.43016799999998
 21
434.5660064666463
 31
0.0
  0
LINE
  5
12E
330
1F
100
AcDbEntity
  8
LAYER0016
  6
CONTINUOUS
 62
     3
100
AcDbLine
 10
102.430168
 20
428.5660064666463
 30
0.0
 11
250.430168
 21
428.5660064666463
 31
0.0
  0
LINE
  5
12F
330
1F
100
AcDbEntity
  8
LAYER0016
  6
CONTINUOUS
 62
     3
100
AcDbLine
 10
248.2381439999999
 20
436.7580464666464
 30
0.0
 11
252.622208
 21
432.3739864666463
 31
0.0
  0
LINE
  5
130
330
1F
100
AcDbEntity
  8
LAYER0016
  6
CONTINUOUS
 62
     3
100
AcDbLine
 10
248.238152
 20
432.3739624666463
 30
0.0
 11
252.622216
 21
436.7580184666463
 31
0.0
  0
LINE
  5
131
330
1F
100
AcDbEntity
  8
LAYER0016
  6
CONTINUOUS
 62
     3
100
AcDbLine
 10
248.2381359999999
 20
552.3739904666465
 30
0.0
 11
252.6221919999999
 21
556.7580384666464
 31
0.0
  0
LINE
  5
132
330
1F
100
AcDbEntity
  8
LAYER0016
  6
CONTINUOUS
 62
     3
100
AcDbLine
 10
248.2381879999999
 20
556.7580824666463
 30
0.0
 11
252.622252
 21
552.3740184666465
 31
0.0
  0
LINE
  5
133
330
1F
100
AcDbEntity
  8
LAYER0016
  6
CONTINUOUS
 62
     3
100
AcDbLine
 10
104.6222039999999
 20
552.3739904666465
 30
0.0
 11
100.238148
 21
556.7580544666464
 31
0.0
  0
LINE
  5
134
330
1F
100
AcDbEntity
  8
LAYER0016
  6
CONTINUOUS
 62
     3
100
AcDbLine
 10
104.6221839999999
 20
556.7580544666464
 30
0.0
 11
100.238124
 21
552.3739904666465
 31
0.0
  0
LINE
  5
135
330
1F
100
AcDbEntity
  8
LAYER0016
  6
CONTINUOUS
 62
     3
100
AcDbLine
 10
104.6222039999999
 20
436.7580424666464
 30
0.0
 11
100.2381399999999
 21
432.3739784666463
 31
0.0
  0
LINE
  5
136
330
1F
100
AcDbEntity
  8
LAYER0016
  6
CONTINUOUS
 62
     3
100
AcDbLine
 10
104.62218
 20
432.3739504666464
 30
0.0
 11
100.2381079999999
 21
436.7580184666463
 31
0.0
  0
LINE
  5
137
330
1F
100
AcDbEntity
  8
LAYER0016
  6
CONTINUOUS
 62
     3
100
AcDbLine
 10
-207.5115382234684
 20
214.5661304666463
 30
0.0
 11
-303.5115382234683
 21
214.5661304666463
 31
0.0
  0
LINE
  5
138
330
1F
100
AcDbEntity
  8
LAYER0016
  6
CONTINUOUS
 62
     3
100
AcDbLine
 10
-191.5115382234684
 20
205.5661304666463
 30
0.0
 11
-319.5115382234683
 21
205.5661304666463
 31
0.0
  0
LINE
  5
139
330
1F
100
AcDbEntity
  8
LAYER0016
  6
CONTINUOUS
 62
     3
100
AcDbLine
 10
-303.5115382234683
 20
219.5661144666462
 30
0.0
 11
-303.5115382234683
 21
209.5661304666463
 31
0.0
  0
LINE
  5
13A
330
1F
100
AcDbEntity
  8
LAYER0016
  6
CONTINUOUS
 62
     3
100
AcDbLine
 10
-207.5115382234684
 20
219.5661304666463
 30
0.0
 11
-207.5115382234684
 21
209.5661304666463
 31
0.0
  0
LINE
  5
13B
330
1F
100
AcDbEntity
  8
LAYER0016
  6
CONTINUOUS
 62
     3
100
AcDbLine
 10
-189.5115382234684
 20
203.5661304666463
 30
0.0
 11
-189.5115382234684
 21
199.5661304666463
 31
0.0
  0
LINE
  5
13C
330
1F
100
AcDbEntity
  8
LAYER0016
  6
CONTINUOUS
 62
     3
100
AcDbLine
 10
-201.6115462234684
 20
207.0661304666463
 30
0.0
 11
-189.4115302234684
 21
207.0661304666463
 31
0.0
  0
LINE
  5
13D
330
1F
100
AcDbEntity
  8
LAYER0016
  6
CONTINUOUS
 62
     3
100
AcDbLine
 10
-190.2615382234684
 20
208.5931544666463
 30
0.0
 11
-190.2615382234684
 21
207.0661304666463
 31
0.0
  0
LINE
  5
13E
330
1F
100
AcDbEntity
  8
LAYER0016
  6
CONTINUOUS
 62
     3
100
AcDbLine
 10
-200.7615382234684
 20
208.5931544666463
 30
0.0
 11
-200.7615382234684
 21
207.0661304666463
 31
0.0
  0
LINE
  5
13F
330
1F
100
AcDbEntity
  8
LAYER0016
  6
CONTINUOUS
 62
     3
100
AcDbLine
 10
-201.6115462234684
 20
207.0661304666463
 30
0.0
 11
-201.6115462234684
 21
205.5661304666463
 31
0.0
  0
LINE
  5
140
330
1F
100
AcDbEntity
  8
LAYER0016
  6
CONTINUOUS
 62
     3
100
AcDbLine
 10
-189.4115302234684
 20
207.0661304666463
 30
0.0
 11
-189.4115302234684
 21
205.5661304666463
 31
0.0
  0
LINE
  5
141
330
1F
100
AcDbEntity
  8
LAYER0016
  6
CONTINUOUS
 62
     3
100
AcDbLine
 10
-195.5115382234684
 20
207.0661624666463
 30
0.0
 11
-194.0115382234684
 21
205.5661624666463
 31
0.0
  0
LINE
  5
142
330
1F
100
AcDbEntity
  8
LAYER0016
  6
CONTINUOUS
 62
     3
100
AcDbLine
 10
-195.5115062234684
 20
205.5661744666463
 30
0.0
 11
-197.0115062234684
 21
207.0661744666463
 31
0.0
  0
LINE
  5
143
330
1F
100
AcDbEntity
  8
LAYER0016
  6
CONTINUOUS
 62
     3
100
AcDbLine
 10
-321.6115462234683
 20
207.0661304666463
 30
0.0
 11
-309.4115302234683
 21
207.0661304666463
 31
0.0
  0
LINE
  5
144
330
1F
100
AcDbEntity
  8
LAYER0016
  6
CONTINUOUS
 62
     3
100
AcDbLine
 10
-310.2615382234683
 20
208.5931384666463
 30
0.0
 11
-310.2615382234683
 21
207.0661304666463
 31
0.0
  0
LINE
  5
145
330
1F
100
AcDbEntity
  8
LAYER0016
  6
CONTINUOUS
 62
     3
100
AcDbLine
 10
-320.7615382234683
 20
208.5931384666463
 30
0.0
 11
-320.7615382234683
 21
207.0661304666463
 31
0.0
  0
LINE
  5
146
330
1F
100
AcDbEntity
  8
LAYER0016
  6
CONTINUOUS
 62
     3
100
AcDbLine
 10
-321.6115462234683
 20
207.0661304666463
 30
0.0
 11
-321.6115462234683
 21
205.5661304666463
 31
0.0
  0
LINE
  5
147
330
1F
100
AcDbEntity
  8
LAYER0016
  6
CONTINUOUS
 62
     3
100
AcDbLine
 10
-309.4115302234683
 20
207.0661304666463
 30
0.0
 11
-309.4115302234683
 21
205.5661304666463
 31
0.0
  0
LINE
  5
148
330
1F
100
AcDbEntity
  8
LAYER0016
  6
CONTINUOUS
 62
     3
100
AcDbLine
 10
-315.5115382234683
 20
207.0661624666463
 30
0.0
 11
-314.0115382234683
 21
205.5661624666463
 31
0.0
  0
LINE
  5
149
330
1F
100
AcDbEntity
  8
LAYER0016
  6
CONTINUOUS
 62
     3
100
AcDbLine
 10
-315.5114782234684
 20
205.5661904666462
 30
0.0
 11
-317.0114782234684
 21
207.0661744666463
 31
0.0
  0
LINE
  5
14A
330
1F
100
AcDbEntity
  8
LAYER0016
  6
CONTINUOUS
 62
     3
100
AcDbLine
 10
121.4301996339745
 20
542.5660064666465
 30
0.0
 11
231.430168
 21
542.5660064666465
 31
0.0
  0
LINE
  5
14B
330
1F
100
AcDbEntity
  8
LAYER0016
  6
CONTINUOUS
 62
     3
100
AcDbLine
 10
224.430168
 20
541.0660064666465
 30
0.0
 11
224.430168
 21
535.5660064666465
 31
0.0
  0
LINE
  5
14C
330
1F
100
AcDbEntity
  8
LAYER0016
  6
CONTINUOUS
 62
     3
100
AcDbLine
 10
229.430168
 20
530.5660064666465
 30
0.0
 11
234.930168
 21
530.5660064666465
 31
0.0
  0
LINE
  5
14D
330
1F
100
AcDbEntity
  8
LAYER0016
  6
CONTINUOUS
 62
     3
100
AcDbLine
 10
116.430168
 20
537.5660064666465
 30
0.0
 11
116.430168
 21
451.5660197345953
 31
0.0
  0
LINE
  5
14E
330
1F
100
AcDbEntity
  8
LAYER0016
  6
CONTINUOUS
 62
     3
100
AcDbLine
 10
128.430168
 20
541.0660064666465
 30
0.0
 11
128.430168
 21
535.5660064666465
 31
0.0
  0
LINE
  5
14F
330
1F
100
AcDbEntity
  8
LAYER0016
  6
CONTINUOUS
 62
     3
100
AcDbLine
 10
123.430168
 20
530.5660064666465
 30
0.0
 11
117.930168
 21
530.5660064666465
 31
0.0
  0
LINE
  5
150
330
1F
100
AcDbEntity
  8
LAYER0016
  6
CONTINUOUS
 62
     3
100
AcDbLine
 10
224.4301680000175
 20
539.0660064666465
 30
0.0
 11
128.430168
 21
539.0660064666465
 31
0.0
  0
LINE
  5
151
330
1F
100
AcDbEntity
  8
LAYER0016
  6
CONTINUOUS
 62
     3
100
AcDbLine
 10
236.430168
 20
451.5660064666463
 30
0.0
 11
236.430168
 21
537.5660064666465
 31
0.0
  0
LINE
  5
152
330
1F
100
AcDbEntity
  8
LAYER0016
  6
CONTINUOUS
 62
     3
100
AcDbLine
 10
224.430168
 20
448.0660064666463
 30
0.0
 11
224.430168
 21
453.5660064666463
 31
0.0
  0
LINE
  5
153
330
1F
100
AcDbEntity
  8
LAYER0016
  6
CONTINUOUS
 62
     3
100
AcDbLine
 10
229.430168
 20
458.5660064666463
 30
0.0
 11
234.930168
 21
458.5660064666463
 31
0.0
  0
LINE
  5
154
330
1F
100
AcDbEntity
  8
LAYER0016
  6
CONTINUOUS
 62
     3
100
AcDbLine
 10
232.930168
 20
458.5660064666463
 30
0.0
 11
232.930168
 21
530.5660064666465
 31
0.0
  0
LINE
  5
155
330
1F
100
AcDbEntity
  8
LAYER0016
  6
CONTINUOUS
 62
     3
100
AcDbLine
 10
128.430168
 20
450.0660064666463
 30
0.0
 11
224.430168
 21
450.0660064666463
 31
0.0
  0
LINE
  5
156
330
1F
100
AcDbEntity
  8
LAYER0016
  6
CONTINUOUS
 62
     3
100
AcDbLine
 10
231.4301230980765
 20
446.5660064666463
 30
0.0
 11
121.430168
 21
446.5660064666463
 31
0.0
  0
LINE
  5
157
330
1F
100
AcDbEntity
  8
LAYER0016
  6
CONTINUOUS
 62
     3
100
AcDbLine
 10
128.430168
 20
448.0660064666463
 30
0.0
 11
128.430168
 21
453.5660064666463
 31
0.0
  0
LINE
  5
158
330
1F
100
AcDbEntity
  8
LAYER0016
  6
CONTINUOUS
 62
     3
100
AcDbLine
 10
123.430168
 20
458.5660064666463
 30
0.0
 11
117.930168
 21
458.5660064666463
 31
0.0
  0
LINE
  5
159
330
1F
100
AcDbEntity
  8
LAYER0016
  6
CONTINUOUS
 62
     3
100
AcDbLine
 10
119.930168
 20
458.5660064666463
 30
0.0
 11
119.930168
 21
530.5660064666165
 31
0.0
  0
LINE
  5
15A
330
1F
100
AcDbEntity
  8
LAYER0016
  6
CONTINUOUS
 62
     3
100
AcDbLine
 10
229.7330999999999
 20
535.8689544666465
 30
0.0
 11
233.12722
 21
539.2630744666465
 31
0.0
  0
LINE
  5
15B
330
1F
100
AcDbEntity
  8
LAYER0016
  6
CONTINUOUS
 62
     3
100
AcDbLine
 10
229.7331319999999
 20
539.2630744666465
 30
0.0
 11
233.127244
 21
535.8689704666465
 31
0.0
  0
LINE
  5
15C
330
1F
100
AcDbEntity
  8
LAYER0016
  6
CONTINUOUS
 62
     3
100
AcDbLine
 10
123.1272359999999
 20
535.8689704666465
 30
0.0
 11
119.733116
 21
539.2630904666464
 31
0.0
  0
LINE
  5
15D
330
1F
100
AcDbEntity
  8
LAYER0016
  6
CONTINUOUS
 62
     3
100
AcDbLine
 10
123.127208
 20
539.2630744666465
 30
0.0
 11
119.7330999999999
 21
535.8689704666465
 31
0.0
  0
LINE
  5
15E
330
1F
100
AcDbEntity
  8
LAYER0016
  6
CONTINUOUS
 62
     3
100
AcDbLine
 10
229.733116
 20
453.2630624666463
 30
0.0
 11
233.1272359999999
 21
449.8689464666464
 31
0.0
  0
LINE
  5
15F
330
1F
100
AcDbEntity
  8
LAYER0016
  6
CONTINUOUS
 62
     3
100
AcDbLine
 10
229.733116
 20
449.8689584666463
 30
0.0
 11
233.12722
 21
453.2630664666464
 31
0.0
  0
LINE
  5
160
330
1F
100
AcDbEntity
  8
LAYER0016
  6
CONTINUOUS
 62
     3
100
AcDbLine
 10
123.12724
 20
453.2630664666464
 30
0.0
 11
119.7331119999999
 21
449.8689384666463
 31
0.0
  0
LINE
  5
161
330
1F
100
AcDbEntity
  8
LAYER0016
  6
CONTINUOUS
 62
     3
100
AcDbLine
 10
123.127224
 20
449.8689584666463
 30
0.0
 11
119.733116
 21
453.2630664666464
 31
0.0
  0
LINE
  5
162
330
1F
100
AcDbEntity
  8
LAYER0016
  6
CONTINUOUS
 62
     3
100
AcDbLine
 10
26.93016799999996
 20
82.5661304666463
 30
0.0
 11
98.43016799999998
 21
82.5661304666463
 31
0.0
  0
LINE
  5
163
330
1F
100
AcDbEntity
  8
LAYER0016
  6
CONTINUOUS
 62
     3
100
AcDbLine
 10
311.4302279999998
 20
429.5660064666463
 30
0.0
 11
311.4301839999998
 21
405.5660064666463
 31
0.0
  0
LINE
  5
164
330
1F
100
AcDbEntity
  8
LAYER0016
  6
CONTINUOUS
 62
     3
100
AcDbLine
 10
100.430168
 20
412.5660064666463
 30
0.0
 11
100.430168
 21
405.5660064666463
 31
0.0
  0
LINE
  5
165
330
1F
100
AcDbEntity
  8
LAYER0016
  6
CONTINUOUS
 62
     3
100
AcDbLine
 10
339.873328
 20
405.5660064666463
 30
0.0
 11
71.43016799999998
 21
405.5660064666463
 31
0.0
  0
LINE
  5
166
330
1F
100
AcDbEntity
  8
LAYER0016
  6
CONTINUOUS
 62
     3
100
AcDbLine
 10
290.633476
 20
377.5660064666464
 30
0.0
 11
107.430168
 21
377.5660064666464
 31
0.0
  0
LINE
  5
167
330
1F
100
AcDbEntity
  8
LAYER0016
  6
CONTINUOUS
 62
     3
100
AcDbLine
 10
305.430168
 20
404.5660064666463
 30
0.0
 11
305.430168
 21
385.5660064666464
 31
0.0
  0
LINE
  5
168
330
1F
100
AcDbEntity
  8
LAYER0016
  6
CONTINUOUS
 62
     3
100
AcDbLine
 10
331.4301839999998
 20
404.5660064666463
 30
0.0
 11
331.4301839999998
 21
400.4231544666463
 31
0.0
  0
LINE
  5
169
330
1F
100
AcDbEntity
  8
LAYER0016
  6
CONTINUOUS
 62
     3
100
AcDbLine
 10
199.430168
 20
404.5660064666463
 30
0.0
 11
199.430168
 21
379.5660064666464
 31
0.0
  0
LINE
  5
16A
330
1F
100
AcDbEntity
  8
LAYER0016
  6
CONTINUOUS
 62
     3
100
AcDbLine
 10
183.430168
 20
405.5660064666463
 30
0.0
 11
183.430168
 21
379.5660064666464
 31
0.0
  0
LINE
  5
16B
330
1F
100
AcDbEntity
  8
LAYER0016
  6
CONTINUOUS
 62
     3
100
AcDbLine
 10
106.430168
 20
404.5660064666463
 30
0.0
 11
106.430168
 21
379.3219504666464
 31
0.0
  0
LINE
  5
16C
330
1F
100
AcDbEntity
  8
LAYER0016
  6
CONTINUOUS
 62
     3
100
AcDbLine
 10
80.43016799999998
 20
404.5660064666463
 30
0.0
 11
80.43016799999998
 21
392.5660064666464
 31
0.0
  0
LINE
  5
16D
330
1F
100
AcDbEntity
  8
LAYER0016
  6
CONTINUOUS
 62
     3
100
AcDbLine
 10
307.33016
 20
404.0660064666463
 30
0.0
 11
319.530176
 21
404.0660064666463
 31
0.0
  0
LINE
  5
16E
330
1F
100
AcDbEntity
  8
LAYER0016
  6
CONTINUOUS
 62
     3
100
AcDbLine
 10
318.680168
 20
402.5389824666464
 30
0.0
 11
318.680168
 21
404.0660064666463
 31
0.0
  0
LINE
  5
16F
330
1F
100
AcDbEntity
  8
LAYER0016
  6
CONTINUOUS
 62
     3
100
AcDbLine
 10
308.180168
 20
402.5389824666464
 30
0.0
 11
308.180168
 21
404.0660064666463
 31
0.0
  0
LINE
  5
170
330
1F
100
AcDbEntity
  8
LAYER0016
  6
CONTINUOUS
 62
     3
100
AcDbLine
 10
307.33016
 20
404.0660064666463
 30
0.0
 11
307.33016
 21
405.5660064666463
 31
0.0
  0
LINE
  5
171
330
1F
100
AcDbEntity
  8
LAYER0016
  6
CONTINUOUS
 62
     3
100
AcDbLine
 10
319.530176
 20
404.0660064666463
 30
0.0
 11
319.530176
 21
405.5660064666463
 31
0.0
  0
LINE
  5
172
330
1F
100
AcDbEntity
  8
LAYER0016
  6
CONTINUOUS
 62
     3
100
AcDbLine
 10
313.4301359999998
 20
404.0660264666463
 30
0.0
 11
314.9301359999998
 21
405.5660304666463
 31
0.0
  0
LINE
  5
173
330
1F
100
AcDbEntity
  8
LAYER0016
  6
CONTINUOUS
 62
     3
100
AcDbLine
 10
313.4301359999998
 20
405.5660504666463
 30
0.0
 11
311.9301359999998
 21
404.0660504666463
 31
0.0
  0
LINE
  5
174
330
1F
100
AcDbEntity
  8
LAYER0016
  6
CONTINUOUS
 62
     3
100
AcDbLine
 10
185.330168
 20
404.0660064666463
 30
0.0
 11
197.530168
 21
404.0660064666463
 31
0.0
  0
LINE
  5
175
330
1F
100
AcDbEntity
  8
LAYER0016
  6
CONTINUOUS
 62
     3
100
AcDbLine
 10
196.680168
 20
402.5389824666464
 30
0.0
 11
196.680168
 21
404.0660064666463
 31
0.0
  0
LINE
  5
176
330
1F
100
AcDbEntity
  8
LAYER0016
  6
CONTINUOUS
 62
     3
100
AcDbLine
 10
186.180168
 20
402.5389824666464
 30
0.0
 11
186.180168
 21
404.0660064666463
 31
0.0
  0
LINE
  5
177
330
1F
100
AcDbEntity
  8
LAYER0016
  6
CONTINUOUS
 62
     3
100
AcDbLine
 10
185.330168
 20
404.0660064666463
 30
0.0
 11
185.330168
 21
405.5660064666463
 31
0.0
  0
LINE
  5
178
330
1F
100
AcDbEntity
  8
LAYER0016
  6
CONTINUOUS
 62
     3
100
AcDbLine
 10
197.530168
 20
404.0660064666463
 30
0.0
 11
197.530168
 21
405.5660064666463
 31
0.0
  0
LINE
  5
179
330
1F
100
AcDbEntity
  8
LAYER0016
  6
CONTINUOUS
 62
     3
100
AcDbLine
 10
191.430168
 20
404.0660224666464
 30
0.0
 11
192.930168
 21
405.5660224666464
 31
0.0
  0
LINE
  5
17A
330
1F
100
AcDbEntity
  8
LAYER0016
  6
CONTINUOUS
 62
     3
100
AcDbLine
 10
191.43016
 20
405.5660384666464
 30
0.0
 11
189.930156
 21
404.0660344666463
 31
0.0
  0
LINE
  5
17B
330
1F
100
AcDbEntity
  8
LAYER0016
  6
CONTINUOUS
 62
     3
100
AcDbLine
 10
92.33015999999998
 20
404.0660064666463
 30
0.0
 11
104.530176
 21
404.0660064666463
 31
0.0
  0
LINE
  5
17C
330
1F
100
AcDbEntity
  8
LAYER0016
  6
CONTINUOUS
 62
     3
100
AcDbLine
 10
103.680168
 20
402.5389824666464
 30
0.0
 11
103.680168
 21
404.0660064666463
 31
0.0
  0
LINE
  5
17D
330
1F
100
AcDbEntity
  8
LAYER0016
  6
CONTINUOUS
 62
     3
100
AcDbLine
 10
93.18016799999998
 20
402.5389824666464
 30
0.0
 11
93.18016799999998
 21
404.0660064666463
 31
0.0
  0
LINE
  5
17E
330
1F
100
AcDbEntity
  8
LAYER0016
  6
CONTINUOUS
 62
     3
100
AcDbLine
 10
92.33015999999998
 20
404.0660064666463
 30
0.0
 11
92.33015999999998
 21
405.5660064666463
 31
0.0
  0
LINE
  5
17F
330
1F
100
AcDbEntity
  8
LAYER0016
  6
CONTINUOUS
 62
     3
100
AcDbLine
 10
104.530176
 20
404.0660064666463
 30
0.0
 11
104.530176
 21
405.5660064666463
 31
0.0
  0
LINE
  5
180
330
1F
100
AcDbEntity
  8
LAYER0016
  6
CONTINUOUS
 62
     3
100
AcDbLine
 10
98.43017199999997
 20
404.0660144666463
 30
0.0
 11
99.93016799999998
 21
405.5660104666463
 31
0.0
  0
LINE
  5
181
330
1F
100
AcDbEntity
  8
LAYER0016
  6
CONTINUOUS
 62
     3
100
AcDbLine
 10
98.43017599999999
 20
405.5660144666463
 30
0.0
 11
96.93017199999997
 21
404.0660104666463
 31
0.0
  0
LINE
  5
182
330
1F
100
AcDbEntity
  8
LAYER0016
  6
CONTINUOUS
 62
     3
100
AcDbLine
 10
176.9301679999999
 20
362.5660064666464
 30
0.0
 11
131.930168
 21
362.5660064666464
 31
0.0
  0
LINE
  5
183
330
1F
100
AcDbEntity
  8
LAYER0016
  6
CONTINUOUS
 62
     3
100
AcDbLine
 10
131.9301439999999
 20
362.5659824666462
 30
0.0
 11
128.0715279999999
 21
375.4280344666464
 31
0.0
  0
LINE
  5
184
330
1F
100
AcDbEntity
  8
LAYER0016
  6
CONTINUOUS
 62
     3
100
AcDbLine
 10
176.930172
 20
362.5660024666464
 30
0.0
 11
180.788788
 21
375.4280504666464
 31
0.0
  0
LINE
  5
185
330
1F
100
AcDbEntity
  8
LAYER0016
  6
CONTINUOUS
 62
     3
100
AcDbLine
 10
72.97322799999988
 20
396.7086864666463
 30
0.0
 11
107.43016
 21
377.5659464666464
 31
0.0
  0
LINE
  5
186
330
1F
100
AcDbEntity
  8
LAYER0016
  6
CONTINUOUS
 62
     3
100
AcDbLine
 10
292.121908
 20
377.9612384666464
 30
0.0
 11
338.918588
 21
404.7021944666463
 31
0.0
  0
LINE
  5
187
330
1F
100
AcDbEntity
  8
LAYER0016
  6
CONTINUOUS
 62
     3
100
AcDbLine
 10
313.187536
 20
194.8088384666463
 30
0.0
 11
338.672828
 21
169.3235464666464
 31
0.0
  0
LINE
  5
188
330
1F
100
AcDbEntity
  8
LAYER0016
  6
CONTINUOUS
 62
     3
100
AcDbLine
 10
98.67276399999997
 20
194.8088224666463
 30
0.0
 11
73.18748399999987
 21
169.3235464666464
 31
0.0
  0
LINE
  5
189
330
1F
100
AcDbEntity
  8
LAYER0016
  6
CONTINUOUS
 62
     3
100
AcDbLine
 10
313.430168
 20
176.5661304666463
 30
0.0
 11
331.4301839999998
 21
176.5661304666463
 31
0.0
  0
LINE
  5
18A
330
1F
100
AcDbEntity
  8
LAYER0016
  6
CONTINUOUS
 62
     3
100
AcDbLine
 10
98.43016799999998
 20
176.5661304666463
 30
0.0
 11
80.43016799999998
 21
176.5661304666463
 31
0.0
  0
LINE
  5
18B
330
1F
100
AcDbEntity
  8
LAYER0016
  6
CONTINUOUS
 62
     3
100
AcDbLine
 10
106.430168
 20
184.5661304666463
 30
0.0
 11
106.430168
 21
194.5661304666463
 31
0.0
  0
LINE
  5
18C
330
1F
100
AcDbEntity
  8
LAYER0016
  6
CONTINUOUS
 62
     3
100
AcDbLine
 10
183.430168
 20
189.5661304666463
 30
0.0
 11
183.430168
 21
194.5661304666463
 31
0.0
  0
LINE
  5
18D
330
1F
100
AcDbEntity
  8
LAYER0016
  6
CONTINUOUS
 62
     3
100
AcDbLine
 10
199.430168
 20
189.5661304666463
 30
0.0
 11
199.430168
 21
194.5661304666463
 31
0.0
  0
LINE
  5
18E
330
1F
100
AcDbEntity
  8
LAYER0016
  6
CONTINUOUS
 62
     3
100
AcDbLine
 10
305.430168
 20
184.5661304666463
 30
0.0
 11
305.430168
 21
194.5661304666463
 31
0.0
  0
LINE
  5
18F
330
1F
100
AcDbEntity
  8
LAYER0016
  6
CONTINUOUS
 62
     3
100
AcDbLine
 10
305.430168
 20
194.1161344666463
 30
0.0
 11
199.430168
 21
194.1161344666463
 31
0.0
  0
LINE
  5
190
330
1F
100
AcDbEntity
  8
LAYER0016
  6
CONTINUOUS
 62
     3
100
AcDbLine
 10
183.430168
 20
194.1161344666463
 30
0.0
 11
106.430168
 21
194.1161344666463
 31
0.0
  0
LINE
  5
191
330
1F
100
AcDbEntity
  8
LAYER0016
  6
CONTINUOUS
 62
     3
100
AcDbLine
 10
100.6221959999999
 20
182.3740544666464
 30
0.0
 11
96.23812399999997
 21
186.7581304666463
 31
0.0
  0
LINE
  5
192
330
1F
100
AcDbEntity
  8
LAYER0016
  6
CONTINUOUS
 62
     3
100
AcDbLine
 10
100.6222039999999
 20
186.7581784666463
 30
0.0
 11
96.23813599999988
 21
182.3741144666463
 31
0.0
  0
LINE
  5
193
330
1F
100
AcDbEntity
  8
LAYER0016
  6
CONTINUOUS
 62
     3
100
AcDbLine
 10
193.622208
 20
187.3740984666464
 30
0.0
 11
189.2381359999999
 21
191.7581624666463
 31
0.0
  0
LINE
  5
194
330
1F
100
AcDbEntity
  8
LAYER0016
  6
CONTINUOUS
 62
     3
100
AcDbLine
 10
193.6222399999999
 20
191.7581464666464
 30
0.0
 11
189.238172
 21
187.3740824666463
 31
0.0
  0
LINE
  5
195
330
1F
100
AcDbEntity
  8
LAYER0016
  6
CONTINUOUS
 62
     3
100
AcDbLine
 10
315.622216
 20
182.3741144666463
 30
0.0
 11
311.238168
 21
186.7581624666463
 31
0.0
  0
LINE
  5
196
330
1F
100
AcDbEntity
  8
LAYER0016
  6
CONTINUOUS
 62
     3
100
AcDbLine
 10
315.622244
 20
186.7581304666463
 30
0.0
 11
311.2381799999998
 21
182.3740544666464
 31
0.0
  0
LINE
  5
197
330
1F
100
AcDbEntity
  8
LAYER0016
  6
CONTINUOUS
 62
     3
100
AcDbLine
 10
308.944892
 20
62.56613046664637
 30
0.0
 11
102.915444
 21
62.56613046664637
 31
0.0
  0
LINE
  5
198
330
1F
100
AcDbEntity
  8
LAYER0016
  6
CONTINUOUS
 62
     3
100
AcDbLine
 10
340.430168
 20
94.05142246664637
 30
0.0
 11
340.430168
 21
165.0808384666463
 31
0.0
  0
LINE
  5
199
330
1F
100
AcDbEntity
  8
LAYER0016
  6
CONTINUOUS
 62
     3
100
AcDbLine
 10
71.43016799999998
 20
94.05142246664637
 30
0.0
 11
71.43016799999998
 21
165.0808543881851
 31
0.0
  0
LINE
  5
19A
330
1F
100
AcDbEntity
  8
LAYER0016
  6
CONTINUOUS
 62
     3
100
AcDbLine
 10
313.1875239999998
 20
64.32348646664639
 30
0.0
 11
338.672828
 21
89.80880646664637
 31
0.0
  0
LINE
  5
19B
330
1F
100
AcDbEntity
  8
LAYER0016
  6
CONTINUOUS
 62
     3
100
AcDbLine
 10
98.67278399999998
 20
64.32354646664635
 30
0.0
 11
73.18752799999987
 21
89.80877446664634
 31
0.0
  0
LINE
  5
19C
330
1F
100
AcDbEntity
  8
LAYER0016
  6
CONTINUOUS
 62
     3
100
AcDbLine
 10
313.430168
 20
82.5661304666463
 30
0.0
 11
331.4301839999998
 21
82.5661304666463
 31
0.0
  0
LINE
  5
19D
330
1F
100
AcDbEntity
  8
LAYER0016
  6
CONTINUOUS
 62
     3
100
AcDbLine
 10
106.430168
 20
74.56613046664631
 30
0.0
 11
106.430168
 21
64.56613046664631
 31
0.0
  0
LINE
  5
19E
330
1F
100
AcDbEntity
  8
LAYER0016
  6
CONTINUOUS
 62
     3
100
AcDbLine
 10
183.430168
 20
69.56613046664631
 30
0.0
 11
183.430168
 21
64.56613046664631
 31
0.0
  0
LINE
  5
19F
330
1F
100
AcDbEntity
  8
LAYER0016
  6
CONTINUOUS
 62
     3
100
AcDbLine
 10
199.430168
 20
69.56613046664631
 30
0.0
 11
199.430168
 21
64.56613046664631
 31
0.0
  0
LINE
  5
1A0
330
1F
100
AcDbEntity
  8
LAYER0016
  6
CONTINUOUS
 62
     3
100
AcDbLine
 10
305.430168
 20
74.56613046664631
 30
0.0
 11
305.430168
 21
64.56613046664631
 31
0.0
  0
LINE
  5
1A1
330
1F
100
AcDbEntity
  8
LAYER0016
  6
CONTINUOUS
 62
     3
100
AcDbLine
 10
107.430168
 20
74.56613046664631
 30
0.0
 11
107.430168
 21
184.5661304666463
 31
0.0
  0
LINE
  5
1A2
330
1F
100
AcDbEntity
  8
LAYER0016
  6
CONTINUOUS
 62
     3
100
AcDbLine
 10
291.430168
 20
65.01614246664633
 30
0.0
 11
291.430168
 21
194.1161344666463
 31
0.0
  0
LINE
  5
1A3
330
1F
100
AcDbEntity
  8
LAYER0016
  6
CONTINUOUS
 62
     3
100
AcDbLine
 10
305.430168
 20
65.01614246664633
 30
0.0
 11
199.430168
 21
65.01614246664633
 31
0.0
  0
LINE
  5
1A4
330
1F
100
AcDbEntity
  8
LAYER0016
  6
CONTINUOUS
 62
     3
100
AcDbLine
 10
183.430168
 20
65.01614246664633
 30
0.0
 11
106.430168
 21
65.01614246664633
 31
0.0
  0
LINE
  5
1A5
330
1F
100
AcDbEntity
  8
LAYER0016
  6
CONTINUOUS
 62
     3
100
AcDbLine
 10
100.6221919999999
 20
76.7580544666464
 30
0.0
 11
96.23816399999998
 21
72.37402246664635
 31
0.0
  0
LINE
  5
1A6
330
1F
100
AcDbEntity
  8
LAYER0016
  6
CONTINUOUS
 62
     3
100
AcDbLine
 10
100.6221359999999
 20
72.37408246664631
 30
0.0
 11
96.23806399999987
 21
76.7581464666464
 31
0.0
  0
LINE
  5
1A7
330
1F
100
AcDbEntity
  8
LAYER0016
  6
CONTINUOUS
 62
     3
100
AcDbLine
 10
193.6223
 20
71.75808646664632
 30
0.0
 11
189.2382319999999
 21
67.37402246664635
 31
0.0
  0
LINE
  5
1A8
330
1F
100
AcDbEntity
  8
LAYER0016
  6
CONTINUOUS
 62
     3
100
AcDbLine
 10
193.622168
 20
67.37402246664635
 30
0.0
 11
189.23808
 21
71.75811846664635
 31
0.0
  0
LINE
  5
1A9
330
1F
100
AcDbEntity
  8
LAYER0016
  6
CONTINUOUS
 62
     3
100
AcDbLine
 10
315.622352
 20
76.7580544666464
 30
0.0
 11
311.238288
 21
72.37399046664632
 31
0.0
  0
LINE
  5
1AA
330
1F
100
AcDbEntity
  8
LAYER0016
  6
CONTINUOUS
 62
     3
100
AcDbLine
 10
315.6222
 20
72.37405446664638
 30
0.0
 11
311.23812
 21
76.75811846664635
 31
0.0
  0
LINE
  5
1AB
330
1F
100
AcDbEntity
  8
LAYER0016
  6
CONTINUOUS
 62
     3
100
AcDbLine
 10
151.430184
 20
131.2981864666463
 30
0.0
 11
154.430164
 21
133.0302424666463
 31
0.0
  0
LINE
  5
1AC
330
1F
100
AcDbEntity
  8
LAYER0016
  6
CONTINUOUS
 62
     3
100
AcDbLine
 10
154.430156
 20
133.0302424666463
 30
0.0
 11
157.430164
 21
131.2981864666463
 31
0.0
  0
LINE
  5
1AD
330
1F
100
AcDbEntity
  8
LAYER0016
  6
CONTINUOUS
 62
     3
100
AcDbLine
 10
157.4301679999999
 20
127.8340744666463
 30
0.0
 11
157.4301679999999
 21
131.2981864666463
 31
0.0
  0
LINE
  5
1AE
330
1F
100
AcDbEntity
  8
LAYER0016
  6
CONTINUOUS
 62
     3
100
AcDbLine
 10
154.4301679999999
 20
126.1020184666463
 30
0.0
 11
157.430164
 21
127.8340744666463
 31
0.0
  0
LINE
  5
1AF
330
1F
100
AcDbEntity
  8
LAYER0016
  6
CONTINUOUS
 62
     3
100
AcDbLine
 10
151.430208
 20
127.8341064666464
 30
0.0
 11
154.4301919999999
 21
126.1020784666464
 31
0.0
  0
LINE
  5
1B0
330
1F
100
AcDbEntity
  8
LAYER0016
  6
CONTINUOUS
 62
     3
100
AcDbLine
 10
151.4301679999999
 20
131.2981864666463
 30
0.0
 11
151.4301679999999
 21
127.8340744666463
 31
0.0
  0
LINE
  5
1B1
330
1F
100
AcDbEntity
  8
LAYER0016
  6
CONTINUOUS
 62
     3
100
AcDbLine
 10
-123.5115382234684
 20
152.0661304666463
 30
0.0
 11
-123.5115382234684
 21
107.0661304666463
 31
0.0
  0
LINE
  5
1B2
330
1F
100
AcDbEntity
  8
LAYER0016
  6
CONTINUOUS
 62
     3
100
AcDbLine
 10
-123.5115062234684
 20
107.0660704666463
 30
0.0
 11
-136.3735702234684
 21
103.2074584666463
 31
0.0
  0
LINE
  5
1B3
330
1F
100
AcDbEntity
  8
LAYER0016
  6
CONTINUOUS
 62
     3
100
AcDbLine
 10
-123.5115382234684
 20
152.0660984666463
 30
0.0
 11
-136.3735982234683
 21
155.9247104666463
 31
0.0
  0
LINE
  5
1B4
330
1F
100
AcDbEntity
  8
LAYER0016
  6
CONTINUOUS
 62
     3
100
AcDbLine
 10
-166.5115382234684
 20
196.5661304666463
 30
0.0
 11
-166.5115382234684
 21
62.56613046664631
 31
0.0
  0
LINE
  5
1B5
330
1F
100
AcDbEntity
  8
LAYER0016
  6
CONTINUOUS
 62
     3
100
AcDbLine
 10
-138.5115382234684
 20
191.3674624666463
 30
0.0
 11
-138.5115382234684
 21
67.76479846664625
 31
0.0
  0
LINE
  5
1B6
330
1F
100
AcDbEntity
  8
LAYER0016
  6
CONTINUOUS
 62
     3
100
AcDbLine
 10
-166.5114782234683
 20
196.5660864666463
 30
0.0
 11
-141.2500622234684
 21
194.3559864666463
 31
0.0
  0
LINE
  5
1B7
330
1F
100
AcDbEntity
  8
LAYER0016
  6
CONTINUOUS
 62
     3
100
AcDbLine
 10
-166.5115062234684
 20
62.56600646664634
 30
0.0
 11
-141.2500622234684
 21
64.77612246664631
 31
0.0
  0
LINE
  5
1B8
330
1F
100
AcDbEntity
  8
LAYER0016
  6
CONTINUOUS
 62
     3
100
AcDbLine
 10
-165.5115382234684
 20
176.5661304666463
 30
0.0
 11
-140.5115382234684
 21
176.5661304666463
 31
0.0
  0
LINE
  5
1B9
330
1F
100
AcDbEntity
  8
LAYER0016
  6
CONTINUOUS
 62
     3
100
AcDbLine
 10
-165.5115382234684
 20
82.56613046664624
 30
0.0
 11
-140.5115382234684
 21
82.56613046664624
 31
0.0
  0
LINE
  5
1BA
330
1F
100
AcDbEntity
  8
LAYER0016
  6
CONTINUOUS
 62
     3
100
AcDbLine
 10
-165.0115382234684
 20
190.6661384666463
 30
0.0
 11
-165.0115382234684
 21
178.4661224666463
 31
0.0
  0
LINE
  5
1BB
330
1F
100
AcDbEntity
  8
LAYER0016
  6
CONTINUOUS
 62
     3
100
AcDbLine
 10
-163.4845302234685
 20
179.3161304666463
 30
0.0
 11
-165.0115382234684
 21
179.3161304666463
 31
0.0
  0
LINE
  5
1BC
330
1F
100
AcDbEntity
  8
LAYER0016
  6
CONTINUOUS
 62
     3
100
AcDbLine
 10
-163.4845302234685
 20
189.8161304666463
 30
0.0
 11
-165.0115382234684
 21
189.8161304666463
 31
0.0
  0
LINE
  5
1BD
330
1F
100
AcDbEntity
  8
LAYER0016
  6
CONTINUOUS
 62
     3
100
AcDbLine
 10
-165.0115382234684
 20
190.6661384666463
 30
0.0
 11
-166.5115382234684
 21
190.6661384666463
 31
0.0
  0
LINE
  5
1BE
330
1F
100
AcDbEntity
  8
LAYER0016
  6
CONTINUOUS
 62
     3
100
AcDbLine
 10
-165.0115382234684
 20
178.4661224666463
 30
0.0
 11
-166.5115382234684
 21
178.4661224666463
 31
0.0
  0
LINE
  5
1BF
330
1F
100
AcDbEntity
  8
LAYER0016
  6
CONTINUOUS
 62
     3
100
AcDbLine
 10
-165.0115062234684
 20
184.5661624666463
 30
0.0
 11
-166.5115062234684
 21
183.0661624666463
 31
0.0
  0
LINE
  5
1C0
330
1F
100
AcDbEntity
  8
LAYER0016
  6
CONTINUOUS
 62
     3
100
AcDbLine
 10
-166.5115062234684
 20
184.5661624666463
 30
0.0
 11
-165.0115062234684
 21
186.0661464666462
 31
0.0
  0
LINE
  5
1C1
330
1F
100
AcDbEntity
  8
LAYER0016
  6
CONTINUOUS
 62
     3
100
AcDbLine
 10
-165.0115382234684
 20
80.66613846664623
 30
0.0
 11
-165.0115382234684
 21
68.46612246664625
 31
0.0
  0
LINE
  5
1C2
330
1F
100
AcDbEntity
  8
LAYER0016
  6
CONTINUOUS
 62
     3
100
AcDbLine
 10
-163.4845302234685
 20
69.31613046664626
 30
0.0
 11
-165.0115382234684
 21
69.31613046664626
 31
0.0
  0
LINE
  5
1C3
330
1F
100
AcDbEntity
  8
LAYER0016
  6
CONTINUOUS
 62
     3
100
AcDbLine
 10
-163.4845302234685
 20
79.81613046664624
 30
0.0
 11
-165.0115382234684
 21
79.81613046664624
 31
0.0
  0
LINE
  5
1C4
330
1F
100
AcDbEntity
  8
LAYER0016
  6
CONTINUOUS
 62
     3
100
AcDbLine
 10
-165.0115382234684
 20
80.66613846664623
 30
0.0
 11
-166.5115382234684
 21
80.66613846664623
 31
0.0
  0
LINE
  5
1C5
330
1F
100
AcDbEntity
  8
LAYER0016
  6
CONTINUOUS
 62
     3
100
AcDbLine
 10
-165.0115382234684
 20
68.46612246664625
 30
0.0
 11
-166.5115382234684
 21
68.46612246664625
 31
0.0
  0
LINE
  5
1C6
330
1F
100
AcDbEntity
  8
LAYER0016
  6
CONTINUOUS
 62
     3
100
AcDbLine
 10
-165.0115062234684
 20
74.56616246664629
 30
0.0
 11
-166.5115062234684
 21
73.06616246664629
 31
0.0
  0
LINE
  5
1C7
330
1F
100
AcDbEntity
  8
LAYER0016
  6
CONTINUOUS
 62
     3
100
AcDbLine
 10
-166.5115062234684
 20
74.56616246664629
 30
0.0
 11
-165.0115062234684
 21
76.06616246664629
 31
0.0
  0
LINE
  5
1C8
330
1F
100
AcDbEntity
  8
LAYER0016
  6
CONTINUOUS
 62
     3
100
AcDbLine
 10
-158.5115382234684
 20
176.5661304666463
 30
0.0
 11
-158.5115382234684
 21
82.56613046664624
 31
0.0
  0
LINE
  5
1C9
330
1F
100
AcDbEntity
  8
LAYER0016
  6
CONTINUOUS
 62
     3
100
AcDbLine
 10
-173.5115382234684
 20
167.5661304666463
 30
0.0
 11
-166.5115382234684
 21
167.5661304666463
 31
0.0
  0
LINE
  5
1CA
330
1F
100
AcDbEntity
  8
LAYER0016
  6
CONTINUOUS
 62
     3
100
AcDbLine
 10
-173.5115382234684
 20
91.56613046664624
 30
0.0
 11
-166.5115382234684
 21
91.56613046664624
 31
0.0
  0
LINE
  5
1CB
330
1F
100
AcDbEntity
  8
LAYER0016
  6
CONTINUOUS
 62
     3
100
AcDbLine
 10
128.430168
 20
232.5661304666463
 30
0.0
 11
128.430168
 21
220.5661304666463
 31
0.0
  0
LINE
  5
1CC
330
1F
100
AcDbEntity
  8
LAYER0016
  6
CONTINUOUS
 62
     3
100
AcDbLine
 10
224.430168
 20
232.5661304666463
 30
0.0
 11
224.430168
 21
220.5661304666463
 31
0.0
  0
LINE
  5
1CD
330
1F
100
AcDbEntity
  8
LAYER0016
  6
CONTINUOUS
 62
     3
100
AcDbLine
 10
116.430168
 20
219.5661304666463
 30
0.0
 11
236.430168
 21
219.5661304666463
 31
0.0
  0
LINE
  5
1CE
330
1F
100
AcDbEntity
  8
LAYER0016
  6
CONTINUOUS
 62
     3
100
AcDbLine
 10
121.0644999999999
 20
232.5661304666463
 30
0.0
 11
231.795836
 21
232.5661304666463
 31
0.0
  0
LINE
  5
1CF
330
1F
100
AcDbEntity
  8
LAYER0016
  6
CONTINUOUS
 62
     3
100
AcDbLine
 10
116.43016
 20
219.5661144666463
 30
0.0
 11
119.6156079999999
 21
231.4543584666463
 31
0.0
  0
LINE
  5
1D0
330
1F
100
AcDbEntity
  8
LAYER0016
  6
CONTINUOUS
 62
     3
100
AcDbLine
 10
236.430176
 20
219.5661304666463
 30
0.0
 11
233.244728
 21
231.4543584666463
 31
0.0
  0
LINE
  5
1D1
330
1F
100
AcDbEntity
  8
LAYER0016
  6
CONTINUOUS
 62
     3
100
AcDbLine
 10
146.4301679999999
 20
233.5661304666463
 30
0.0
 11
206.430168
 21
233.5661304666463
 31
0.0
  0
LINE
  5
1D2
330
1F
100
AcDbEntity
  8
LAYER0016
  6
CONTINUOUS
 62
     3
100
AcDbLine
 10
149.9301679999999
 20
234.0661304666463
 30
0.0
 11
202.930168
 21
234.0661304666463
 31
0.0
  0
LINE
  5
1D3
330
1F
100
AcDbEntity
  8
LAYER0016
  6
CONTINUOUS
 62
     3
100
AcDbLine
 10
149.9301679999999
 20
234.0661304666463
 30
0.0
 11
149.9301679999999
 21
233.5661304666463
 31
0.0
  0
LINE
  5
1D4
330
1F
100
AcDbEntity
  8
LAYER0016
  6
CONTINUOUS
 62
     3
100
AcDbLine
 10
202.930168
 20
234.0661304666463
 30
0.0
 11
202.930168
 21
233.5661304666463
 31
0.0
  0
LINE
  5
1D5
330
1F
100
AcDbEntity
  8
LAYER0016
  6
CONTINUOUS
 62
     3
100
AcDbLine
 10
226.830168
 20
220.8661344666463
 30
0.0
 11
236.030168
 21
220.8661344666463
 31
0.0
  0
LINE
  5
1D6
330
1F
100
AcDbEntity
  8
LAYER0016
  6
CONTINUOUS
 62
     3
100
AcDbLine
 10
226.930168
 20
222.1536224666463
 30
0.0
 11
226.930168
 21
220.8661344666463
 31
0.0
  0
LINE
  5
1D7
330
1F
100
AcDbEntity
  8
LAYER0016
  6
CONTINUOUS
 62
     3
100
AcDbLine
 10
235.930168
 20
222.1536224666463
 30
0.0
 11
235.930168
 21
220.8661344666463
 31
0.0
  0
LINE
  5
1D8
330
1F
100
AcDbEntity
  8
LAYER0016
  6
CONTINUOUS
 62
     3
100
AcDbLine
 10
236.030168
 20
220.8661344666463
 30
0.0
 11
236.030168
 21
219.5661304666463
 31
0.0
  0
LINE
  5
1D9
330
1F
100
AcDbEntity
  8
LAYER0016
  6
CONTINUOUS
 62
     3
100
AcDbLine
 10
226.830168
 20
220.8661344666463
 30
0.0
 11
226.830168
 21
219.5661304666463
 31
0.0
  0
LINE
  5
1DA
330
1F
100
AcDbEntity
  8
LAYER0016
  6
CONTINUOUS
 62
     3
100
AcDbLine
 10
231.430168
 20
220.8661504666463
 30
0.0
 11
232.7301639999999
 21
219.5661464666464
 31
0.0
  0
LINE
  5
1DB
330
1F
100
AcDbEntity
  8
LAYER0016
  6
CONTINUOUS
 62
     3
100
AcDbLine
 10
231.430176
 20
219.5661464666464
 30
0.0
 11
230.130172
 21
220.8661504666463
 31
0.0
  0
LINE
  5
1DC
330
1F
100
AcDbEntity
  8
LAYER0016
  6
CONTINUOUS
 62
     3
100
AcDbLine
 10
116.830168
 20
220.8661344666463
 30
0.0
 11
126.0301679999999
 21
220.8661344666463
 31
0.0
  0
LINE
  5
1DD
330
1F
100
AcDbEntity
  8
LAYER0016
  6
CONTINUOUS
 62
     3
100
AcDbLine
 10
116.930168
 20
222.1536224666463
 30
0.0
 11
116.930168
 21
220.8661344666463
 31
0.0
  0
LINE
  5
1DE
330
1F
100
AcDbEntity
  8
LAYER0016
  6
CONTINUOUS
 62
     3
100
AcDbLine
 10
125.930168
 20
222.1536224666463
 30
0.0
 11
125.930168
 21
220.8661344666463
 31
0.0
  0
LINE
  5
1DF
330
1F
100
AcDbEntity
  8
LAYER0016
  6
CONTINUOUS
 62
     3
100
AcDbLine
 10
126.0301679999999
 20
220.8661344666463
 30
0.0
 11
126.0301679999999
 21
219.5661304666463
 31
0.0
  0
LINE
  5
1E0
330
1F
100
AcDbEntity
  8
LAYER0016
  6
CONTINUOUS
 62
     3
100
AcDbLine
 10
116.830168
 20
220.8661344666463
 30
0.0
 11
116.830168
 21
219.5661304666463
 31
0.0
  0
LINE
  5
1E1
330
1F
100
AcDbEntity
  8
LAYER0016
  6
CONTINUOUS
 62
     3
100
AcDbLine
 10
121.430176
 20
220.8661504666463
 30
0.0
 11
122.7301679999999
 21
219.5661464666464
 31
0.0
  0
LINE
  5
1E2
330
1F
100
AcDbEntity
  8
LAYER0016
  6
CONTINUOUS
 62
     3
100
AcDbLine
 10
121.4301919999999
 20
219.5661304666463
 30
0.0
 11
120.130192
 21
220.8661344666463
 31
0.0
  0
LINE
  5
1E3
330
1F
100
AcDbEntity
  8
LAYER0016
  6
CONTINUOUS
 62
     3
100
AcDbLine
 10
-291.5115382234683
 20
220.5661304666463
 30
0.0
 11
-291.5115382234683
 21
232.5661304666463
 31
0.0
  0
LINE
  5
1E4
330
1F
100
AcDbEntity
  8
LAYER0016
  6
CONTINUOUS
 62
     3
100
AcDbLine
 10
-219.5115382234684
 20
220.5661304666463
 30
0.0
 11
-219.5115382234684
 21
232.5661304666463
 31
0.0
  0
LINE
  5
1E5
330
1F
100
AcDbEntity
  8
LAYER0016
  6
CONTINUOUS
 62
     3
100
AcDbLine
 10
-303.5115382234683
 20
219.5661624666463
 30
0.0
 11
-207.5115382234684
 21
219.5661624666463
 31
0.0
  0
LINE
  5
1E6
330
1F
100
AcDbEntity
  8
LAYER0016
  6
CONTINUOUS
 62
     3
100
AcDbLine
 10
-298.8771982234684
 20
232.5661624666463
 30
0.0
 11
-212.1458782234684
 21
232.5661624666463
 31
0.0
  0
LINE
  5
1E7
330
1F
100
AcDbEntity
  8
LAYER0016
  6
CONTINUOUS
 62
     3
100
AcDbLine
 10
-207.5116302234684
 20
219.5661304666463
 30
0.0
 11
-210.6970862234685
 21
231.4543584666463
 31
0.0
  0
LINE
  5
1E8
330
1F
100
AcDbEntity
  8
LAYER0016
  6
CONTINUOUS
 62
     3
100
AcDbLine
 10
-303.5116902234683
 20
219.5661144666462
 30
0.0
 11
-300.3262662234683
 21
231.4543304666463
 31
0.0
  0
LINE
  5
1E9
330
1F
100
AcDbEntity
  8
LAYER0016
  6
CONTINUOUS
 62
     3
100
AcDbLine
 10
-285.5115382234683
 20
233.5661464666463
 30
0.0
 11
-225.5115382234684
 21
233.5661464666463
 31
0.0
  0
LINE
  5
1EA
330
1F
100
AcDbEntity
  8
LAYER0016
  6
CONTINUOUS
 62
     3
100
AcDbLine
 10
-217.1115462234684
 20
220.8661344666462
 30
0.0
 11
-207.9115302234684
 21
220.8661344666462
 31
0.0
  0
LINE
  5
1EB
330
1F
100
AcDbEntity
  8
LAYER0016
  6
CONTINUOUS
 62
     3
100
AcDbLine
 10
-217.0115382234684
 20
222.1536224666463
 30
0.0
 11
-217.0115382234684
 21
220.8661344666462
 31
0.0
  0
LINE
  5
1EC
330
1F
100
AcDbEntity
  8
LAYER0016
  6
CONTINUOUS
 62
     3
100
AcDbLine
 10
-208.0115382234684
 20
222.1536224666463
 30
0.0
 11
-208.0115382234684
 21
220.8661344666462
 31
0.0
  0
LINE
  5
1ED
330
1F
100
AcDbEntity
  8
LAYER0016
  6
CONTINUOUS
 62
     3
100
AcDbLine
 10
-207.9115302234684
 20
220.8661344666462
 30
0.0
 11
-207.9115302234684
 21
219.5661304666463
 31
0.0
  0
LINE
  5
1EE
330
1F
100
AcDbEntity
  8
LAYER0016
  6
CONTINUOUS
 62
     3
100
AcDbLine
 10
-217.1115462234684
 20
220.8661344666462
 30
0.0
 11
-217.1115462234684
 21
219.5661304666463
 31
0.0
  0
LINE
  5
1EF
330
1F
100
AcDbEntity
  8
LAYER0016
  6
CONTINUOUS
 62
     3
100
AcDbLine
 10
-212.5115062234684
 20
220.8661504666463
 30
0.0
 11
-211.2115182234684
 21
219.5661464666462
 31
0.0
  0
LINE
  5
1F0
330
1F
100
AcDbEntity
  8
LAYER0016
  6
CONTINUOUS
 62
     3
100
AcDbLine
 10
-212.5115382234684
 20
219.5661624666463
 30
0.0
 11
-213.8115262234684
 21
220.8661624666463
 31
0.0
  0
LINE
  5
1F1
330
1F
100
AcDbEntity
  8
LAYER0016
  6
CONTINUOUS
 62
     3
100
AcDbLine
 10
-303.1115462234683
 20
220.8661344666462
 30
0.0
 11
-293.9115302234683
 21
220.8661344666462
 31
0.0
  0
LINE
  5
1F2
330
1F
100
AcDbEntity
  8
LAYER0016
  6
CONTINUOUS
 62
     3
100
AcDbLine
 10
-303.0115382234683
 20
222.1536224666463
 30
0.0
 11
-303.0115382234683
 21
220.8661344666462
 31
0.0
  0
LINE
  5
1F3
330
1F
100
AcDbEntity
  8
LAYER0016
  6
CONTINUOUS
 62
     3
100
AcDbLine
 10
-294.0115382234683
 20
222.1536224666463
 30
0.0
 11
-294.0115382234683
 21
220.8661344666462
 31
0.0
  0
LINE
  5
1F4
330
1F
100
AcDbEntity
  8
LAYER0016
  6
CONTINUOUS
 62
     3
100
AcDbLine
 10
-293.9115302234683
 20
220.8661344666462
 30
0.0
 11
-293.9115302234683
 21
219.5661304666463
 31
0.0
  0
LINE
  5
1F5
330
1F
100
AcDbEntity
  8
LAYER0016
  6
CONTINUOUS
 62
     3
100
AcDbLine
 10
-303.1115462234683
 20
220.8661344666462
 30
0.0
 11
-303.1115462234683
 21
219.5661304666463
 31
0.0
  0
LINE
  5
1F6
330
1F
100
AcDbEntity
  8
LAYER0016
  6
CONTINUOUS
 62
     3
100
AcDbLine
 10
-298.5115062234684
 20
220.8661184666463
 30
0.0
 11
-297.2114902234684
 21
219.5661144666462
 31
0.0
  0
LINE
  5
1F7
330
1F
100
AcDbEntity
  8
LAYER0016
  6
CONTINUOUS
 62
     3
100
AcDbLine
 10
-298.5115062234684
 20
219.5661904666462
 30
0.0
 11
-299.8114942234683
 21
220.8661944666463
 31
0.0
  0
LINE
  5
1F8
330
1F
100
AcDbEntity
  8
LAYER0016
  6
CONTINUOUS
 62
     3
100
AcDbLine
 10
253.746796
 20
429.5660064666463
 30
0.0
 11
338.430168
 21
429.5660064666463
 31
0.0
  0
LINE
  5
1F9
330
1F
100
AcDbEntity
  8
LAYER0016
  6
CONTINUOUS
 62
     3
100
AcDbLine
 10
336.430168
 20
431.5660064666463
 30
0.0
 11
336.430168
 21
436.0660024666464
 31
0.0
  0
LINE
  5
1FA
330
1F
100
AcDbEntity
  8
LAYER0016
  6
CONTINUOUS
 62
     3
100
AcDbLine
 10
258.430168
 20
551.0660064666465
 30
0.0
 11
339.4301839999998
 21
551.0660064666465
 31
0.0
  0
LINE
  5
1FB
330
1F
100
AcDbEntity
  8
LAYER0016
  6
CONTINUOUS
 62
     3
100
AcDbLine
 10
258.430168
 20
548.0660064666465
 30
0.0
 11
339.4301839999998
 21
548.0660064666465
 31
0.0
  0
LINE
  5
1FC
330
1F
100
AcDbEntity
  8
LAYER0016
  6
CONTINUOUS
 62
     3
100
AcDbLine
 10
340.430168
 20
549.0660064666465
 30
0.0
 11
340.430168
 21
550.0660064666465
 31
0.0
  0
LINE
  5
1FD
330
1F
100
AcDbEntity
  8
LAYER0016
  6
CONTINUOUS
 62
     3
100
AcDbLine
 10
336.430168
 20
553.0660064666465
 30
0.0
 11
336.430168
 21
555.5660064666465
 31
0.0
  0
LINE
  5
1FE
330
1F
100
AcDbEntity
  8
LAYER0016
  6
CONTINUOUS
 62
     3
100
AcDbLine
 10
258.430168
 20
441.0660064666463
 30
0.0
 11
339.430168
 21
441.0660064666463
 31
0.0
  0
LINE
  5
1FF
330
1F
100
AcDbEntity
  8
LAYER0016
  6
CONTINUOUS
 62
     3
100
AcDbLine
 10
258.430168
 20
438.0660064666463
 30
0.0
 11
339.430168
 21
438.0660064666463
 31
0.0
  0
LINE
  5
200
330
1F
100
AcDbEntity
  8
LAYER0016
  6
CONTINUOUS
 62
     3
100
AcDbLine
 10
340.430168
 20
439.0660024666464
 30
0.0
 11
340.430168
 21
440.0660024666464
 31
0.0
  0
LINE
  5
201
330
1F
100
AcDbEntity
  8
LAYER0016
  6
CONTINUOUS
 62
     3
100
AcDbLine
 10
336.430168
 20
443.0660024666464
 30
0.0
 11
336.430168
 21
446.0660024666464
 31
0.0
  0
LINE
  5
202
330
1F
100
AcDbEntity
  8
LAYER0016
  6
CONTINUOUS
 62
     3
100
AcDbLine
 10
258.430168
 20
451.0660064666463
 30
0.0
 11
339.430168
 21
451.0660064666463
 31
0.0
  0
LINE
  5
203
330
1F
100
AcDbEntity
  8
LAYER0016
  6
CONTINUOUS
 62
     3
100
AcDbLine
 10
258.430168
 20
448.0660064666463
 30
0.0
 11
339.430168
 21
448.0660064666463
 31
0.0
  0
LINE
  5
204
330
1F
100
AcDbEntity
  8
LAYER0016
  6
CONTINUOUS
 62
     3
100
AcDbLine
 10
340.430168
 20
449.0660024666464
 30
0.0
 11
340.430168
 21
450.0660024666464
 31
0.0
  0
LINE
  5
205
330
1F
100
AcDbEntity
  8
LAYER0016
  6
CONTINUOUS
 62
     3
100
AcDbLine
 10
336.430168
 20
453.0660024666464
 30
0.0
 11
336.430168
 21
456.0660024666464
 31
0.0
  0
LINE
  5
206
330
1F
100
AcDbEntity
  8
LAYER0016
  6
CONTINUOUS
 62
     3
100
AcDbLine
 10
258.430168
 20
461.0660064666463
 30
0.0
 11
339.430168
 21
461.0660064666463
 31
0.0
  0
LINE
  5
207
330
1F
100
AcDbEntity
  8
LAYER0016
  6
CONTINUOUS
 62
     3
100
AcDbLine
 10
258.430168
 20
458.0660064666463
 30
0.0
 11
339.430168
 21
458.0660064666463
 31
0.0
  0
LINE
  5
208
330
1F
100
AcDbEntity
  8
LAYER0016
  6
CONTINUOUS
 62
     3
100
AcDbLine
 10
340.430168
 20
459.0660024666464
 30
0.0
 11
340.430168
 21
460.0660024666464
 31
0.0
  0
LINE
  5
209
330
1F
100
AcDbEntity
  8
LAYER0016
  6
CONTINUOUS
 62
     3
100
AcDbLine
 10
336.430168
 20
463.0660024666465
 30
0.0
 11
336.430168
 21
466.0660024666465
 31
0.0
  0
LINE
  5
20A
330
1F
100
AcDbEntity
  8
LAYER0016
  6
CONTINUOUS
 62
     3
100
AcDbLine
 10
258.430168
 20
471.0660064666465
 30
0.0
 11
339.430168
 21
471.0660064666465
 31
0.0
  0
LINE
  5
20B
330
1F
100
AcDbEntity
  8
LAYER0016
  6
CONTINUOUS
 62
     3
100
AcDbLine
 10
258.430168
 20
468.0660064666465
 30
0.0
 11
339.430168
 21
468.0660064666465
 31
0.0
  0
LINE
  5
20C
330
1F
100
AcDbEntity
  8
LAYER0016
  6
CONTINUOUS
 62
     3
100
AcDbLine
 10
340.430168
 20
469.0660064666465
 30
0.0
 11
340.430168
 21
470.0660064666465
 31
0.0
  0
LINE
  5
20D
330
1F
100
AcDbEntity
  8
LAYER0016
  6
CONTINUOUS
 62
     3
100
AcDbLine
 10
336.430168
 20
473.0660064666465
 30
0.0
 11
336.430168
 21
476.0660064666465
 31
0.0
  0
LINE
  5
20E
330
1F
100
AcDbEntity
  8
LAYER0016
  6
CONTINUOUS
 62
     3
100
AcDbLine
 10
258.430168
 20
481.0660064666465
 30
0.0
 11
339.430168
 21
481.0660064666465
 31
0.0
  0
LINE
  5
20F
330
1F
100
AcDbEntity
  8
LAYER0016
  6
CONTINUOUS
 62
     3
100
AcDbLine
 10
258.430168
 20
478.0660064666465
 30
0.0
 11
339.430168
 21
478.0660064666465
 31
0.0
  0
LINE
  5
210
330
1F
100
AcDbEntity
  8
LAYER0016
  6
CONTINUOUS
 62
     3
100
AcDbLine
 10
340.430168
 20
479.0659984666465
 30
0.0
 11
340.430168
 21
480.0659984666465
 31
0.0
  0
LINE
  5
211
330
1F
100
AcDbEntity
  8
LAYER0016
  6
CONTINUOUS
 62
     3
100
AcDbLine
 10
336.430168
 20
483.0659984666465
 30
0.0
 11
336.430168
 21
486.0659984666465
 31
0.0
  0
LINE
  5
212
330
1F
100
AcDbEntity
  8
LAYER0016
  6
CONTINUOUS
 62
     3
100
AcDbLine
 10
258.430168
 20
491.0660064666465
 30
0.0
 11
339.430168
 21
491.0660064666465
 31
0.0
  0
LINE
  5
213
330
1F
100
AcDbEntity
  8
LAYER0016
  6
CONTINUOUS
 62
     3
100
AcDbLine
 10
258.430168
 20
488.0660064666465
 30
0.0
 11
339.430168
 21
488.0660064666465
 31
0.0
  0
LINE
  5
214
330
1F
100
AcDbEntity
  8
LAYER0016
  6
CONTINUOUS
 62
     3
100
AcDbLine
 10
340.430168
 20
489.0659984666465
 30
0.0
 11
340.430168
 21
490.0659984666465
 31
0.0
  0
LINE
  5
215
330
1F
100
AcDbEntity
  8
LAYER0016
  6
CONTINUOUS
 62
     3
100
AcDbLine
 10
336.430168
 20
493.0659984666465
 30
0.0
 11
336.430168
 21
496.0659984666465
 31
0.0
  0
LINE
  5
216
330
1F
100
AcDbEntity
  8
LAYER0016
  6
CONTINUOUS
 62
     3
100
AcDbLine
 10
258.430168
 20
501.0660064666465
 30
0.0
 11
339.430168
 21
501.0660064666465
 31
0.0
  0
LINE
  5
217
330
1F
100
AcDbEntity
  8
LAYER0016
  6
CONTINUOUS
 62
     3
100
AcDbLine
 10
256.430168
 20
498.0660064666465
 30
0.0
 11
339.430168
 21
498.0660064666465
 31
0.0
  0
LINE
  5
218
330
1F
100
AcDbEntity
  8
LAYER0016
  6
CONTINUOUS
 62
     3
100
AcDbLine
 10
340.430168
 20
499.0659984666465
 30
0.0
 11
340.430168
 21
500.0659984666465
 31
0.0
  0
LINE
  5
219
330
1F
100
AcDbEntity
  8
LAYER0016
  6
CONTINUOUS
 62
     3
100
AcDbLine
 10
336.430168
 20
503.0659984666465
 30
0.0
 11
336.430168
 21
506.0659984666465
 31
0.0
  0
LINE
  5
21A
330
1F
100
AcDbEntity
  8
LAYER0016
  6
CONTINUOUS
 62
     3
100
AcDbLine
 10
258.430168
 20
511.0660064666465
 30
0.0
 11
339.430168
 21
511.0660064666465
 31
0.0
  0
LINE
  5
21B
330
1F
100
AcDbEntity
  8
LAYER0016
  6
CONTINUOUS
 62
     3
100
AcDbLine
 10
258.430168
 20
508.0660064666465
 30
0.0
 11
339.430168
 21
508.0660064666465
 31
0.0
  0
LINE
  5
21C
330
1F
100
AcDbEntity
  8
LAYER0016
  6
CONTINUOUS
 62
     3
100
AcDbLine
 10
340.430168
 20
509.0659984666465
 30
0.0
 11
340.430168
 21
510.0659984666465
 31
0.0
  0
LINE
  5
21D
330
1F
100
AcDbEntity
  8
LAYER0016
  6
CONTINUOUS
 62
     3
100
AcDbLine
 10
336.430168
 20
513.0659984666465
 30
0.0
 11
336.430168
 21
516.0659984666465
 31
0.0
  0
LINE
  5
21E
330
1F
100
AcDbEntity
  8
LAYER0016
  6
CONTINUOUS
 62
     3
100
AcDbLine
 10
258.430168
 20
521.0660064666465
 30
0.0
 11
339.430168
 21
521.0660064666465
 31
0.0
  0
LINE
  5
21F
330
1F
100
AcDbEntity
  8
LAYER0016
  6
CONTINUOUS
 62
     3
100
AcDbLine
 10
258.430168
 20
518.0660064666465
 30
0.0
 11
339.430168
 21
518.0660064666465
 31
0.0
  0
LINE
  5
220
330
1F
100
AcDbEntity
  8
LAYER0016
  6
CONTINUOUS
 62
     3
100
AcDbLine
 10
340.430168
 20
519.0659984666465
 30
0.0
 11
340.430168
 21
520.0659984666465
 31
0.0
  0
LINE
  5
221
330
1F
100
AcDbEntity
  8
LAYER0016
  6
CONTINUOUS
 62
     3
100
AcDbLine
 10
336.430168
 20
523.0659984666465
 30
0.0
 11
336.430168
 21
526.0659984666465
 31
0.0
  0
LINE
  5
222
330
1F
100
AcDbEntity
  8
LAYER0016
  6
CONTINUOUS
 62
     3
100
AcDbLine
 10
258.430168
 20
531.0660064666465
 30
0.0
 11
339.430168
 21
531.0660064666465
 31
0.0
  0
LINE
  5
223
330
1F
100
AcDbEntity
  8
LAYER0016
  6
CONTINUOUS
 62
     3
100
AcDbLine
 10
258.430168
 20
528.0660064666465
 30
0.0
 11
339.430168
 21
528.0660064666465
 31
0.0
  0
LINE
  5
224
330
1F
100
AcDbEntity
  8
LAYER0016
  6
CONTINUOUS
 62
     3
100
AcDbLine
 10
340.430168
 20
529.0659984666465
 30
0.0
 11
340.430168
 21
530.0659984666465
 31
0.0
  0
LINE
  5
225
330
1F
100
AcDbEntity
  8
LAYER0016
  6
CONTINUOUS
 62
     3
100
AcDbLine
 10
336.430168
 20
533.0660064666465
 30
0.0
 11
336.430168
 21
536.0660064666465
 31
0.0
  0
LINE
  5
226
330
1F
100
AcDbEntity
  8
LAYER0016
  6
CONTINUOUS
 62
     3
100
AcDbLine
 10
258.430168
 20
541.0660064666465
 30
0.0
 11
339.4301839999998
 21
541.0660064666465
 31
0.0
  0
LINE
  5
227
330
1F
100
AcDbEntity
  8
LAYER0016
  6
CONTINUOUS
 62
     3
100
AcDbLine
 10
258.430168
 20
538.0660064666465
 30
0.0
 11
339.430168
 21
538.0660064666465
 31
0.0
  0
LINE
  5
228
330
1F
100
AcDbEntity
  8
LAYER0016
  6
CONTINUOUS
 62
     3
100
AcDbLine
 10
340.430168
 20
539.0660064666465
 30
0.0
 11
340.430168
 21
540.0660064666465
 31
0.0
  0
LINE
  5
229
330
1F
100
AcDbEntity
  8
LAYER0016
  6
CONTINUOUS
 62
     3
100
AcDbLine
 10
336.430168
 20
543.0660064666465
 30
0.0
 11
336.430168
 21
546.0660064666465
 31
0.0
  0
LINE
  5
22A
330
1F
100
AcDbEntity
  8
LAYER0016
  6
CONTINUOUS
 62
     3
100
AcDbLine
 10
201.430168
 20
579.5660064666465
 30
0.0
 11
217.430168
 21
579.5660064666465
 31
0.0
  0
LINE
  5
22B
330
1F
100
AcDbEntity
  8
LAYER0016
  6
CONTINUOUS
 62
     3
100
AcDbLine
 10
195.573752
 20
571.9882184666465
 30
0.0
 11
195.573752
 21
560.5660064666465
 31
0.0
  0
LINE
  5
22C
330
1F
100
AcDbEntity
  8
LAYER0016
  6
CONTINUOUS
 62
     3
100
AcDbLine
 10
202.501944
 20
571.9882184666465
 30
0.0
 11
202.501944
 21
560.5660064666465
 31
0.0
  0
LINE
  5
22D
330
1F
100
AcDbEntity
  8
LAYER0016
  6
CONTINUOUS
 62
     3
100
AcDbLine
 10
216.3583599999999
 20
571.9882184666465
 30
0.0
 11
216.3583599999999
 21
560.5660064666465
 31
0.0
  0
LINE
  5
22E
330
1F
100
AcDbEntity
  8
LAYER0016
  6
CONTINUOUS
 62
     3
100
AcDbLine
 10
223.2865839999999
 20
571.9882184666465
 30
0.0
 11
223.2865839999999
 21
560.5660064666465
 31
0.0
  0
LINE
  5
22F
330
1F
100
AcDbEntity
  8
LAYER0016
  6
CONTINUOUS
 62
     3
100
AcDbLine
 10
199.037864
 20
573.5660064666465
 30
0.0
 11
219.8224799999999
 21
573.5660064666465
 31
0.0
  0
LINE
  5
230
330
1F
100
AcDbEntity
  8
LAYER0016
  6
CONTINUOUS
 62
     3
100
AcDbLine
 10
217.430168
 20
579.5660064666465
 30
0.0
 11
217.430168
 21
573.5660064666465
 31
0.0
  0
LINE
  5
231
330
1F
100
AcDbEntity
  8
LAYER0016
  6
CONTINUOUS
 62
     3
100
AcDbLine
 10
201.430168
 20
579.5660064666465
 30
0.0
 11
201.430168
 21
573.5660064666465
 31
0.0
  0
LINE
  5
232
330
1F
100
AcDbEntity
  8
LAYER0016
  6
CONTINUOUS
 62
     3
100
AcDbLine
 10
135.430168
 20
579.5660064666465
 30
0.0
 11
151.4301679999999
 21
579.5660064666465
 31
0.0
  0
LINE
  5
233
330
1F
100
AcDbEntity
  8
LAYER0016
  6
CONTINUOUS
 62
     3
100
AcDbLine
 10
129.573752
 20
571.9882184666465
 30
0.0
 11
129.573752
 21
560.5660064666465
 31
0.0
  0
LINE
  5
234
330
1F
100
AcDbEntity
  8
LAYER0016
  6
CONTINUOUS
 62
     3
100
AcDbLine
 10
136.501944
 20
571.9882184666465
 30
0.0
 11
136.501944
 21
560.5660064666465
 31
0.0
  0
LINE
  5
235
330
1F
100
AcDbEntity
  8
LAYER0016
  6
CONTINUOUS
 62
     3
100
AcDbLine
 10
150.35836
 20
571.9882184666465
 30
0.0
 11
150.35836
 21
560.5660064666465
 31
0.0
  0
LINE
  5
236
330
1F
100
AcDbEntity
  8
LAYER0016
  6
CONTINUOUS
 62
     3
100
AcDbLine
 10
157.286584
 20
571.9882184666465
 30
0.0
 11
157.286584
 21
560.5660064666465
 31
0.0
  0
LINE
  5
237
330
1F
100
AcDbEntity
  8
LAYER0016
  6
CONTINUOUS
 62
     3
100
AcDbLine
 10
133.03786
 20
573.5660064666465
 30
0.0
 11
153.82248
 21
573.5660064666465
 31
0.0
  0
LINE
  5
238
330
1F
100
AcDbEntity
  8
LAYER0016
  6
CONTINUOUS
 62
     3
100
AcDbLine
 10
151.4301679999999
 20
579.5660064666465
 30
0.0
 11
151.4301679999999
 21
573.5660064666465
 31
0.0
  0
LINE
  5
239
330
1F
100
AcDbEntity
  8
LAYER0016
  6
CONTINUOUS
 62
     3
100
AcDbLine
 10
135.430168
 20
579.5660064666465
 30
0.0
 11
135.430168
 21
573.5660064666465
 31
0.0
  0
LINE
  5
23A
330
1F
100
AcDbEntity
  8
LAYER0016
  6
CONTINUOUS
 62
     3
100
AcDbLine
 10
-275.0115382234684
 20
39.56613046664631
 30
0.0
 11
-236.0115382234684
 21
39.56613046664631
 31
0.0
  0
LINE
  5
23B
330
1F
100
AcDbEntity
  8
LAYER0016
  6
CONTINUOUS
 62
     3
100
AcDbLine
 10
-275.0115382234684
 20
74.56613046664626
 30
0.0
 11
-236.0115382234684
 21
74.56613046664626
 31
0.0
  0
LINE
  5
23C
330
1F
100
AcDbEntity
  8
LAYER0016
  6
CONTINUOUS
 62
     3
100
AcDbLine
 10
-318.0115382234683
 20
79.56613046664624
 30
0.0
 11
-193.0115382234684
 21
79.56613046664624
 31
0.0
  0
LINE
  5
23D
330
1F
100
AcDbEntity
  8
LAYER0016
  6
CONTINUOUS
 62
     3
100
AcDbLine
 10
-290.5115382234683
 20
76.56613046664626
 30
0.0
 11
-220.5115382234684
 21
76.56613046664626
 31
0.0
  0
LINE
  5
23E
330
1F
100
AcDbEntity
  8
LAYER0016
  6
CONTINUOUS
 62
     3
100
AcDbLine
 10
-318.0115382234683
 20
82.79644646664626
 30
0.0
 11
-318.0115382234683
 21
79.56613046664624
 31
0.0
  0
LINE
  5
23F
330
1F
100
AcDbEntity
  8
LAYER0016
  6
CONTINUOUS
 62
     3
100
AcDbLine
 10
-193.0115382234684
 20
82.56613046664624
 30
0.0
 11
-193.0115382234684
 21
79.56613046664624
 31
0.0
  0
LINE
  5
240
330
1F
100
AcDbEntity
  8
LAYER0016
  6
CONTINUOUS
 62
     3
100
AcDbLine
 10
-220.5115382234684
 20
79.56613046664624
 30
0.0
 11
-220.5115382234684
 21
76.56613046664626
 31
0.0
  0
LINE
  5
241
330
1F
100
AcDbEntity
  8
LAYER0016
  6
CONTINUOUS
 62
     3
100
AcDbLine
 10
-290.5115382234683
 20
79.56613046664624
 30
0.0
 11
-290.5115382234683
 21
76.56613046664626
 31
0.0
  0
LINE
  5
242
330
1F
100
AcDbEntity
  8
LAYER0016
  6
CONTINUOUS
 62
     3
100
AcDbLine
 10
-275.0115382234684
 20
74.56613046664626
 30
0.0
 11
-275.0115382234684
 21
39.56613046664631
 31
0.0
  0
LINE
  5
243
330
1F
100
AcDbEntity
  8
LAYER0016
  6
CONTINUOUS
 62
     3
100
AcDbLine
 10
-236.0115382234684
 20
74.56613046664626
 30
0.0
 11
-236.0115382234684
 21
39.56613046664631
 31
0.0
  0
LINE
  5
244
330
1F
100
AcDbEntity
  8
LAYER0016
  6
CONTINUOUS
 62
     3
100
AcDbLine
 10
-236.0115702234684
 20
74.56613046664626
 30
0.0
 11
-235.4756782234683
 21
76.56613046664626
 31
0.0
  0
LINE
  5
245
330
1F
100
AcDbEntity
  8
LAYER0016
  6
CONTINUOUS
 62
     3
100
AcDbLine
 10
-275.0116622234684
 20
74.5660704666463
 30
0.0
 11
-275.5475502234684
 21
76.5660704666463
 31
0.0
  0
LINE
  5
246
330
1F
100
AcDbEntity
  8
LAYER0016
  6
CONTINUOUS
 62
     3
100
AcDbLine
 10
-257.3076182234684
 20
74.56613046664626
 30
0.0
 11
-257.3076182234684
 21
39.56613046664631
 31
0.0
  0
LINE
  5
247
330
1F
100
AcDbEntity
  8
LAYER0016
  6
CONTINUOUS
 62
     3
100
AcDbLine
 10
-253.7154582234685
 20
74.56613046664626
 30
0.0
 11
-253.7154582234685
 21
39.56613046664631
 31
0.0
  0
LINE
  5
248
330
1F
100
AcDbEntity
  8
LAYER0016
  6
CONTINUOUS
 62
     3
100
AcDbLine
 10
-257.3076822234684
 20
74.56613046664626
 30
0.0
 11
-275.0115982234684
 21
39.56613046664631
 31
0.0
  0
LINE
  5
249
330
1F
100
AcDbEntity
  8
LAYER0016
  6
CONTINUOUS
 62
     3
100
AcDbLine
 10
-253.7155782234684
 20
74.5660704666463
 30
0.0
 11
-236.0116902234683
 21
39.56603846664632
 31
0.0
  0
LINE
  5
24A
330
1F
100
AcDbEntity
  8
LAYER0016
  6
CONTINUOUS
 62
     3
100
AcDbLine
 10
-236.0115702234684
 20
74.56616246664629
 30
0.0
 11
-253.7154862234684
 21
39.56609846664634
 31
0.0
  0
LINE
  5
24B
330
1F
100
AcDbEntity
  8
LAYER0016
  6
CONTINUOUS
 62
     3
100
AcDbLine
 10
-275.0116622234684
 20
74.5660704666463
 30
0.0
 11
-257.3077742234684
 21
39.56607046664629
 31
0.0
  0
LINE
  5
24C
330
1F
100
AcDbEntity
  8
LAYER0016
  6
CONTINUOUS
 62
     3
100
AcDbLine
 10
-190.5115382234684
 20
82.56613046664624
 30
0.0
 11
-190.5115382234684
 21
65.56613046664626
 31
0.0
  0
LINE
  5
24D
330
1F
100
AcDbEntity
  8
LAYER0016
  6
CONTINUOUS
 62
     3
100
AcDbLine
 10
156.9301679999999
 20
39.56613046664637
 30
0.0
 11
195.930168
 21
39.56613046664637
 31
0.0
  0
LINE
  5
24E
330
1F
100
AcDbEntity
  8
LAYER0016
  6
CONTINUOUS
 62
     3
100
AcDbLine
 10
156.9301679999999
 20
62.56613046664637
 30
0.0
 11
156.9301679999999
 21
39.56613046664637
 31
0.0
  0
LINE
  5
24F
330
1F
100
AcDbEntity
  8
LAYER0016
  6
CONTINUOUS
 62
     3
100
AcDbLine
 10
195.930168
 20
62.56613046664637
 30
0.0
 11
195.930168
 21
39.56613046664637
 31
0.0
  0
LINE
  5
250
330
1F
100
AcDbEntity
  8
LAYER0016
  6
CONTINUOUS
 62
     3
100
AcDbLine
 10
174.634072
 20
62.56613046664637
 30
0.0
 11
174.634072
 21
39.56613046664637
 31
0.0
  0
LINE
  5
251
330
1F
100
AcDbEntity
  8
LAYER0016
  6
CONTINUOUS
 62
     3
100
AcDbLine
 10
178.226264
 20
62.56613046664637
 30
0.0
 11
178.226264
 21
39.56613046664637
 31
0.0
  0
LINE
  5
252
330
1F
100
AcDbEntity
  8
LAYER0016
  6
CONTINUOUS
 62
     3
100
AcDbLine
 10
168.5641881864373
 20
62.56613046664637
 30
0.0
 11
156.930156
 21
39.56607046664635
 31
0.0
  0
LINE
  5
253
330
1F
100
AcDbEntity
  8
LAYER0016
  6
CONTINUOUS
 62
     3
100
AcDbLine
 10
184.2961358135627
 20
62.56613046664631
 30
0.0
 11
195.930168
 21
39.56607046664635
 31
0.0
  0
LINE
  5
254
330
1F
100
AcDbEntity
  8
LAYER0016
  6
CONTINUOUS
 62
     3
100
AcDbLine
 10
189.8603041864151
 20
62.56613046664637
 30
0.0
 11
178.226288
 21
39.56607046664635
 31
0.0
  0
LINE
  5
255
330
1F
100
AcDbEntity
  8
LAYER0016
  6
CONTINUOUS
 62
     3
100
AcDbLine
 10
163.000032
 20
62.56613046664637
 30
0.0
 11
174.634044
 21
39.56609846664639
 31
0.0
  0
LINE
  5
256
330
1F
100
AcDbEntity
  8
LAYER0016
  6
CONTINUOUS
 62
     3
100
AcDbLine
 10
-340.5115382234683
 20
108.5661304666463
 30
0.0
 11
-340.5115382234683
 21
124.5661304666463
 31
0.0
  0
LINE
  5
257
330
1F
100
AcDbEntity
  8
LAYER0016
  6
CONTINUOUS
 62
     3
100
AcDbLine
 10
-332.9337502234684
 20
102.7097144666463
 30
0.0
 11
-324.5115382234683
 21
102.7097144666463
 31
0.0
  0
LINE
  5
258
330
1F
100
AcDbEntity
  8
LAYER0016
  6
CONTINUOUS
 62
     3
100
AcDbLine
 10
-332.9337502234684
 20
109.6379064666463
 30
0.0
 11
-324.5115382234683
 21
109.6379064666463
 31
0.0
  0
LINE
  5
259
330
1F
100
AcDbEntity
  8
LAYER0016
  6
CONTINUOUS
 62
     3
100
AcDbLine
 10
-332.9337502234684
 20
123.4943224666463
 30
0.0
 11
-324.5115382234683
 21
123.4943224666463
 31
0.0
  0
LINE
  5
25A
330
1F
100
AcDbEntity
  8
LAYER0016
  6
CONTINUOUS
 62
     3
100
AcDbLine
 10
-332.9337502234684
 20
130.4225464666463
 30
0.0
 11
-324.5115382234683
 21
130.4225464666463
 31
0.0
  0
LINE
  5
25B
330
1F
100
AcDbEntity
  8
LAYER0016
  6
CONTINUOUS
 62
     3
100
AcDbLine
 10
-334.5115382234683
 20
106.1738264666463
 30
0.0
 11
-334.5115382234683
 21
126.9584344666463
 31
0.0
  0
LINE
  5
25C
330
1F
100
AcDbEntity
  8
LAYER0016
  6
CONTINUOUS
 62
     3
100
AcDbLine
 10
-340.5115382234683
 20
124.5661304666463
 30
0.0
 11
-334.5115382234683
 21
124.5661304666463
 31
0.0
  0
LINE
  5
25D
330
1F
100
AcDbEntity
  8
LAYER0016
  6
CONTINUOUS
 62
     3
100
AcDbLine
 10
-340.5115382234683
 20
108.5661304666463
 30
0.0
 11
-334.5115382234683
 21
108.5661304666463
 31
0.0
  0
LINE
  5
25E
330
1F
100
AcDbEntity
  8
LAYER0016
  6
CONTINUOUS
 62
     3
100
AcDbLine
 10
144.4301679999999
 20
361.5660064666464
 30
0.0
 11
164.4301679999999
 21
361.5660064666464
 31
0.0
  0
LINE
  5
25F
330
1F
100
AcDbEntity
  8
LAYER0016
  6
CONTINUOUS
 62
     3
100
AcDbLine
 10
144.4301679999999
 20
362.5660064666464
 30
0.0
 11
144.4301679999999
 21
361.5660064666464
 31
0.0
  0
LINE
  5
260
330
1F
100
AcDbEntity
  8
LAYER0016
  6
CONTINUOUS
 62
     3
100
AcDbLine
 10
164.4301679999999
 20
362.5660064666464
 30
0.0
 11
164.4301679999999
 21
361.5660064666464
 31
0.0
  0
LINE
  5
261
330
1F
100
AcDbEntity
  8
LAYER0016
  6
CONTINUOUS
 62
     3
100
AcDbLine
 10
-122.5115382234684
 20
119.5661304666463
 30
0.0
 11
-122.5115382234684
 21
139.5661304666463
 31
0.0
  0
LINE
  5
262
330
1F
100
AcDbEntity
  8
LAYER0016
  6
CONTINUOUS
 62
     3
100
AcDbLine
 10
-123.5115382234684
 20
119.5661304666463
 30
0.0
 11
-122.5115382234684
 21
119.5661304666463
 31
0.0
  0
LINE
  5
263
330
1F
100
AcDbEntity
  8
LAYER0016
  6
CONTINUOUS
 62
     3
100
AcDbLine
 10
-123.5115382234684
 20
139.5661304666463
 30
0.0
 11
-122.5115382234684
 21
139.5661304666463
 31
0.0
  0
LINE
  5
264
330
1F
100
AcDbEntity
  8
LAYER0016
  6
CONTINUOUS
 62
     3
100
AcDbLine
 10
32.43016799999995
 20
560.5660064666465
 30
0.0
 11
32.43016799999995
 21
415.5660064666463
 31
0.0
  0
LINE
  5
265
330
1F
100
AcDbEntity
  8
LAYER0016
  6
CONTINUOUS
 62
     3
100
AcDbLine
 10
32.43016799999995
 20
196.5661304666463
 30
0.0
 11
32.43016799999995
 21
82.5661304666463
 31
0.0
  0
LINE
  5
266
330
1F
100
AcDbEntity
  8
LAYER0016
  6
CONTINUOUS
 62
     3
100
AcDbLine
 10
25.43016799999996
 20
548.4659984666464
 30
0.0
 11
25.43016799999996
 21
560.6660144666464
 31
0.0
  0
LINE
  5
267
330
1F
100
AcDbEntity
  8
LAYER0016
  6
CONTINUOUS
 62
     3
100
AcDbLine
 10
23.90315199999996
 20
559.8160064666465
 30
0.0
 11
25.43017599999994
 21
559.8160064666465
 31
0.0
  0
LINE
  5
268
330
1F
100
AcDbEntity
  8
LAYER0016
  6
CONTINUOUS
 62
     3
100
AcDbLine
 10
23.90315199999996
 20
549.3160064666465
 30
0.0
 11
25.43017599999994
 21
549.3160064666465
 31
0.0
  0
LINE
  5
269
330
1F
100
AcDbEntity
  8
LAYER0016
  6
CONTINUOUS
 62
     3
100
AcDbLine
 10
25.43017599999994
 20
548.4659984666464
 30
0.0
 11
26.93017599999994
 21
548.4659984666464
 31
0.0
  0
LINE
  5
26A
330
1F
100
AcDbEntity
  8
LAYER0016
  6
CONTINUOUS
 62
     3
100
AcDbLine
 10
25.43017599999994
 20
560.6660144666464
 30
0.0
 11
26.93017599999994
 21
560.6660144666464
 31
0.0
  0
LINE
  5
26B
330
1F
100
AcDbEntity
  8
LAYER0016
  6
CONTINUOUS
 62
     3
100
AcDbLine
 10
25.43016799999996
 20
554.5659904666463
 30
0.0
 11
26.93016799999996
 21
556.0659904666463
 31
0.0
  0
LINE
  5
26C
330
1F
100
AcDbEntity
  8
LAYER0016
  6
CONTINUOUS
 62
     3
100
AcDbLine
 10
26.93016799999996
 20
554.5660064666465
 30
0.0
 11
25.43016799999996
 21
553.0660064666465
 31
0.0
  0
LINE
  5
26D
330
1F
100
AcDbEntity
  8
LAYER0016
  6
CONTINUOUS
 62
     3
100
AcDbLine
 10
26.93016799999996
 20
560.5659744666464
 30
0.0
 11
26.93016799999996
 21
415.5660064666463
 31
0.0
  0
LINE
  5
26E
330
1F
100
AcDbEntity
  8
LAYER0016
  6
CONTINUOUS
 62
     3
100
AcDbLine
 10
25.43016799999996
 20
427.6660064666464
 30
0.0
 11
25.43016799999996
 21
415.4660064666463
 31
0.0
  0
LINE
  5
26F
330
1F
100
AcDbEntity
  8
LAYER0016
  6
CONTINUOUS
 62
     3
100
AcDbLine
 10
23.90313599999994
 20
416.3160064666463
 30
0.0
 11
25.43015999999998
 21
416.3160064666463
 31
0.0
  0
LINE
  5
270
330
1F
100
AcDbEntity
  8
LAYER0016
  6
CONTINUOUS
 62
     3
100
AcDbLine
 10
23.90313599999994
 20
426.8160064666463
 30
0.0
 11
25.43015999999998
 21
426.8160064666463
 31
0.0
  0
LINE
  5
271
330
1F
100
AcDbEntity
  8
LAYER0016
  6
CONTINUOUS
 62
     3
100
AcDbLine
 10
25.43015999999998
 20
427.6660064666464
 30
0.0
 11
26.93015999999998
 21
427.6660064666464
 31
0.0
  0
LINE
  5
272
330
1F
100
AcDbEntity
  8
LAYER0016
  6
CONTINUOUS
 62
     3
100
AcDbLine
 10
25.43015999999998
 20
415.4660064666463
 30
0.0
 11
26.93015999999998
 21
415.4660064666463
 31
0.0
  0
LINE
  5
273
330
1F
100
AcDbEntity
  8
LAYER0016
  6
CONTINUOUS
 62
     3
100
AcDbLine
 10
25.43015999999998
 20
421.5660184666464
 30
0.0
 11
26.93015199999995
 21
420.0660264666463
 31
0.0
  0
LINE
  5
274
330
1F
100
AcDbEntity
  8
LAYER0016
  6
CONTINUOUS
 62
     3
100
AcDbLine
 10
26.93015199999995
 20
421.5660184666464
 30
0.0
 11
25.43016799999996
 21
423.0660104666463
 31
0.0
  0
LINE
  5
275
330
1F
100
AcDbEntity
  8
LAYER0016
  6
CONTINUOUS
 62
     3
100
AcDbLine
 10
-23.56983200000004
 20
183.0661304666463
 30
0.0
 11
25.93016799999996
 21
183.0661304666463
 31
0.0
  0
LINE
  5
276
330
1F
100
AcDbEntity
  8
LAYER0016
  6
CONTINUOUS
 62
     3
100
AcDbLine
 10
25.43016799999996
 20
184.4661224666463
 30
0.0
 11
25.43016799999996
 21
196.6661384666463
 31
0.0
  0
LINE
  5
277
330
1F
100
AcDbEntity
  8
LAYER0016
  6
CONTINUOUS
 62
     3
100
AcDbLine
 10
23.90314399999998
 20
195.8161304666463
 30
0.0
 11
25.43016799999996
 21
195.8161304666463
 31
0.0
  0
LINE
  5
278
330
1F
100
AcDbEntity
  8
LAYER0016
  6
CONTINUOUS
 62
     3
100
AcDbLine
 10
23.90314399999998
 20
185.3161304666463
 30
0.0
 11
25.43016799999996
 21
185.3161304666463
 31
0.0
  0
LINE
  5
279
330
1F
100
AcDbEntity
  8
LAYER0016
  6
CONTINUOUS
 62
     3
100
AcDbLine
 10
25.43016799999996
 20
184.4661224666463
 30
0.0
 11
26.93016799999996
 21
184.4661224666463
 31
0.0
  0
LINE
  5
27A
330
1F
100
AcDbEntity
  8
LAYER0016
  6
CONTINUOUS
 62
     3
100
AcDbLine
 10
25.43016799999996
 20
196.6661384666463
 30
0.0
 11
26.93016799999996
 21
196.6661384666463
 31
0.0
  0
LINE
  5
27B
330
1F
100
AcDbEntity
  8
LAYER0016
  6
CONTINUOUS
 62
     3
100
AcDbLine
 10
25.43018399999992
 20
190.5661144666463
 30
0.0
 11
26.93018399999992
 21
192.0661304666463
 31
0.0
  0
LINE
  5
27C
330
1F
100
AcDbEntity
  8
LAYER0016
  6
CONTINUOUS
 62
     3
100
AcDbLine
 10
26.93018399999992
 20
190.5661304666463
 30
0.0
 11
25.43018399999992
 21
189.0661304666463
 31
0.0
  0
LINE
  5
27D
330
1F
100
AcDbEntity
  8
LAYER0016
  6
CONTINUOUS
 62
     3
100
AcDbLine
 10
-23.56983200000004
 20
96.06613046664636
 30
0.0
 11
25.93016799999996
 21
96.06613046664636
 31
0.0
  0
LINE
  5
27E
330
1F
100
AcDbEntity
  8
LAYER0016
  6
CONTINUOUS
 62
     3
100
AcDbLine
 10
26.93016799999996
 20
82.5661304666463
 30
0.0
 11
26.93016799999996
 21
196.5661304666463
 31
0.0
  0
LINE
  5
27F
330
1F
100
AcDbEntity
  8
LAYER0016
  6
CONTINUOUS
 62
     3
100
AcDbLine
 10
25.43016799999996
 20
94.66613846664636
 30
0.0
 11
25.43016799999996
 21
82.46612246664631
 31
0.0
  0
LINE
  5
280
330
1F
100
AcDbEntity
  8
LAYER0016
  6
CONTINUOUS
 62
     3
100
AcDbLine
 10
23.90314399999998
 20
83.3161304666463
 30
0.0
 11
25.43016799999996
 21
83.3161304666463
 31
0.0
  0
LINE
  5
281
330
1F
100
AcDbEntity
  8
LAYER0016
  6
CONTINUOUS
 62
     3
100
AcDbLine
 10
23.90314399999998
 20
93.8161304666463
 30
0.0
 11
25.43016799999996
 21
93.8161304666463
 31
0.0
  0
LINE
  5
282
330
1F
100
AcDbEntity
  8
LAYER0016
  6
CONTINUOUS
 62
     3
100
AcDbLine
 10
25.43016799999996
 20
94.66613846664636
 30
0.0
 11
26.93016799999996
 21
94.66613846664636
 31
0.0
  0
LINE
  5
283
330
1F
100
AcDbEntity
  8
LAYER0016
  6
CONTINUOUS
 62
     3
100
AcDbLine
 10
25.43016799999996
 20
82.46612246664631
 30
0.0
 11
26.93016799999996
 21
82.46612246664631
 31
0.0
  0
LINE
  5
284
330
1F
100
AcDbEntity
  8
LAYER0016
  6
CONTINUOUS
 62
     3
100
AcDbLine
 10
25.43018399999992
 20
88.5661304666463
 30
0.0
 11
26.93018399999992
 21
87.0661304666463
 31
0.0
  0
LINE
  5
285
330
1F
100
AcDbEntity
  8
LAYER0016
  6
CONTINUOUS
 62
     3
100
AcDbLine
 10
26.93018399999992
 20
88.56616246664633
 30
0.0
 11
25.43018399999992
 21
90.06616246664633
 31
0.0
  0
LINE
  5
286
330
1F
100
AcDbEntity
  8
LAYER0016
  6
CONTINUOUS
 62
     3
100
AcDbLine
 10
-23.56983200000004
 20
547.0660064666465
 30
0.0
 11
25.93017599999994
 21
547.0660064666465
 31
0.0
  0
LINE
  5
287
330
1F
100
AcDbEntity
  8
LAYER0016
  6
CONTINUOUS
 62
     3
100
AcDbLine
 10
-23.64597200000005
 20
558.6392784666464
 30
0.0
 11
26.93016799999996
 21
560.5659744666464
 31
0.0
  0
LINE
  5
288
330
1F
100
AcDbEntity
  8
LAYER0016
  6
CONTINUOUS
 62
     3
100
AcDbLine
 10
-25.56983200000004
 20
556.640747773826
 30
0.0
 11
-25.56983200000004
 21
419.4912784666463
 31
0.0
  0
LINE
  5
289
330
1F
100
AcDbEntity
  8
LAYER0016
  6
CONTINUOUS
 62
     3
100
AcDbLine
 10
-23.56983200000004
 20
429.0660064666463
 30
0.0
 11
25.93015999999998
 21
429.0660064666463
 31
0.0
  0
LINE
  5
28A
330
1F
100
AcDbEntity
  8
LAYER0016
  6
CONTINUOUS
 62
     3
100
AcDbLine
 10
-23.64598800000006
 20
417.4927424666463
 30
0.0
 11
26.93014399999997
 21
415.5660304666463
 31
0.0
  0
LINE
  5
28B
330
1F
100
AcDbEntity
  8
LAYER0016
  6
CONTINUOUS
 62
     3
100
AcDbLine
 10
-182.5115382234684
 20
183.0661304666463
 30
0.0
 11
-178.5115382234684
 21
183.0661304666463
 31
0.0
  0
LINE
  5
28C
330
1F
100
AcDbEntity
  8
LAYER0016
  6
CONTINUOUS
 62
     3
100
AcDbLine
 10
-190.0115382234684
 20
190.5661304666463
 30
0.0
 11
-190.0115382234684
 21
194.5661304666463
 31
0.0
  0
LINE
  5
28D
330
1F
100
AcDbEntity
  8
LAYER0016
  6
CONTINUOUS
 62
     3
100
AcDbLine
 10
-184.7035862234684
 20
188.3740824666463
 30
0.0
 11
-180.3195222234684
 21
192.7581464666463
 31
0.0
  0
LINE
  5
28E
330
1F
100
AcDbEntity
  8
LAYER0016
  6
CONTINUOUS
 62
     3
100
AcDbLine
 10
-184.7035862234684
 20
192.7581464666463
 30
0.0
 11
-180.3195222234684
 21
188.3740664666462
 31
0.0
  0
LINE
  5
28F
330
1F
100
AcDbEntity
  8
LAYER0016
  6
CONTINUOUS
 62
     3
100
AcDbLine
 10
-315.5115382234683
 20
183.0661304666463
 30
0.0
 11
-319.5115382234683
 21
183.0661304666463
 31
0.0
  0
LINE
  5
290
330
1F
100
AcDbEntity
  8
LAYER0016
  6
CONTINUOUS
 62
     3
100
AcDbLine
 10
-308.0115382234683
 20
190.5661304666463
 30
0.0
 11
-308.0115382234683
 21
194.5661304666463
 31
0.0
  0
LINE
  5
291
330
1F
100
AcDbEntity
  8
LAYER0016
  6
CONTINUOUS
 62
     3
100
AcDbLine
 10
-313.3195502234683
 20
188.3740664666462
 30
0.0
 11
-317.7036142234683
 21
192.7581304666463
 31
0.0
  0
LINE
  5
292
330
1F
100
AcDbEntity
  8
LAYER0016
  6
CONTINUOUS
 62
     3
100
AcDbLine
 10
-313.3195222234683
 20
192.7581624666462
 30
0.0
 11
-317.7035542234684
 21
188.3741144666463
 31
0.0
  0
LINE
  5
293
330
1F
100
AcDbEntity
  8
LAYER0016
  6
CONTINUOUS
 62
     3
100
AcDbLine
 10
-176.5115382234684
 20
88.56613046664624
 30
0.0
 11
-176.5115382234684
 21
190.5661304666463
 31
0.0
  0
LINE
  5
294
330
1F
100
AcDbEntity
  8
LAYER0016
  6
CONTINUOUS
 62
     3
100
AcDbLine
 10
-182.5115382234684
 20
96.0661304666463
 30
0.0
 11
-178.5115382234684
 21
96.0661304666463
 31
0.0
  0
LINE
  5
295
330
1F
100
AcDbEntity
  8
LAYER0016
  6
CONTINUOUS
 62
     3
100
AcDbLine
 10
-190.0115382234684
 20
88.56613046664624
 30
0.0
 11
-190.0115382234684
 21
84.56613046664624
 31
0.0
  0
LINE
  5
296
330
1F
100
AcDbEntity
  8
LAYER0016
  6
CONTINUOUS
 62
     3
100
AcDbLine
 10
-184.7035862234684
 20
90.75814646664632
 30
0.0
 11
-180.3195222234684
 21
86.37405446664631
 31
0.0
  0
LINE
  5
297
330
1F
100
AcDbEntity
  8
LAYER0016
  6
CONTINUOUS
 62
     3
100
AcDbLine
 10
-184.7035862234684
 20
86.37408246664624
 30
0.0
 11
-180.3195222234684
 21
90.75814646664632
 31
0.0
  0
LINE
  5
298
330
1F
100
AcDbEntity
  8
LAYER0016
  6
CONTINUOUS
 62
     3
100
AcDbLine
 10
-182.5115382234684
 20
82.56613046664624
 30
0.0
 11
-315.5115382234683
 21
82.56613046664624
 31
0.0
  0
LINE
  5
299
330
1F
100
AcDbEntity
  8
LAYER0016
  6
CONTINUOUS
 62
     3
100
AcDbLine
 10
-315.5115382234683
 20
96.0661304666463
 30
0.0
 11
-319.5115382234683
 21
96.0661304666463
 31
0.0
  0
LINE
  5
29A
330
1F
100
AcDbEntity
  8
LAYER0016
  6
CONTINUOUS
 62
     3
100
AcDbLine
 10
-308.0115382234683
 20
88.56613046664624
 30
0.0
 11
-308.0115382234683
 21
84.56613046664624
 31
0.0
  0
LINE
  5
29B
330
1F
100
AcDbEntity
  8
LAYER0016
  6
CONTINUOUS
 62
     3
100
AcDbLine
 10
-313.3195222234683
 20
90.75814646664632
 30
0.0
 11
-317.7035862234683
 21
86.37408246664624
 31
0.0
  0
LINE
  5
29C
330
1F
100
AcDbEntity
  8
LAYER0016
  6
CONTINUOUS
 62
     3
100
AcDbLine
 10
-313.3194902234683
 20
86.37408246664624
 30
0.0
 11
-317.7035542234684
 21
90.75814646664632
 31
0.0
  0
LINE
  5
29D
330
1F
100
AcDbEntity
  8
LAYER0016
  6
CONTINUOUS
 62
     3
100
AcDbLine
 10
-25.56983200000004
 20
86.49139446664638
 30
0.0
 11
-25.56983200000004
 21
192.6408717738259
 31
0.0
  0
LINE
  5
29E
330
1F
100
AcDbEntity
  8
LAYER0016
  6
CONTINUOUS
 62
     3
100
AcDbLine
 10
-23.64596000000008
 20
194.6394184666463
 30
0.0
 11
26.93017599999994
 21
196.5661304666463
 31
0.0
  0
LINE
  5
29F
330
1F
100
AcDbEntity
  8
LAYER0016
  6
CONTINUOUS
 62
     3
100
AcDbLine
 10
-23.64597200000005
 20
84.49282646664629
 30
0.0
 11
26.93016799999996
 21
82.5661304666463
 31
0.0
  0
ARC
  5
2A0
330
1F
100
AcDbEntity
  8
LAYER0016
  6
CONTINUOUS
 62
     3
100
AcDbCircle
 10
69.43016799999998
 20
413.5660064666463
 30
0.0
 40
2.0
100
AcDbArc
 50
0.0
 51
89.99963750135461
  0
ARC
  5
2A1
330
1F
100
AcDbEntity
  8
LAYER0016
  6
CONTINUOUS
 62
     3
100
AcDbCircle
 10
331.430168
 20
555.5660064666465
 30
0.0
 40
5.0
100
AcDbArc
 50
0.0
 51
89.99963750135485
  0
ARC
  5
2A2
330
1F
100
AcDbEntity
  8
LAYER0016
  6
CONTINUOUS
 62
     3
100
AcDbCircle
 10
93.43016799999998
 20
199.5661304666463
 30
0.0
 40
3.0
100
AcDbArc
 50
269.999485461859
 51
359.9999999999998
  0
ARC
  5
2A3
330
1F
100
AcDbEntity
  8
LAYER0016
  6
CONTINUOUS
 62
     3
100
AcDbCircle
 10
259.430168
 20
199.5661304666463
 30
0.0
 40
3.0
100
AcDbArc
 50
179.9998479605043
 51
269.9994854618584
  0
ARC
  5
2A4
330
1F
100
AcDbEntity
  8
LAYER0016
  6
CONTINUOUS
 62
     3
100
AcDbCircle
 10
-323.5115382234683
 20
187.0661304666463
 30
0.0
 40
2.0
100
AcDbArc
 50
269.9994854618596
 51
359.9999999999998
  0
ARC
  5
2A5
330
1F
100
AcDbEntity
  8
LAYER0016
  6
CONTINUOUS
 62
     3
100
AcDbCircle
 10
-323.5115382234683
 20
92.06613046664624
 30
0.0
 40
2.0
100
AcDbArc
 50
0.0
 51
89.99963750135421
  0
ARC
  5
2A6
330
1F
100
AcDbEntity
  8
LAYER0016
  6
CONTINUOUS
 62
     3
100
AcDbCircle
 10
98.43016799999998
 20
203.5661304666463
 30
0.0
 40
2.0
100
AcDbArc
 50
89.99963750135421
 51
179.9998479605041
  0
ARC
  5
2A7
330
1F
100
AcDbEntity
  8
LAYER0016
  6
CONTINUOUS
 62
     3
100
AcDbCircle
 10
254.430168
 20
203.5661304666463
 30
0.0
 40
2.0
100
AcDbArc
 50
0.0
 51
89.99963750135421
  0
ARC
  5
2A8
330
1F
100
AcDbEntity
  8
LAYER0016
  6
CONTINUOUS
 62
     3
100
AcDbCircle
 10
240.430168
 20
209.5661304666463
 30
0.0
 40
4.0
100
AcDbArc
 50
179.9998479605044
 51
269.9994854618587
  0
ARC
  5
2A9
330
1F
100
AcDbEntity
  8
LAYER0016
  6
CONTINUOUS
 62
     3
100
AcDbCircle
 10
112.430168
 20
209.5661304666463
 30
0.0
 40
4.0
100
AcDbArc
 50
269.9994854618587
 51
359.9999999999998
  0
ARC
  5
2AA
330
1F
100
AcDbEntity
  8
LAYER0016
  6
CONTINUOUS
 62
     3
100
AcDbCircle
 10
250.430168
 20
196.9661224666463
 30
0.0
 40
13.999996
100
AcDbArc
 50
73.92702543234462
 51
106.0728225281595
  0
ARC
  5
2AB
330
1F
100
AcDbEntity
  8
LAYER0016
  6
CONTINUOUS
 62
     3
100
AcDbCircle
 10
247.080168
 20
208.5931384666463
 30
0.0
 40
1.9
100
AcDbArc
 50
106.0722495703647
 51
179.9998479605045
  0
ARC
  5
2AC
330
1F
100
AcDbEntity
  8
LAYER0016
  6
CONTINUOUS
 62
     3
100
AcDbCircle
 10
253.780168
 20
208.5931384666463
 30
0.0
 40
1.9
100
AcDbArc
 50
0.0
 51
73.92702543234398
  0
ARC
  5
2AD
330
1F
100
AcDbEntity
  8
LAYER0016
  6
CONTINUOUS
 62
     3
100
AcDbCircle
 10
102.430168
 20
196.9661224666463
 30
0.0
 40
13.999996
100
AcDbArc
 50
73.92702543234472
 51
106.0728225281595
  0
ARC
  5
2AE
330
1F
100
AcDbEntity
  8
LAYER0016
  6
CONTINUOUS
 62
     3
100
AcDbCircle
 10
99.08016799999999
 20
208.5931384666463
 30
0.0
 40
1.9
100
AcDbArc
 50
106.0722495703647
 51
179.9998479605045
  0
ARC
  5
2AF
330
1F
100
AcDbEntity
  8
LAYER0016
  6
CONTINUOUS
 62
     3
100
AcDbCircle
 10
105.7801679999999
 20
208.5931384666463
 30
0.0
 40
1.9
100
AcDbArc
 50
0.0
 51
73.9270254323448
  0
ARC
  5
2B0
330
1F
100
AcDbEntity
  8
LAYER0016
  6
CONTINUOUS
 62
     3
100
AcDbCircle
 10
250.430168
 20
554.5660064666465
 30
0.0
 40
6.0
100
AcDbArc
 50
0.0
 51
89.99963750135475
  0
ARC
  5
2B1
330
1F
100
AcDbEntity
  8
LAYER0016
  6
CONTINUOUS
 62
     3
100
AcDbCircle
 10
102.430168
 20
554.5660064666465
 30
0.0
 40
6.0
100
AcDbArc
 50
89.99963750135448
 51
179.9998479605043
  0
ARC
  5
2B2
330
1F
100
AcDbEntity
  8
LAYER0016
  6
CONTINUOUS
 62
     3
100
AcDbCircle
 10
250.430168
 20
434.5660064666463
 30
0.0
 40
6.0
100
AcDbArc
 50
269.999485461859
 51
0.0
  0
ARC
  5
2B3
330
1F
100
AcDbEntity
  8
LAYER0016
  6
CONTINUOUS
 62
     3
100
AcDbCircle
 10
102.430168
 20
434.5660064666463
 30
0.0
 40
6.0
100
AcDbArc
 50
179.9998479605043
 51
269.999485461859
  0
CIRCLE
  5
2B4
330
1F
100
AcDbEntity
  8
LAYER0016
  6
CONTINUOUS
 62
     3
100
AcDbCircle
 10
250.430168
 20
434.5660064666463
 30
0.0
 40
5.25
  0
CIRCLE
  5
2B5
330
1F
100
AcDbEntity
  8
LAYER0016
  6
CONTINUOUS
 62
     3
100
AcDbCircle
 10
250.430168
 20
554.5660064666465
 30
0.0
 40
5.25
  0
CIRCLE
  5
2B6
330
1F
100
AcDbEntity
  8
LAYER0016
  6
CONTINUOUS
 62
     3
100
AcDbCircle
 10
102.430168
 20
554.5660064666465
 30
0.0
 40
5.25
  0
CIRCLE
  5
2B7
330
1F
100
AcDbEntity
  8
LAYER0016
  6
CONTINUOUS
 62
     3
100
AcDbCircle
 10
102.430168
 20
434.5660064666463
 30
0.0
 40
5.25
  0
ARC
  5
2B8
330
1F
100
AcDbEntity
  8
LAYER0016
  6
CONTINUOUS
 62
     3
100
AcDbCircle
 10
-319.5115382234683
 20
203.5661304666463
 30
0.0
 40
2.0
100
AcDbArc
 50
89.99963750135421
 51
179.9998479605041
  0
ARC
  5
2B9
330
1F
100
AcDbEntity
  8
LAYER0016
  6
CONTINUOUS
 62
     3
100
AcDbCircle
 10
-191.5115382234684
 20
203.5661304666463
 30
0.0
 40
2.0
100
AcDbArc
 50
0.0
 51
89.99963750135421
  0
ARC
  5
2BA
330
1F
100
AcDbEntity
  8
LAYER0016
  6
CONTINUOUS
 62
     3
100
AcDbCircle
 10
-203.5115382234684
 20
209.5661304666463
 30
0.0
 40
4.0
100
AcDbArc
 50
179.9998479605044
 51
269.9994854618587
  0
ARC
  5
2BB
330
1F
100
AcDbEntity
  8
LAYER0016
  6
CONTINUOUS
 62
     3
100
AcDbCircle
 10
-307.5115382234683
 20
209.5661304666463
 30
0.0
 40
4.0
100
AcDbArc
 50
269.9994854618587
 51
359.9999999999998
  0
ARC
  5
2BC
330
1F
100
AcDbEntity
  8
LAYER0016
  6
CONTINUOUS
 62
     3
100
AcDbCircle
 10
-195.5115382234684
 20
196.9661224666463
 30
0.0
 40
14.0
100
AcDbArc
 50
73.92702543234468
 51
106.0728225281596
  0
ARC
  5
2BD
330
1F
100
AcDbEntity
  8
LAYER0016
  6
CONTINUOUS
 62
     3
100
AcDbCircle
 10
-198.8615462234684
 20
208.5931544666463
 30
0.0
 40
1.9
100
AcDbArc
 50
106.0722495703647
 51
179.9998479605045
  0
ARC
  5
2BE
330
1F
100
AcDbEntity
  8
LAYER0016
  6
CONTINUOUS
 62
     3
100
AcDbCircle
 10
-192.1615302234684
 20
208.5931544666463
 30
0.0
 40
1.899992
100
AcDbArc
 50
0.0
 51
73.92702543234466
  0
ARC
  5
2BF
330
1F
100
AcDbEntity
  8
LAYER0016
  6
CONTINUOUS
 62
     3
100
AcDbCircle
 10
-315.5115382234683
 20
196.9661224666463
 30
0.0
 40
14.0
100
AcDbArc
 50
73.92702543234479
 51
106.0728225281597
  0
ARC
  5
2C0
330
1F
100
AcDbEntity
  8
LAYER0016
  6
CONTINUOUS
 62
     3
100
AcDbCircle
 10
-318.8615462234683
 20
208.5931384666463
 30
0.0
 40
1.9
100
AcDbArc
 50
106.0722495703647
 51
179.9998479605045
  0
ARC
  5
2C1
330
1F
100
AcDbEntity
  8
LAYER0016
  6
CONTINUOUS
 62
     3
100
AcDbCircle
 10
-312.1615302234683
 20
208.5931384666463
 30
0.0
 40
1.899992
100
AcDbArc
 50
0.0
 51
73.92702543234466
  0
ARC
  5
2C2
330
1F
100
AcDbEntity
  8
LAYER0016
  6
CONTINUOUS
 62
     3
100
AcDbCircle
 10
231.430168
 20
537.5660064666465
 30
0.0
 40
5.0
100
AcDbArc
 50
0.0
 51
89.99963750135485
  0
ARC
  5
2C3
330
1F
100
AcDbEntity
  8
LAYER0016
  6
CONTINUOUS
 62
     3
100
AcDbCircle
 10
229.430168
 20
535.5660064666465
 30
0.0
 40
5.0
100
AcDbArc
 50
179.9998479605041
 51
269.9994854618589
  0
ARC
  5
2C4
330
1F
100
AcDbEntity
  8
LAYER0016
  6
CONTINUOUS
 62
     3
100
AcDbCircle
 10
222.930168
 20
541.0660064666465
 30
0.0
 40
1.5
100
AcDbArc
 50
0.0
 51
89.9996375013553
  0
ARC
  5
2C5
330
1F
100
AcDbEntity
  8
LAYER0016
  6
CONTINUOUS
 62
     3
100
AcDbCircle
 10
234.930168
 20
529.0660064666465
 30
0.0
 40
1.5
100
AcDbArc
 50
0.0
 51
89.9996375013553
  0
ARC
  5
2C6
330
1F
100
AcDbEntity
  8
LAYER0016
  6
CONTINUOUS
 62
     3
100
AcDbCircle
 10
121.430168
 20
537.5660064666465
 30
0.0
 40
5.0
100
AcDbArc
 50
89.99963750135454
 51
179.9998479605041
  0
ARC
  5
2C7
330
1F
100
AcDbEntity
  8
LAYER0016
  6
CONTINUOUS
 62
     3
100
AcDbCircle
 10
123.430168
 20
535.5660064666465
 30
0.0
 40
5.0
100
AcDbArc
 50
269.9994854618589
 51
0.0
  0
ARC
  5
2C8
330
1F
100
AcDbEntity
  8
LAYER0016
  6
CONTINUOUS
 62
     3
100
AcDbCircle
 10
129.930168
 20
541.0660064666465
 30
0.0
 40
1.5
100
AcDbArc
 50
89.99963750135421
 51
179.9998479605043
  0
ARC
  5
2C9
330
1F
100
AcDbEntity
  8
LAYER0016
  6
CONTINUOUS
 62
     3
100
AcDbCircle
 10
117.930168
 20
529.0660064666465
 30
0.0
 40
1.5
100
AcDbArc
 50
89.99963750135421
 51
179.9998479605043
  0
ARC
  5
2CA
330
1F
100
AcDbEntity
  8
LAYER0016
  6
CONTINUOUS
 62
     3
100
AcDbCircle
 10
231.430168
 20
451.5660064666463
 30
0.0
 40
5.0
100
AcDbArc
 50
269.9994854618589
 51
0.0
  0
ARC
  5
2CB
330
1F
100
AcDbEntity
  8
LAYER0016
  6
CONTINUOUS
 62
     3
100
AcDbCircle
 10
229.430168
 20
453.5660064666463
 30
0.0
 40
5.0
100
AcDbArc
 50
89.99963750135485
 51
179.9998479605041
  0
ARC
  5
2CC
330
1F
100
AcDbEntity
  8
LAYER0016
  6
CONTINUOUS
 62
     3
100
AcDbCircle
 10
222.930168
 20
448.0660064666463
 30
0.0
 40
1.5
100
AcDbArc
 50
269.9994854618596
 51
0.0
  0
ARC
  5
2CD
330
1F
100
AcDbEntity
  8
LAYER0016
  6
CONTINUOUS
 62
     3
100
AcDbCircle
 10
234.930168
 20
460.0660064666463
 30
0.0
 40
1.5
100
AcDbArc
 50
269.9994854618596
 51
0.0
  0
ARC
  5
2CE
330
1F
100
AcDbEntity
  8
LAYER0016
  6
CONTINUOUS
 62
     3
100
AcDbCircle
 10
121.430168
 20
451.5660064666463
 30
0.0
 40
5.0
100
AcDbArc
 50
179.9998479605041
 51
269.9994854618589
  0
ARC
  5
2CF
330
1F
100
AcDbEntity
  8
LAYER0016
  6
CONTINUOUS
 62
     3
100
AcDbCircle
 10
123.430168
 20
453.5660064666463
 30
0.0
 40
5.0
100
AcDbArc
 50
0.0
 51
89.99963750135454
  0
ARC
  5
2D0
330
1F
100
AcDbEntity
  8
LAYER0016
  6
CONTINUOUS
 62
     3
100
AcDbCircle
 10
129.930168
 20
448.0660064666463
 30
0.0
 40
1.5
100
AcDbArc
 50
179.9998479605043
 51
269.9994854618584
  0
ARC
  5
2D1
330
1F
100
AcDbEntity
  8
LAYER0016
  6
CONTINUOUS
 62
     3
100
AcDbCircle
 10
117.930168
 20
460.0660064666463
 30
0.0
 40
1.5
100
AcDbArc
 50
179.9998479605043
 51
269.9994854618584
  0
CIRCLE
  5
2D2
330
1F
100
AcDbEntity
  8
LAYER0016
  6
CONTINUOUS
 62
     3
100
AcDbCircle
 10
231.430168
 20
537.5660064666465
 30
0.0
 40
4.5
  0
CIRCLE
  5
2D3
330
1F
100
AcDbEntity
  8
LAYER0016
  6
CONTINUOUS
 62
     3
100
AcDbCircle
 10
121.430168
 20
537.5660064666465
 30
0.0
 40
4.5
  0
CIRCLE
  5
2D4
330
1F
100
AcDbEntity
  8
LAYER0016
  6
CONTINUOUS
 62
     3
100
AcDbCircle
 10
231.430168
 20
451.5660064666463
 30
0.0
 40
4.5
  0
CIRCLE
  5
2D5
330
1F
100
AcDbEntity
  8
LAYER0016
  6
CONTINUOUS
 62
     3
100
AcDbCircle
 10
121.430168
 20
451.5660064666463
 30
0.0
 40
4.5
  0
ARC
  5
2D6
330
1F
100
AcDbEntity
  8
LAYER0016
  6
CONTINUOUS
 62
     3
100
AcDbCircle
 10
79.43016799999998
 20
404.5660064666463
 30
0.0
 40
1.0
100
AcDbArc
 50
0.0
 51
89.99963750135421
  0
ARC
  5
2D7
330
1F
100
AcDbEntity
  8
LAYER0016
  6
CONTINUOUS
 62
     3
100
AcDbCircle
 10
105.430168
 20
404.5660064666463
 30
0.0
 40
1.0
100
AcDbArc
 50
0.0
 51
89.99963750135421
  0
ARC
  5
2D8
330
1F
100
AcDbEntity
  8
LAYER0016
  6
CONTINUOUS
 62
     3
100
AcDbCircle
 10
198.430168
 20
404.5660064666463
 30
0.0
 40
1.0
100
AcDbArc
 50
0.0
 51
89.99963750135421
  0
ARC
  5
2D9
330
1F
100
AcDbEntity
  8
LAYER0016
  6
CONTINUOUS
 62
     3
100
AcDbCircle
 10
306.430168
 20
404.5660064666463
 30
0.0
 40
1.0
100
AcDbArc
 50
89.99963750135421
 51
179.9998479605054
  0
ARC
  5
2DA
330
1F
100
AcDbEntity
  8
LAYER0016
  6
CONTINUOUS
 62
     3
100
AcDbCircle
 10
332.4301839999998
 20
404.5660064666463
 30
0.0
 40
1.0
100
AcDbArc
 50
89.99963750135421
 51
179.9998479605054
  0
ARC
  5
2DB
330
1F
100
AcDbEntity
  8
LAYER0016
  6
CONTINUOUS
 62
     3
100
AcDbCircle
 10
201.430168
 20
379.5660064666464
 30
0.0
 40
2.0
100
AcDbArc
 50
179.9998479605046
 51
269.9994854618587
  0
ARC
  5
2DC
330
1F
100
AcDbEntity
  8
LAYER0016
  6
CONTINUOUS
 62
     3
100
AcDbCircle
 10
181.430168
 20
379.5660064666464
 30
0.0
 40
2.0
100
AcDbArc
 50
269.9994854618587
 51
0.0
  0
ARC
  5
2DD
330
1F
100
AcDbEntity
  8
LAYER0016
  6
CONTINUOUS
 62
     3
100
AcDbCircle
 10
108.430168
 20
379.3219504666464
 30
0.0
 40
2.0
100
AcDbArc
 50
179.9998479605046
 51
232.124683372531
  0
ARC
  5
2DE
330
1F
100
AcDbEntity
  8
LAYER0016
  6
CONTINUOUS
 62
     3
100
AcDbCircle
 10
313.430168
 20
414.1660144666463
 30
0.0
 40
14.0
100
AcDbArc
 50
253.926873392849
 51
286.0726704886637
  0
ARC
  5
2DF
330
1F
100
AcDbEntity
  8
LAYER0016
  6
CONTINUOUS
 62
     3
100
AcDbCircle
 10
310.08016
 20
402.5389824666464
 30
0.0
 40
1.899992
100
AcDbArc
 50
179.9998479605037
 51
253.9268733928485
  0
ARC
  5
2E0
330
1F
100
AcDbEntity
  8
LAYER0016
  6
CONTINUOUS
 62
     3
100
AcDbCircle
 10
316.780176
 20
402.5389824666464
 30
0.0
 40
1.9
100
AcDbArc
 50
286.0726704886634
 51
0.0
  0
ARC
  5
2E1
330
1F
100
AcDbEntity
  8
LAYER0016
  6
CONTINUOUS
 62
     3
100
AcDbCircle
 10
191.430168
 20
414.1660144666463
 30
0.0
 40
14.0
100
AcDbArc
 50
253.9268733928489
 51
286.0726704886637
  0
ARC
  5
2E2
330
1F
100
AcDbEntity
  8
LAYER0016
  6
CONTINUOUS
 62
     3
100
AcDbCircle
 10
188.080168
 20
402.5389824666464
 30
0.0
 40
1.9
100
AcDbArc
 50
179.9998479605045
 51
253.9268733928489
  0
ARC
  5
2E3
330
1F
100
AcDbEntity
  8
LAYER0016
  6
CONTINUOUS
 62
     3
100
AcDbCircle
 10
194.780168
 20
402.5389824666464
 30
0.0
 40
1.9
100
AcDbArc
 50
286.0726704886634
 51
0.0
  0
ARC
  5
2E4
330
1F
100
AcDbEntity
  8
LAYER0016
  6
CONTINUOUS
 62
     3
100
AcDbCircle
 10
98.43016799999998
 20
414.1660144666463
 30
0.0
 40
14.0
100
AcDbArc
 50
253.9268733928489
 51
286.0726704886637
  0
ARC
  5
2E5
330
1F
100
AcDbEntity
  8
LAYER0016
  6
CONTINUOUS
 62
     3
100
AcDbCircle
 10
95.08015999999998
 20
402.5389824666464
 30
0.0
 40
1.9
100
AcDbArc
 50
179.9998479605045
 51
253.9268733928489
  0
ARC
  5
2E6
330
1F
100
AcDbEntity
  8
LAYER0016
  6
CONTINUOUS
 62
     3
100
AcDbCircle
 10
101.780176
 20
402.5389824666464
 30
0.0
 40
1.9
100
AcDbArc
 50
286.0726704886634
 51
0.0
  0
ARC
  5
2E7
330
1F
100
AcDbEntity
  8
LAYER0016
  6
CONTINUOUS
 62
     3
100
AcDbCircle
 10
183.6622599999999
 20
374.5660064666464
 30
0.0
 40
3.0
100
AcDbArc
 50
89.99963750135475
 51
163.3004200636211
  0
ARC
  5
2E8
330
1F
100
AcDbEntity
  8
LAYER0016
  6
CONTINUOUS
 62
     3
100
AcDbCircle
 10
125.1980799999999
 20
374.5660064666464
 30
0.0
 40
3.0
100
AcDbArc
 50
16.69885493908762
 51
89.99963750135475
  0
ARC
  5
2E9
330
1F
100
AcDbEntity
  8
LAYER0016
  6
CONTINUOUS
 62
     3
100
AcDbCircle
 10
337.430168
 20
407.3069744666464
 30
0.0
 40
3.0
100
AcDbArc
 50
299.7445893960754
 51
0.0
  0
ARC
  5
2EA
330
1F
100
AcDbEntity
  8
LAYER0016
  6
CONTINUOUS
 62
     3
100
AcDbCircle
 10
74.43016799999998
 20
399.3312184666464
 30
0.0
 40
3.0
100
AcDbArc
 50
179.9998479605043
 51
240.9453686285698
  0
ARC
  5
2EB
330
1F
100
AcDbEntity
  8
LAYER0016
  6
CONTINUOUS
 62
     3
100
AcDbCircle
 10
290.633476
 20
380.5660064666464
 30
0.0
 40
3.0
100
AcDbArc
 50
269.9994854618584
 51
299.7445893960754
  0
CIRCLE
  5
2EC
330
1F
100
AcDbEntity
  8
LAYER0016
  6
CONTINUOUS
 62
     3
100
AcDbCircle
 10
154.4301679999999
 20
129.5661304666463
 30
0.0
 40
27.0
  0
ARC
  5
2ED
330
1F
100
AcDbEntity
  8
LAYER0016
  6
CONTINUOUS
 62
     3
100
AcDbCircle
 10
77.43016799999998
 20
165.0808384666463
 30
0.0
 40
6.0
100
AcDbArc
 50
134.9997427309293
 51
179.9998479605044
  0
ARC
  5
2EE
330
1F
100
AcDbEntity
  8
LAYER0016
  6
CONTINUOUS
 62
     3
100
AcDbCircle
 10
102.915444
 20
190.5661304666463
 30
0.0
 40
6.0
100
AcDbArc
 50
89.99963750135448
 51
134.9997427309292
  0
ARC
  5
2EF
330
1F
100
AcDbEntity
  8
LAYER0016
  6
CONTINUOUS
 62
     3
100
AcDbCircle
 10
308.944892
 20
190.5661304666463
 30
0.0
 40
5.999995999999999
100
AcDbArc
 50
44.99953227177963
 51
89.99963750135464
  0
ARC
  5
2F0
330
1F
100
AcDbEntity
  8
LAYER0016
  6
CONTINUOUS
 62
     3
100
AcDbCircle
 10
334.430168
 20
165.0808384666463
 30
0.0
 40
6.0
100
AcDbArc
 50
0.0
 51
44.99953227177978
  0
ARC
  5
2F1
330
1F
100
AcDbEntity
  8
LAYER0016
  6
CONTINUOUS
 62
     3
100
AcDbCircle
 10
191.430168
 20
189.5661304666463
 30
0.0
 40
8.0
100
AcDbArc
 50
179.9998479605043
 51
359.9999999999998
  0
ARC
  5
2F2
330
1F
100
AcDbEntity
  8
LAYER0016
  6
CONTINUOUS
 62
     3
100
AcDbCircle
 10
313.430168
 20
184.5661304666463
 30
0.0
 40
8.0
100
AcDbArc
 50
179.9998479605043
 51
269.9994854618587
  0
ARC
  5
2F3
330
1F
100
AcDbEntity
  8
LAYER0016
  6
CONTINUOUS
 62
     3
100
AcDbCircle
 10
98.43016799999998
 20
184.5661304666463
 30
0.0
 40
8.0
100
AcDbArc
 50
269.999485461859
 51
359.9999999999998
  0
ARC
  5
2F4
330
1F
100
AcDbEntity
  8
LAYER0016
  6
CONTINUOUS
 62
     3
100
AcDbCircle
 10
108.430168
 20
194.5661304666463
 30
0.0
 40
2.0
100
AcDbArc
 50
89.99963750135421
 51
179.9998479605041
  0
ARC
  5
2F5
330
1F
100
AcDbEntity
  8
LAYER0016
  6
CONTINUOUS
 62
     3
100
AcDbCircle
 10
181.430168
 20
194.5661304666463
 30
0.0
 40
2.0
100
AcDbArc
 50
0.0
 51
89.99963750135421
  0
ARC
  5
2F6
330
1F
100
AcDbEntity
  8
LAYER0016
  6
CONTINUOUS
 62
     3
100
AcDbCircle
 10
201.430168
 20
194.5661304666463
 30
0.0
 40
2.0
100
AcDbArc
 50
89.99963750135421
 51
179.9998479605041
  0
ARC
  5
2F7
330
1F
100
AcDbEntity
  8
LAYER0016
  6
CONTINUOUS
 62
     3
100
AcDbCircle
 10
303.430168
 20
194.5661304666463
 30
0.0
 40
2.0
100
AcDbArc
 50
0.0
 51
89.99963750135421
  0
CIRCLE
  5
2F8
330
1F
100
AcDbEntity
  8
LAYER0016
  6
CONTINUOUS
 62
     3
100
AcDbCircle
 10
98.43016799999998
 20
184.5661304666463
 30
0.0
 40
5.25
  0
CIRCLE
  5
2F9
330
1F
100
AcDbEntity
  8
LAYER0016
  6
CONTINUOUS
 62
     3
100
AcDbCircle
 10
191.430168
 20
189.5661304666463
 30
0.0
 40
5.25
  0
CIRCLE
  5
2FA
330
1F
100
AcDbEntity
  8
LAYER0016
  6
CONTINUOUS
 62
     3
100
AcDbCircle
 10
313.430168
 20
184.5661304666463
 30
0.0
 40
5.25
  0
ARC
  5
2FB
330
1F
100
AcDbEntity
  8
LAYER0016
  6
CONTINUOUS
 62
     3
100
AcDbCircle
 10
77.43016799999998
 20
94.05142246664637
 30
0.0
 40
6.0
100
AcDbArc
 50
179.9998479605044
 51
224.9999531900789
  0
ARC
  5
2FC
330
1F
100
AcDbEntity
  8
LAYER0016
  6
CONTINUOUS
 62
     3
100
AcDbCircle
 10
102.915444
 20
68.56613046664631
 30
0.0
 40
6.000004
100
AcDbArc
 50
224.9999531900791
 51
269.999485461859
  0
ARC
  5
2FD
330
1F
100
AcDbEntity
  8
LAYER0016
  6
CONTINUOUS
 62
     3
100
AcDbCircle
 10
308.944892
 20
68.56613046664631
 30
0.0
 40
6.0
100
AcDbArc
 50
269.999485461859
 51
314.9995906914337
  0
ARC
  5
2FE
330
1F
100
AcDbEntity
  8
LAYER0016
  6
CONTINUOUS
 62
     3
100
AcDbCircle
 10
334.430168
 20
94.05142246664637
 30
0.0
 40
6.000007999999999
100
AcDbArc
 50
314.9995906914335
 51
359.9999999999998
  0
ARC
  5
2FF
330
1F
100
AcDbEntity
  8
LAYER0016
  6
CONTINUOUS
 62
     3
100
AcDbCircle
 10
191.430168
 20
69.56613046664631
 30
0.0
 40
8.0
100
AcDbArc
 50
0.0
 51
179.9998479605043
  0
ARC
  5
300
330
1F
100
AcDbEntity
  8
LAYER0016
  6
CONTINUOUS
 62
     3
100
AcDbCircle
 10
313.430168
 20
74.56613046664631
 30
0.0
 40
8.0
100
AcDbArc
 50
89.99963750135461
 51
179.9998479605043
  0
ARC
  5
301
330
1F
100
AcDbEntity
  8
LAYER0016
  6
CONTINUOUS
 62
     3
100
AcDbCircle
 10
98.43016799999998
 20
74.56613046664631
 30
0.0
 40
8.0
100
AcDbArc
 50
0.0
 51
89.99963750135461
  0
ARC
  5
302
330
1F
100
AcDbEntity
  8
LAYER0016
  6
CONTINUOUS
 62
     3
100
AcDbCircle
 10
108.430168
 20
64.56613046664631
 30
0.0
 40
2.0
100
AcDbArc
 50
179.9998479605044
 51
269.9994854618587
  0
ARC
  5
303
330
1F
100
AcDbEntity
  8
LAYER0016
  6
CONTINUOUS
 62
     3
100
AcDbCircle
 10
181.430168
 20
64.56613046664631
 30
0.0
 40
2.0
100
AcDbArc
 50
269.9994854618587
 51
359.9999999999998
  0
ARC
  5
304
330
1F
100
AcDbEntity
  8
LAYER0016
  6
CONTINUOUS
 62
     3
100
AcDbCircle
 10
201.430168
 20
64.56613046664631
 30
0.0
 40
2.0
100
AcDbArc
 50
179.9998479605044
 51
269.9994854618587
  0
ARC
  5
305
330
1F
100
AcDbEntity
  8
LAYER0016
  6
CONTINUOUS
 62
     3
100
AcDbCircle
 10
303.430168
 20
64.56613046664631
 30
0.0
 40
2.0
100
AcDbArc
 50
269.9994854618596
 51
359.9999999999998
  0
CIRCLE
  5
306
330
1F
100
AcDbEntity
  8
LAYER0016
  6
CONTINUOUS
 62
     3
100
AcDbCircle
 10
98.43016799999998
 20
74.56613046664631
 30
0.0
 40
5.25
  0
CIRCLE
  5
307
330
1F
100
AcDbEntity
  8
LAYER0016
  6
CONTINUOUS
 62
     3
100
AcDbCircle
 10
191.430168
 20
69.56613046664631
 30
0.0
 40
5.25
  0
CIRCLE
  5
308
330
1F
100
AcDbEntity
  8
LAYER0016
  6
CONTINUOUS
 62
     3
100
AcDbCircle
 10
313.430168
 20
74.56613046664631
 30
0.0
 40
5.25
  0
CIRCLE
  5
309
330
1F
100
AcDbEntity
  8
LAYER0016
  6
CONTINUOUS
 62
     3
100
AcDbCircle
 10
154.4301679999999
 20
129.5661304666463
 30
0.0
 40
22.5
  0
CIRCLE
  5
30A
330
1F
100
AcDbEntity
  8
LAYER0016
  6
CONTINUOUS
 62
     3
100
AcDbCircle
 10
154.4301679999999
 20
129.5661304666463
 30
0.0
 40
17.5
  0
CIRCLE
  5
30B
330
1F
100
AcDbEntity
  8
LAYER0016
  6
CONTINUOUS
 62
     3
100
AcDbCircle
 10
154.4301679999999
 20
129.5661304666463
 30
0.0
 40
10.0
  0
ARC
  5
30C
330
1F
100
AcDbEntity
  8
LAYER0016
  6
CONTINUOUS
 62
     3
100
AcDbCircle
 10
-135.5115382234684
 20
100.3340424666463
 30
0.0
 40
3.0
100
AcDbArc
 50
106.6990653982376
 51
179.9998479605044
  0
ARC
  5
30D
330
1F
100
AcDbEntity
  8
LAYER0016
  6
CONTINUOUS
 62
     3
100
AcDbCircle
 10
-135.5115382234684
 20
158.7982184666463
 30
0.0
 40
3.0
100
AcDbArc
 50
179.9998479605044
 51
253.3006305227711
  0
ARC
  5
30E
330
1F
100
AcDbEntity
  8
LAYER0016
  6
CONTINUOUS
 62
     3
100
AcDbCircle
 10
-141.5115382234684
 20
191.3674624666463
 30
0.0
 40
3.0
100
AcDbArc
 50
0.0
 51
84.99943482324781
  0
ARC
  5
30F
330
1F
100
AcDbEntity
  8
LAYER0016
  6
CONTINUOUS
 62
     3
100
AcDbCircle
 10
-141.5115382234684
 20
67.76479846664625
 30
0.0
 40
3.000004
100
AcDbArc
 50
274.9996881399655
 51
359.9999999999998
  0
ARC
  5
310
330
1F
100
AcDbEntity
  8
LAYER0016
  6
CONTINUOUS
 62
     3
100
AcDbCircle
 10
-165.5115382234684
 20
177.5661304666463
 30
0.0
 40
1.0
100
AcDbArc
 50
179.9998479605041
 51
269.9994854618596
  0
ARC
  5
311
330
1F
100
AcDbEntity
  8
LAYER0016
  6
CONTINUOUS
 62
     3
100
AcDbCircle
 10
-165.5115382234684
 20
81.56613046664624
 30
0.0
 40
1.0
100
AcDbArc
 50
89.99963750135421
 51
179.9998479605041
  0
ARC
  5
312
330
1F
100
AcDbEntity
  8
LAYER0016
  6
CONTINUOUS
 62
     3
100
AcDbCircle
 10
-140.5115382234684
 20
84.56613046664624
 30
0.0
 40
2.0
100
AcDbArc
 50
269.9994854618587
 51
359.9999999999998
  0
ARC
  5
313
330
1F
100
AcDbEntity
  8
LAYER0016
  6
CONTINUOUS
 62
     3
100
AcDbCircle
 10
-140.5115382234684
 20
174.5661304666463
 30
0.0
 40
2.0
100
AcDbArc
 50
0.0
 51
89.99963750135461
  0
ARC
  5
314
330
1F
100
AcDbEntity
  8
LAYER0016
  6
CONTINUOUS
 62
     3
100
AcDbCircle
 10
-175.1115462234684
 20
184.5661304666463
 30
0.0
 40
14.000012
100
AcDbArc
 50
343.9270838519986
 51
16.07261206900986
  0
ARC
  5
315
330
1F
100
AcDbEntity
  8
LAYER0016
  6
CONTINUOUS
 62
     3
100
AcDbCircle
 10
-163.4845302234685
 20
187.9161384666463
 30
0.0
 40
1.900012
100
AcDbArc
 50
16.07261206900968
 51
89.99963750135477
  0
ARC
  5
316
330
1F
100
AcDbEntity
  8
LAYER0016
  6
CONTINUOUS
 62
     3
100
AcDbCircle
 10
-163.4845302234685
 20
181.2161224666463
 30
0.0
 40
1.899992
100
AcDbArc
 50
269.9994854618593
 51
343.9270838519986
  0
ARC
  5
317
330
1F
100
AcDbEntity
  8
LAYER0016
  6
CONTINUOUS
 62
     3
100
AcDbCircle
 10
-175.1115462234684
 20
74.56613046664626
 30
0.0
 40
14.000012
100
AcDbArc
 50
343.9270838519986
 51
16.07261206900986
  0
ARC
  5
318
330
1F
100
AcDbEntity
  8
LAYER0016
  6
CONTINUOUS
 62
     3
100
AcDbCircle
 10
-163.4845302234685
 20
77.91613846664626
 30
0.0
 40
1.900012
100
AcDbArc
 50
16.07261206900968
 51
89.99963750135477
  0
ARC
  5
319
330
1F
100
AcDbEntity
  8
LAYER0016
  6
CONTINUOUS
 62
     3
100
AcDbCircle
 10
-163.4845302234685
 20
71.21612246664625
 30
0.0
 40
1.899992
100
AcDbArc
 50
269.9994854618593
 51
343.9270838519986
  0
ARC
  5
31A
330
1F
100
AcDbEntity
  8
LAYER0016
  6
CONTINUOUS
 62
     3
100
AcDbCircle
 10
127.430168
 20
220.5661304666463
 30
0.0
 40
1.0
100
AcDbArc
 50
269.9994854618596
 51
0.0
  0
ARC
  5
31B
330
1F
100
AcDbEntity
  8
LAYER0016
  6
CONTINUOUS
 62
     3
100
AcDbCircle
 10
225.430168
 20
220.5661304666463
 30
0.0
 40
1.0
100
AcDbArc
 50
179.9998479605046
 51
269.9994854618596
  0
ARC
  5
31C
330
1F
100
AcDbEntity
  8
LAYER0016
  6
CONTINUOUS
 62
     3
100
AcDbCircle
 10
231.795836
 20
231.0661304666463
 30
0.0
 40
1.500004
100
AcDbArc
 50
14.99946211872946
 51
89.99963750135358
  0
ARC
  5
31D
330
1F
100
AcDbEntity
  8
LAYER0016
  6
CONTINUOUS
 62
     3
100
AcDbCircle
 10
121.0644999999999
 20
231.0661304666463
 30
0.0
 40
1.5
100
AcDbArc
 50
89.99963750135421
 51
164.9998128839792
  0
ARC
  5
31E
330
1F
100
AcDbEntity
  8
LAYER0016
  6
CONTINUOUS
 62
     3
100
AcDbCircle
 10
207.430168
 20
233.5661304666463
 30
0.0
 40
1.0
100
AcDbArc
 50
179.9998479605046
 51
269.9994854618596
  0
ARC
  5
31F
330
1F
100
AcDbEntity
  8
LAYER0016
  6
CONTINUOUS
 62
     3
100
AcDbCircle
 10
145.4301679999999
 20
233.5661304666463
 30
0.0
 40
1.0
100
AcDbArc
 50
269.9994854618596
 51
0.0
  0
ARC
  5
320
330
1F
100
AcDbEntity
  8
LAYER0016
  6
CONTINUOUS
 62
     3
100
AcDbCircle
 10
231.430168
 20
212.1661384666463
 30
0.0
 40
12.000004
100
AcDbArc
 50
73.80842316875268
 51
106.1908518339566
  0
ARC
  5
321
330
1F
100
AcDbEntity
  8
LAYER0016
  6
CONTINUOUS
 62
     3
100
AcDbCircle
 10
228.530168
 20
222.1536224666463
 30
0.0
 40
1.600008
100
AcDbArc
 50
106.1908518339562
 51
179.9998479605043
  0
ARC
  5
322
330
1F
100
AcDbEntity
  8
LAYER0016
  6
CONTINUOUS
 62
     3
100
AcDbCircle
 10
234.330168
 20
222.1536224666463
 30
0.0
 40
1.6
100
AcDbArc
 50
0.0
 51
73.80842316875359
  0
ARC
  5
323
330
1F
100
AcDbEntity
  8
LAYER0016
  6
CONTINUOUS
 62
     3
100
AcDbCircle
 10
121.430168
 20
212.1661384666463
 30
0.0
 40
12.000004
100
AcDbArc
 50
73.80842316875268
 51
106.1908518339564
  0
ARC
  5
324
330
1F
100
AcDbEntity
  8
LAYER0016
  6
CONTINUOUS
 62
     3
100
AcDbCircle
 10
118.5301679999999
 20
222.1536224666463
 30
0.0
 40
1.600008
100
AcDbArc
 50
106.1908518339562
 51
179.9998479605043
  0
ARC
  5
325
330
1F
100
AcDbEntity
  8
LAYER0016
  6
CONTINUOUS
 62
     3
100
AcDbCircle
 10
124.330168
 20
222.1536224666463
 30
0.0
 40
1.6
100
AcDbArc
 50
0.0
 51
73.80842316875261
  0
ARC
  5
326
330
1F
100
AcDbEntity
  8
LAYER0016
  6
CONTINUOUS
 62
     3
100
AcDbCircle
 10
-218.5115382234684
 20
220.5661304666463
 30
0.0
 40
1.0
100
AcDbArc
 50
179.9998479605046
 51
269.9994854618596
  0
ARC
  5
327
330
1F
100
AcDbEntity
  8
LAYER0016
  6
CONTINUOUS
 62
     3
100
AcDbCircle
 10
-292.5115382234683
 20
220.5661304666463
 30
0.0
 40
1.0
100
AcDbArc
 50
269.9994854618596
 51
0.0
  0
ARC
  5
328
330
1F
100
AcDbEntity
  8
LAYER0016
  6
CONTINUOUS
 62
     3
100
AcDbCircle
 10
-212.1458782234684
 20
231.0661304666463
 30
0.0
 40
1.499996
100
AcDbArc
 50
15.00003507652499
 51
89.99963750135485
  0
ARC
  5
329
330
1F
100
AcDbEntity
  8
LAYER0016
  6
CONTINUOUS
 62
     3
100
AcDbCircle
 10
-298.8771982234684
 20
231.0661304666463
 30
0.0
 40
1.5
100
AcDbArc
 50
89.9996375013553
 51
164.9998128839795
  0
ARC
  5
32A
330
1F
100
AcDbEntity
  8
LAYER0016
  6
CONTINUOUS
 62
     3
100
AcDbCircle
 10
-286.5115382234683
 20
233.5661304666463
 30
0.0
 40
1.0
100
AcDbArc
 50
269.9994854618596
 51
0.0
  0
ARC
  5
32B
330
1F
100
AcDbEntity
  8
LAYER0016
  6
CONTINUOUS
 62
     3
100
AcDbCircle
 10
-224.5115382234684
 20
233.5661304666463
 30
0.0
 40
1.0
100
AcDbArc
 50
179.9998479605046
 51
269.9994854618596
  0
ARC
  5
32C
330
1F
100
AcDbEntity
  8
LAYER0016
  6
CONTINUOUS
 62
     3
100
AcDbCircle
 10
-212.5115382234684
 20
212.1661384666463
 30
0.0
 40
12.000004
100
AcDbArc
 50
73.80842316875268
 51
106.1908518339564
  0
ARC
  5
32D
330
1F
100
AcDbEntity
  8
LAYER0016
  6
CONTINUOUS
 62
     3
100
AcDbCircle
 10
-215.4115302234684
 20
222.1536224666463
 30
0.0
 40
1.600012
100
AcDbArc
 50
106.1914247917518
 51
179.9998479605042
  0
ARC
  5
32E
330
1F
100
AcDbEntity
  8
LAYER0016
  6
CONTINUOUS
 62
     3
100
AcDbCircle
 10
-209.6115462234684
 20
222.1536224666463
 30
0.0
 40
1.600008
100
AcDbArc
 50
0.0
 51
73.80785021095781
  0
ARC
  5
32F
330
1F
100
AcDbEntity
  8
LAYER0016
  6
CONTINUOUS
 62
     3
100
AcDbCircle
 10
-298.5115382234683
 20
212.1661384666463
 30
0.0
 40
12.000004
100
AcDbArc
 50
73.80842316875268
 51
106.1908518339566
  0
ARC
  5
330
330
1F
100
AcDbEntity
  8
LAYER0016
  6
CONTINUOUS
 62
     3
100
AcDbCircle
 10
-301.4115622234683
 20
222.1536224666463
 30
0.0
 40
1.600012
100
AcDbArc
 50
106.1914247917518
 51
179.9998479605042
  0
ARC
  5
331
330
1F
100
AcDbEntity
  8
LAYER0016
  6
CONTINUOUS
 62
     3
100
AcDbCircle
 10
-295.6115462234683
 20
222.1536224666463
 30
0.0
 40
1.600008
100
AcDbArc
 50
0.0
 51
73.80785021095684
  0
ARC
  5
332
330
1F
100
AcDbEntity
  8
LAYER0016
  6
CONTINUOUS
 62
     3
100
AcDbCircle
 10
73.43016799999998
 20
562.5660064666465
 30
0.0
 40
1.0
100
AcDbArc
 50
0.0
 51
89.99963750135421
  0
ARC
  5
333
330
1F
100
AcDbEntity
  8
LAYER0016
  6
CONTINUOUS
 62
     3
100
AcDbCircle
 10
39.43016799999995
 20
562.5660064666465
 30
0.0
 40
1.0
100
AcDbArc
 50
89.99963750135421
 51
179.9998479605054
  0
ARC
  5
334
330
1F
100
AcDbEntity
  8
LAYER0016
  6
CONTINUOUS
 62
     3
100
AcDbCircle
 10
36.43016799999995
 20
562.5660064666465
 30
0.0
 40
2.0
100
AcDbArc
 50
269.9994854618587
 51
0.0
  0
ARC
  5
335
330
1F
100
AcDbEntity
  8
LAYER0016
  6
CONTINUOUS
 62
     3
100
AcDbCircle
 10
76.43016799999998
 20
562.5660064666465
 30
0.0
 40
2.0
100
AcDbArc
 50
179.9998479605037
 51
269.9994854618587
  0
ARC
  5
336
330
1F
100
AcDbEntity
  8
LAYER0016
  6
CONTINUOUS
 62
     3
100
AcDbCircle
 10
97.43009999999987
 20
412.5660064666463
 30
0.0
 40
3.0
100
AcDbArc
 50
0.0
 51
89.99963750135475
  0
ARC
  5
337
330
1F
100
AcDbEntity
  8
LAYER0016
  6
CONTINUOUS
 62
     3
100
AcDbCircle
 10
338.430168
 20
427.5660064666463
 30
0.0
 40
2.0
100
AcDbArc
 50
0.0
 51
89.99963750135421
  0
ARC
  5
338
330
1F
100
AcDbEntity
  8
LAYER0016
  6
CONTINUOUS
 62
     3
100
AcDbCircle
 10
338.4301839999998
 20
546.0660064666465
 30
0.0
 40
2.0
100
AcDbArc
 50
89.99963750135421
 51
179.9998479605037
  0
ARC
  5
339
330
1F
100
AcDbEntity
  8
LAYER0016
  6
CONTINUOUS
 62
     3
100
AcDbCircle
 10
339.4301839999998
 20
549.0660064666465
 30
0.0
 40
1.0
100
AcDbArc
 50
269.9994854618596
 51
0.0
  0
ARC
  5
33A
330
1F
100
AcDbEntity
  8
LAYER0016
  6
CONTINUOUS
 62
     3
100
AcDbCircle
 10
339.4301839999998
 20
550.0660064666465
 30
0.0
 40
1.0
100
AcDbArc
 50
0.0
 51
89.99963750135421
  0
ARC
  5
33B
330
1F
100
AcDbEntity
  8
LAYER0016
  6
CONTINUOUS
 62
     3
100
AcDbCircle
 10
338.4301839999998
 20
553.0660064666465
 30
0.0
 40
2.0
100
AcDbArc
 50
179.9998479605037
 51
269.9994854618596
  0
ARC
  5
33C
330
1F
100
AcDbEntity
  8
LAYER0016
  6
CONTINUOUS
 62
     3
100
AcDbCircle
 10
338.430168
 20
436.0660024666464
 30
0.0
 40
2.0
100
AcDbArc
 50
89.99963750135421
 51
179.9998479605037
  0
ARC
  5
33D
330
1F
100
AcDbEntity
  8
LAYER0016
  6
CONTINUOUS
 62
     3
100
AcDbCircle
 10
339.430168
 20
439.0660024666464
 30
0.0
 40
1.0
100
AcDbArc
 50
269.9994854618596
 51
0.0
  0
ARC
  5
33E
330
1F
100
AcDbEntity
  8
LAYER0016
  6
CONTINUOUS
 62
     3
100
AcDbCircle
 10
339.430168
 20
440.0660024666464
 30
0.0
 40
1.0
100
AcDbArc
 50
0.0
 51
89.99963750135421
  0
ARC
  5
33F
330
1F
100
AcDbEntity
  8
LAYER0016
  6
CONTINUOUS
 62
     3
100
AcDbCircle
 10
338.430168
 20
443.0660024666464
 30
0.0
 40
2.0
100
AcDbArc
 50
179.9998479605037
 51
269.9994854618596
  0
ARC
  5
340
330
1F
100
AcDbEntity
  8
LAYER0016
  6
CONTINUOUS
 62
     3
100
AcDbCircle
 10
338.430168
 20
446.0660024666464
 30
0.0
 40
2.0
100
AcDbArc
 50
89.99963750135421
 51
179.9998479605037
  0
ARC
  5
341
330
1F
100
AcDbEntity
  8
LAYER0016
  6
CONTINUOUS
 62
     3
100
AcDbCircle
 10
339.430168
 20
449.0660024666464
 30
0.0
 40
1.0
100
AcDbArc
 50
269.9994854618596
 51
0.0
  0
ARC
  5
342
330
1F
100
AcDbEntity
  8
LAYER0016
  6
CONTINUOUS
 62
     3
100
AcDbCircle
 10
339.430168
 20
450.0660024666464
 30
0.0
 40
1.0
100
AcDbArc
 50
0.0
 51
89.99963750135421
  0
ARC
  5
343
330
1F
100
AcDbEntity
  8
LAYER0016
  6
CONTINUOUS
 62
     3
100
AcDbCircle
 10
338.430168
 20
453.0660024666464
 30
0.0
 40
2.0
100
AcDbArc
 50
179.9998479605037
 51
269.9994854618596
  0
ARC
  5
344
330
1F
100
AcDbEntity
  8
LAYER0016
  6
CONTINUOUS
 62
     3
100
AcDbCircle
 10
338.430168
 20
456.0660024666464
 30
0.0
 40
2.0
100
AcDbArc
 50
89.99963750135421
 51
179.9998479605037
  0
ARC
  5
345
330
1F
100
AcDbEntity
  8
LAYER0016
  6
CONTINUOUS
 62
     3
100
AcDbCircle
 10
339.430168
 20
459.0660024666464
 30
0.0
 40
1.0
100
AcDbArc
 50
269.9994854618596
 51
0.0
  0
ARC
  5
346
330
1F
100
AcDbEntity
  8
LAYER0016
  6
CONTINUOUS
 62
     3
100
AcDbCircle
 10
339.430168
 20
460.0660024666464
 30
0.0
 40
1.0
100
AcDbArc
 50
0.0
 51
89.99963750135421
  0
ARC
  5
347
330
1F
100
AcDbEntity
  8
LAYER0016
  6
CONTINUOUS
 62
     3
100
AcDbCircle
 10
338.430168
 20
463.0660024666465
 30
0.0
 40
2.0
100
AcDbArc
 50
179.9998479605037
 51
269.9994854618596
  0
ARC
  5
348
330
1F
100
AcDbEntity
  8
LAYER0016
  6
CONTINUOUS
 62
     3
100
AcDbCircle
 10
338.430168
 20
466.0660024666465
 30
0.0
 40
2.0
100
AcDbArc
 50
89.99963750135421
 51
179.9998479605037
  0
ARC
  5
349
330
1F
100
AcDbEntity
  8
LAYER0016
  6
CONTINUOUS
 62
     3
100
AcDbCircle
 10
339.430168
 20
469.0660064666465
 30
0.0
 40
1.0
100
AcDbArc
 50
269.9994854618596
 51
0.0
  0
ARC
  5
34A
330
1F
100
AcDbEntity
  8
LAYER0016
  6
CONTINUOUS
 62
     3
100
AcDbCircle
 10
339.430168
 20
470.0660064666465
 30
0.0
 40
1.0
100
AcDbArc
 50
0.0
 51
89.99963750135421
  0
ARC
  5
34B
330
1F
100
AcDbEntity
  8
LAYER0016
  6
CONTINUOUS
 62
     3
100
AcDbCircle
 10
338.430168
 20
473.0660064666465
 30
0.0
 40
2.0
100
AcDbArc
 50
179.9998479605037
 51
269.9994854618596
  0
ARC
  5
34C
330
1F
100
AcDbEntity
  8
LAYER0016
  6
CONTINUOUS
 62
     3
100
AcDbCircle
 10
338.430168
 20
476.0660064666465
 30
0.0
 40
2.0
100
AcDbArc
 50
89.99963750135421
 51
179.9998479605037
  0
ARC
  5
34D
330
1F
100
AcDbEntity
  8
LAYER0016
  6
CONTINUOUS
 62
     3
100
AcDbCircle
 10
339.430168
 20
479.0659984666465
 30
0.0
 40
1.0
100
AcDbArc
 50
269.9994854618596
 51
0.0
  0
ARC
  5
34E
330
1F
100
AcDbEntity
  8
LAYER0016
  6
CONTINUOUS
 62
     3
100
AcDbCircle
 10
339.430168
 20
480.0659984666465
 30
0.0
 40
1.0
100
AcDbArc
 50
0.0
 51
89.99963750135421
  0
ARC
  5
34F
330
1F
100
AcDbEntity
  8
LAYER0016
  6
CONTINUOUS
 62
     3
100
AcDbCircle
 10
338.430168
 20
483.0659984666465
 30
0.0
 40
2.0
100
AcDbArc
 50
179.9998479605037
 51
269.9994854618596
  0
ARC
  5
350
330
1F
100
AcDbEntity
  8
LAYER0016
  6
CONTINUOUS
 62
     3
100
AcDbCircle
 10
338.430168
 20
486.0659984666465
 30
0.0
 40
2.0
100
AcDbArc
 50
89.99963750135421
 51
179.9998479605037
  0
ARC
  5
351
330
1F
100
AcDbEntity
  8
LAYER0016
  6
CONTINUOUS
 62
     3
100
AcDbCircle
 10
339.430168
 20
489.0659984666465
 30
0.0
 40
1.0
100
AcDbArc
 50
269.9994854618596
 51
0.0
  0
ARC
  5
352
330
1F
100
AcDbEntity
  8
LAYER0016
  6
CONTINUOUS
 62
     3
100
AcDbCircle
 10
339.430168
 20
490.0659984666465
 30
0.0
 40
1.0
100
AcDbArc
 50
0.0
 51
89.99963750135421
  0
ARC
  5
353
330
1F
100
AcDbEntity
  8
LAYER0016
  6
CONTINUOUS
 62
     3
100
AcDbCircle
 10
338.430168
 20
493.0659984666465
 30
0.0
 40
2.0
100
AcDbArc
 50
179.9998479605037
 51
269.9994854618596
  0
ARC
  5
354
330
1F
100
AcDbEntity
  8
LAYER0016
  6
CONTINUOUS
 62
     3
100
AcDbCircle
 10
338.430168
 20
496.0659984666465
 30
0.0
 40
2.0
100
AcDbArc
 50
89.99963750135421
 51
179.9998479605037
  0
ARC
  5
355
330
1F
100
AcDbEntity
  8
LAYER0016
  6
CONTINUOUS
 62
     3
100
AcDbCircle
 10
339.430168
 20
499.0659984666465
 30
0.0
 40
1.0
100
AcDbArc
 50
269.9994854618596
 51
0.0
  0
ARC
  5
356
330
1F
100
AcDbEntity
  8
LAYER0016
  6
CONTINUOUS
 62
     3
100
AcDbCircle
 10
339.430168
 20
500.0659984666465
 30
0.0
 40
1.0
100
AcDbArc
 50
0.0
 51
89.99963750135421
  0
ARC
  5
357
330
1F
100
AcDbEntity
  8
LAYER0016
  6
CONTINUOUS
 62
     3
100
AcDbCircle
 10
338.430168
 20
503.0659984666465
 30
0.0
 40
2.0
100
AcDbArc
 50
179.9998479605037
 51
269.9994854618596
  0
ARC
  5
358
330
1F
100
AcDbEntity
  8
LAYER0016
  6
CONTINUOUS
 62
     3
100
AcDbCircle
 10
338.430168
 20
506.0659984666465
 30
0.0
 40
2.0
100
AcDbArc
 50
89.99963750135421
 51
179.9998479605037
  0
ARC
  5
359
330
1F
100
AcDbEntity
  8
LAYER0016
  6
CONTINUOUS
 62
     3
100
AcDbCircle
 10
339.430168
 20
509.0659984666465
 30
0.0
 40
1.0
100
AcDbArc
 50
269.9994854618596
 51
0.0
  0
ARC
  5
35A
330
1F
100
AcDbEntity
  8
LAYER0016
  6
CONTINUOUS
 62
     3
100
AcDbCircle
 10
339.430168
 20
510.0659984666465
 30
0.0
 40
1.0
100
AcDbArc
 50
0.0
 51
89.99963750135421
  0
ARC
  5
35B
330
1F
100
AcDbEntity
  8
LAYER0016
  6
CONTINUOUS
 62
     3
100
AcDbCircle
 10
338.430168
 20
513.0659984666465
 30
0.0
 40
2.0
100
AcDbArc
 50
179.9998479605037
 51
269.9994854618596
  0
ARC
  5
35C
330
1F
100
AcDbEntity
  8
LAYER0016
  6
CONTINUOUS
 62
     3
100
AcDbCircle
 10
338.430168
 20
516.0659984666465
 30
0.0
 40
2.0
100
AcDbArc
 50
89.99963750135421
 51
179.9998479605037
  0
ARC
  5
35D
330
1F
100
AcDbEntity
  8
LAYER0016
  6
CONTINUOUS
 62
     3
100
AcDbCircle
 10
339.430168
 20
519.0659984666465
 30
0.0
 40
1.0
100
AcDbArc
 50
269.9994854618596
 51
0.0
  0
ARC
  5
35E
330
1F
100
AcDbEntity
  8
LAYER0016
  6
CONTINUOUS
 62
     3
100
AcDbCircle
 10
339.430168
 20
520.0659984666465
 30
0.0
 40
1.0
100
AcDbArc
 50
0.0
 51
89.99963750135421
  0
ARC
  5
35F
330
1F
100
AcDbEntity
  8
LAYER0016
  6
CONTINUOUS
 62
     3
100
AcDbCircle
 10
338.430168
 20
523.0659984666465
 30
0.0
 40
2.0
100
AcDbArc
 50
179.9998479605037
 51
269.9994854618596
  0
ARC
  5
360
330
1F
100
AcDbEntity
  8
LAYER0016
  6
CONTINUOUS
 62
     3
100
AcDbCircle
 10
338.430168
 20
526.0659984666465
 30
0.0
 40
2.0
100
AcDbArc
 50
89.99963750135421
 51
179.9998479605037
  0
ARC
  5
361
330
1F
100
AcDbEntity
  8
LAYER0016
  6
CONTINUOUS
 62
     3
100
AcDbCircle
 10
339.430168
 20
529.0659984666465
 30
0.0
 40
1.0
100
AcDbArc
 50
269.9994854618596
 51
0.0
  0
ARC
  5
362
330
1F
100
AcDbEntity
  8
LAYER0016
  6
CONTINUOUS
 62
     3
100
AcDbCircle
 10
339.430168
 20
530.0659984666465
 30
0.0
 40
1.0
100
AcDbArc
 50
0.0
 51
89.99963750135421
  0
ARC
  5
363
330
1F
100
AcDbEntity
  8
LAYER0016
  6
CONTINUOUS
 62
     3
100
AcDbCircle
 10
338.430168
 20
533.0660064666465
 30
0.0
 40
2.0
100
AcDbArc
 50
179.9998479605037
 51
269.9994854618596
  0
ARC
  5
364
330
1F
100
AcDbEntity
  8
LAYER0016
  6
CONTINUOUS
 62
     3
100
AcDbCircle
 10
338.430168
 20
536.0660064666465
 30
0.0
 40
2.0
100
AcDbArc
 50
89.99963750135421
 51
179.9998479605037
  0
ARC
  5
365
330
1F
100
AcDbEntity
  8
LAYER0016
  6
CONTINUOUS
 62
     3
100
AcDbCircle
 10
339.4301839999998
 20
539.0660064666465
 30
0.0
 40
1.0
100
AcDbArc
 50
269.9994854618596
 51
0.0
  0
ARC
  5
366
330
1F
100
AcDbEntity
  8
LAYER0016
  6
CONTINUOUS
 62
     3
100
AcDbCircle
 10
339.4301839999998
 20
540.0660064666465
 30
0.0
 40
1.0
100
AcDbArc
 50
0.0
 51
89.99963750135421
  0
ARC
  5
367
330
1F
100
AcDbEntity
  8
LAYER0016
  6
CONTINUOUS
 62
     3
100
AcDbCircle
 10
338.4301839999998
 20
543.0660064666465
 30
0.0
 40
2.0
100
AcDbArc
 50
179.9998479605037
 51
269.9994854618596
  0
ARC
  5
368
330
1F
100
AcDbEntity
  8
LAYER0016
  6
CONTINUOUS
 62
     3
100
AcDbCircle
 10
338.430168
 20
431.5660064666463
 30
0.0
 40
2.0
100
AcDbArc
 50
179.9998479605037
 51
269.9994854618596
  0
ARC
  5
369
330
1F
100
AcDbEntity
  8
LAYER0016
  6
CONTINUOUS
 62
     3
100
AcDbCircle
 10
258.430168
 20
553.0660064666465
 30
0.0
 40
2.0
100
AcDbArc
 50
179.9998479605037
 51
269.9994854618596
  0
ARC
  5
36A
330
1F
100
AcDbEntity
  8
LAYER0016
  6
CONTINUOUS
 62
     3
100
AcDbCircle
 10
258.430168
 20
546.0660064666465
 30
0.0
 40
2.0
100
AcDbArc
 50
89.99963750135421
 51
179.9998479605037
  0
ARC
  5
36B
330
1F
100
AcDbEntity
  8
LAYER0016
  6
CONTINUOUS
 62
     3
100
AcDbCircle
 10
258.430168
 20
543.0660064666465
 30
0.0
 40
2.0
100
AcDbArc
 50
179.9998479605037
 51
269.9994854618596
  0
ARC
  5
36C
330
1F
100
AcDbEntity
  8
LAYER0016
  6
CONTINUOUS
 62
     3
100
AcDbCircle
 10
258.430168
 20
536.0660064666465
 30
0.0
 40
2.0
100
AcDbArc
 50
89.99963750135421
 51
179.9998479605037
  0
ARC
  5
36D
330
1F
100
AcDbEntity
  8
LAYER0016
  6
CONTINUOUS
 62
     3
100
AcDbCircle
 10
258.430168
 20
533.0660064666465
 30
0.0
 40
2.0
100
AcDbArc
 50
179.9998479605037
 51
269.9994854618596
  0
ARC
  5
36E
330
1F
100
AcDbEntity
  8
LAYER0016
  6
CONTINUOUS
 62
     3
100
AcDbCircle
 10
258.430168
 20
526.0660064666465
 30
0.0
 40
2.0
100
AcDbArc
 50
89.99963750135421
 51
179.9998479605037
  0
ARC
  5
36F
330
1F
100
AcDbEntity
  8
LAYER0016
  6
CONTINUOUS
 62
     3
100
AcDbCircle
 10
258.430168
 20
523.0660064666465
 30
0.0
 40
2.0
100
AcDbArc
 50
179.9998479605037
 51
269.9994854618596
  0
ARC
  5
370
330
1F
100
AcDbEntity
  8
LAYER0016
  6
CONTINUOUS
 62
     3
100
AcDbCircle
 10
258.430168
 20
516.0660064666465
 30
0.0
 40
2.0
100
AcDbArc
 50
89.99963750135421
 51
179.9998479605037
  0
ARC
  5
371
330
1F
100
AcDbEntity
  8
LAYER0016
  6
CONTINUOUS
 62
     3
100
AcDbCircle
 10
258.430168
 20
513.0660064666465
 30
0.0
 40
2.0
100
AcDbArc
 50
179.9998479605037
 51
269.9994854618596
  0
ARC
  5
372
330
1F
100
AcDbEntity
  8
LAYER0016
  6
CONTINUOUS
 62
     3
100
AcDbCircle
 10
258.430168
 20
506.0660064666465
 30
0.0
 40
2.0
100
AcDbArc
 50
89.99963750135421
 51
179.9998479605037
  0
ARC
  5
373
330
1F
100
AcDbEntity
  8
LAYER0016
  6
CONTINUOUS
 62
     3
100
AcDbCircle
 10
258.430168
 20
503.0660064666465
 30
0.0
 40
2.0
100
AcDbArc
 50
179.9998479605037
 51
269.9994854618596
  0
ARC
  5
374
330
1F
100
AcDbEntity
  8
LAYER0016
  6
CONTINUOUS
 62
     3
100
AcDbCircle
 10
258.430168
 20
493.0660064666465
 30
0.0
 40
2.0
100
AcDbArc
 50
179.9998479605037
 51
269.9994854618596
  0
ARC
  5
375
330
1F
100
AcDbEntity
  8
LAYER0016
  6
CONTINUOUS
 62
     3
100
AcDbCircle
 10
258.430168
 20
486.0660064666465
 30
0.0
 40
2.0
100
AcDbArc
 50
89.99963750135421
 51
179.9998479605037
  0
ARC
  5
376
330
1F
100
AcDbEntity
  8
LAYER0016
  6
CONTINUOUS
 62
     3
100
AcDbCircle
 10
258.430168
 20
483.0660064666465
 30
0.0
 40
2.0
100
AcDbArc
 50
179.9998479605037
 51
269.9994854618596
  0
ARC
  5
377
330
1F
100
AcDbEntity
  8
LAYER0016
  6
CONTINUOUS
 62
     3
100
AcDbCircle
 10
258.430168
 20
476.0660064666465
 30
0.0
 40
2.0
100
AcDbArc
 50
89.99963750135421
 51
179.9998479605037
  0
ARC
  5
378
330
1F
100
AcDbEntity
  8
LAYER0016
  6
CONTINUOUS
 62
     3
100
AcDbCircle
 10
258.430168
 20
473.0660064666465
 30
0.0
 40
2.0
100
AcDbArc
 50
179.9998479605037
 51
269.9994854618596
  0
ARC
  5
379
330
1F
100
AcDbEntity
  8
LAYER0016
  6
CONTINUOUS
 62
     3
100
AcDbCircle
 10
258.430168
 20
466.0660064666465
 30
0.0
 40
2.0
100
AcDbArc
 50
89.99963750135421
 51
179.9998479605037
  0
ARC
  5
37A
330
1F
100
AcDbEntity
  8
LAYER0016
  6
CONTINUOUS
 62
     3
100
AcDbCircle
 10
258.430168
 20
463.0660064666465
 30
0.0
 40
2.0
100
AcDbArc
 50
179.9998479605037
 51
269.9994854618596
  0
ARC
  5
37B
330
1F
100
AcDbEntity
  8
LAYER0016
  6
CONTINUOUS
 62
     3
100
AcDbCircle
 10
258.430168
 20
456.0660064666463
 30
0.0
 40
2.0
100
AcDbArc
 50
89.99963750135421
 51
179.9998479605037
  0
ARC
  5
37C
330
1F
100
AcDbEntity
  8
LAYER0016
  6
CONTINUOUS
 62
     3
100
AcDbCircle
 10
258.430168
 20
453.0660064666463
 30
0.0
 40
2.0
100
AcDbArc
 50
179.9998479605037
 51
269.9994854618596
  0
ARC
  5
37D
330
1F
100
AcDbEntity
  8
LAYER0016
  6
CONTINUOUS
 62
     3
100
AcDbCircle
 10
258.430168
 20
446.0660064666463
 30
0.0
 40
2.0
100
AcDbArc
 50
89.99963750135421
 51
179.9998479605037
  0
ARC
  5
37E
330
1F
100
AcDbEntity
  8
LAYER0016
  6
CONTINUOUS
 62
     3
100
AcDbCircle
 10
258.430168
 20
443.0660064666463
 30
0.0
 40
2.0
100
AcDbArc
 50
179.9998479605037
 51
269.9994854618596
  0
ARC
  5
37F
330
1F
100
AcDbEntity
  8
LAYER0016
  6
CONTINUOUS
 62
     3
100
AcDbCircle
 10
258.430168
 20
436.0660064666463
 30
0.0
 40
2.0
100
AcDbArc
 50
89.99963750135421
 51
179.9998479605037
  0
ARC
  5
380
330
1F
100
AcDbEntity
  8
LAYER0016
  6
CONTINUOUS
 62
     3
100
AcDbCircle
 10
209.430168
 20
557.5660064666465
 30
0.0
 40
16.000008
100
AcDbArc
 50
64.34086856201091
 51
115.6584064406982
  0
ARC
  5
381
330
1F
100
AcDbEntity
  8
LAYER0016
  6
CONTINUOUS
 62
     3
100
AcDbCircle
 10
199.037864
 20
568.9743304666465
 30
0.0
 40
4.591664
100
AcDbArc
 50
41.02377813136679
 51
138.9754968713424
  0
ARC
  5
382
330
1F
100
AcDbEntity
  8
LAYER0016
  6
CONTINUOUS
 62
     3
100
AcDbCircle
 10
219.8224719999999
 20
568.9743304666465
 30
0.0
 40
4.591679999999999
100
AcDbArc
 50
41.02435108916208
 51
138.9754968713422
  0
ARC
  5
383
330
1F
100
AcDbEntity
  8
LAYER0016
  6
CONTINUOUS
 62
     3
100
AcDbCircle
 10
143.430168
 20
557.5660064666465
 30
0.0
 40
16.000004
100
AcDbArc
 50
64.34086856201094
 51
115.6584064406982
  0
ARC
  5
384
330
1F
100
AcDbEntity
  8
LAYER0016
  6
CONTINUOUS
 62
     3
100
AcDbCircle
 10
133.037864
 20
568.9743304666465
 30
0.0
 40
4.591664
100
AcDbArc
 50
41.02377813136679
 51
138.9754968713424
  0
ARC
  5
385
330
1F
100
AcDbEntity
  8
LAYER0016
  6
CONTINUOUS
 62
     3
100
AcDbCircle
 10
153.822472
 20
568.9743304666465
 30
0.0
 40
4.591679999999999
100
AcDbArc
 50
41.02377813136691
 51
138.9754968713422
  0
ARC
  5
386
330
1F
100
AcDbEntity
  8
LAYER0016
  6
CONTINUOUS
 62
     3
100
AcDbCircle
 10
-323.5115382234683
 20
184.0661304666463
 30
0.0
 40
1.0
100
AcDbArc
 50
89.99963750135421
 51
179.9998479605041
  0
ARC
  5
387
330
1F
100
AcDbEntity
  8
LAYER0016
  6
CONTINUOUS
 62
     3
100
AcDbCircle
 10
-323.5115382234683
 20
95.0661304666463
 30
0.0
 40
1.0
100
AcDbArc
 50
179.9998479605044
 51
269.9994854618596
  0
ARC
  5
388
330
1F
100
AcDbEntity
  8
LAYER0016
  6
CONTINUOUS
 62
     3
100
AcDbCircle
 10
-187.5115382234684
 20
65.56613046664626
 30
0.0
 40
3.0
100
AcDbArc
 50
179.9998479605043
 51
269.999485461859
  0
ARC
  5
389
330
1F
100
AcDbEntity
  8
LAYER0016
  6
CONTINUOUS
 62
     3
100
AcDbCircle
 10
-186.5115382234684
 20
199.5661304666463
 30
0.0
 40
3.0
100
AcDbArc
 50
179.9998479605043
 51
269.999485461859
  0
ARC
  5
38A
330
1F
100
AcDbEntity
  8
LAYER0016
  6
CONTINUOUS
 62
     3
100
AcDbCircle
 10
-318.5115382234683
 20
116.5661304666463
 30
0.0
 40
16.0
100
AcDbArc
 50
154.3410790211607
 51
205.6586168998478
  0
ARC
  5
38B
330
1F
100
AcDbEntity
  8
LAYER0016
  6
CONTINUOUS
 62
     3
100
AcDbCircle
 10
-329.9198622234683
 20
106.1738264666463
 30
0.0
 40
4.591664
100
AcDbArc
 50
131.023988590517
 51
228.975707330492
  0
ARC
  5
38C
330
1F
100
AcDbEntity
  8
LAYER0016
  6
CONTINUOUS
 62
     3
100
AcDbCircle
 10
-329.9198622234683
 20
126.9584344666463
 30
0.0
 40
4.591684
100
AcDbArc
 50
131.0239885905165
 51
228.9757073304918
  0
ARC
  5
38D
330
1F
100
AcDbEntity
  8
LAYER0016
  6
CONTINUOUS
 62
     3
100
AcDbCircle
 10
25.93017599999994
 20
548.0660064666465
 30
0.0
 40
1.0
100
AcDbArc
 50
269.9994854618587
 51
0.0
  0
ARC
  5
38E
330
1F
100
AcDbEntity
  8
LAYER0016
  6
CONTINUOUS
 62
     3
100
AcDbCircle
 10
35.53017999999994
 20
554.5660064666465
 30
0.0
 40
14.0
100
AcDbArc
 50
163.9266629336993
 51
196.072460029514
  0
ARC
  5
38F
330
1F
100
AcDbEntity
  8
LAYER0016
  6
CONTINUOUS
 62
     3
100
AcDbCircle
 10
23.90315199999996
 20
551.2159984666464
 30
0.0
 40
1.9
100
AcDbArc
 50
196.0724600295135
 51
269.9994854618589
  0
ARC
  5
390
330
1F
100
AcDbEntity
  8
LAYER0016
  6
CONTINUOUS
 62
     3
100
AcDbCircle
 10
23.90315199999996
 20
557.9160144666464
 30
0.0
 40
1.899992
100
AcDbArc
 50
89.99963750135448
 51
163.9266629336994
  0
ARC
  5
391
330
1F
100
AcDbEntity
  8
LAYER0016
  6
CONTINUOUS
 62
     3
100
AcDbCircle
 10
25.93015999999998
 20
428.0660064666463
 30
0.0
 40
1.0
100
AcDbArc
 50
0.0
 51
89.99963750135461
  0
ARC
  5
392
330
1F
100
AcDbEntity
  8
LAYER0016
  6
CONTINUOUS
 62
     3
100
AcDbCircle
 10
35.53016799999992
 20
421.5660064666463
 30
0.0
 40
14.0
100
AcDbArc
 50
163.9266629336993
 51
196.072460029514
  0
ARC
  5
393
330
1F
100
AcDbEntity
  8
LAYER0016
  6
CONTINUOUS
 62
     3
100
AcDbCircle
 10
23.90313599999994
 20
424.9160064666464
 30
0.0
 40
1.9
100
AcDbArc
 50
89.99963750135456
 51
163.9266629336998
  0
ARC
  5
394
330
1F
100
AcDbEntity
  8
LAYER0016
  6
CONTINUOUS
 62
     3
100
AcDbCircle
 10
23.90313599999994
 20
418.2160064666463
 30
0.0
 40
1.9
100
AcDbArc
 50
196.0724600295135
 51
269.9994854618589
  0
ARC
  5
395
330
1F
100
AcDbEntity
  8
LAYER0016
  6
CONTINUOUS
 62
     3
100
AcDbCircle
 10
-23.56983200000004
 20
181.0661304666463
 30
0.0
 40
2.0
100
AcDbArc
 50
89.99963750135457
 51
179.9998479605044
  0
ARC
  5
396
330
1F
100
AcDbEntity
  8
LAYER0016
  6
CONTINUOUS
 62
     3
100
AcDbCircle
 10
25.93016799999996
 20
184.0661304666463
 30
0.0
 40
1.0
100
AcDbArc
 50
269.9994854618587
 51
0.0
  0
ARC
  5
397
330
1F
100
AcDbEntity
  8
LAYER0016
  6
CONTINUOUS
 62
     3
100
AcDbCircle
 10
35.53017599999995
 20
190.5661304666463
 30
0.0
 40
14.0
100
AcDbArc
 50
163.9266629336993
 51
196.072460029514
  0
ARC
  5
398
330
1F
100
AcDbEntity
  8
LAYER0016
  6
CONTINUOUS
 62
     3
100
AcDbCircle
 10
23.90314399999998
 20
187.2161224666463
 30
0.0
 40
1.9
100
AcDbArc
 50
196.0724600295139
 51
269.9994854618589
  0
ARC
  5
399
330
1F
100
AcDbEntity
  8
LAYER0016
  6
CONTINUOUS
 62
     3
100
AcDbCircle
 10
23.90314399999998
 20
193.9161384666463
 30
0.0
 40
1.899992
100
AcDbArc
 50
89.99963750135448
 51
163.9266629336994
  0
ARC
  5
39A
330
1F
100
AcDbEntity
  8
LAYER0016
  6
CONTINUOUS
 62
     3
100
AcDbCircle
 10
-23.56983200000004
 20
98.06613046664636
 30
0.0
 40
2.0
100
AcDbArc
 50
179.9998479605044
 51
269.9994854618589
  0
ARC
  5
39B
330
1F
100
AcDbEntity
  8
LAYER0016
  6
CONTINUOUS
 62
     3
100
AcDbCircle
 10
25.93016799999996
 20
95.06613046664636
 30
0.0
 40
1.0
100
AcDbArc
 50
0.0
 51
89.99963750135461
  0
ARC
  5
39C
330
1F
100
AcDbEntity
  8
LAYER0016
  6
CONTINUOUS
 62
     3
100
AcDbCircle
 10
35.53017599999995
 20
88.5661304666463
 30
0.0
 40
14.0
100
AcDbArc
 50
163.9266629336993
 51
196.072460029514
  0
ARC
  5
39D
330
1F
100
AcDbEntity
  8
LAYER0016
  6
CONTINUOUS
 62
     3
100
AcDbCircle
 10
23.90314399999998
 20
91.9161384666463
 30
0.0
 40
1.899992
100
AcDbArc
 50
89.99963750135448
 51
163.9266629336992
  0
ARC
  5
39E
330
1F
100
AcDbEntity
  8
LAYER0016
  6
CONTINUOUS
 62
     3
100
AcDbCircle
 10
23.90314399999998
 20
85.21612246664631
 30
0.0
 40
1.9
100
AcDbArc
 50
196.0724600295139
 51
269.9994854618589
  0
ARC
  5
39F
330
1F
100
AcDbEntity
  8
LAYER0016
  6
CONTINUOUS
 62
     3
100
AcDbCircle
 10
-23.56983200000004
 20
556.6407424666465
 30
0.0
 40
2.0
100
AcDbArc
 50
92.18146078521276
 51
179.9998479605037
  0
ARC
  5
3A0
330
1F
100
AcDbEntity
  8
LAYER0016
  6
CONTINUOUS
 62
     3
100
AcDbCircle
 10
-23.56983200000004
 20
545.0660064666465
 30
0.0
 40
2.0
100
AcDbArc
 50
89.99963750135457
 51
179.9998479605037
  0
ARC
  5
3A1
330
1F
100
AcDbEntity
  8
LAYER0016
  6
CONTINUOUS
 62
     3
100
AcDbCircle
 10
-23.56983200000004
 20
419.4912784666463
 30
0.0
 40
2.0
100
AcDbArc
 50
179.9998479605037
 51
267.8176621780006
  0
ARC
  5
3A2
330
1F
100
AcDbEntity
  8
LAYER0016
  6
CONTINUOUS
 62
     3
100
AcDbCircle
 10
-23.56983200000004
 20
431.0660104666463
 30
0.0
 40
2.0
100
AcDbArc
 50
179.9998479605037
 51
269.9994854618589
  0
ARC
  5
3A3
330
1F
100
AcDbEntity
  8
LAYER0016
  6
CONTINUOUS
 62
     3
100
AcDbCircle
 10
-182.5115382234684
 20
190.5661304666463
 30
0.0
 40
6.0
100
AcDbArc
 50
0.0
 51
89.99963750135448
  0
ARC
  5
3A4
330
1F
100
AcDbEntity
  8
LAYER0016
  6
CONTINUOUS
 62
     3
100
AcDbCircle
 10
-182.5115382234684
 20
190.5661304666463
 30
0.0
 40
7.5
100
AcDbArc
 50
179.9998479605044
 51
269.9994854618589
  0
ARC
  5
3A5
330
1F
100
AcDbEntity
  8
LAYER0016
  6
CONTINUOUS
 62
     3
100
AcDbCircle
 10
-178.5115382234684
 20
181.0661304666463
 30
0.0
 40
2.0
100
AcDbArc
 50
0.0
 51
89.99963750135421
  0
ARC
  5
3A6
330
1F
100
AcDbEntity
  8
LAYER0016
  6
CONTINUOUS
 62
     3
100
AcDbCircle
 10
-192.0115382234684
 20
194.5661304666463
 30
0.0
 40
2.0
100
AcDbArc
 50
0.0
 51
89.99963750135421
  0
CIRCLE
  5
3A7
330
1F
100
AcDbEntity
  8
LAYER0016
  6
CONTINUOUS
 62
     3
100
AcDbCircle
 10
-182.5115382234684
 20
190.5661304666463
 30
0.0
 40
5.25
  0
ARC
  5
3A8
330
1F
100
AcDbEntity
  8
LAYER0016
  6
CONTINUOUS
 62
     3
100
AcDbCircle
 10
-315.5115382234683
 20
190.5661304666463
 30
0.0
 40
6.0
100
AcDbArc
 50
89.99963750135475
 51
179.9998479605044
  0
ARC
  5
3A9
330
1F
100
AcDbEntity
  8
LAYER0016
  6
CONTINUOUS
 62
     3
100
AcDbCircle
 10
-315.5115382234683
 20
190.5661304666463
 30
0.0
 40
7.5
100
AcDbArc
 50
269.9994854618587
 51
359.9999999999998
  0
ARC
  5
3AA
330
1F
100
AcDbEntity
  8
LAYER0016
  6
CONTINUOUS
 62
     3
100
AcDbCircle
 10
-319.5115382234683
 20
181.0661304666463
 30
0.0
 40
2.0
100
AcDbArc
 50
89.99963750135421
 51
179.9998479605044
  0
ARC
  5
3AB
330
1F
100
AcDbEntity
  8
LAYER0016
  6
CONTINUOUS
 62
     3
100
AcDbCircle
 10
-306.0115382234683
 20
194.5661304666463
 30
0.0
 40
2.0
100
AcDbArc
 50
89.99963750135421
 51
179.9998479605041
  0
CIRCLE
  5
3AC
330
1F
100
AcDbEntity
  8
LAYER0016
  6
CONTINUOUS
 62
     3
100
AcDbCircle
 10
-315.5115382234683
 20
190.5661304666463
 30
0.0
 40
5.25
  0
ARC
  5
3AD
330
1F
100
AcDbEntity
  8
LAYER0016
  6
CONTINUOUS
 62
     3
100
AcDbCircle
 10
-182.5115382234684
 20
88.56613046664624
 30
0.0
 40
6.0
100
AcDbArc
 50
269.999485461859
 51
359.9999999999998
  0
ARC
  5
3AE
330
1F
100
AcDbEntity
  8
LAYER0016
  6
CONTINUOUS
 62
     3
100
AcDbCircle
 10
-182.5115382234684
 20
88.56613046664624
 30
0.0
 40
7.5
100
AcDbArc
 50
89.99963750135464
 51
179.9998479605044
  0
ARC
  5
3AF
330
1F
100
AcDbEntity
  8
LAYER0016
  6
CONTINUOUS
 62
     3
100
AcDbCircle
 10
-178.5115382234684
 20
98.0661304666463
 30
0.0
 40
2.0
100
AcDbArc
 50
269.9994854618587
 51
359.9999999999998
  0
ARC
  5
3B0
330
1F
100
AcDbEntity
  8
LAYER0016
  6
CONTINUOUS
 62
     3
100
AcDbCircle
 10
-192.0115382234684
 20
84.56613046664624
 30
0.0
 40
2.0
100
AcDbArc
 50
269.9994854618587
 51
359.9999999999998
  0
CIRCLE
  5
3B1
330
1F
100
AcDbEntity
  8
LAYER0016
  6
CONTINUOUS
 62
     3
100
AcDbCircle
 10
-182.5115382234684
 20
88.56613046664624
 30
0.0
 40
5.25
  0
ARC
  5
3B2
330
1F
100
AcDbEntity
  8
LAYER0016
  6
CONTINUOUS
 62
     3
100
AcDbCircle
 10
-315.5115382234683
 20
88.56613046664624
 30
0.0
 40
6.0
100
AcDbArc
 50
179.9998479605044
 51
269.999485461859
  0
ARC
  5
3B3
330
1F
100
AcDbEntity
  8
LAYER0016
  6
CONTINUOUS
 62
     3
100
AcDbCircle
 10
-315.5115382234683
 20
88.56613046664624
 30
0.0
 40
7.5
100
AcDbArc
 50
0.0
 51
89.99963750135443
  0
ARC
  5
3B4
330
1F
100
AcDbEntity
  8
LAYER0016
  6
CONTINUOUS
 62
     3
100
AcDbCircle
 10
-319.5115382234683
 20
98.0661304666463
 30
0.0
 40
2.0
100
AcDbArc
 50
179.9998479605044
 51
269.9994854618596
  0
ARC
  5
3B5
330
1F
100
AcDbEntity
  8
LAYER0016
  6
CONTINUOUS
 62
     3
100
AcDbCircle
 10
-306.0115382234683
 20
84.56613046664624
 30
0.0
 40
2.0
100
AcDbArc
 50
179.9998479605044
 51
269.9994854618596
  0
CIRCLE
  5
3B6
330
1F
100
AcDbEntity
  8
LAYER0016
  6
CONTINUOUS
 62
     3
100
AcDbCircle
 10
-315.5115382234683
 20
88.56613046664624
 30
0.0
 40
5.25
  0
ARC
  5
3B7
330
1F
100
AcDbEntity
  8
LAYER0016
  6
CONTINUOUS
 62
     3
100
AcDbCircle
 10
-23.56983200000004
 20
192.6408664666463
 30
0.0
 40
2.0
100
AcDbArc
 50
92.18146078521272
 51
179.9998479605041
  0
ARC
  5
3B8
330
1F
100
AcDbEntity
  8
LAYER0016
  6
CONTINUOUS
 62
     3
100
AcDbCircle
 10
-23.56983200000004
 20
86.49139446664638
 30
0.0
 40
2.0
100
AcDbArc
 50
179.9998479605044
 51
267.8176621780005
  0
LINE
  5
3B9
330
1F
100
AcDbEntity
  8
LAYER0016
  6
CONTINUOUS
 62
     3
100
AcDbLine
 10
157.013136
 20
-151.6085197176195
 30
0.0
 11
174.63414
 21
-133.9875477176194
 31
0.0
  0
LINE
  5
3BA
330
1F
100
AcDbEntity
  8
LAYER0016
  6
CONTINUOUS
 62
     3
100
AcDbLine
 10
178.22622
 20
-133.9874877176194
 30
0.0
 11
195.84722
 21
-151.6085197176195
 31
0.0
  0
LINE
  5
3BB
330
1F
100
AcDbEntity
  8
LAYER0016
  6
CONTINUOUS
 62
     3
100
AcDbLine
 10
157.013016
 20
-155.2007437176194
 30
0.0
 11
174.6340159999999
 21
-172.8217157176195
 31
0.0
  0
LINE
  5
3BC
330
1F
100
AcDbEntity
  8
LAYER0016
  6
CONTINUOUS
 62
     3
100
AcDbLine
 10
178.226336
 20
-172.8217757176195
 30
0.0
 11
195.847344
 21
-155.2008037176194
 31
0.0
  0
CIRCLE
  5
3BD
330
1F
100
AcDbEntity
  8
LAYER0016
  6
CONTINUOUS
 62
     3
100
AcDbCircle
 10
176.4301679999999
 20
-153.4045397176195
 30
0.0
 40
19.5
  0
CIRCLE
  5
3BE
330
1F
100
AcDbEntity
  8
LAYER0016
  6
CONTINUOUS
 62
     3
100
AcDbCircle
 10
176.4301679999999
 20
-153.4045397176195
 30
0.0
 40
29.0
  0
CIRCLE
  5
3BF
330
1F
100
AcDbEntity
  8
LAYER0016
  6
CONTINUOUS
 62
     3
100
AcDbCircle
 10
176.4301679999999
 20
-153.4045397176195
 30
0.0
 40
35.0
  0
CIRCLE
  5
3C0
330
1F
100
AcDbEntity
  8
LAYER0016
  6
CONTINUOUS
 62
     3
100
AcDbCircle
 10
176.4301679999999
 20
-153.4045397176195
 30
0.0
 40
62.5
  0
CIRCLE
  5
3C1
330
1F
100
AcDbEntity
  8
LAYER0016
  6
CONTINUOUS
 62
     3
100
AcDbCircle
 10
212.492608
 20
-189.4669797176195
 30
0.0
 40
4.0
  0
CIRCLE
  5
3C2
330
1F
100
AcDbEntity
  8
LAYER0016
  6
CONTINUOUS
 62
     3
100
AcDbCircle
 10
227.430168
 20
-153.4045397176195
 30
0.0
 40
4.0
  0
CIRCLE
  5
3C3
330
1F
100
AcDbEntity
  8
LAYER0016
  6
CONTINUOUS
 62
     3
100
AcDbCircle
 10
140.367724
 20
-117.3420997176193
 30
0.0
 40
4.0
  0
CIRCLE
  5
3C4
330
1F
100
AcDbEntity
  8
LAYER0016
  6
CONTINUOUS
 62
     3
100
AcDbCircle
 10
140.3677119999999
 20
-189.4669797176195
 30
0.0
 40
4.0
  0
CIRCLE
  5
3C5
330
1F
100
AcDbEntity
  8
LAYER0016
  6
CONTINUOUS
 62
     3
100
AcDbCircle
 10
212.492616
 20
-117.3420997176193
 30
0.0
 40
4.0
  0
CIRCLE
  5
3C6
330
1F
100
AcDbEntity
  8
LAYER0016
  6
CONTINUOUS
 62
     3
100
AcDbCircle
 10
176.4301679999999
 20
-102.4045397176195
 30
0.0
 40
4.0
  0
CIRCLE
  5
3C7
330
1F
100
AcDbEntity
  8
LAYER0016
  6
CONTINUOUS
 62
     3
100
AcDbCircle
 10
125.4301640000001
 20
-153.4045397176195
 30
0.0
 40
4.0
  0
CIRCLE
  5
3C8
330
1F
100
AcDbEntity
  8
LAYER0016
  6
CONTINUOUS
 62
     3
100
AcDbCircle
 10
176.43016
 20
-204.4045397176195
 30
0.0
 40
4.0
  0
CIRCLE
  5
3C9
330
1F
100
AcDbEntity
  8
LAYER0016
  6
CONTINUOUS
 62
     3
100
AcDbCircle
 10
176.430168
 20
494.5660064666465
 30
0.0
 40
30.0
  0
CIRCLE
  5
3CA
330
1F
100
AcDbEntity
  8
LAYER0016
  6
CONTINUOUS
 62
     3
100
AcDbCircle
 10
176.430168
 20
494.5660064666465
 30
0.0
 40
26.500002
  0
CIRCLE
  5
3CB
330
1F
100
AcDbEntity
  8
LAYER0016
  6
CONTINUOUS
 62
     3
100
AcDbCircle
 10
176.430168
 20
494.5660064666465
 30
0.0
 40
21.999999
  0
CIRCLE
  5
3CC
330
1F
100
AcDbEntity
  8
LAYER0016
  6
CONTINUOUS
 62
     3
100
AcDbCircle
 10
176.430168
 20
494.5660064666466
 30
0.0
 40
20.0
  0
LINE
  5
3CD
330
1F
100
AcDbEntity
  8
LAYER0016
  6
CONTINUOUS
 62
     3
100
AcDbLine
 10
190.5723036237309
 20
508.7081420903775
 30
0.0
 11
190.5723036237309
 21
511.4183047075394
 31
0.0
  0
LINE
  5
3CE
330
1F
100
AcDbEntity
  8
LAYER0016
  6
CONTINUOUS
 62
     3
100
AcDbLine
 10
190.5723036237309
 20
508.7081420903775
 30
0.0
 11
193.2824662408929
 21
508.7081420903775
 31
0.0
  0
LINE
  5
3CF
330
1F
100
AcDbEntity
  8
LAYER0016
  6
CONTINUOUS
 62
     3
100
AcDbLine
 10
187.0367697177982
 20
505.1726081844448
 30
0.0
 11
190.5723036237309
 21
508.7081420903775
 31
0.0
  0
LINE
  5
3D0
330
1F
100
AcDbEntity
  8
LAYER0016
  6
CONTINUOUS
 62
     3
100
AcDbLine
 10
186.8225161509251
 20
505.3826186862835
 30
0.0
 11
190.358580509615
 21
508.9186830449734
 31
0.0
  0
LINE
  5
3D1
330
1F
100
AcDbEntity
  8
LAYER0016
  6
CONTINUOUS
 62
     3
100
AcDbLine
 10
187.2467802196367
 20
504.9583546175714
 30
0.0
 11
190.7828445783265
 21
508.4944189762612
 31
0.0
  0
LINE
  5
3D2
330
1F
100
AcDbEntity
  8
LAYER0016
  6
CONTINUOUS
 62
     3
100
AcDbLine
 10
180.3124536765377
 20
509.0548938609825
 30
0.0
 11
181.6065489020503
 21
513.8845229924277
 31
0.0
  0
LINE
  5
3D3
330
1F
100
AcDbEntity
  8
LAYER0016
  6
CONTINUOUS
 62
     3
100
AcDbLine
 10
180.0218993938548
 20
509.1296415072001
 30
0.0
 11
181.316188778552
 21
513.9599952505869
 31
0.0
  0
LINE
  5
3D4
330
1F
100
AcDbEntity
  8
LAYER0016
  6
CONTINUOUS
 62
     3
100
AcDbLine
 10
180.6014548896281
 20
508.9743500801382
 30
0.0
 11
181.8957442743253
 21
513.8047038235252
 31
0.0
  0
LINE
  5
3D5
330
1F
100
AcDbEntity
  8
LAYER0016
  6
CONTINUOUS
 62
     3
100
AcDbLine
 10
172.547882323462
 20
509.0548938609825
 30
0.0
 11
171.2537870979494
 21
513.8845229924277
 31
0.0
  0
LINE
  5
3D6
330
1F
100
AcDbEntity
  8
LAYER0016
  6
CONTINUOUS
 62
     3
100
AcDbLine
 10
172.2588811103716
 20
508.9743500801385
 30
0.0
 11
170.9645917256744
 21
513.8047038235254
 31
0.0
  0
LINE
  5
3D7
330
1F
100
AcDbEntity
  8
LAYER0016
  6
CONTINUOUS
 62
     3
100
AcDbLine
 10
172.8384366061451
 20
509.1296415071996
 30
0.0
 11
171.5441472214479
 21
513.9599952505869
 31
0.0
  0
LINE
  5
3D8
330
1F
100
AcDbEntity
  8
LAYER0016
  6
CONTINUOUS
 62
     3
100
AcDbLine
 10
165.8235662822016
 20
505.1726081844448
 30
0.0
 11
162.2880323762689
 21
508.7081420903775
 31
0.0
  0
LINE
  5
3D9
330
1F
100
AcDbEntity
  8
LAYER0016
  6
CONTINUOUS
 62
     3
100
AcDbLine
 10
165.6135557803628
 20
504.9583546175716
 30
0.0
 11
162.077491421673
 21
508.4944189762614
 31
0.0
  0
LINE
  5
3DA
330
1F
100
AcDbEntity
  8
LAYER0016
  6
CONTINUOUS
 62
     3
100
AcDbLine
 10
166.037819849075
 20
505.3826186862833
 30
0.0
 11
162.5017554903852
 21
508.9186830449731
 31
0.0
  0
LINE
  5
3DB
330
1F
100
AcDbEntity
  8
LAYER0016
  6
CONTINUOUS
 62
     3
100
AcDbLine
 10
185.1801679999999
 20
509.7214510328743
 30
0.0
 11
186.4301679999999
 21
511.8865145423352
 31
0.0
  0
LINE
  5
3DC
330
1F
100
AcDbEntity
  8
LAYER0016
  6
CONTINUOUS
 62
     3
100
AcDbLine
 10
185.0499427549568
 20
509.7958942920314
 30
0.0
 11
186.299982935477
 21
511.961027396195
 31
0.0
  0
LINE
  5
3DD
330
1F
100
AcDbEntity
  8
LAYER0016
  6
CONTINUOUS
 62
     3
100
AcDbLine
 10
185.3097503760923
 20
509.6458942920318
 30
0.0
 11
186.5597905566125
 21
511.8110273961954
 31
0.0
  0
LINE
  5
3DE
330
1F
100
AcDbEntity
  8
LAYER0016
  6
CONTINUOUS
 62
     3
100
AcDbLine
 10
176.4301679999999
 20
512.0660064666465
 30
0.0
 11
176.4301679999999
 21
514.5660064666465
 31
0.0
  0
LINE
  5
3DF
330
1F
100
AcDbEntity
  8
LAYER0016
  6
CONTINUOUS
 62
     3
100
AcDbLine
 10
176.2801679999998
 20
512.0653635976955
 30
0.0
 11
176.2801679999999
 21
514.5654439587361
 31
0.0
  0
LINE
  5
3E0
330
1F
100
AcDbEntity
  8
LAYER0016
  6
CONTINUOUS
 62
     3
100
AcDbLine
 10
176.5801679999998
 20
512.065363597696
 30
0.0
 11
176.5801679999998
 21
514.5654439587363
 31
0.0
  0
LINE
  5
3E1
330
1F
100
AcDbEntity
  8
LAYER0016
  6
CONTINUOUS
 62
     3
100
AcDbLine
 10
167.6801679999998
 20
509.7214510328741
 30
0.0
 11
166.4301679999998
 21
511.8865145423352
 31
0.0
  0
LINE
  5
3E2
330
1F
100
AcDbEntity
  8
LAYER0016
  6
CONTINUOUS
 62
     3
100
AcDbLine
 10
167.5505856239076
 20
509.6458942920314
 30
0.0
 11
166.3005454433874
 21
511.811027396195
 31
0.0
  0
LINE
  5
3E3
330
1F
100
AcDbEntity
  8
LAYER0016
  6
CONTINUOUS
 62
     3
100
AcDbLine
 10
167.8103932450428
 20
509.7958942920316
 30
0.0
 11
166.5603530645225
 21
511.9610273961953
 31
0.0
  0
LINE
  5
3E4
330
1F
100
AcDbEntity
  8
LAYER0016
  6
CONTINUOUS
 62
   150
100
AcDbLine
 10
-187.5115382234684
 20
82.56613046664624
 30
0.0
 11
-187.5115382234684
 21
65.56613046664626
 31
0.0
  0
ARC
  5
3E5
330
1F
100
AcDbEntity
  8
LAYER0016
  6
CONTINUOUS
 62
   150
100
AcDbCircle
 10
-184.5115382234684
 20
65.56613046664626
 30
0.0
 40
3.0
100
AcDbArc
 50
179.9998479605043
 51
269.999485461859
  0
LINE
  5
3E6
330
1F
100
AcDbEntity
  8
LAYER0016
  6
CONTINUOUS
 62
   150
100
AcDbLine
 10
-187.5115112823143
 20
-467.9391294007322
 30
0.0
 11
-187.5115112823143
 21
-484.9391294007322
 31
0.0
  0
ARC
  5
3E7
330
1F
100
AcDbEntity
  8
LAYER0016
  6
CONTINUOUS
 62
   150
100
AcDbCircle
 10
-184.5115112823143
 20
-484.9391294007322
 30
0.0
 40
3.0
100
AcDbArc
 50
179.9998479605043
 51
269.999485461859
  0
TEXT
  5
3E9
330
1F
100
AcDbEntity
  8
LAYER0016
 62
     4
100
AcDbText
 10
166.9163958021592
 20
498.2308933933164
 30
0.0
 40
7.5
  1
S
 50
44.99999999999962
 41
0.6151538461538388
  7
DCSTYLE0
 72
     5
 11
169.0377161457188
 21
500.352213736876
 31
0.0
100
AcDbText
  0
TEXT
  5
3EA
330
1F
100
AcDbEntity
  8
LAYER0016
 62
     4
100
AcDbText
 10
180.0950549266699
 20
504.0797786644872
 30
0.0
 40
7.5
  1
O
 50
315.0000000000007
 41
0.6151538461538429
  7
DCSTYLE0
 72
     5
 11
182.2163752702295
 21
501.9584583209276
 31
0.0
100
AcDbText
  0
INSERT
  5
3EB
330
1F
100
AcDbEntity
  8
LAYER0016
  6
CONTINUOUS
100
AcDbBlockReference
  2
DC_GROUP_1
 10
0.0
 20
0.0
 30
0.0
  0
TEXT
  5
3EC
330
1F
100
AcDbEntity
  8
0
 62
     7
100
AcDbText
 10
381.1372746096061
 20
-565.4041537132084
 30
0.0
 40
16.66666666666667
  1
000
 41
0.7689423076923078
  7
DCSTYLE0
 72
     5
 11
406.1372746096061
 21
-565.4041537132084
 31
0.0
100
AcDbText
  0
LINE
  5
3ED
330
1F
100
AcDbEntity
  8
0
  6
CENTER
 62
     4
100
AcDbLine
 10
176.4301679999999
 20
-530.8322003938694
 30
0.0
 11
176.4301679999999
 21
-372.3870593280386
 31
0.0
  0
LINE
  5
3EE
330
1F
100
AcDbEntity
  8
0
  6
CENTER
 62
     4
100
AcDbLine
 10
90.80214531632578
 20
-451.6057854006112
 30
0.0
 11
258.5374502617179
 21
-451.6057854006112
 31
0.0
  0
LINE
  5
3EF
330
1F
100
AcDbEntity
  8
0
  6
CENTER
 62
     4
100
AcDbLine
 10
226.4301679999999
 20
-391.6057854006112
 30
0.0
 11
226.4301679999999
 21
-411.6057854006112
 31
0.0
  0
LINE
  5
3F0
330
1F
100
AcDbEntity
  8
0
  6
CENTER
 62
     4
100
AcDbLine
 10
216.4301679999999
 20
-401.6057854006112
 30
0.0
 11
236.4301679999999
 21
-401.6057854006112
 31
0.0
  0
LINE
  5
3F1
330
1F
100
AcDbEntity
  8
0
  6
CENTER
 62
     4
100
AcDbLine
 10
226.4301679999999
 20
-511.6057854006112
 30
0.0
 11
226.4301679999999
 21
-491.6057854006112
 31
0.0
  0
LINE
  5
3F2
330
1F
100
AcDbEntity
  8
0
  6
CENTER
 62
     4
100
AcDbLine
 10
216.4301679999999
 20
-501.6057854006112
 30
0.0
 11
236.4301679999999
 21
-501.6057854006112
 31
0.0
  0
LINE
  5
3F3
330
1F
100
AcDbEntity
  8
0
  6
CENTER
 62
     4
100
AcDbLine
 10
126.4301679999998
 20
-391.6057854006112
 30
0.0
 11
126.4301679999998
 21
-411.6057854006112
 31
0.0
  0
LINE
  5
3F4
330
1F
100
AcDbEntity
  8
0
  6
CENTER
 62
     4
100
AcDbLine
 10
136.4301679999998
 20
-401.6057854006112
 30
0.0
 11
116.4301679999998
 21
-401.6057854006112
 31
0.0
  0
LINE
  5
3F5
330
1F
100
AcDbEntity
  8
0
  6
CENTER
 62
     4
100
AcDbLine
 10
126.4301679999998
 20
-511.6057854006112
 30
0.0
 11
126.4301679999998
 21
-491.6057854006112
 31
0.0
  0
LINE
  5
3F6
330
1F
100
AcDbEntity
  8
0
  6
CENTER
 62
     4
100
AcDbLine
 10
136.4301679999998
 20
-501.6057854006112
 30
0.0
 11
116.4301679999998
 21
-501.6057854006112
 31
0.0
  0
LINE
  5
3F7
330
1F
100
AcDbEntity
  8
0
  6
CENTER
 62
     4
100
AcDbLine
 10
-255.5115382234684
 20
-307.0612464345495
 30
0.0
 11
-255.5115382234684
 21
-470.9391294006113
 31
0.0
  0
LINE
  5
3F8
330
1F
100
AcDbEntity
  8
0
  6
CENTER
 62
     4
100
AcDbLine
 10
-337.8462542234683
 20
-410.9391294006112
 30
0.0
 11
-155.5115382234684
 21
-410.9391294006112
 31
0.0
  0
LINE
  5
3F9
330
1F
100
AcDbEntity
  8
0
  6
CENTER
 62
     4
100
AcDbLine
 10
-115.2615382234684
 20
-420.9391294006112
 30
0.0
 11
-183.3448822234684
 21
-420.9391294006112
 31
0.0
  0
LINE
  5
3FA
330
1F
100
AcDbEntity
  8
0
  6
CENTER
 62
     4
100
AcDbLine
 10
-327.4448582234684
 20
-383.4391294006113
 30
0.0
 11
-308.4448582234684
 21
-383.4391294006113
 31
0.0
  0
LINE
  5
3FB
330
1F
100
AcDbEntity
  8
0
  6
CENTER
 62
     4
100
AcDbLine
 10
-327.4448582234684
 20
-438.4391294006112
 30
0.0
 11
-308.4448582234684
 21
-438.4391294006112
 31
0.0
  0
LINE
  5
3FC
330
1F
100
AcDbEntity
  8
0
  6
CENTER
 62
     4
100
AcDbLine
 10
-255.5115382234684
 20
-465.9391294006113
 30
0.0
 11
-255.5115382234684
 21
-517.6057854006112
 31
0.0
  0
LINE
  5
3FD
330
1F
100
AcDbEntity
  8
0
  6
CENTER
 62
     4
100
AcDbLine
 10
-343.8115262234684
 20
-433.9391294006112
 30
0.0
 11
-324.5115382234684
 21
-433.9391294006112
 31
0.0
  0
LINE
  5
3FE
330
1F
100
AcDbEntity
  8
0
  6
CENTER
 62
     4
100
AcDbLine
 10
-420.5
 20
-273.7803396204136
 30
0.0
 11
420.5
 21
-273.7803396204136
 31
0.0
  0
CIRCLE
  5
3FF
330
1F
100
AcDbEntity
  8
0
  6
CONTINUOUS
 62
     4
100
AcDbCircle
 10
226.4301679999999
 20
-401.6057854006112
 30
0.0
 40
8.0
  0
CIRCLE
  5
400
330
1F
100
AcDbEntity
  8
0
  6
CONTINUOUS
 62
     4
100
AcDbCircle
 10
226.4301679999999
 20
-501.6057854006112
 30
0.0
 40
8.0
  0
CIRCLE
  5
401
330
1F
100
AcDbEntity
  8
0
  6
CONTINUOUS
 62
     4
100
AcDbCircle
 10
126.4301679999998
 20
-401.6057854006112
 30
0.0
 40
8.0
  0
CIRCLE
  5
402
330
1F
100
AcDbEntity
  8
0
  6
CONTINUOUS
 62
     4
100
AcDbCircle
 10
126.4301679999998
 20
-501.6057854006112
 30
0.0
 40
8.0
  0
LINE
  5
403
330
1F
100
AcDbEntity
  8
0
  6
DASHED
 62
     4
100
AcDbLine
 10
-324.5115382234684
 20
-393.9166374006113
 30
0.0
 11
-314.5115382234684
 21
-393.9166374006113
 31
0.0
  0
LINE
  5
404
330
1F
100
AcDbEntity
  8
0
  6
DASHED
 62
     4
100
AcDbLine
 10
-324.5115382234684
 20
-392.7540414006112
 30
0.0
 11
-314.5115382234684
 21
-392.7540414006112
 31
0.0
  0
LINE
  5
405
330
1F
100
AcDbEntity
  8
0
  6
DASHED
 62
     4
100
AcDbLine
 10
-324.5115382234684
 20
-374.1242174006113
 30
0.0
 11
-314.5115382234684
 21
-374.1242174006113
 31
0.0
  0
LINE
  5
406
330
1F
100
AcDbEntity
  8
0
  6
DASHED
 62
     4
100
AcDbLine
 10
-324.5115382234684
 20
-372.9616214006113
 30
0.0
 11
-314.5115382234684
 21
-372.9616214006113
 31
0.0
  0
LINE
  5
407
330
1F
100
AcDbEntity
  8
0
  6
DASHED
 62
     4
100
AcDbLine
 10
-324.5115382234684
 20
-448.9166374006113
 30
0.0
 11
-314.5115382234684
 21
-448.9166374006113
 31
0.0
  0
LINE
  5
408
330
1F
100
AcDbEntity
  8
0
  6
DASHED
 62
     4
100
AcDbLine
 10
-324.5115382234684
 20
-447.7540414006112
 30
0.0
 11
-314.5115382234684
 21
-447.7540414006112
 31
0.0
  0
LINE
  5
409
330
1F
100
AcDbEntity
  8
0
  6
DASHED
 62
     4
100
AcDbLine
 10
-324.5115382234684
 20
-429.1242174006113
 30
0.0
 11
-314.5115382234684
 21
-429.1242174006113
 31
0.0
  0
LINE
  5
40A
330
1F
100
AcDbEntity
  8
0
  6
DASHED
 62
     4
100
AcDbLine
 10
-324.5115382234684
 20
-427.9616214006113
 30
0.0
 11
-314.5115382234684
 21
-427.9616214006113
 31
0.0
  0
LINE
  5
40B
330
1F
100
AcDbEntity
  8
0
  6
CONTINUOUS
 62
     3
100
AcDbLine
 10
126.4301679999998
 20
-517.6057854006112
 30
0.0
 11
226.4301679999999
 21
-517.6057854006112
 31
0.0
  0
LINE
  5
40C
330
1F
100
AcDbEntity
  8
0
  6
CONTINUOUS
 62
     3
100
AcDbLine
 10
157.0132239999998
 20
-449.8099494006113
 30
0.0
 11
174.6342239999998
 21
-432.1889134006113
 31
0.0
  0
LINE
  5
40D
330
1F
100
AcDbEntity
  8
0
  6
CONTINUOUS
 62
     3
100
AcDbLine
 10
178.2261719999998
 20
-432.1887934006112
 30
0.0
 11
195.8471799999999
 21
-449.8097654006112
 31
0.0
  0
LINE
  5
40E
330
1F
100
AcDbEntity
  8
0
  6
CONTINUOUS
 62
     3
100
AcDbLine
 10
157.0129279999999
 20
-453.4020494006112
 30
0.0
 11
174.6339319999998
 21
-471.0230814006113
 31
0.0
  0
LINE
  5
40F
330
1F
100
AcDbEntity
  8
0
  6
CONTINUOUS
 62
     3
100
AcDbLine
 10
178.2264239999998
 20
-471.0231454006112
 30
0.0
 11
195.8474279999998
 21
-453.4021734006112
 31
0.0
  0
LINE
  5
410
330
1F
100
AcDbEntity
  8
0
  6
CONTINUOUS
 62
     3
100
AcDbLine
 10
242.4301679999999
 20
-401.6057854006112
 30
0.0
 11
242.4301679999999
 21
-501.6057854006112
 31
0.0
  0
LINE
  5
411
330
1F
100
AcDbEntity
  8
0
  6
CONTINUOUS
 62
     3
100
AcDbLine
 10
181.0489399999998
 20
-400.6057254006113
 30
0.0
 11
178.7395559999998
 21
-396.6057854006112
 31
0.0
  0
LINE
  5
412
330
1F
100
AcDbEntity
  8
0
  6
CONTINUOUS
 62
     3
100
AcDbLine
 10
178.7395719999998
 20
-396.6057854006112
 30
0.0
 11
174.1207639999998
 21
-396.6057854006112
 31
0.0
  0
LINE
  5
413
330
1F
100
AcDbEntity
  8
0
  6
CONTINUOUS
 62
     3
100
AcDbLine
 10
171.8113759999998
 20
-400.6057254006113
 30
0.0
 11
174.1207759999999
 21
-396.6057254006112
 31
0.0
  0
LINE
  5
414
330
1F
100
AcDbEntity
  8
0
  6
CONTINUOUS
 62
     3
100
AcDbLine
 10
174.1207599999998
 20
-404.6057254006113
 30
0.0
 11
171.8113599999998
 21
-400.6056614006112
 31
0.0
  0
LINE
  5
415
330
1F
100
AcDbEntity
  8
0
  6
CONTINUOUS
 62
     3
100
AcDbLine
 10
178.7395719999998
 20
-404.6057854006112
 30
0.0
 11
174.1207639999998
 21
-404.6057854006112
 31
0.0
  0
LINE
  5
416
330
1F
100
AcDbEntity
  8
0
  6
CONTINUOUS
 62
     3
100
AcDbLine
 10
181.0489279999998
 20
-400.6057254006113
 30
0.0
 11
178.7395399999998
 21
-404.6057254006113
 31
0.0
  0
LINE
  5
417
330
1F
100
AcDbEntity
  8
0
  6
CONTINUOUS
 62
     3
100
AcDbLine
 10
125.4301359999997
 20
-456.2246214006113
 30
0.0
 11
121.4301599999998
 21
-453.9152334006112
 31
0.0
  0
LINE
  5
418
330
1F
100
AcDbEntity
  8
0
  6
CONTINUOUS
 62
     3
100
AcDbLine
 10
121.4301679999998
 20
-453.9151734006113
 30
0.0
 11
121.4301679999998
 21
-449.2963974006113
 31
0.0
  0
LINE
  5
419
330
1F
100
AcDbEntity
  8
0
  6
CONTINUOUS
 62
     3
100
AcDbLine
 10
125.4301599999998
 20
-446.9869494006113
 30
0.0
 11
121.4301559999998
 21
-449.2963374006113
 31
0.0
  0
LINE
  5
41A
330
1F
100
AcDbEntity
  8
0
  6
CONTINUOUS
 62
     3
100
AcDbLine
 10
129.4301239999998
 20
-449.2965214006113
 30
0.0
 11
125.4301199999998
 21
-446.9871334006112
 31
0.0
  0
LINE
  5
41B
330
1F
100
AcDbEntity
  8
0
  6
CONTINUOUS
 62
     3
100
AcDbLine
 10
129.4301679999998
 20
-453.9151734006113
 30
0.0
 11
129.4301679999998
 21
-449.2963974006113
 31
0.0
  0
LINE
  5
41C
330
1F
100
AcDbEntity
  8
0
  6
CONTINUOUS
 62
     3
100
AcDbLine
 10
125.4301639999998
 20
-456.2246214006113
 30
0.0
 11
129.4301919999998
 21
-453.9151734006113
 31
0.0
  0
LINE
  5
41D
330
1F
100
AcDbEntity
  8
0
  6
CONTINUOUS
 62
     3
100
AcDbLine
 10
226.4302692287182
 20
-385.6057854006112
 30
0.0
 11
126.4301679999998
 21
-385.6057854006112
 31
0.0
  0
LINE
  5
41E
330
1F
100
AcDbEntity
  8
0
  6
CONTINUOUS
 62
     3
100
AcDbLine
 10
110.4301679999998
 20
-501.6057854006112
 30
0.0
 11
110.4301679999998
 21
-401.6057429431745
 31
0.0
  0
LINE
  5
41F
330
1F
100
AcDbEntity
  8
0
  6
CONTINUOUS
 62
     3
100
AcDbLine
 10
181.0489039999998
 20
-502.6057854006112
 30
0.0
 11
178.7394879999998
 21
-506.6057854006112
 31
0.0
  0
LINE
  5
420
330
1F
100
AcDbEntity
  8
0
  6
CONTINUOUS
 62
     3
100
AcDbLine
 10
178.7395719999998
 20
-506.6057854006112
 30
0.0
 11
174.1207639999998
 21
-506.6057854006112
 31
0.0
  0
LINE
  5
421
330
1F
100
AcDbEntity
  8
0
  6
CONTINUOUS
 62
     3
100
AcDbLine
 10
171.8114559999998
 20
-502.6057854006112
 30
0.0
 11
174.1208719999998
 21
-506.6058454006112
 31
0.0
  0
LINE
  5
422
330
1F
100
AcDbEntity
  8
0
  6
CONTINUOUS
 62
     3
100
AcDbLine
 10
174.1207239999998
 20
-498.6057854006112
 30
0.0
 11
171.8113079999998
 21
-502.6058454006112
 31
0.0
  0
LINE
  5
423
330
1F
100
AcDbEntity
  8
0
  6
CONTINUOUS
 62
     3
100
AcDbLine
 10
178.7395719999998
 20
-498.6057854006112
 30
0.0
 11
174.1207639999998
 21
-498.6057854006112
 31
0.0
  0
LINE
  5
424
330
1F
100
AcDbEntity
  8
0
  6
CONTINUOUS
 62
     3
100
AcDbLine
 10
181.0489879999998
 20
-502.6057854006112
 30
0.0
 11
178.7395999999998
 21
-498.6057854006112
 31
0.0
  0
LINE
  5
425
330
1F
100
AcDbEntity
  8
0
  6
CONTINUOUS
 62
     3
100
AcDbLine
 10
227.4302359999998
 20
-446.9869494006113
 30
0.0
 11
231.4302119999999
 21
-449.2963374006113
 31
0.0
  0
LINE
  5
426
330
1F
100
AcDbEntity
  8
0
  6
CONTINUOUS
 62
     3
100
AcDbLine
 10
231.4301679999999
 20
-449.2963974006113
 30
0.0
 11
231.4301679999999
 21
-453.9151734006113
 31
0.0
  0
LINE
  5
427
330
1F
100
AcDbEntity
  8
0
  6
CONTINUOUS
 62
     3
100
AcDbLine
 10
227.4301839999998
 20
-456.2246214006113
 30
0.0
 11
231.4301839999998
 21
-453.9152334006112
 31
0.0
  0
LINE
  5
428
330
1F
100
AcDbEntity
  8
0
  6
CONTINUOUS
 62
     3
100
AcDbLine
 10
223.4300999999998
 20
-453.9152334006112
 30
0.0
 11
227.4301079999998
 21
-456.2246814006112
 31
0.0
  0
LINE
  5
429
330
1F
100
AcDbEntity
  8
0
  6
CONTINUOUS
 62
     3
100
AcDbLine
 10
223.4301679999999
 20
-449.2963974006113
 30
0.0
 11
223.4301679999999
 21
-453.9151734006113
 31
0.0
  0
LINE
  5
42A
330
1F
100
AcDbEntity
  8
0
  6
CONTINUOUS
 62
     3
100
AcDbLine
 10
227.4301439999998
 20
-446.9870734006113
 30
0.0
 11
223.4301679999999
 21
-449.2964574006112
 31
0.0
  0
CIRCLE
  5
42B
330
1F
100
AcDbEntity
  8
0
  6
CONTINUOUS
 62
     3
100
AcDbCircle
 10
176.4301679999999
 20
-451.6057854006112
 30
0.0
 40
19.5
  0
ARC
  5
42C
330
1F
100
AcDbEntity
  8
0
  6
CONTINUOUS
 62
     3
100
AcDbCircle
 10
226.4301679999999
 20
-401.6057854006112
 30
0.0
 40
16.0
100
AcDbArc
 50
0.0
 51
89.99963903658282
  0
CIRCLE
  5
42D
330
1F
100
AcDbEntity
  8
0
  6
CONTINUOUS
 62
     3
100
AcDbCircle
 10
176.4301679999999
 20
-400.6057854006112
 30
0.0
 40
8.75
  0
CIRCLE
  5
42E
330
1F
100
AcDbEntity
  8
0
  6
CONTINUOUS
 62
     3
100
AcDbCircle
 10
176.4301679999999
 20
-400.6057854006112
 30
0.0
 40
8.0
  0
CIRCLE
  5
42F
330
1F
100
AcDbEntity
  8
0
  6
CONTINUOUS
 62
     3
100
AcDbCircle
 10
226.4301679999999
 20
-401.6057854006112
 30
0.0
 40
7.0
  0
CIRCLE
  5
430
330
1F
100
AcDbEntity
  8
0
  6
CONTINUOUS
 62
     3
100
AcDbCircle
 10
176.4301679999999
 20
-451.6057854006112
 30
0.0
 40
32.5
  0
CIRCLE
  5
431
330
1F
100
AcDbEntity
  8
0
  6
CONTINUOUS
 62
     3
100
AcDbCircle
 10
176.4301679999999
 20
-451.6057854006112
 30
0.0
 40
40.0
  0
CIRCLE
  5
432
330
1F
100
AcDbEntity
  8
0
  6
CONTINUOUS
 62
     3
100
AcDbCircle
 10
226.4301679999999
 20
-501.6057854006112
 30
0.0
 40
7.0
  0
ARC
  5
433
330
1F
100
AcDbEntity
  8
0
  6
CONTINUOUS
 62
     3
100
AcDbCircle
 10
226.4301679999999
 20
-501.6057854006112
 30
0.0
 40
16.0
100
AcDbArc
 50
269.9994839266155
 51
359.9999999999999
  0
CIRCLE
  5
434
330
1F
100
AcDbEntity
  8
0
  6
CONTINUOUS
 62
     3
100
AcDbCircle
 10
125.4301679999998
 20
-451.6057854006112
 30
0.0
 40
8.75
  0
CIRCLE
  5
435
330
1F
100
AcDbEntity
  8
0
  6
CONTINUOUS
 62
     3
100
AcDbCircle
 10
125.4301679999998
 20
-451.6057854006112
 30
0.0
 40
8.0
  0
CIRCLE
  5
436
330
1F
100
AcDbEntity
  8
0
  6
CONTINUOUS
 62
     3
100
AcDbCircle
 10
126.4301679999998
 20
-401.6057854006112
 30
0.0
 40
7.0
  0
ARC
  5
437
330
1F
100
AcDbEntity
  8
0
  6
CONTINUOUS
 62
     3
100
AcDbCircle
 10
126.4301679999998
 20
-401.6057854006112
 30
0.0
 40
16.0
100
AcDbArc
 50
89.99963903658282
 51
179.9998510309707
  0
CIRCLE
  5
438
330
1F
100
AcDbEntity
  8
0
  6
CONTINUOUS
 62
     3
100
AcDbCircle
 10
126.4301679999998
 20
-501.6057854006112
 30
0.0
 40
7.0
  0
ARC
  5
439
330
1F
100
AcDbEntity
  8
0
  6
CONTINUOUS
 62
     3
100
AcDbCircle
 10
126.4301679999998
 20
-501.6057854006112
 30
0.0
 40
16.0
100
AcDbArc
 50
179.9998510309707
 51
269.9994839266155
  0
CIRCLE
  5
43A
330
1F
100
AcDbEntity
  8
0
  6
CONTINUOUS
 62
     3
100
AcDbCircle
 10
176.4301679999999
 20
-502.6057854006112
 30
0.0
 40
8.0
  0
CIRCLE
  5
43B
330
1F
100
AcDbEntity
  8
0
  6
CONTINUOUS
 62
     3
100
AcDbCircle
 10
176.4301679999999
 20
-502.6057854006112
 30
0.0
 40
8.75
  0
CIRCLE
  5
43C
330
1F
100
AcDbEntity
  8
0
  6
CONTINUOUS
 62
     3
100
AcDbCircle
 10
227.4301679999999
 20
-451.6057854006112
 30
0.0
 40
8.0
  0
CIRCLE
  5
43D
330
1F
100
AcDbEntity
  8
0
  6
CONTINUOUS
 62
     3
100
AcDbCircle
 10
227.4301679999999
 20
-451.6057854006112
 30
0.0
 40
8.75
  0
LINE
  5
43E
330
1F
100
AcDbEntity
  8
0
  6
CONTINUOUS
 62
     3
100
AcDbLine
 10
-173.5115382234684
 20
-353.9391294006113
 30
0.0
 11
-173.5115382234684
 21
-487.9391294006113
 31
0.0
  0
LINE
  5
43F
330
1F
100
AcDbEntity
  8
0
  6
CONTINUOUS
 62
     3
100
AcDbLine
 10
-324.5115382234684
 20
-366.4391294006113
 30
0.0
 11
-324.5115382234684
 21
-455.4391294006113
 31
0.0
  0
LINE
  5
440
330
1F
100
AcDbEntity
  8
0
  6
CONTINUOUS
 62
     3
100
AcDbLine
 10
-321.5115382234684
 20
-350.9391294006113
 30
0.0
 11
-189.5115382234684
 21
-350.9391294006113
 31
0.0
  0
LINE
  5
441
330
1F
100
AcDbEntity
  8
0
  6
CONTINUOUS
 62
     3
100
AcDbLine
 10
-187.5115382234684
 20
-487.9391294006113
 30
0.0
 11
-173.5115382234684
 21
-487.9391294006113
 31
0.0
  0
LINE
  5
442
330
1F
100
AcDbEntity
  8
0
  6
CONTINUOUS
 62
     3
100
AcDbLine
 10
-189.5115382234684
 20
-353.9391294006113
 30
0.0
 11
-173.5115382234684
 21
-353.9391294006113
 31
0.0
  0
LINE
  5
443
330
1F
100
AcDbEntity
  8
0
  6
CONTINUOUS
 62
     3
100
AcDbLine
 10
-207.5115382234684
 20
-335.9391294006112
 30
0.0
 11
-303.5115382234684
 21
-335.9391294006112
 31
0.0
  0
LINE
  5
444
330
1F
100
AcDbEntity
  8
0
  6
CONTINUOUS
 62
     3
100
AcDbLine
 10
-191.5115382234684
 20
-344.9391294006113
 30
0.0
 11
-321.6115462234684
 21
-344.9391294006113
 31
0.0
  0
LINE
  5
445
330
1F
100
AcDbEntity
  8
0
  6
CONTINUOUS
 62
     3
100
AcDbLine
 10
-303.5115382234684
 20
-335.9391294006112
 30
0.0
 11
-303.5115382234684
 21
-340.9391294006113
 31
0.0
  0
LINE
  5
446
330
1F
100
AcDbEntity
  8
0
  6
CONTINUOUS
 62
     3
100
AcDbLine
 10
-207.5115382234684
 20
-335.9391294006112
 30
0.0
 11
-207.5115382234684
 21
-340.9391294006113
 31
0.0
  0
LINE
  5
447
330
1F
100
AcDbEntity
  8
0
  6
CONTINUOUS
 62
     3
100
AcDbLine
 10
-321.5115382234684
 20
-346.9391294006113
 30
0.0
 11
-321.5115382234684
 21
-350.9391294006113
 31
0.0
  0
LINE
  5
448
330
1F
100
AcDbEntity
  8
0
  6
CONTINUOUS
 62
     3
100
AcDbLine
 10
-189.5115382234684
 20
-346.9391294006113
 30
0.0
 11
-189.5115382234684
 21
-350.9391294006113
 31
0.0
  0
LINE
  5
449
330
1F
100
AcDbEntity
  8
0
  6
CONTINUOUS
 62
     3
100
AcDbLine
 10
-201.6115462234684
 20
-343.4391294006113
 30
0.0
 11
-189.4115302234684
 21
-343.4391294006113
 31
0.0
  0
LINE
  5
44A
330
1F
100
AcDbEntity
  8
0
  6
CONTINUOUS
 62
     3
100
AcDbLine
 10
-190.2615382234684
 20
-341.9121054006113
 30
0.0
 11
-190.2615382234684
 21
-343.4391294006113
 31
0.0
  0
LINE
  5
44B
330
1F
100
AcDbEntity
  8
0
  6
CONTINUOUS
 62
     3
100
AcDbLine
 10
-200.7615382234684
 20
-341.9121054006113
 30
0.0
 11
-200.7615382234684
 21
-343.4391294006113
 31
0.0
  0
LINE
  5
44C
330
1F
100
AcDbEntity
  8
0
  6
CONTINUOUS
 62
     3
100
AcDbLine
 10
-201.6115462234684
 20
-343.4391294006113
 30
0.0
 11
-201.6115462234684
 21
-344.9391294006113
 31
0.0
  0
LINE
  5
44D
330
1F
100
AcDbEntity
  8
0
  6
CONTINUOUS
 62
     3
100
AcDbLine
 10
-189.4115302234684
 20
-343.4391294006113
 30
0.0
 11
-189.4115302234684
 21
-344.9391294006113
 31
0.0
  0
LINE
  5
44E
330
1F
100
AcDbEntity
  8
0
  6
CONTINUOUS
 62
     3
100
AcDbLine
 10
-195.5115062234684
 20
-343.4390534006112
 30
0.0
 11
-194.0115062234684
 21
-344.9390694006113
 31
0.0
  0
LINE
  5
44F
330
1F
100
AcDbEntity
  8
0
  6
CONTINUOUS
 62
     3
100
AcDbLine
 10
-195.5114782234684
 20
-344.9390694006113
 30
0.0
 11
-197.0114782234684
 21
-343.4390694006113
 31
0.0
  0
LINE
  5
450
330
1F
100
AcDbEntity
  8
0
  6
CONTINUOUS
 62
     3
100
AcDbLine
 10
-321.6115462234684
 20
-343.4391294006113
 30
0.0
 11
-309.4115302234684
 21
-343.4391294006113
 31
0.0
  0
LINE
  5
451
330
1F
100
AcDbEntity
  8
0
  6
CONTINUOUS
 62
     3
100
AcDbLine
 10
-310.2615382234684
 20
-341.9121214006112
 30
0.0
 11
-310.2615382234684
 21
-343.4391294006113
 31
0.0
  0
LINE
  5
452
330
1F
100
AcDbEntity
  8
0
  6
CONTINUOUS
 62
     3
100
AcDbLine
 10
-320.7615382234684
 20
-341.9121214006112
 30
0.0
 11
-320.7615382234684
 21
-343.4391294006113
 31
0.0
  0
LINE
  5
453
330
1F
100
AcDbEntity
  8
0
  6
CONTINUOUS
 62
     3
100
AcDbLine
 10
-321.6115462234684
 20
-343.4391294006113
 30
0.0
 11
-321.6115462234684
 21
-344.9391294006113
 31
0.0
  0
LINE
  5
454
330
1F
100
AcDbEntity
  8
0
  6
CONTINUOUS
 62
     3
100
AcDbLine
 10
-309.4115302234684
 20
-343.4391294006113
 30
0.0
 11
-309.4115302234684
 21
-344.9391294006113
 31
0.0
  0
LINE
  5
455
330
1F
100
AcDbEntity
  8
0
  6
CONTINUOUS
 62
     3
100
AcDbLine
 10
-315.5114782234684
 20
-343.4390694006113
 30
0.0
 11
-314.0114782234684
 21
-344.9390694006113
 31
0.0
  0
LINE
  5
456
330
1F
100
AcDbEntity
  8
0
  6
CONTINUOUS
 62
     3
100
AcDbLine
 10
-315.5114142234684
 20
-344.9390214006113
 30
0.0
 11
-317.0114142234684
 21
-343.4390214006113
 31
0.0
  0
LINE
  5
457
330
1F
100
AcDbEntity
  8
0
  6
CONTINUOUS
 62
     3
100
AcDbLine
 10
-123.5115382234684
 20
-398.4391294006113
 30
0.0
 11
-123.5115382234684
 21
-443.4391294006112
 31
0.0
  0
LINE
  5
458
330
1F
100
AcDbEntity
  8
0
  6
CONTINUOUS
 62
     3
100
AcDbLine
 10
-123.5115382234684
 20
-443.4392214006112
 30
0.0
 11
-136.3735702234684
 21
-447.2978334006112
 31
0.0
  0
LINE
  5
459
330
1F
100
AcDbEntity
  8
0
  6
CONTINUOUS
 62
     3
100
AcDbLine
 10
-123.5115382234684
 20
-398.4391894006112
 30
0.0
 11
-136.3735982234684
 21
-394.5805494006112
 31
0.0
  0
LINE
  5
45A
330
1F
100
AcDbEntity
  8
0
  6
CONTINUOUS
 62
     3
100
AcDbLine
 10
-166.5115382234684
 20
-353.9391294006113
 30
0.0
 11
-166.5115382234684
 21
-487.9391294006113
 31
0.0
  0
LINE
  5
45B
330
1F
100
AcDbEntity
  8
0
  6
CONTINUOUS
 62
     3
100
AcDbLine
 10
-138.5115382234684
 20
-359.1377974006112
 30
0.0
 11
-138.5115382234684
 21
-482.7404614006113
 31
0.0
  0
LINE
  5
45C
330
1F
100
AcDbEntity
  8
0
  6
CONTINUOUS
 62
     3
100
AcDbLine
 10
-166.5115382234684
 20
-487.9391294006113
 30
0.0
 11
-173.5115382234684
 21
-487.9391294006113
 31
0.0
  0
LINE
  5
45D
330
1F
100
AcDbEntity
  8
0
  6
CONTINUOUS
 62
     3
100
AcDbLine
 10
-166.5115382234684
 20
-353.9391294006113
 30
0.0
 11
-173.5115382234684
 21
-353.9391294006113
 31
0.0
  0
LINE
  5
45E
330
1F
100
AcDbEntity
  8
0
  6
CONTINUOUS
 62
     3
100
AcDbLine
 10
-166.5115062234684
 20
-353.9392214006112
 30
0.0
 11
-141.2500942234684
 21
-356.1493054006113
 31
0.0
  0
LINE
  5
45F
330
1F
100
AcDbEntity
  8
0
  6
CONTINUOUS
 62
     3
100
AcDbLine
 10
-166.5114782234684
 20
-487.9392814006112
 30
0.0
 11
-141.2500342234683
 21
-485.7291974006112
 31
0.0
  0
LINE
  5
460
330
1F
100
AcDbEntity
  8
0
  6
CONTINUOUS
 62
     3
100
AcDbLine
 10
-165.5115382234684
 20
-373.9391294006113
 30
0.0
 11
-140.5115382234684
 21
-373.9391294006113
 31
0.0
  0
LINE
  5
461
330
1F
100
AcDbEntity
  8
0
  6
CONTINUOUS
 62
     3
100
AcDbLine
 10
-165.5115382234684
 20
-467.9391294006113
 30
0.0
 11
-140.5115382234684
 21
-467.9391294006113
 31
0.0
  0
LINE
  5
462
330
1F
100
AcDbEntity
  8
0
  6
CONTINUOUS
 62
     3
100
AcDbLine
 10
-165.0115382234684
 20
-359.8391214006112
 30
0.0
 11
-165.0115382234684
 21
-372.0391374006113
 31
0.0
  0
LINE
  5
463
330
1F
100
AcDbEntity
  8
0
  6
CONTINUOUS
 62
     3
100
AcDbLine
 10
-163.4845302234684
 20
-371.1891294006113
 30
0.0
 11
-165.0115382234684
 21
-371.1891294006113
 31
0.0
  0
LINE
  5
464
330
1F
100
AcDbEntity
  8
0
  6
CONTINUOUS
 62
     3
100
AcDbLine
 10
-163.4845302234684
 20
-360.6891294006113
 30
0.0
 11
-165.0115382234684
 21
-360.6891294006113
 31
0.0
  0
LINE
  5
465
330
1F
100
AcDbEntity
  8
0
  6
CONTINUOUS
 62
     3
100
AcDbLine
 10
-165.0115382234684
 20
-359.8391214006112
 30
0.0
 11
-166.5115382234684
 21
-359.8391214006112
 31
0.0
  0
LINE
  5
466
330
1F
100
AcDbEntity
  8
0
  6
CONTINUOUS
 62
     3
100
AcDbLine
 10
-165.0115382234684
 20
-372.0391374006113
 30
0.0
 11
-166.5115382234684
 21
-372.0391374006113
 31
0.0
  0
LINE
  5
467
330
1F
100
AcDbEntity
  8
0
  6
CONTINUOUS
 62
     3
100
AcDbLine
 10
-165.0115062234684
 20
-365.9391134006113
 30
0.0
 11
-166.5115062234684
 21
-367.4391134006113
 31
0.0
  0
LINE
  5
468
330
1F
100
AcDbEntity
  8
0
  6
CONTINUOUS
 62
     3
100
AcDbLine
 10
-166.5115062234684
 20
-365.9391134006113
 30
0.0
 11
-165.0115382234684
 21
-364.4391294006113
 31
0.0
  0
LINE
  5
469
330
1F
100
AcDbEntity
  8
0
  6
CONTINUOUS
 62
     3
100
AcDbLine
 10
-165.0115382234684
 20
-469.8391214006112
 30
0.0
 11
-165.0115382234684
 21
-482.0391374006113
 31
0.0
  0
LINE
  5
46A
330
1F
100
AcDbEntity
  8
0
  6
CONTINUOUS
 62
     3
100
AcDbLine
 10
-163.4845302234684
 20
-481.1891294006113
 30
0.0
 11
-165.0115382234684
 21
-481.1891294006113
 31
0.0
  0
LINE
  5
46B
330
1F
100
AcDbEntity
  8
0
  6
CONTINUOUS
 62
     3
100
AcDbLine
 10
-163.4845302234684
 20
-470.6891294006113
 30
0.0
 11
-165.0115382234684
 21
-470.6891294006113
 31
0.0
  0
LINE
  5
46C
330
1F
100
AcDbEntity
  8
0
  6
CONTINUOUS
 62
     3
100
AcDbLine
 10
-165.0115382234684
 20
-469.8391214006112
 30
0.0
 11
-166.5115382234684
 21
-469.8391214006112
 31
0.0
  0
LINE
  5
46D
330
1F
100
AcDbEntity
  8
0
  6
CONTINUOUS
 62
     3
100
AcDbLine
 10
-165.0115382234684
 20
-482.0391374006113
 30
0.0
 11
-166.5115382234684
 21
-482.0391374006113
 31
0.0
  0
LINE
  5
46E
330
1F
100
AcDbEntity
  8
0
  6
CONTINUOUS
 62
     3
100
AcDbLine
 10
-165.0115382234684
 20
-475.9390974006112
 30
0.0
 11
-166.5115062234684
 21
-477.4390694006112
 31
0.0
  0
LINE
  5
46F
330
1F
100
AcDbEntity
  8
0
  6
CONTINUOUS
 62
     3
100
AcDbLine
 10
-166.5115382234684
 20
-475.9391294006113
 30
0.0
 11
-165.0115062234684
 21
-474.4390974006112
 31
0.0
  0
LINE
  5
470
330
1F
100
AcDbEntity
  8
0
  6
CONTINUOUS
 62
     3
100
AcDbLine
 10
-158.5115382234684
 20
-373.9391294006113
 30
0.0
 11
-158.5115382234684
 21
-467.9391294006113
 31
0.0
  0
LINE
  5
471
330
1F
100
AcDbEntity
  8
0
  6
CONTINUOUS
 62
     3
100
AcDbLine
 10
-173.5115382234684
 20
-382.9391294006113
 30
0.0
 11
-166.5115382234684
 21
-382.9391294006113
 31
0.0
  0
LINE
  5
472
330
1F
100
AcDbEntity
  8
0
  6
CONTINUOUS
 62
     3
100
AcDbLine
 10
-173.5115382234684
 20
-458.9391294006113
 30
0.0
 11
-166.5115382234684
 21
-458.9391294006113
 31
0.0
  0
LINE
  5
473
330
1F
100
AcDbEntity
  8
0
  6
CONTINUOUS
 62
     3
100
AcDbLine
 10
-207.5115382234684
 20
-335.9391294006112
 30
0.0
 11
-207.5115382234684
 21
-330.9391294006112
 31
0.0
  0
LINE
  5
474
330
1F
100
AcDbEntity
  8
0
  6
CONTINUOUS
 62
     3
100
AcDbLine
 10
-303.5115382234684
 20
-335.9391454006112
 30
0.0
 11
-303.5115382234684
 21
-330.9391454006112
 31
0.0
  0
LINE
  5
475
330
1F
100
AcDbEntity
  8
0
  6
CONTINUOUS
 62
     3
100
AcDbLine
 10
-291.5115382234684
 20
-329.9391294006112
 30
0.0
 11
-291.5115382234684
 21
-317.9391294006113
 31
0.0
  0
LINE
  5
476
330
1F
100
AcDbEntity
  8
0
  6
CONTINUOUS
 62
     3
100
AcDbLine
 10
-219.5115382234684
 20
-329.9391294006112
 30
0.0
 11
-219.5115382234684
 21
-317.9391294006113
 31
0.0
  0
LINE
  5
477
330
1F
100
AcDbEntity
  8
0
  6
CONTINUOUS
 62
     3
100
AcDbLine
 10
-303.5115382234684
 20
-330.9390974006112
 30
0.0
 11
-207.5115382234684
 21
-330.9390974006112
 31
0.0
  0
LINE
  5
478
330
1F
100
AcDbEntity
  8
0
  6
CONTINUOUS
 62
     3
100
AcDbLine
 10
-298.8771982234684
 20
-317.9390974006112
 30
0.0
 11
-212.1458782234685
 21
-317.9390974006112
 31
0.0
  0
LINE
  5
479
330
1F
100
AcDbEntity
  8
0
  6
CONTINUOUS
 62
     3
100
AcDbLine
 10
-207.5116302234684
 20
-330.9391614006112
 30
0.0
 11
-210.6970862234684
 21
-319.0509134006113
 31
0.0
  0
LINE
  5
47A
330
1F
100
AcDbEntity
  8
0
  6
CONTINUOUS
 62
     3
100
AcDbLine
 10
-303.5118142234684
 20
-330.9390974006112
 30
0.0
 11
-300.3263862234684
 21
-319.0508694006113
 31
0.0
  0
LINE
  5
47B
330
1F
100
AcDbEntity
  8
0
  6
CONTINUOUS
 62
     3
100
AcDbLine
 10
-285.5115382234684
 20
-316.9391134006113
 30
0.0
 11
-225.5115382234684
 21
-316.9391134006113
 31
0.0
  0
LINE
  5
47C
330
1F
100
AcDbEntity
  8
0
  6
CONTINUOUS
 62
     3
100
AcDbLine
 10
-282.0115382234684
 20
-316.4391294006113
 30
0.0
 11
-229.0115382234684
 21
-316.4391294006113
 31
0.0
  0
LINE
  5
47D
330
1F
100
AcDbEntity
  8
0
  6
CONTINUOUS
 62
     3
100
AcDbLine
 10
-282.0115382234684
 20
-316.9391294006113
 30
0.0
 11
-282.0115382234684
 21
-316.4391294006113
 31
0.0
  0
LINE
  5
47E
330
1F
100
AcDbEntity
  8
0
  6
CONTINUOUS
 62
     3
100
AcDbLine
 10
-229.0115382234684
 20
-316.9391294006113
 30
0.0
 11
-229.0115382234684
 21
-316.4391294006113
 31
0.0
  0
LINE
  5
47F
330
1F
100
AcDbEntity
  8
0
  6
CONTINUOUS
 62
     3
100
AcDbLine
 10
-217.1115462234684
 20
-329.6391254006112
 30
0.0
 11
-207.9115302234684
 21
-329.6391254006112
 31
0.0
  0
LINE
  5
480
330
1F
100
AcDbEntity
  8
0
  6
CONTINUOUS
 62
     3
100
AcDbLine
 10
-217.0115382234684
 20
-328.3516374006112
 30
0.0
 11
-217.0115382234684
 21
-329.6391254006112
 31
0.0
  0
LINE
  5
481
330
1F
100
AcDbEntity
  8
0
  6
CONTINUOUS
 62
     3
100
AcDbLine
 10
-208.0115382234684
 20
-328.3516374006112
 30
0.0
 11
-208.0115382234684
 21
-329.6391254006112
 31
0.0
  0
LINE
  5
482
330
1F
100
AcDbEntity
  8
0
  6
CONTINUOUS
 62
     3
100
AcDbLine
 10
-207.9115302234684
 20
-329.6391254006112
 30
0.0
 11
-207.9115302234684
 21
-330.9391294006112
 31
0.0
  0
LINE
  5
483
330
1F
100
AcDbEntity
  8
0
  6
CONTINUOUS
 62
     3
100
AcDbLine
 10
-217.1115462234684
 20
-329.6391254006112
 30
0.0
 11
-217.1115462234684
 21
-330.9391294006112
 31
0.0
  0
LINE
  5
484
330
1F
100
AcDbEntity
  8
0
  6
CONTINUOUS
 62
     3
100
AcDbLine
 10
-212.5114142234684
 20
-329.6390334006113
 30
0.0
 11
-211.2114302234684
 21
-330.9390214006112
 31
0.0
  0
LINE
  5
485
330
1F
100
AcDbEntity
  8
0
  6
CONTINUOUS
 62
     3
100
AcDbLine
 10
-212.5115382234684
 20
-330.9390534006112
 30
0.0
 11
-213.8115582234684
 21
-329.6390494006112
 31
0.0
  0
LINE
  5
486
330
1F
100
AcDbEntity
  8
0
  6
CONTINUOUS
 62
     3
100
AcDbLine
 10
-303.1115462234684
 20
-329.6391254006112
 30
0.0
 11
-293.9115302234684
 21
-329.6391254006112
 31
0.0
  0
LINE
  5
487
330
1F
100
AcDbEntity
  8
0
  6
CONTINUOUS
 62
     3
100
AcDbLine
 10
-303.0115382234684
 20
-328.3516374006112
 30
0.0
 11
-303.0115382234684
 21
-329.6391254006112
 31
0.0
  0
LINE
  5
488
330
1F
100
AcDbEntity
  8
0
  6
CONTINUOUS
 62
     3
100
AcDbLine
 10
-294.0115382234684
 20
-328.3516374006112
 30
0.0
 11
-294.0115382234684
 21
-329.6391254006112
 31
0.0
  0
LINE
  5
489
330
1F
100
AcDbEntity
  8
0
  6
CONTINUOUS
 62
     3
100
AcDbLine
 10
-293.9115302234684
 20
-329.6391254006112
 30
0.0
 11
-293.9115302234684
 21
-330.9391294006112
 31
0.0
  0
LINE
  5
48A
330
1F
100
AcDbEntity
  8
0
  6
CONTINUOUS
 62
     3
100
AcDbLine
 10
-303.1115462234684
 20
-329.6391254006112
 30
0.0
 11
-303.1115462234684
 21
-330.9391294006112
 31
0.0
  0
LINE
  5
48B
330
1F
100
AcDbEntity
  8
0
  6
CONTINUOUS
 62
     3
100
AcDbLine
 10
-298.5114462234684
 20
-329.6391254006112
 30
0.0
 11
-297.2114582234684
 21
-330.9391294006112
 31
0.0
  0
LINE
  5
48C
330
1F
100
AcDbEntity
  8
0
  6
CONTINUOUS
 62
     3
100
AcDbLine
 10
-298.5115382234684
 20
-330.9390214006112
 30
0.0
 11
-299.8115262234684
 21
-329.6390334006113
 31
0.0
  0
LINE
  5
48D
330
1F
100
AcDbEntity
  8
0
  6
CONTINUOUS
 62
     3
100
AcDbLine
 10
-275.0115382234684
 20
-510.9391294006113
 30
0.0
 11
-236.0115382234684
 21
-510.9391294006113
 31
0.0
  0
LINE
  5
48E
330
1F
100
AcDbEntity
  8
0
  6
CONTINUOUS
 62
     3
100
AcDbLine
 10
-318.0115382234684
 20
-470.9391294006113
 30
0.0
 11
-193.0115382234684
 21
-470.9391294006113
 31
0.0
  0
LINE
  5
48F
330
1F
100
AcDbEntity
  8
0
  6
CONTINUOUS
 62
     3
100
AcDbLine
 10
-318.0115382234684
 20
-467.7088134006112
 30
0.0
 11
-318.0115382234684
 21
-470.9391294006113
 31
0.0
  0
LINE
  5
490
330
1F
100
AcDbEntity
  8
0
  6
CONTINUOUS
 62
     3
100
AcDbLine
 10
-193.0115382234684
 20
-467.9391294006113
 30
0.0
 11
-193.0115382234684
 21
-470.9391294006113
 31
0.0
  0
LINE
  5
491
330
1F
100
AcDbEntity
  8
0
  6
CONTINUOUS
 62
     3
100
AcDbLine
 10
-275.0115382234684
 20
-494.9391294006113
 30
0.0
 11
-275.0115382234684
 21
-510.9391294006113
 31
0.0
  0
LINE
  5
492
330
1F
100
AcDbEntity
  8
0
  6
CONTINUOUS
 62
     3
100
AcDbLine
 10
-236.0115382234684
 20
-494.9391294006113
 30
0.0
 11
-236.0115382234684
 21
-510.9391294006113
 31
0.0
  0
LINE
  5
493
330
1F
100
AcDbEntity
  8
0
  6
CONTINUOUS
 62
     3
100
AcDbLine
 10
-257.3076182234685
 20
-494.9391294006113
 30
0.0
 11
-257.3076182234685
 21
-510.9391294006113
 31
0.0
  0
LINE
  5
494
330
1F
100
AcDbEntity
  8
0
  6
CONTINUOUS
 62
     3
100
AcDbLine
 10
-253.7154582234684
 20
-494.9391294006113
 30
0.0
 11
-253.7154582234684
 21
-510.9391294006113
 31
0.0
  0
LINE
  5
495
330
1F
100
AcDbEntity
  8
0
  6
CONTINUOUS
 62
     3
100
AcDbLine
 10
-266.9183982234684
 20
-494.9390974006112
 30
0.0
 11
-275.0116302234684
 21
-510.9390974006112
 31
0.0
  0
LINE
  5
496
330
1F
100
AcDbEntity
  8
0
  6
CONTINUOUS
 62
     3
100
AcDbLine
 10
-244.1050142234684
 20
-494.9391894006112
 30
0.0
 11
-236.0117822234685
 21
-510.9392534006112
 31
0.0
  0
LINE
  5
497
330
1F
100
AcDbEntity
  8
0
  6
CONTINUOUS
 62
     3
100
AcDbLine
 10
-245.6223182234684
 20
-494.9391614006112
 30
0.0
 11
-253.7155182234684
 21
-510.9391294006113
 31
0.0
  0
LINE
  5
498
330
1F
100
AcDbEntity
  8
0
  6
CONTINUOUS
 62
     3
100
AcDbLine
 10
-265.4010942234684
 20
-494.9391894006112
 30
0.0
 11
-257.3078622234684
 21
-510.9392214006112
 31
0.0
  0
LINE
  5
499
330
1F
100
AcDbEntity
  8
0
  6
CONTINUOUS
 62
     3
100
AcDbLine
 10
-190.5115382234684
 20
-467.9391294006113
 30
0.0
 11
-190.5115382234684
 21
-484.9391294006113
 31
0.0
  0
LINE
  5
49A
330
1F
100
AcDbEntity
  8
0
  6
CONTINUOUS
 62
     3
100
AcDbLine
 10
-340.5115382234684
 20
-441.9391294006112
 30
0.0
 11
-340.5115382234684
 21
-425.9391294006112
 31
0.0
  0
LINE
  5
49B
330
1F
100
AcDbEntity
  8
0
  6
CONTINUOUS
 62
     3
100
AcDbLine
 10
-332.9337502234683
 20
-447.7955454006112
 30
0.0
 11
-324.5115382234684
 21
-447.7955454006112
 31
0.0
  0
LINE
  5
49C
330
1F
100
AcDbEntity
  8
0
  6
CONTINUOUS
 62
     3
100
AcDbLine
 10
-332.9337502234683
 20
-440.8673534006112
 30
0.0
 11
-324.5115382234684
 21
-440.8673534006112
 31
0.0
  0
LINE
  5
49D
330
1F
100
AcDbEntity
  8
0
  6
CONTINUOUS
 62
     3
100
AcDbLine
 10
-332.9337502234683
 20
-427.0109374006112
 30
0.0
 11
-324.5115382234684
 21
-427.0109374006112
 31
0.0
  0
LINE
  5
49E
330
1F
100
AcDbEntity
  8
0
  6
CONTINUOUS
 62
     3
100
AcDbLine
 10
-332.9337502234683
 20
-420.0827134006112
 30
0.0
 11
-324.5115382234684
 21
-420.0827134006112
 31
0.0
  0
LINE
  5
49F
330
1F
100
AcDbEntity
  8
0
  6
CONTINUOUS
 62
     3
100
AcDbLine
 10
-334.5115382234684
 20
-444.3314334006112
 30
0.0
 11
-334.5115382234684
 21
-423.5468254006112
 31
0.0
  0
LINE
  5
4A0
330
1F
100
AcDbEntity
  8
0
  6
CONTINUOUS
 62
     3
100
AcDbLine
 10
-340.5115382234684
 20
-425.9391294006112
 30
0.0
 11
-334.5115382234684
 21
-425.9391294006112
 31
0.0
  0
LINE
  5
4A1
330
1F
100
AcDbEntity
  8
0
  6
CONTINUOUS
 62
     3
100
AcDbLine
 10
-340.5115382234684
 20
-441.9391294006112
 30
0.0
 11
-334.5115382234684
 21
-441.9391294006112
 31
0.0
  0
LINE
  5
4A2
330
1F
100
AcDbEntity
  8
0
  6
CONTINUOUS
 62
     3
100
AcDbLine
 10
-122.5115382234684
 20
-430.9391294006112
 30
0.0
 11
-122.5115382234684
 21
-410.9391294006112
 31
0.0
  0
LINE
  5
4A3
330
1F
100
AcDbEntity
  8
0
  6
CONTINUOUS
 62
     3
100
AcDbLine
 10
-123.5115382234684
 20
-430.9391294006112
 30
0.0
 11
-122.5115382234684
 21
-430.9391294006112
 31
0.0
  0
LINE
  5
4A4
330
1F
100
AcDbEntity
  8
0
  6
CONTINUOUS
 62
     3
100
AcDbLine
 10
-123.5115382234684
 20
-410.9391294006112
 30
0.0
 11
-122.5115382234684
 21
-410.9391294006112
 31
0.0
  0
LINE
  5
4A5
330
1F
100
AcDbEntity
  8
0
  6
CONTINUOUS
 62
     3
100
AcDbLine
 10
-321.5115382234684
 20
-494.9391294006113
 30
0.0
 11
-189.5115382234684
 21
-494.9391294006113
 31
0.0
  0
LINE
  5
4A6
330
1F
100
AcDbEntity
  8
0
  6
CONTINUOUS
 62
     3
100
AcDbLine
 10
-189.5115382234684
 20
-487.1751814006112
 30
0.0
 11
-189.5115382234684
 21
-494.9391294006113
 31
0.0
  0
LINE
  5
4A7
330
1F
100
AcDbEntity
  8
0
  6
CONTINUOUS
 62
     3
100
AcDbLine
 10
-321.5115382234684
 20
-476.9391294006113
 30
0.0
 11
-321.5115382234684
 21
-494.9391294006113
 31
0.0
  0
LINE
  5
4A8
330
1F
100
AcDbEntity
  8
0
  6
CONTINUOUS
 62
     3
100
AcDbLine
 10
-193.0115382234684
 20
-470.9391294006113
 30
0.0
 11
-193.0115382234684
 21
-473.9391294006113
 31
0.0
  0
LINE
  5
4A9
330
1F
100
AcDbEntity
  8
0
  6
CONTINUOUS
 62
     3
100
AcDbLine
 10
-318.0115382234684
 20
-470.9391294006113
 30
0.0
 11
-318.0115382234684
 21
-473.9391294006113
 31
0.0
  0
LINE
  5
4AA
330
1F
100
AcDbEntity
  8
0
  6
CONTINUOUS
 62
     3
100
AcDbLine
 10
-320.5115382234684
 20
-475.9391294006113
 30
0.0
 11
-190.5115382234684
 21
-475.9391294006113
 31
0.0
  0
LINE
  5
4AB
330
1F
100
AcDbEntity
  8
0
  6
CONTINUOUS
 62
     3
100
AcDbLine
 10
-220.5115382234684
 20
-470.9391294006113
 30
0.0
 11
-220.5115382234684
 21
-473.9391294006113
 31
0.0
  0
LINE
  5
4AC
330
1F
100
AcDbEntity
  8
0
  6
CONTINUOUS
 62
     3
100
AcDbLine
 10
-290.5115382234684
 20
-470.9391294006113
 30
0.0
 11
-290.5115382234684
 21
-473.9391294006113
 31
0.0
  0
LINE
  5
4AD
330
1F
100
AcDbEntity
  8
0
  6
CONTINUOUS
 62
     3
100
AcDbLine
 10
-315.5115382234684
 20
-353.9391294006113
 30
0.0
 11
-182.5115382234684
 21
-353.9391294006113
 31
0.0
  0
LINE
  5
4AE
330
1F
100
AcDbEntity
  8
0
  6
CONTINUOUS
 62
     3
100
AcDbLine
 10
-182.5115382234684
 20
-367.4391294006113
 30
0.0
 11
-178.5115382234684
 21
-367.4391294006113
 31
0.0
  0
LINE
  5
4AF
330
1F
100
AcDbEntity
  8
0
  6
CONTINUOUS
 62
     3
100
AcDbLine
 10
-190.0115382234684
 20
-359.9391294006113
 30
0.0
 11
-190.0115382234684
 21
-355.9391294006113
 31
0.0
  0
LINE
  5
4B0
330
1F
100
AcDbEntity
  8
0
  6
CONTINUOUS
 62
     3
100
AcDbLine
 10
-184.7035862234684
 20
-362.1311614006113
 30
0.0
 11
-180.3194902234684
 21
-357.7470974006112
 31
0.0
  0
LINE
  5
4B1
330
1F
100
AcDbEntity
  8
0
  6
CONTINUOUS
 62
     3
100
AcDbLine
 10
-184.7035862234684
 20
-357.7471294006112
 30
0.0
 11
-180.3195222234684
 21
-362.1311934006112
 31
0.0
  0
LINE
  5
4B2
330
1F
100
AcDbEntity
  8
0
  6
CONTINUOUS
 62
     3
100
AcDbLine
 10
-315.5115382234684
 20
-367.4391294006113
 30
0.0
 11
-319.5115382234684
 21
-367.4391294006113
 31
0.0
  0
LINE
  5
4B3
330
1F
100
AcDbEntity
  8
0
  6
CONTINUOUS
 62
     3
100
AcDbLine
 10
-308.0115382234684
 20
-359.9391294006113
 30
0.0
 11
-308.0115382234684
 21
-355.9391294006113
 31
0.0
  0
LINE
  5
4B4
330
1F
100
AcDbEntity
  8
0
  6
CONTINUOUS
 62
     3
100
AcDbLine
 10
-313.3196142234684
 20
-362.1312814006112
 30
0.0
 11
-317.7036782234684
 21
-357.7472214006112
 31
0.0
  0
LINE
  5
4B5
330
1F
100
AcDbEntity
  8
0
  6
CONTINUOUS
 62
     3
100
AcDbLine
 10
-313.3195222234684
 20
-357.7470974006112
 30
0.0
 11
-317.7035542234685
 21
-362.1311174006113
 31
0.0
  0
LINE
  5
4B6
330
1F
100
AcDbEntity
  8
0
  6
CONTINUOUS
 62
     3
100
AcDbLine
 10
-315.5115921057766
 20
-467.9391294006113
 30
0.0
 11
-182.5115382234684
 21
-467.9391294006113
 31
0.0
  0
LINE
  5
4B7
330
1F
100
AcDbEntity
  8
0
  6
CONTINUOUS
 62
     3
100
AcDbLine
 10
-176.5115382234684
 20
-461.9391294006113
 30
0.0
 11
-176.5115382234684
 21
-359.9391294006113
 31
0.0
  0
LINE
  5
4B8
330
1F
100
AcDbEntity
  8
0
  6
CONTINUOUS
 62
     3
100
AcDbLine
 10
-182.5115382234684
 20
-454.4391294006113
 30
0.0
 11
-178.5115382234684
 21
-454.4391294006113
 31
0.0
  0
LINE
  5
4B9
330
1F
100
AcDbEntity
  8
0
  6
CONTINUOUS
 62
     3
100
AcDbLine
 10
-190.0115382234684
 20
-461.9391294006113
 30
0.0
 11
-190.0115382234684
 21
-465.9391294006113
 31
0.0
  0
LINE
  5
4BA
330
1F
100
AcDbEntity
  8
0
  6
CONTINUOUS
 62
     3
100
AcDbLine
 10
-184.7036142234684
 20
-459.7471414006112
 30
0.0
 11
-180.3195502234685
 21
-464.1312054006112
 31
0.0
  0
LINE
  5
4BB
330
1F
100
AcDbEntity
  8
0
  6
CONTINUOUS
 62
     3
100
AcDbLine
 10
-184.7035862234684
 20
-464.1311174006112
 30
0.0
 11
-180.3195222234684
 21
-459.7470534006112
 31
0.0
  0
LINE
  5
4BC
330
1F
100
AcDbEntity
  8
0
  6
CONTINUOUS
 62
     3
100
AcDbLine
 10
-321.5115382234684
 20
-461.9391294006113
 30
0.0
 11
-321.5115382234684
 21
-350.9391294006113
 31
0.0
  0
LINE
  5
4BD
330
1F
100
AcDbEntity
  8
0
  6
CONTINUOUS
 62
     3
100
AcDbLine
 10
-315.5115382234684
 20
-454.4391294006113
 30
0.0
 11
-319.5115382234684
 21
-454.4391294006113
 31
0.0
  0
LINE
  5
4BE
330
1F
100
AcDbEntity
  8
0
  6
CONTINUOUS
 62
     3
100
AcDbLine
 10
-308.0115382234684
 20
-461.9391294006113
 30
0.0
 11
-308.0115382234684
 21
-465.9391294006113
 31
0.0
  0
LINE
  5
4BF
330
1F
100
AcDbEntity
  8
0
  6
CONTINUOUS
 62
     3
100
AcDbLine
 10
-313.3195502234685
 20
-459.7470814006113
 30
0.0
 11
-317.7036142234684
 21
-464.1311454006112
 31
0.0
  0
LINE
  5
4C0
330
1F
100
AcDbEntity
  8
0
  6
CONTINUOUS
 62
     3
100
AcDbLine
 10
-313.3195822234684
 20
-464.1312374006112
 30
0.0
 11
-317.7036462234685
 21
-459.7471734006112
 31
0.0
  0
ARC
  5
4C1
330
1F
100
AcDbEntity
  8
0
  6
CONTINUOUS
 62
     3
100
AcDbCircle
 10
-323.5115382234684
 20
-363.4391294006113
 30
0.0
 40
2.0
100
AcDbArc
 50
269.9994839266163
 51
0.0
  0
ARC
  5
4C2
330
1F
100
AcDbEntity
  8
0
  6
CONTINUOUS
 62
     3
100
AcDbCircle
 10
-323.5115382234684
 20
-458.4391294006113
 30
0.0
 40
2.0
100
AcDbArc
 50
0.0
 51
89.99963903658282
  0
ARC
  5
4C3
330
1F
100
AcDbEntity
  8
0
  6
CONTINUOUS
 62
     3
100
AcDbCircle
 10
-319.5115382234684
 20
-346.9391294006113
 30
0.0
 40
2.0
100
AcDbArc
 50
89.99963903658282
 51
179.9998510309707
  0
ARC
  5
4C4
330
1F
100
AcDbEntity
  8
0
  6
CONTINUOUS
 62
     3
100
AcDbCircle
 10
-191.5115382234684
 20
-346.9391294006113
 30
0.0
 40
2.0
100
AcDbArc
 50
0.0
 51
89.99963903658282
  0
ARC
  5
4C5
330
1F
100
AcDbEntity
  8
0
  6
CONTINUOUS
 62
     3
100
AcDbCircle
 10
-203.5115382234684
 20
-340.9391294006113
 30
0.0
 40
4.0
100
AcDbArc
 50
179.9998510309707
 51
269.9994839266155
  0
ARC
  5
4C6
330
1F
100
AcDbEntity
  8
0
  6
CONTINUOUS
 62
     3
100
AcDbCircle
 10
-307.5115382234684
 20
-340.9391294006113
 30
0.0
 40
4.0
100
AcDbArc
 50
269.9994839266155
 51
0.0
  0
ARC
  5
4C7
330
1F
100
AcDbEntity
  8
0
  6
CONTINUOUS
 62
     3
100
AcDbCircle
 10
-195.5115382234684
 20
-353.5391374006113
 30
0.0
 40
14.0
100
AcDbArc
 50
73.9270266934038
 51
106.0728243375668
  0
ARC
  5
4C8
330
1F
100
AcDbEntity
  8
0
  6
CONTINUOUS
 62
     3
100
AcDbCircle
 10
-198.8615462234684
 20
-341.9121054006113
 30
0.0
 40
1.9
100
AcDbArc
 50
106.0722513797622
 51
179.9998510309708
  0
ARC
  5
4C9
330
1F
100
AcDbEntity
  8
0
  6
CONTINUOUS
 62
     3
100
AcDbCircle
 10
-192.1615302234684
 20
-341.9121054006113
 30
0.0
 40
1.899992
100
AcDbArc
 50
0.0
 51
73.92702669340416
  0
ARC
  5
4CA
330
1F
100
AcDbEntity
  8
0
  6
CONTINUOUS
 62
     3
100
AcDbCircle
 10
-315.5115382234684
 20
-353.5391374006113
 30
0.0
 40
14.0
100
AcDbArc
 50
73.9270266934038
 51
106.0728243375668
  0
ARC
  5
4CB
330
1F
100
AcDbEntity
  8
0
  6
CONTINUOUS
 62
     3
100
AcDbCircle
 10
-318.8615462234684
 20
-341.9121214006112
 30
0.0
 40
1.9
100
AcDbArc
 50
106.0722513797622
 51
179.9998510309708
  0
ARC
  5
4CC
330
1F
100
AcDbEntity
  8
0
  6
CONTINUOUS
 62
     3
100
AcDbCircle
 10
-312.1615302234684
 20
-341.9121214006112
 30
0.0
 40
1.899992
100
AcDbArc
 50
0.0
 51
73.92702669340416
  0
ARC
  5
4CD
330
1F
100
AcDbEntity
  8
0
  6
CONTINUOUS
 62
     3
100
AcDbCircle
 10
-135.5115382234684
 20
-450.1712174006112
 30
0.0
 40
3.0
100
AcDbArc
 50
106.6990672183274
 51
179.9998510309707
  0
ARC
  5
4CE
330
1F
100
AcDbEntity
  8
0
  6
CONTINUOUS
 62
     3
100
AcDbCircle
 10
-135.5115382234684
 20
-391.7070414006113
 30
0.0
 40
3.0
100
AcDbArc
 50
179.9998510309707
 51
253.3006287026758
  0
ARC
  5
4CF
330
1F
100
AcDbEntity
  8
0
  6
CONTINUOUS
 62
     3
100
AcDbCircle
 10
-141.5115382234684
 20
-359.1377974006112
 30
0.0
 40
3.0
100
AcDbArc
 50
0.0
 51
84.99943627318245
  0
ARC
  5
4D0
330
1F
100
AcDbEntity
  8
0
  6
CONTINUOUS
 62
     3
100
AcDbCircle
 10
-141.5115382234684
 20
-482.7404614006113
 30
0.0
 40
3.000004
100
AcDbArc
 50
274.9996866900162
 51
0.0
  0
ARC
  5
4D1
330
1F
100
AcDbEntity
  8
0
  6
CONTINUOUS
 62
     3
100
AcDbCircle
 10
-165.5115382234684
 20
-372.9391294006113
 30
0.0
 40
1.0
100
AcDbArc
 50
179.9998510309707
 51
269.9994839266147
  0
ARC
  5
4D2
330
1F
100
AcDbEntity
  8
0
  6
CONTINUOUS
 62
     3
100
AcDbCircle
 10
-165.5115382234684
 20
-468.9391294006113
 30
0.0
 40
1.0
100
AcDbArc
 50
89.99963903658282
 51
179.9998510309707
  0
ARC
  5
4D3
330
1F
100
AcDbEntity
  8
0
  6
CONTINUOUS
 62
     3
100
AcDbCircle
 10
-140.5115382234684
 20
-465.9391294006113
 30
0.0
 40
2.0
100
AcDbArc
 50
269.9994839266163
 51
0.0
  0
ARC
  5
4D4
330
1F
100
AcDbEntity
  8
0
  6
CONTINUOUS
 62
     3
100
AcDbCircle
 10
-140.5115382234684
 20
-375.9391294006113
 30
0.0
 40
2.0
100
AcDbArc
 50
0.0
 51
89.99963903658282
  0
ARC
  5
4D5
330
1F
100
AcDbEntity
  8
0
  6
CONTINUOUS
 62
     3
100
AcDbCircle
 10
-175.1115462234684
 20
-365.9391294006113
 30
0.0
 40
14.000008
100
AcDbArc
 50
343.9270835778241
 51
16.07261234317907
  0
ARC
  5
4D6
330
1F
100
AcDbEntity
  8
0
  6
CONTINUOUS
 62
     3
100
AcDbCircle
 10
-163.4845302234684
 20
-362.5891214006112
 30
0.0
 40
1.900012
100
AcDbArc
 50
16.07261234317887
 51
89.99963903658207
  0
ARC
  5
4D7
330
1F
100
AcDbEntity
  8
0
  6
CONTINUOUS
 62
     3
100
AcDbCircle
 10
-163.4845302234684
 20
-369.2891374006113
 30
0.0
 40
1.899992
100
AcDbArc
 50
269.9994839266149
 51
343.9270835778241
  0
ARC
  5
4D8
330
1F
100
AcDbEntity
  8
0
  6
CONTINUOUS
 62
     3
100
AcDbCircle
 10
-175.1115462234684
 20
-475.9391294006113
 30
0.0
 40
14.000012
100
AcDbArc
 50
343.9270835778241
 51
16.07261234317912
  0
ARC
  5
4D9
330
1F
100
AcDbEntity
  8
0
  6
CONTINUOUS
 62
     3
100
AcDbCircle
 10
-163.4845302234684
 20
-472.5891214006112
 30
0.0
 40
1.900012
100
AcDbArc
 50
16.07261234317887
 51
89.99963903658207
  0
ARC
  5
4DA
330
1F
100
AcDbEntity
  8
0
  6
CONTINUOUS
 62
     3
100
AcDbCircle
 10
-163.4845302234684
 20
-479.2891374006113
 30
0.0
 40
1.899992
100
AcDbArc
 50
269.9994839266149
 51
343.9270835778241
  0
ARC
  5
4DB
330
1F
100
AcDbEntity
  8
0
  6
CONTINUOUS
 62
     3
100
AcDbCircle
 10
-218.5115382234684
 20
-329.9391294006112
 30
0.0
 40
1.0
100
AcDbArc
 50
179.9998510309707
 51
269.9994839266147
  0
ARC
  5
4DC
330
1F
100
AcDbEntity
  8
0
  6
CONTINUOUS
 62
     3
100
AcDbCircle
 10
-292.5115382234684
 20
-329.9391294006112
 30
0.0
 40
1.0
100
AcDbArc
 50
269.9994839266147
 51
0.0
  0
ARC
  5
4DD
330
1F
100
AcDbEntity
  8
0
  6
CONTINUOUS
 62
     3
100
AcDbCircle
 10
-212.1458782234685
 20
-319.4391294006113
 30
0.0
 40
1.499996
100
AcDbArc
 50
15.00003533239783
 51
89.99963903658211
  0
ARC
  5
4DE
330
1F
100
AcDbEntity
  8
0
  6
CONTINUOUS
 62
     3
100
AcDbCircle
 10
-298.8771982234684
 20
-319.4391294006113
 30
0.0
 40
1.5
100
AcDbArc
 50
89.99963903658282
 51
164.9998156985729
  0
ARC
  5
4DF
330
1F
100
AcDbEntity
  8
0
  6
CONTINUOUS
 62
     3
100
AcDbCircle
 10
-286.5115382234684
 20
-316.9391294006113
 30
0.0
 40
1.0
100
AcDbArc
 50
269.9994839266147
 51
0.0
  0
ARC
  5
4E0
330
1F
100
AcDbEntity
  8
0
  6
CONTINUOUS
 62
     3
100
AcDbCircle
 10
-224.5115382234684
 20
-316.9391294006113
 30
0.0
 40
1.0
100
AcDbArc
 50
179.9998510309707
 51
269.9994839266147
  0
ARC
  5
4E1
330
1F
100
AcDbEntity
  8
0
  6
CONTINUOUS
 62
     3
100
AcDbCircle
 10
-212.5115382234684
 20
-338.3391214006112
 30
0.0
 40
12.000004
100
AcDbArc
 50
73.80842442778865
 51
106.1908536453771
  0
ARC
  5
4E2
330
1F
100
AcDbEntity
  8
0
  6
CONTINUOUS
 62
     3
100
AcDbCircle
 10
-215.4115302234684
 20
-328.3516374006112
 30
0.0
 40
1.600012
100
AcDbArc
 50
106.1914266031818
 51
179.9998510309706
  0
ARC
  5
4E3
330
1F
100
AcDbEntity
  8
0
  6
CONTINUOUS
 62
     3
100
AcDbCircle
 10
-209.6115462234684
 20
-328.3516374006112
 30
0.0
 40
1.600008
100
AcDbArc
 50
0.0
 51
73.8078514699831
  0
ARC
  5
4E4
330
1F
100
AcDbEntity
  8
0
  6
CONTINUOUS
 62
     3
100
AcDbCircle
 10
-298.5115382234684
 20
-338.3391214006112
 30
0.0
 40
12.000004
100
AcDbArc
 50
73.80842442778865
 51
106.1908536453771
  0
ARC
  5
4E5
330
1F
100
AcDbEntity
  8
0
  6
CONTINUOUS
 62
     3
100
AcDbCircle
 10
-301.4115622234684
 20
-328.3516374006112
 30
0.0
 40
1.600012
100
AcDbArc
 50
106.1914266031818
 51
179.9998510309706
  0
ARC
  5
4E6
330
1F
100
AcDbEntity
  8
0
  6
CONTINUOUS
 62
     3
100
AcDbCircle
 10
-295.6115462234684
 20
-328.3516374006112
 30
0.0
 40
1.600008
100
AcDbArc
 50
0.0
 51
73.8078514699831
  0
ARC
  5
4E7
330
1F
100
AcDbEntity
  8
0
  6
CONTINUOUS
 62
     3
100
AcDbCircle
 10
-323.5115382234684
 20
-366.4391294006113
 30
0.0
 40
1.0
100
AcDbArc
 50
89.99963903658282
 51
179.9998510309707
  0
ARC
  5
4E8
330
1F
100
AcDbEntity
  8
0
  6
CONTINUOUS
 62
     3
100
AcDbCircle
 10
-323.5115382234684
 20
-455.4391294006113
 30
0.0
 40
1.0
100
AcDbArc
 50
179.9998510309707
 51
269.9994839266147
  0
ARC
  5
4E9
330
1F
100
AcDbEntity
  8
0
  6
CONTINUOUS
 62
     3
100
AcDbCircle
 10
-187.5115382234684
 20
-484.9391294006113
 30
0.0
 40
3.0
100
AcDbArc
 50
179.9998510309707
 51
269.9994839266157
  0
ARC
  5
4EA
330
1F
100
AcDbEntity
  8
0
  6
CONTINUOUS
 62
     3
100
AcDbCircle
 10
-186.5115382234684
 20
-350.9391294006113
 30
0.0
 40
3.0
100
AcDbArc
 50
179.9998510309707
 51
269.9994839266157
  0
ARC
  5
4EB
330
1F
100
AcDbEntity
  8
0
  6
CONTINUOUS
 62
     3
100
AcDbCircle
 10
-318.5115382234684
 20
-433.9391294006112
 30
0.0
 40
16.0
100
AcDbArc
 50
154.3410816539356
 51
205.6586142670676
  0
ARC
  5
4EC
330
1F
100
AcDbEntity
  8
0
  6
CONTINUOUS
 62
     3
100
AcDbCircle
 10
-329.9198622234684
 20
-444.3314334006112
 30
0.0
 40
4.591664
100
AcDbArc
 50
131.0239908255449
 51
228.9757050954584
  0
ARC
  5
4ED
330
1F
100
AcDbEntity
  8
0
  6
CONTINUOUS
 62
     3
100
AcDbCircle
 10
-329.9198622234684
 20
-423.5468254006112
 30
0.0
 40
4.591684
100
AcDbArc
 50
131.0239908255449
 51
228.9757050954584
  0
ARC
  5
4EE
330
1F
100
AcDbEntity
  8
0
  6
CONTINUOUS
 62
     3
100
AcDbCircle
 10
-320.5115382234684
 20
-476.9391294006113
 30
0.0
 40
1.0
100
AcDbArc
 50
89.99963903658282
 51
179.9998510309707
  0
ARC
  5
4EF
330
1F
100
AcDbEntity
  8
0
  6
CONTINUOUS
 62
     3
100
AcDbCircle
 10
-191.0115382234684
 20
-473.9391294006113
 30
0.0
 40
2.0
100
AcDbArc
 50
179.9998510309707
 51
269.9994839266163
  0
ARC
  5
4F0
330
1F
100
AcDbEntity
  8
0
  6
CONTINUOUS
 62
     3
100
AcDbCircle
 10
-320.0115382234684
 20
-473.9391294006113
 30
0.0
 40
2.0
100
AcDbArc
 50
269.9994839266163
 51
0.0
  0
ARC
  5
4F1
330
1F
100
AcDbEntity
  8
0
  6
CONTINUOUS
 62
     3
100
AcDbCircle
 10
-218.5115382234684
 20
-473.9391294006113
 30
0.0
 40
2.0
100
AcDbArc
 50
179.9998510309707
 51
269.9994839266163
  0
ARC
  5
4F2
330
1F
100
AcDbEntity
  8
0
  6
CONTINUOUS
 62
     3
100
AcDbCircle
 10
-292.5115382234684
 20
-473.9391294006113
 30
0.0
 40
2.0
100
AcDbArc
 50
269.9994839266163
 51
0.0
  0
ARC
  5
4F3
330
1F
100
AcDbEntity
  8
0
  6
CONTINUOUS
 62
     3
100
AcDbCircle
 10
-182.5115382234684
 20
-359.9391294006113
 30
0.0
 40
6.0
100
AcDbArc
 50
0.0
 51
89.99963903658282
  0
ARC
  5
4F4
330
1F
100
AcDbEntity
  8
0
  6
CONTINUOUS
 62
     3
100
AcDbCircle
 10
-182.5115382234684
 20
-359.9391294006113
 30
0.0
 40
7.5
100
AcDbArc
 50
179.9998510309707
 51
269.9994839266155
  0
ARC
  5
4F5
330
1F
100
AcDbEntity
  8
0
  6
CONTINUOUS
 62
     3
100
AcDbCircle
 10
-178.5115382234684
 20
-369.4391294006113
 30
0.0
 40
2.0
100
AcDbArc
 50
0.0
 51
89.99963903658282
  0
ARC
  5
4F6
330
1F
100
AcDbEntity
  8
0
  6
CONTINUOUS
 62
     3
100
AcDbCircle
 10
-192.0115382234684
 20
-355.9391294006113
 30
0.0
 40
2.0
100
AcDbArc
 50
0.0
 51
89.99963903658282
  0
CIRCLE
  5
4F7
330
1F
100
AcDbEntity
  8
0
  6
CONTINUOUS
 62
     3
100
AcDbCircle
 10
-182.5115382234684
 20
-359.9391294006113
 30
0.0
 40
5.25
  0
ARC
  5
4F8
330
1F
100
AcDbEntity
  8
0
  6
CONTINUOUS
 62
     3
100
AcDbCircle
 10
-315.5115382234684
 20
-359.9391294006113
 30
0.0
 40
6.0
100
AcDbArc
 50
89.99963903658282
 51
179.9998510309707
  0
ARC
  5
4F9
330
1F
100
AcDbEntity
  8
0
  6
CONTINUOUS
 62
     3
100
AcDbCircle
 10
-315.5115382234684
 20
-359.9391294006113
 30
0.0
 40
7.5
100
AcDbArc
 50
269.9994839266155
 51
359.9999999999999
  0
ARC
  5
4FA
330
1F
100
AcDbEntity
  8
0
  6
CONTINUOUS
 62
     3
100
AcDbCircle
 10
-319.5115382234684
 20
-369.4391294006113
 30
0.0
 40
2.0
100
AcDbArc
 50
89.99963903658282
 51
179.9998510309707
  0
ARC
  5
4FB
330
1F
100
AcDbEntity
  8
0
  6
CONTINUOUS
 62
     3
100
AcDbCircle
 10
-306.0115382234684
 20
-355.9391294006113
 30
0.0
 40
2.0
100
AcDbArc
 50
89.99963903658282
 51
179.9998510309707
  0
CIRCLE
  5
4FC
330
1F
100
AcDbEntity
  8
0
  6
CONTINUOUS
 62
     3
100
AcDbCircle
 10
-315.5115382234684
 20
-359.9391294006113
 30
0.0
 40
5.25
  0
ARC
  5
4FD
330
1F
100
AcDbEntity
  8
0
  6
CONTINUOUS
 62
     3
100
AcDbCircle
 10
-182.5115382234684
 20
-461.9391294006113
 30
0.0
 40
6.0
100
AcDbArc
 50
269.9994839266157
 51
0.0
  0
ARC
  5
4FE
330
1F
100
AcDbEntity
  8
0
  6
CONTINUOUS
 62
     3
100
AcDbCircle
 10
-182.5115382234684
 20
-461.9391294006113
 30
0.0
 40
7.5
100
AcDbArc
 50
89.99963903658282
 51
179.9998510309706
  0
ARC
  5
4FF
330
1F
100
AcDbEntity
  8
0
  6
CONTINUOUS
 62
     3
100
AcDbCircle
 10
-178.5115382234684
 20
-452.4391294006113
 30
0.0
 40
2.0
100
AcDbArc
 50
269.9994839266163
 51
0.0
  0
ARC
  5
500
330
1F
100
AcDbEntity
  8
0
  6
CONTINUOUS
 62
     3
100
AcDbCircle
 10
-192.0115382234684
 20
-465.9391294006113
 30
0.0
 40
2.0
100
AcDbArc
 50
269.9994839266163
 51
0.0
  0
CIRCLE
  5
501
330
1F
100
AcDbEntity
  8
0
  6
CONTINUOUS
 62
     3
100
AcDbCircle
 10
-182.5115382234684
 20
-461.9391294006113
 30
0.0
 40
5.25
  0
ARC
  5
502
330
1F
100
AcDbEntity
  8
0
  6
CONTINUOUS
 62
     3
100
AcDbCircle
 10
-315.5115382234684
 20
-461.9391294006113
 30
0.0
 40
6.0
100
AcDbArc
 50
179.9998510309707
 51
269.9994839266157
  0
ARC
  5
503
330
1F
100
AcDbEntity
  8
0
  6
CONTINUOUS
 62
     3
100
AcDbCircle
 10
-315.5115382234684
 20
-461.9391294006113
 30
0.0
 40
7.5
100
AcDbArc
 50
0.0
 51
89.99963903658282
  0
ARC
  5
504
330
1F
100
AcDbEntity
  8
0
  6
CONTINUOUS
 62
     3
100
AcDbCircle
 10
-319.5115382234684
 20
-452.4391294006113
 30
0.0
 40
2.0
100
AcDbArc
 50
179.9998510309707
 51
269.9994839266163
  0
ARC
  5
505
330
1F
100
AcDbEntity
  8
0
  6
CONTINUOUS
 62
     3
100
AcDbCircle
 10
-306.0115382234684
 20
-465.9391294006113
 30
0.0
 40
2.0
100
AcDbArc
 50
179.9998510309707
 51
269.9994839266163
  0
CIRCLE
  5
506
330
1F
100
AcDbEntity
  8
0
  6
CONTINUOUS
 62
     3
100
AcDbCircle
 10
-315.5115382234684
 20
-461.9391294006113
 30
0.0
 40
5.25
  0
VIEWPORT
  5
B2
330
1B
100
AcDbEntity
 67
     1
  8
0
100
AcDbViewport
 10
0.0
 20
8.730928376719021
 30
0.0
 40
2523.0
 41
3444.810492539565
 68
     1
 69
     1
1001
ACAD
1000
MVIEW
1002
{
1070
    16
1010
0.0
1020
0.0
1030
0.0
1010
0.0
1020
0.0
1030
1.0
1040
0.0
1040
3444.810492539565
1040
0.0
1040
8.730928376719021
1040
50.0
1040
0.0
1040
0.0
1070
     0
1070
   100
1070
     0
1070
     3
1070
     0
1070
     0
1070
     0
1070
     0
1040
0.0
1040
0.0
1040
0.0
1040
0.5
1040
0.5
1040
0.0
1040
0.0
1070
     0
1002
{
1002
}
1002
}
  0
ENDSEC
  0
SECTION
  2
OBJECTS
  0
DICTIONARY
  5
C
330
0
100
AcDbDictionary
  3
ACAD_GROUP
350
D
  3
ACAD_LAYOUT
350
1A
  3
ACAD_MATERIAL
350
43
  3
ACAD_MLEADERSTYLE
350
6B
  3
ACAD_MLINESTYLE
350
17
  3
ACAD_PLOTSETTINGS
350
19
  3
ACAD_SCALELIST
350
47
  3
ACAD_VISUALSTYLE
350
2A
  3
ACDBHEADERROUNDTRIPXREC
350
507
  3
ACDBVARIABLEDICTIONARY
350
528
  0
DICTIONARY
  5
52F
330
8
100
AcDbDictionary
280
     1
  3
ACAD_XREC_ROUNDTRIP
360
530
  0
DICTIONARY
  5
D
102
{ACAD_REACTORS
330
C
102
}
330
C
100
AcDbDictionary
  0
DICTIONARY
  5
1A
102
{ACAD_REACTORS
330
C
102
}
330
C
100
AcDbDictionary
  0
DICTIONARY
  5
43
102
{ACAD_REACTORS
330
C
102
}
330
C
100
AcDbDictionary
  3
BYBLOCK
350
45
  3
BYLAYER
350
44
  3
GLOBAL
350
46
  0
DICTIONARY
  5
6B
102
{ACAD_REACTORS
330
C
102
}
330
C
100
AcDbDictionary
  3
STANDARD
350
6C
  0
DICTIONARY
  5
17
102
{ACAD_REACTORS
330
C
102
}
330
C
100
AcDbDictionary
  3
STANDARD
350
18
  0
DICTIONARY
  5
19
102
{ACAD_REACTORS
330
C
102
}
330
C
100
AcDbDictionary
  0
DICTIONARY
  5
47
102
{ACAD_REACTORS
330
C
102
}
330
C
100
AcDbDictionary
  3
A0
350
48
  3
A1
350
49
  3
A2
350
4A
  3
A3
350
4B
  3
A4
350
4C
  3
A5
350
4D
  3
A6
350
4E
  3
A7
350
4F
  3
A8
350
50
  3
A9
350
51
  3
B0
350
52
  3
B1
350
53
  3
B2
350
54
  3
B3
350
55
  3
B4
350
56
  3
B5
350
57
  3
B6
350
58
  3
B7
350
59
  3
B8
350
5A
  3
B9
350
5B
  3
C0
350
5C
  3
C1
350
5D
  3
C2
350
5E
  3
C3
350
5F
  3
C4
350
60
  3
C5
350
61
  3
C6
350
62
  3
C7
350
63
  3
C8
350
64
  3
C9
350
65
  3
D0
350
66
  3
D1
350
67
  3
D2
350
68
  0
DICTIONARY
  5
2A
102
{ACAD_REACTORS
330
C
102
}
330
C
100
AcDbDictionary
  3
2DWIREFRAME
350
2F
  3
BASIC
350
32
  3
BRIGHTEN
350
36
  3
COLORCHANGE
350
3A
  3
CONCEPTUAL
350
34
  3
DIM
350
35
  3
EDGECOLOROFF
350
3D
  3
FACEPATTERN
350
39
  3
FLAT
350
2B
  3
FLATWITHEDGES
350
2C
  3
GOURAUD
350
2D
  3
GOURAUDWITHEDGES
350
2E
  3
HIDDEN
350
31
  3
JITTEROFF
350
3B
  3
LINEPATTERN
350
38
  3
OVERHANGOFF
350
3C
  3
REALISTIC
350
33
  3
SHADED
350
42
  3
SHADED_WITH_EDGES
350
41
  3
SHADES_OF_GRAY
350
3E
  3
SKETCHY
350
3F
  3
THICKEN
350
37
  3
WIREFRAME
350
30
  3
X-RAY
350
40
  0
DICTIONARY
  5
507
102
{ACAD_REACTORS
330
C
102
}
330
C
100
AcDbDictionary
  3
CEPSNID
350
511
  3
CEPSNTYPE
350
510
  3
DIMSTYLEDATA
350
527
  3
FINGERPRINTGUID
350
512
  3
HYPERLINKBASE
350
50A
  3
INSUNITS
350
50F
  3
LAYOUTDICT
350
50C
  3
LWETCUNION
350
50E
  3
PLOTSETDICT
350
50D
  3
PSVPSCALE
350
514
  3
PUCSBASE
350
517
  3
PUCSORGBACK
350
51D
  3
PUCSORGBOTTOM
350
519
  3
PUCSORGFRONT
350
51C
  3
PUCSORGLEFT
350
51A
  3
PUCSORGRIGHT
350
51B
  3
PUCSORGTOP
350
518
  3
PUCSORTHOREF
350
515
  3
PUCSORTHOVIEW
350
516
  3
STYLESHEET
350
50B
  3
TSTACKALIGN
350
508
  3
TSTACKSIZE
350
509
  3
UCSBASE
350
520
  3
UCSORGBACK
350
526
  3
UCSORGBOTTOM
350
522
  3
UCSORGFRONT
350
525
  3
UCSORGLEFT
350
523
  3
UCSORGRIGHT
350
524
  3
UCSORGTOP
350
521
  3
UCSORTHOREF
350
51E
  3
UCSORTHOVIEW
350
51F
  3
VERSIONGUID
350
513
  0
DICTIONARY
  5
528
102
{ACAD_REACTORS
330
C
102
}
330
C
100
AcDbDictionary
  3
CANNOSCALE
350
531
  3
CMLEADERSTYLE
350
52A
  3
CTABLESTYLE
350
529
  3
DIMASSOC
350
52D
  3
HIDETEXT
350
52E
  3
MSLTSCALE
350
532
  0
XRECORD
  5
530
102
{ACAD_REACTORS
330
52F
102
}
330
52F
100
AcDbXrecord
102
VTR_0.000_0.000_1.000_1.000_VISUALSTYLE
340
2F
102
VTR_0.000_0.000_1.000_1.000_GRIDDISPLAY
 70
     3
102
VTR_0.000_0.000_1.000_1.000_GRIDMAJOR
 70
     5
102
VTR_0.000_0.000_1.000_1.000_DEFAULTLIGHTING
280
     1
102
VTR_0.000_0.000_1.000_1.000_DEFAULTLIGHTINGTYPE
 70
     1
102
VTR_0.000_0.000_1.000_1.000_BRIGHTNESS
141
0.0
102
VTR_0.000_0.000_1.000_1.000_CONTRAST
142
0.0
  0
MATERIAL
  5
45
102
{ACAD_REACTORS
330
43
102
}
102
{ACAD_XDICTIONARY
360
535
102
}
330
43
100
AcDbMaterial
  1
BYBLOCK
  0
MATERIAL
  5
44
102
{ACAD_REACTORS
330
43
102
}
102
{ACAD_XDICTIONARY
360
533
102
}
330
43
100
AcDbMaterial
  1
BYLAYER
  0
MATERIAL
  5
46
102
{ACAD_REACTORS
330
43
102
}
102
{ACAD_XDICTIONARY
360
537
102
}
330
43
100
AcDbMaterial
  1
GLOBAL
  0
ACAD_PROXY_OBJECT
  5
6C
102
{ACAD_REACTORS
330
6B
102
}
330
6B
100
AcDbProxyObject
 90
      499
 91
      505
 93
      610
310
40901902A4063FBFFFFFE056BD1B81E855B9FC0AD7A3703D0AD73F4214DD185B99185C9900AD7A3703D0AC73F90141901A02B5E8DC0F42B1CFC02B5E8DC0F42B1CFE5764000000000000300FC0
340
14
340
0
340
11
340
0
 94
        0
1001
ACAD_MLEADERVER
1070
     2
  0
MLINESTYLE
  5
18
102
{ACAD_REACTORS
330
17
102
}
330
17
100
AcDbMlineStyle
  2
Standard
 70
     0
  3

 62
   256
 51
90.0
 52
90.0
 71
     2
 49
0.5
 62
   256
  6
BYLAYER
 49
-0.5
 62
   256
  6
BYLAYER
  0
ACAD_PROXY_OBJECT
  5
48
102
{ACAD_REACTORS
330
47
102
}
330
47
100
AcDbProxyObject
 90
      499
 91
      503
 93
       41
310
903313A31580
  0
ACAD_PROXY_OBJECT
  5
49
102
{ACAD_REACTORS
330
47
102
}
330
47
100
AcDbProxyObject
 90
      499
 91
      503
 93
      105
310
903313A324000000000000004000
  0
ACAD_PROXY_OBJECT
  5
4A
102
{ACAD_REACTORS
330
47
102
}
330
47
100
AcDbProxyObject
 90
      499
 91
      503
 93
      105
310
903313A344000000000000104000
  0
ACAD_PROXY_OBJECT
  5
4B
102
{ACAD_REACTORS
330
47
102
}
330
47
100
AcDbProxyObject
 90
      499
 91
      503
 93
      105
310
903313A354000000000000144000
  0
ACAD_PROXY_OBJECT
  5
4C
102
{ACAD_REACTORS
330
47
102
}
330
47
100
AcDbProxyObject
 90
      499
 91
      503
 93
      105
310
903313A384000000000000204000
  0
ACAD_PROXY_OBJECT
  5
4D
102
{ACAD_REACTORS
330
47
102
}
330
47
100
AcDbProxyObject
 90
      499
 91
      503
 93
      113
310
904313A31304000000000000244000
  0
ACAD_PROXY_OBJECT
  5
4E
102
{ACAD_REACTORS
330
47
102
}
330
47
100
AcDbProxyObject
 90
      499
 91
      503
 93
      113
310
904313A31364000000000000304000
  0
ACAD_PROXY_OBJECT
  5
4F
102
{ACAD_REACTORS
330
47
102
}
330
47
100
AcDbProxyObject
 90
      499
 91
      503
 93
      113
310
904313A32304000000000000344000
  0
ACAD_PROXY_OBJECT
  5
50
102
{ACAD_REACTORS
330
47
102
}
330
47
100
AcDbProxyObject
 90
      499
 91
      503
 93
      113
310
904313A333040000000000003E4000
  0
ACAD_PROXY_OBJECT
  5
51
102
{ACAD_REACTORS
330
47
102
}
330
47
100
AcDbProxyObject
 90
      499
 91
      503
 93
      113
310
904313A34304000000000000444000
  0
ACAD_PROXY_OBJECT
  5
52
102
{ACAD_REACTORS
330
47
102
}
330
47
100
AcDbProxyObject
 90
      499
 91
      503
 93
      113
310
904313A35304000000000000494000
  0
ACAD_PROXY_OBJECT
  5
53
102
{ACAD_REACTORS
330
47
102
}
330
47
100
AcDbProxyObject
 90
      499
 91
      503
 93
      121
310
905313A3130304000000000000594000
  0
ACAD_PROXY_OBJECT
  5
54
102
{ACAD_REACTORS
330
47
102
}
330
47
100
AcDbProxyObject
 90
      499
 91
      503
 93
      105
310
903323A310000000000000010100
  0
ACAD_PROXY_OBJECT
  5
55
102
{ACAD_REACTORS
330
47
102
}
330
47
100
AcDbProxyObject
 90
      499
 91
      503
 93
      105
310
903343A310000000000000410100
  0
ACAD_PROXY_OBJECT
  5
56
102
{ACAD_REACTORS
330
47
102
}
330
47
100
AcDbProxyObject
 90
      499
 91
      503
 93
      105
310
903383A310000000000000810100
  0
ACAD_PROXY_OBJECT
  5
57
102
{ACAD_REACTORS
330
47
102
}
330
47
100
AcDbProxyObject
 90
      499
 91
      503
 93
      113
310
90431303A310000000000000910100
  0
ACAD_PROXY_OBJECT
  5
58
102
{ACAD_REACTORS
330
47
102
}
330
47
100
AcDbProxyObject
 90
      499
 91
      503
 93
      121
310
9053130303A310000000000001650100
  0
ACAD_PROXY_OBJECT
  5
59
102
{ACAD_REACTORS
330
47
102
}
330
47
100
AcDbProxyObject
 90
      499
 91
      503
 93
      257
310
90E312F31323822203D2031272D3022000000000000200FC000000000000284000
  0
ACAD_PROXY_OBJECT
  5
5A
102
{ACAD_REACTORS
330
47
102
}
330
47
100
AcDbProxyObject
 90
      499
 91
      503
 93
      249
310
90D312F363422203D2031272D3022000000000000240FC000000000000284000
  0
ACAD_PROXY_OBJECT
  5
5B
102
{ACAD_REACTORS
330
47
102
}
330
47
100
AcDbProxyObject
 90
      499
 91
      503
 93
      249
310
90D312F333222203D2031272D3022000000000000280FC000000000000284000
  0
ACAD_PROXY_OBJECT
  5
5C
102
{ACAD_REACTORS
330
47
102
}
330
47
100
AcDbProxyObject
 90
      499
 91
      503
 93
      249
310
90D312F313622203D2031272D30220000000000002C0FC000000000000284000
  0
ACAD_PROXY_OBJECT
  5
5D
102
{ACAD_REACTORS
330
47
102
}
330
47
100
AcDbProxyObject
 90
      499
 91
      503
 93
      249
310
90D332F333222203D2031272D30220000000000002E0FC000000000000284000
  0
ACAD_PROXY_OBJECT
  5
5E
102
{ACAD_REACTORS
330
47
102
}
330
47
100
AcDbProxyObject
 90
      499
 91
      503
 93
      241
310
90C312F3822203D2031272D3022000000000000300FC000000000000284000
  0
ACAD_PROXY_OBJECT
  5
5F
102
{ACAD_REACTORS
330
47
102
}
330
47
100
AcDbProxyObject
 90
      499
 91
      503
 93
      249
310
90D332F313622203D2031272D3022000000000000320FC000000000000284000
  0
ACAD_PROXY_OBJECT
  5
60
102
{ACAD_REACTORS
330
47
102
}
330
47
100
AcDbProxyObject
 90
      499
 91
      503
 93
      241
310
90C312F3422203D2031272D3022000000000000340FC000000000000284000
  0
ACAD_PROXY_OBJECT
  5
61
102
{ACAD_REACTORS
330
47
102
}
330
47
100
AcDbProxyObject
 90
      499
 91
      503
 93
      241
310
90C332F3822203D2031272D3022000000000000360FC000000000000284000
  0
ACAD_PROXY_OBJECT
  5
62
102
{ACAD_REACTORS
330
47
102
}
330
47
100
AcDbProxyObject
 90
      499
 91
      503
 93
      241
310
90C312F3222203D2031272D3022000000000000380FC000000000000284000
  0
ACAD_PROXY_OBJECT
  5
63
102
{ACAD_REACTORS
330
47
102
}
330
47
100
AcDbProxyObject
 90
      499
 91
      503
 93
      241
310
90C332F3422203D2031272D30220000000000003A0FC000000000000284000
  0
ACAD_PROXY_OBJECT
  5
64
102
{ACAD_REACTORS
330
47
102
}
330
47
100
AcDbProxyObject
 90
      499
 91
      503
 93
      161
310
90A3122203D2031272D30224000000000000284000
  0
ACAD_PROXY_OBJECT
  5
65
102
{ACAD_REACTORS
330
47
102
}
330
47
100
AcDbProxyObject
 90
      499
 91
      503
 93
      257
310
90E312D312F3222203D2031272D30220000000000003E0FC000000000000284000
  0
ACAD_PROXY_OBJECT
  5
66
102
{ACAD_REACTORS
330
47
102
}
330
47
100
AcDbProxyObject
 90
      499
 91
      503
 93
      225
310
90A3322203D2031272D302200000000000002100000000000000284000
  0
ACAD_PROXY_OBJECT
  5
67
102
{ACAD_REACTORS
330
47
102
}
330
47
100
AcDbProxyObject
 90
      499
 91
      503
 93
      225
310
90A3622203D2031272D302200000000000006100000000000000284000
  0
ACAD_PROXY_OBJECT
  5
68
102
{ACAD_REACTORS
330
47
102
}
330
47
100
AcDbProxyObject
 90
      499
 91
      503
 93
      249
310
90D31272D3022203D2031272D30220000000000000A100000000000000284000
  0
ACAD_PROXY_OBJECT
  5
2F
102
{ACAD_REACTORS
330
2A
102
}
330
2A
100
AcDbProxyObject
 90
      499
 91
      501
 93
      436
310
42CC9915DA5C99599C985B595049028333333333333E33F0000000000000F90107901411070040501600405405064090741402480A0340
1001
ACAD
1000
AcDbSavedByObjectVersion
1070
     0
  0
ACAD_PROXY_OBJECT
  5
32
102
{ACAD_REACTORS
330
2A
102
}
330
2A
100
AcDbProxyObject
 90
      499
 91
      501
 93
      388
310
4150985CDA58D07406404333333333333E33F0000000000000F90107A41107004050150841D405064090741402480A0350
1001
ACAD
1000
AcDbSavedByObjectVersion
1070
     0
  0
ACAD_PROXY_OBJECT
  5
36
102
{ACAD_REACTORS
330
2A
102
}
330
2A
100
AcDbProxyObject
 90
      499
 91
      501
 93
      428
310
42109C9A59DA1D195B90C409028333333333333E33F0000000000000F9010790141107004050150841D405064090741402480A029950
1001
ACAD
1000
AcDbSavedByObjectVersion
1070
     0
  0
ACAD_PROXY_OBJECT
  5
3A
102
{ACAD_REACTORS
330
2A
102
}
330
2A
100
AcDbProxyObject
 90
      499
 91
      501
 93
      452
310
42D0DBDB1BDC90DA185B99D95104090240C333333333333E33F0000000000000F90108901411070040501508421405064090741402480A0350
1001
ACAD
1000
AcDbSavedByObjectVersion
1070
     0
  0
ACAD_PROXY_OBJECT
  5
34
102
{ACAD_REACTORS
330
2A
102
}
330
2A
100
AcDbProxyObject
 90
      499
 91
      501
 93
      500
310
4290DBDB98D95C1D1D585B10940D028333333333333E33F0000000000000F90107902409070040501000000000018199010841D405064090740C02480A0340
1001
ACAD
1000
AcDbSavedByObjectVersion
1070
     0
  0
ACAD_PROXY_OBJECT
  5
35
102
{ACAD_REACTORS
330
2A
102
}
330
2A
100
AcDbProxyObject
 90
      499
 91
      501
 93
      412
310
40D11A5B50B409028333333333333E33F0000000000000F9010790141107004050150841D405064090741402480A02677FFFFFD0
1001
ACAD
1000
AcDbSavedByObjectVersion
1070
     0
  0
ACAD_PROXY_OBJECT
  5
3D
102
{ACAD_REACTORS
330
2A
102
}
330
2A
100
AcDbProxyObject
 90
      499
 91
      501
 93
      452
310
43115919D950DBDB1BDC93D999916409028333333333333E33F0000000000000F9010790141107004050150841D405064090741402480A0350
1001
ACAD
1000
AcDbSavedByObjectVersion
1070
     0
  0
ACAD_PROXY_OBJECT
  5
39
102
{ACAD_REACTORS
330
2A
102
}
330
2A
100
AcDbProxyObject
 90
      499
 91
      501
 93
      444
310
42D19858D95C185D1D195C9B90F409028333333333333E33F0000000000000F9010790141107004050150841D405064090741402480A0350
1001
ACAD
1000
AcDbSavedByObjectVersion
1070
     0
  0
ACAD_PROXY_OBJECT
  5
2B
102
{ACAD_REACTORS
330
2A
102
}
330
2A
100
AcDbProxyObject
 90
      499
 91
      501
 93
      380
310
41119B185D240901404333333333333E33F0000000000000F9010740A907004050150841D405064090741402480A1B50
1001
ACAD
1000
AcDbSavedByObjectVersion
1070
     0
  0
ACAD_PROXY_OBJECT
  5
2C
102
{ACAD_REACTORS
330
2A
102
}
330
2A
100
AcDbProxyObject
 90
      499
 91
      501
 93
      468
310
43519B185D15DA5D1A115919D95CD0140901404333333333333E33F0000000000000F90107409019070040501600405405064090741402480A1B50
1001
ACAD
1000
AcDbSavedByObjectVersion
1070
     0
  0
ACAD_PROXY_OBJECT
  5
2D
102
{ACAD_REACTORS
330
2A
102
}
330
2A
100
AcDbProxyObject
 90
      499
 91
      501
 93
      404
310
41D1DBDD5C985D5910240902404333333333333E33F0000000000000F9010740A9070040501641D405064090741402480A1B50
1001
ACAD
1000
AcDbSavedByObjectVersion
1070
     0
  0
ACAD_PROXY_OBJECT
  5
2E
102
{ACAD_REACTORS
330
2A
102
}
330
2A
100
AcDbProxyObject
 90
      499
 91
      501
 93
      492
310
4411DBDD5C985D5915DA5D1A115919D95CD0340902404333333333333E33F0000000000000F90107409019070040501600405405064090741402480A1B50
1001
ACAD
1000
AcDbSavedByObjectVersion
1070
     0
  0
ACAD_PROXY_OBJECT
  5
31
102
{ACAD_REACTORS
330
2A
102
}
330
2A
100
AcDbProxyObject
 90
      499
 91
      501
 93
      476
310
41921A5919195B90640502408333333333333E33F0000000000000F901079024090700405020000000000001110200405405064090740C02480A0340
1001
ACAD
1000
AcDbSavedByObjectVersion
1070
     0
  0
ACAD_PROXY_OBJECT
  5
3B
102
{ACAD_REACTORS
330
2A
102
}
330
2A
100
AcDbProxyObject
 90
      499
 91
      501
 93
      428
310
42529A5D1D195C93D999914409028333333333333E33F0000000000000F9010790141107004050150A41D405064090741402480A0350
1001
ACAD
1000
AcDbSavedByObjectVersion
1070
     0
  0
ACAD_PROXY_OBJECT
  5
38
102
{ACAD_REACTORS
330
2A
102
}
330
2A
100
AcDbProxyObject
 90
      499
 91
      501
 93
      444
310
42D31A5B995C185D1D195C9B90E409028333333333333E33F0000000000000F9010790141107004050750841D405064090741402483A0350
1001
ACAD
1000
AcDbSavedByObjectVersion
1070
     0
  0
ACAD_PROXY_OBJECT
  5
3C
102
{ACAD_REACTORS
330
2A
102
}
330
2A
100
AcDbProxyObject
 90
      499
 91
      501
 93
      444
310
42D3DD995C9A185B99D3D999915409028333333333333E33F0000000000000F9010790141107004050150941D405064090741402480A0350
1001
ACAD
1000
AcDbSavedByObjectVersion
1070
     0
  0
ACAD_PROXY_OBJECT
  5
33
102
{ACAD_REACTORS
330
2A
102
}
330
2A
100
AcDbProxyObject
 90
      499
 91
      501
 93
      428
310
425499585B1A5CDD1A58D08409038333333333333E33F0000000000000F9010740A907004050150800405405064090740C02480A1B40
1001
ACAD
1000
AcDbSavedByObjectVersion
1070
     0
  0
ACAD_PROXY_OBJECT
  5
42
102
{ACAD_REACTORS
330
2A
102
}
330
2A
100
AcDbProxyObject
 90
      499
 91
      501
 93
      420
310
4194DA1859195911B40902404333333333333E33F0000000000000F9010740A41107004050150800405405064090840C02480A0B40
1001
ACAD
1000
AcDbSavedByObjectVersion
1070
     0
  0
ACAD_PROXY_OBJECT
  5
41
102
{ACAD_REACTORS
330
2A
102
}
330
2A
100
AcDbProxyObject
 90
      499
 91
      501
 93
      516
310
4454DA18591959081DDA5D1A08195919D95CD1A40902404333333333333E33F0000000000000F901074090142907004050250800405405064090740C02480A0B40
1001
ACAD
1000
AcDbSavedByObjectVersion
1070
     0
  0
ACAD_PROXY_OBJECT
  5
3E
102
{ACAD_REACTORS
330
2A
102
}
330
2A
100
AcDbProxyObject
 90
      499
 91
      501
 93
      532
310
4394DA1859195CC81BD98811DC985E5174090240C333333333333E33F0000000000000F901079024090741D01000000000000111010841D405064090740C02480A0340
1001
ACAD
1000
AcDbSavedByObjectVersion
1070
     0
  0
ACAD_PROXY_OBJECT
  5
3F
102
{ACAD_REACTORS
330
2A
102
}
330
2A
100
AcDbProxyObject
 90
      499
 91
      501
 93
      476
310
41D4DAD95D18DA1E51840502408333333333333E33F0000000000000F901079024090741D01000000000000111010B41D405064090741802480A0340
1001
ACAD
1000
AcDbSavedByObjectVersion
1070
     0
  0
ACAD_PROXY_OBJECT
  5
37
102
{ACAD_REACTORS
330
2A
102
}
330
2A
100
AcDbProxyObject
 90
      499
 91
      501
 93
      412
310
41D51A1A58DAD95B90D409028333333333333E33F0000000000000F9010790141107004050150C41D405064090741402480A0350
1001
ACAD
1000
AcDbSavedByObjectVersion
1070
     0
  0
ACAD_PROXY_OBJECT
  5
30
102
{ACAD_REACTORS
330
2A
102
}
330
2A
100
AcDbProxyObject
 90
      499
 91
      501
 93
      420
310
4255DA5C99599C985B595059028333333333333E33F0000000000000F90107901411070040501600405405064090740C02480A0340
1001
ACAD
1000
AcDbSavedByObjectVersion
1070
     0
  0
ACAD_PROXY_OBJECT
  5
40
102
{ACAD_REACTORS
330
2A
102
}
330
2A
100
AcDbProxyObject
 90
      499
 91
      501
 93
      404
310
41560B54985E51940902404000000000000E03F0000000000000F9010740501907004050150841D405064090740C02480A1B40
1001
ACAD
1000
AcDbSavedByObjectVersion
1070
     0
  0
XRECORD
  5
511
102
{ACAD_REACTORS
330
507
102
}
330
507
100
AcDbXrecord
340
0
  0
XRECORD
  5
510
102
{ACAD_REACTORS
330
507
102
}
330
507
100
AcDbXrecord
 90
        0
  0
XRECORD
  5
527
102
{ACAD_REACTORS
330
507
102
}
330
507
100
AcDbXrecord
1000
DSTYLE
1002
{
1070
   179
 70
     3
1070
   171
 70
     2
1070
   143
 40
0.0393700787401575
1070
    41
 40
2.000107526779175
1070
    79
 70
     2
1070
   141
 40
0.0
1070
   271
 70
     3
1070
    43
 40
10.0
1070
   278
 70
    46
1070
    44
 40
1.0
1070
    42
 40
1.0
1070
   147
 40
0.09
1070
   272
 70
     3
1070
   146
 40
0.65
1070
   172
 70
     0
1070
   340
340
11
1070
   140
 40
3.5
1070
   284
 70
     0
1070
    90
 70
     1
1002
}
  0
XRECORD
  5
512
102
{ACAD_REACTORS
330
507
102
}
330
507
100
AcDbXrecord
  1
{274e8655-235d-4d16-b1da-69713c58d87e}
  0
XRECORD
  5
50A
102
{ACAD_REACTORS
330
507
102
}
330
507
100
AcDbXrecord
  1

  0
XRECORD
  5
50F
102
{ACAD_REACTORS
330
507
102
}
330
507
100
AcDbXrecord
 90
        4
  0
XRECORD
  5
50C
102
{ACAD_REACTORS
330
507
102
}
330
507
100
AcDbXrecord
340
1A
  0
XRECORD
  5
50E
102
{ACAD_REACTORS
330
507
102
}
330
507
100
AcDbXrecord
 90
    10781
  0
XRECORD
  5
50D
102
{ACAD_REACTORS
330
507
102
}
330
507
100
AcDbXrecord
340
19
  0
XRECORD
  5
514
102
{ACAD_REACTORS
330
507
102
}
330
507
100
AcDbXrecord
 40
0.0
  0
XRECORD
  5
517
102
{ACAD_REACTORS
330
507
102
}
330
507
100
AcDbXrecord
340
0
  0
XRECORD
  5
51D
102
{ACAD_REACTORS
330
507
102
}
330
507
100
AcDbXrecord
 10
0.0
 20
0.0
 30
0.0
  0
XRECORD
  5
519
102
{ACAD_REACTORS
330
507
102
}
330
507
100
AcDbXrecord
 10
0.0
 20
0.0
 30
0.0
  0
XRECORD
  5
51C
102
{ACAD_REACTORS
330
507
102
}
330
507
100
AcDbXrecord
 10
0.0
 20
0.0
 30
0.0
  0
XRECORD
  5
51A
102
{ACAD_REACTORS
330
507
102
}
330
507
100
AcDbXrecord
 10
0.0
 20
0.0
 30
0.0
  0
XRECORD
  5
51B
102
{ACAD_REACTORS
330
507
102
}
330
507
100
AcDbXrecord
 10
0.0
 20
0.0
 30
0.0
  0
XRECORD
  5
518
102
{ACAD_REACTORS
330
507
102
}
330
507
100
AcDbXrecord
 10
0.0
 20
0.0
 30
0.0
  0
XRECORD
  5
515
102
{ACAD_REACTORS
330
507
102
}
330
507
100
AcDbXrecord
340
0
  0
XRECORD
  5
516
102
{ACAD_REACTORS
330
507
102
}
330
507
100
AcDbXrecord
 70
     0
  0
XRECORD
  5
50B
102
{ACAD_REACTORS
330
507
102
}
330
507
100
AcDbXrecord
  1

  0
XRECORD
  5
508
102
{ACAD_REACTORS
330
507
102
}
330
507
100
AcDbXrecord
 90
        1
  0
XRECORD
  5
509
102
{ACAD_REACTORS
330
507
102
}
330
507
100
AcDbXrecord
 90
       70
  0
XRECORD
  5
520
102
{ACAD_REACTORS
330
507
102
}
330
507
100
AcDbXrecord
340
0
  0
XRECORD
  5
526
102
{ACAD_REACTORS
330
507
102
}
330
507
100
AcDbXrecord
 10
0.0
 20
0.0
 30
0.0
  0
XRECORD
  5
522
102
{ACAD_REACTORS
330
507
102
}
330
507
100
AcDbXrecord
 10
0.0
 20
0.0
 30
0.0
  0
XRECORD
  5
525
102
{ACAD_REACTORS
330
507
102
}
330
507
100
AcDbXrecord
 10
0.0
 20
0.0
 30
0.0
  0
XRECORD
  5
523
102
{ACAD_REACTORS
330
507
102
}
330
507
100
AcDbXrecord
 10
0.0
 20
0.0
 30
0.0
  0
XRECORD
  5
524
102
{ACAD_REACTORS
330
507
102
}
330
507
100
AcDbXrecord
 10
0.0
 20
0.0
 30
0.0
  0
XRECORD
  5
521
102
{ACAD_REACTORS
330
507
102
}
330
507
100
AcDbXrecord
 10
0.0
 20
0.0
 30
0.0
  0
XRECORD
  5
51E
102
{ACAD_REACTORS
330
507
102
}
330
507
100
AcDbXrecord
340
0
  0
XRECORD
  5
51F
102
{ACAD_REACTORS
330
507
102
}
330
507
100
AcDbXrecord
 70
     0
  0
XRECORD
  5
513
102
{ACAD_REACTORS
330
507
102
}
330
507
100
AcDbXrecord
  1
{FAEB1C32-E019-11D5-929B-00C0DF256EC4}
  0
DICTIONARYVAR
  5
531
102
{ACAD_REACTORS
330
528
102
}
330
528
100
DictionaryVariables
280
     0
  1
1:1
  0
DICTIONARYVAR
  5
52A
102
{ACAD_REACTORS
330
528
102
}
330
528
100
DictionaryVariables
280
     0
  1
Standard
  0
DICTIONARYVAR
  5
529
102
{ACAD_REACTORS
330
528
102
}
330
528
100
DictionaryVariables
280
     0
  1
Standard
  0
DICTIONARYVAR
  5
52D
102
{ACAD_REACTORS
330
528
102
}
330
528
100
DictionaryVariables
280
     0
  1
2
  0
DICTIONARYVAR
  5
52E
102
{ACAD_REACTORS
330
528
102
}
330
528
100
DictionaryVariables
280
     0
  1
1
  0
DICTIONARYVAR
  5
532
102
{ACAD_REACTORS
330
528
102
}
330
528
100
DictionaryVariables
280
     0
  1
1
  0
DICTIONARY
  5
535
330
45
100
AcDbDictionary
280
     1
  3
ACAD_XREC_ROUNDTRIP
360
536
  0
DICTIONARY
  5
533
330
44
100
AcDbDictionary
280
     1
  3
ACAD_XREC_ROUNDTRIP
360
534
  0
DICTIONARY
  5
537
330
46
100
AcDbDictionary
280
     1
  3
ACAD_XREC_ROUNDTRIP
360
538
  0
XRECORD
  5
536
102
{ACAD_REACTORS
330
535
102
}
330
535
100
AcDbXrecord
102
MATERIAL
148
0.0
149
0.0
149
0.0
 93
        0
 94
      127
282
     0
 72
     1
 77
     1
171
     1
175
     1
179
     1
273
     0
  0
XRECORD
  5
534
102
{ACAD_REACTORS
330
533
102
}
330
533
100
AcDbXrecord
102
MATERIAL
148
0.0
149
0.0
149
0.0
 93
        0
 94
      127
282
     0
 72
     1
 77
     1
171
     1
175
     1
179
     1
273
     0
  0
XRECORD
  5
538
102
{ACAD_REACTORS
330
537
102
}
330
537
100
AcDbXrecord
102
MATERIAL
148
0.0
149
0.0
149
0.0
 93
        0
 94
      127
282
     0
 72
     1
 77
     1
171
     1
175
     1
179
     1
273
     0
  0
ENDSEC
  0
EOF
