  0
SECTION
  2
HEADER
  9
$ACADVER
  1
AC1014
  9
$ACADMAINTVER
 70
       0
  9
$DWGCODEPAGE
  3
ANSI_932
  9
$INSBASE
 10
0.0
 20
0.0
 30
0.0
  9
$EXTMIN
 10
-318.76978207
 20
-335.0544433
 30
0.0
  9
$EXTMAX
 10
318.76978207
 20
330.2919433
 30
0.0
  9
$LIMMIN
 10
-338.69289345
 20
-355.84651788
  9
$LIMMAX
 10
338.69289345
 20
351.08401788
  9
$ORTHOMODE
 70
       0
  9
$REGENMODE
 70
       1
  9
$FILLMODE
 70
       1
  9
$QTEXTMODE
 70
       0
  9
$MIRRTEXT
 70
       1
  9
$DRAGMODE
 70
       2
  9
$LTSCALE
 40
1.0
  9
$OSMODE
 70
       0
  9
$ATTMODE
 70
       1
  9
$TEXTSIZE
 40
0.2
  9
$TRACEWID
 40
0.05
  9
$TEXTSTYLE
  7
STANDARD
  9
$CLAYER
  8
0
  9
$CELTYPE
  6
CONTINUOUS
  9
$CECOLOR
 62
     256
  9
$CELTSCALE
 40
1.0
  9
$DELOBJ
 70
       1
  9
$DISPSILH
 70
       0
  9
$DIMSCALE
 40
1.0
  9
$DIMASZ
 40
0.18
  9
$DIMEXO
 40
0.0625
  9
$DIMDLI
 40
0.38
  9
$DIMRND
 40
0.0
  9
$DIMDLE
 40
0.0
  9
$DIMEXE
 40
0.18
  9
$DIMTP
 40
0.0
  9
$DIMTM
 40
0.0
  9
$DIMTXT
 40
0.18
  9
$DIMCEN
 40
0.09
  9
$DIMTSZ
 40
0.0
  9
$DIMTOL
 70
       0
  9
$DIMLIM
 70
       0
  9
$DIMTIH
 70
       1
  9
$DIMTOH
 70
       1
  9
$DIMSE1
 70
       0
  9
$DIMSE2
 70
       0
  9
$DIMTAD
 70
       0
  9
$DIMZIN
 70
       0
  9
$DIMBLK
  1

  9
$DIMASO
 70
       1
  9
$DIMSHO
 70
       1
  9
$DIMPOST
  1

  9
$DIMAPOST
  1

  9
$DIMALT
 70
       0
  9
$DIMALTD
 70
       2
  9
$DIMALTF
 40
25.4
  9
$DIMLFAC
 40
1.0
  9
$DIMTOFL
 70
       0
  9
$DIMTVP
 40
0.0
  9
$DIMTIX
 70
       0
  9
$DIMSOXD
 70
       0
  9
$DIMSAH
 70
       0
  9
$DIMBLK1
  1

  9
$DIMBLK2
  1

  9
$DIMSTYLE
  2
STANDARD
  9
$DIMCLRD
 70
       0
  9
$DIMCLRE
 70
       0
  9
$DIMCLRT
 70
       0
  9
$DIMTFAC
 40
1.0
  9
$DIMGAP
 40
0.09
  9
$DIMJUST
 70
       0
  9
$DIMSD1
 70
       0
  9
$DIMSD2
 70
       0
  9
$DIMTOLJ
 70
       1
  9
$DIMTZIN
 70
       0
  9
$DIMALTZ
 70
       0
  9
$DIMALTTZ
 70
       0
  9
$DIMFIT
 70
       3
  9
$DIMUPT
 70
       0
  9
$DIMUNIT
 70
       2
  9
$DIMDEC
 70
       4
  9
$DIMTDEC
 70
       4
  9
$DIMALTU
 70
       2
  9
$DIMALTTD
 70
       2
  9
$DIMTXSTY
  7
STANDARD
  9
$DIMAUNIT
 70
       0
  9
$LUNITS
 70
       2
  9
$LUPREC
 70
       4
  9
$SKETCHINC
 40
0.1
  9
$FILLETRAD
 40
0.0
  9
$AUNITS
 70
       0
  9
$AUPREC
 70
       0
  9
$MENU
  1
acad
  9
$ELEVATION
 40
0.0
  9
$PELEVATION
 40
0.0
  9
$THICKNESS
 40
0.0
  9
$LIMCHECK
 70
       0
  9
$BLIPMODE
 70
       1
  9
$CHAMFERA
 40
0.0
  9
$CHAMFERB
 40
0.0
  9
$CHAMFERC
 40
0.0
  9
$CHAMFERD
 40
0.0
  9
$SKPOLY
 70
       0
  9
$TDCREATE
 40
0.000000000
  9
$TDUPDATE
 40
0.000000000
  9
$TDINDWG
 40
0.0000000000
  9
$TDUSRTIMER
 40
0.0000000000
  9
$USRTIMER
 70
       1
  9
$ANGBASE
 50
0.0
  9
$ANGDIR
 70
       0
  9
$PDMODE
 70
       0
  9
$PDSIZE
 40
1.0
  9
$PLINEWID
 40
0.0
  9
$COORDS
 70
       1
  9
$SPLFRAME
 70
       0
  9
$SPLINETYPE
 70
       6
  9
$SPLINESEGS
 70
       8
  9
$ATTDIA
 70
       0
  9
$ATTREQ
 70
       1
  9
$HANDLING
 70
       1
  9
$HANDSEED
  5
21D
  9
$SURFTAB1
 70
       6
  9
$SURFTAB2
 70
       6
  9
$SURFTYPE
 70
       6
  9
$SURFU
 70
       6
  9
$SURFV
 70
       6
  9
$UCSNAME
  2

  9
$UCSORG
 10
0.0
 20
0.0
 30
0.0
  9
$UCSXDIR
 10
1.0
 20
0.0
 30
0.0
  9
$UCSYDIR
 10
0.0
 20
1.0
 30
0.0
  9
$PUCSNAME
  2

  9
$PUCSORG
 10
0.0
 20
0.0
 30
0.0
  9
$PUCSXDIR
 10
1.0
 20
0.0
 30
0.0
  9
$PUCSYDIR
 10
0.0
 20
1.0
 30
0.0
  9
$USERI1
 70
       0
  9
$USERI2
 70
       0
  9
$USERI3
 70
       0
  9
$USERI4
 70
       0
  9
$USERI5
 70
       0
  9
$USERR1
 40
0.0
  9
$USERR2
 40
0.0
  9
$USERR3
 40
0.0
  9
$USERR4
 40
0.0
  9
$USERR5
 40
0.0
  9
$WORLDVIEW
 70
       1
  9
$SHADEDGE
 70
       3
  9
$SHADEDIF
 70
      70
  9
$TILEMODE
 70
       1
  9
$MAXACTVP
 70
      16
  9
$PINSBASE
 10
0.0
 20
0.0
 30
0.0
  9
$PLIMCHECK
 70
       0
  9
$PEXTMIN
 10
1.00000000E+20
 20
1.00000000E+20
 30
1.00000000E+20
  9
$PEXTMAX
 10
-1.00000000E+20
 20
-1.00000000E+20
 30
-1.00000000E+20
  9
$PLIMMIN
 10
0.0
 20
0.0
  9
$PLIMMAX
 10
12.0
 20
9.0
  9
$UNITMODE
 70
       0
  9
$VISRETAIN
 70
       0
  9
$PLINEGEN
 70
       1
  9
$PSLTSCALE
 70
       0
  9
$TREEDEPTH
 70
    3020
  9
$PICKSTYLE
 70
       1
  9
$CMLSTYLE
  2
STANDARD
  9
$CMLJUST
 70
       0
  9
$CMLSCALE
 40
1.0
  9
$PROXYGRAPHICS
 70
       0
  9
$MEASUREMENT
 70
       0
  0
ENDSEC
  0
SECTION
  2
CLASSES
  0
CLASS
  1
LWPOLYLINE
  2
AcDbPolyline
  3
"AutoCAD"
 90
        0
280
       0
281
       1
  0
CLASS
  1
IMAGE
  2
AcDbRasterImage
  3
ISM
 90
      127
280
       0
281
       1
  0
CLASS
  1
OLE2FRAME
  2
AcDbOle2Frame
  3
""
 90
        0
280
       0
281
       1
  0
CLASS
  1
HATCH
  2
AcDbHatch
  3
"ACAD_SEDONA"
 90
        0
280
       0
281
       1
  0
CLASS
  1
DICTIONARYVAR
  2
AcDbDictionaryVar
  3
"AutoCAD"
 90
        0
280
       0
281
       0
  0
CLASS
  1
RASTERVARIABLES
  2
AcDbRasterVariables
  3
ISM
 90
        0
280
       0
281
       0
  0
CLASS
  1
IMAGEDEF
  2
AcDbRasterImageDef
  3
ISM
 90
        0
280
       0
281
       0
  0
CLASS
  1
IMAGEDEF_REACTOR
  2
AcDbRasterImageDefReactor
  3
ISM
 90
        1
280
       0
281
       0
  0
CLASS
  1
IDBUFFER
  2
AcDbIdBuffer
  3
"Acad"
 90
        0
280
       0
281
       0
  0
CLASS
  1
SPATIAL_FILTER
  2
AcDbSpatialFilter
  3
"Acad"
 90
        0
280
       0
281
       0
  0
CLASS
  1
XRECORD
  2
AcDbXrecord
  3
"<Built In>"
 90
        0
280
       0
281
       0
  0
CLASS
  1
SORTENTSTABLE
  2
AcDbSortentsTable
  3
"AutoCAD"
 90
        0
280
       0
281
       0
  0
CLASS
  1
LAYER_INDEX
  2
AcDbLayerIndex
  3
"Acad"
 90
        0
280
       0
281
       0
  0
CLASS
  1
SPATIAL_INDEX
  2
AcDbSpatialIndex
  3
"Acad"
 90
        0
280
       0
281
       0
  0
CLASS
  1
OBJECT_PTR
  2
CAseDLPNTableRecord
  3
"ASE-LPNTableRecord"
 90
        1
280
       0
281
       0
  0
CLASS
  1
LAYOUT
  2
AcDbLayout
  3
"AutoCAD 2000"
 90
        1
280
       0
281
       0
  0
CLASS
  1
PLOTSETTINGS
  2
AcDbPlotSettings
  3
"AutoCAD 2000"
 90
        1
280
       0
281
       0
  0
CLASS
  1
ACDBDICTIONARYWDFLT
  2
AcDbDictionaryWithDefault
  3
"AutoCAD 2000"
 90
        1
280
       0
281
       0
  0
CLASS
  1
ACDBPLACEHOLDER
  2
AcDbPlaceHolder
  3
"AutoCAD 2000"
 90
        1
280
       0
281
       0
  0
CLASS
  1
VBA_PROJECT
  2
AcDbVbaProject
  3
"acadvba"
 90
        1
280
       0
281
       0
  0
CLASS
  1
WIPEOUT
  2
AcDbWipeout
  3
WipeOut|AutoCAD Express Tool|expresstools@autodesk.com
 90
      127
280
       0
281
       1
  0
CLASS
  1
WIPEOUTVARIABLES
  2
AcDbWipeoutVariables
  3
WipeOut|AutoCAD Express Tool|expresstools@autodesk.com
 90
        0
280
       0
281
       0
  0
CLASS
  1
RTEXT
  2
RText
  3
RText|AutoCAD Express Tool|expresstools@autodesk.com
 90
        0
280
       0
281
       1
  0
CLASS
  1
ARCALIGNEDTEXT
  2
AcDbArcAlignedText
  3
ATEXT|AutoCAD Express Tool|expresstools@autodesk.com
 90
        0
280
       0
281
       1
  0
ENDSEC
  0
SECTION
  2
TABLES
  0
TABLE
  2
VPORT
  5
7
100
AcDbSymbolTable
 70
       1
  0
VPORT
  5
15
100
AcDbSymbolTableRecord
100
AcDbViewportTableRecord
  2
*ACTIVE
 70
       0
 10
0.0
 20
0.0
 11
1.0
 21
1.0
 12
0.0
 22
-2.38125
 13
0.0
 23
0.0
 14
1.0
 24
1.0
 15
0.0
 25
0.0
 16
0.0
 26
0.0
 36
1.0
 17
0.0
 27
0.0
 37
0.0
 40
706.93053576
 41
0.958207
 42
50.0
 43
0.0
 44
0.0
 50
0.0
 51
0.0
 71
       0
 72
     100
 73
       1
 74
       1
 75
       0
 76
       0
 77
       0
 78
       0
  0
ENDTAB
  0
TABLE
  2
LTYPE
  5
4
100
AcDbSymbolTable
 70
      30
  0
LTYPE
  5
11
100
AcDbSymbolTableRecord
100
AcDbLinetypeTableRecord
  2
BYBLOCK
 70
      64
  3

 72
      65
 73
       0
 40
0.0
  0
LTYPE
  5
12
100
AcDbSymbolTableRecord
100
AcDbLinetypeTableRecord
  2
BYLAYER
 70
      64
  3

 72
      65
 73
       0
 40
0.0
  0
LTYPE
  5
13
100
AcDbSymbolTableRecord
100
AcDbLinetypeTableRecord
  2
CONTINUOUS
 70
      64
  3
Solid line
 72
      65
 73
       0
 40
0.0
  0
LTYPE
  5
1D
100
AcDbSymbolTableRecord
100
AcDbLinetypeTableRecord
  2
HIDDENX2
 70
      64
  3
CADPAC LINETYPE
 72
      65
 73
       2
 40
37.34638462
 49
28.00978847
 74
       0
 49
-9.33659616
 74
       0
  0
LTYPE
  5
1E
100
AcDbSymbolTableRecord
100
AcDbLinetypeTableRecord
  2
HIDDEN
 70
      64
  3
CADPAC LINETYPE
 72
      65
 73
       2
 40
28.00978847
 49
18.67319231
 74
       0
 49
-9.33659616
 74
       0
  0
LTYPE
  5
1F
100
AcDbSymbolTableRecord
100
AcDbLinetypeTableRecord
  2
HIDDEN2
 70
      64
  3
CADPAC LINETYPE
 72
      65
 73
       2
 40
23.34149039
 49
14.00489423
 74
       0
 49
-9.33659616
 74
       0
  0
LTYPE
  5
20
100
AcDbSymbolTableRecord
100
AcDbLinetypeTableRecord
  2
DASHED
 70
      64
  3
CADPAC LINETYPE
 72
      65
 73
       2
 40
28.00978847
 49
18.67319231
 74
       0
 49
-9.33659616
 74
       0
  0
LTYPE
  5
21
100
AcDbSymbolTableRecord
100
AcDbLinetypeTableRecord
  2
DASHED2
 70
      64
  3
CADPAC LINETYPE
 72
      65
 73
       2
 40
21.00734135
 49
14.00489423
 74
       0
 49
-7.00244712
 74
       0
  0
LTYPE
  5
22
100
AcDbSymbolTableRecord
100
AcDbLinetypeTableRecord
  2
DASHEDX2
 70
      64
  3
CADPAC LINETYPE
 72
      65
 73
       2
 40
42.0146827
 49
28.00978847
 74
       0
 49
-14.00489423
 74
       0
  0
LTYPE
  5
23
100
AcDbSymbolTableRecord
100
AcDbLinetypeTableRecord
  2
DOTX2
 70
      64
  3
CADPAC LINETYPE
 72
      65
 73
       2
 40
11.67074519
 49
0.0
 74
       0
 49
-11.67074519
 74
       0
  0
LTYPE
  5
24
100
AcDbSymbolTableRecord
100
AcDbLinetypeTableRecord
  2
DOT
 70
      64
  3
CADPAC LINETYPE
 72
      65
 73
       2
 40
9.33659616
 49
0.0
 74
       0
 49
-9.33659616
 74
       0
  0
LTYPE
  5
25
100
AcDbSymbolTableRecord
100
AcDbLinetypeTableRecord
  2
DOT2
 70
      64
  3
CADPAC LINETYPE
 72
      65
 73
       2
 40
7.00244712
 49
0.0
 74
       0
 49
-7.00244712
 74
       0
  0
LTYPE
  5
26
100
AcDbSymbolTableRecord
100
AcDbLinetypeTableRecord
  2
CENTERX2
 70
      64
  3
CADPAC LINETYPE
 72
      65
 73
       4
 40
56.01957693
 49
23.34149039
 74
       0
 49
-11.67074519
 74
       0
 49
9.33659616
 74
       0
 49
-11.67074519
 74
       0
  0
LTYPE
  5
27
100
AcDbSymbolTableRecord
100
AcDbLinetypeTableRecord
  2
CENTER
 70
      64
  3
CADPAC LINETYPE
 72
      65
 73
       4
 40
42.94834231
 49
18.67319231
 74
       0
 49
-9.33659616
 74
       0
 49
5.60195769
 74
       0
 49
-9.33659616
 74
       0
  0
LTYPE
  5
28
100
AcDbSymbolTableRecord
100
AcDbLinetypeTableRecord
  2
CENTER2
 70
      64
  3
CADPAC LINETYPE
 72
      65
 73
       4
 40
29.8771077
 49
14.00489423
 74
       0
 49
-7.00244712
 74
       0
 49
1.86731923
 74
       0
 49
-7.00244712
 74
       0
  0
LTYPE
  5
29
100
AcDbSymbolTableRecord
100
AcDbLinetypeTableRecord
  2
DASHDOTX2
 70
      64
  3
CADPAC LINETYPE
 72
      65
 73
       4
 40
46.68298078
 49
23.34149039
 74
       0
 49
-11.67074519
 74
       0
 49
0.0
 74
       0
 49
-11.67074519
 74
       0
  0
LTYPE
  5
2A
100
AcDbSymbolTableRecord
100
AcDbLinetypeTableRecord
  2
DASHDOT
 70
      64
  3
CADPAC LINETYPE
 72
      65
 73
       4
 40
37.34638462
 49
18.67319231
 74
       0
 49
-9.33659616
 74
       0
 49
0.0
 74
       0
 49
-9.33659616
 74
       0
  0
LTYPE
  5
2B
100
AcDbSymbolTableRecord
100
AcDbLinetypeTableRecord
  2
DASHDOT2
 70
      64
  3
CADPAC LINETYPE
 72
      65
 73
       4
 40
28.00978847
 49
14.00489423
 74
       0
 49
-7.00244712
 74
       0
 49
0.0
 74
       0
 49
-7.00244712
 74
       0
  0
LTYPE
  5
2C
100
AcDbSymbolTableRecord
100
AcDbLinetypeTableRecord
  2
DIVIDEX2
 70
      64
  3
CADPAC LINETYPE
 72
      65
 73
       6
 40
58.35372597
 49
23.34149039
 74
       0
 49
-11.67074519
 74
       0
 49
0.0
 74
       0
 49
-11.67074519
 74
       0
 49
0.0
 74
       0
 49
-11.67074519
 74
       0
  0
LTYPE
  5
2D
100
AcDbSymbolTableRecord
100
AcDbLinetypeTableRecord
  2
DIVIDE
 70
      64
  3
CADPAC LINETYPE
 72
      65
 73
       6
 40
46.68298078
 49
18.67319231
 74
       0
 49
-9.33659616
 74
       0
 49
0.0
 74
       0
 49
-9.33659616
 74
       0
 49
0.0
 74
       0
 49
-9.33659616
 74
       0
  0
LTYPE
  5
2E
100
AcDbSymbolTableRecord
100
AcDbLinetypeTableRecord
  2
DIVIDE2
 70
      64
  3
CADPAC LINETYPE
 72
      65
 73
       6
 40
35.01223558
 49
14.00489423
 74
       0
 49
-7.00244712
 74
       0
 49
0.0
 74
       0
 49
-7.00244712
 74
       0
 49
0.0
 74
       0
 49
-7.00244712
 74
       0
  0
LTYPE
  5
2F
100
AcDbSymbolTableRecord
100
AcDbLinetypeTableRecord
  2
BORDERX2
 70
      64
  3
CADPAC LINETYPE
 72
      65
 73
       6
 40
81.69521636
 49
23.34149039
 74
       0
 49
-11.67074519
 74
       0
 49
23.34149039
 74
       0
 49
-11.67074519
 74
       0
 49
0.0
 74
       0
 49
-11.67074519
 74
       0
  0
LTYPE
  5
30
100
AcDbSymbolTableRecord
100
AcDbLinetypeTableRecord
  2
BORDER
 70
      64
  3
CADPAC LINETYPE
 72
      65
 73
       6
 40
65.35617309
 49
18.67319231
 74
       0
 49
-9.33659616
 74
       0
 49
18.67319231
 74
       0
 49
-9.33659616
 74
       0
 49
0.0
 74
       0
 49
-9.33659616
 74
       0
  0
LTYPE
  5
31
100
AcDbSymbolTableRecord
100
AcDbLinetypeTableRecord
  2
BORDER2
 70
      64
  3
CADPAC LINETYPE
 72
      65
 73
       6
 40
49.01712982
 49
14.00489423
 74
       0
 49
-7.00244712
 74
       0
 49
14.00489423
 74
       0
 49
-7.00244712
 74
       0
 49
0.0
 74
       0
 49
-7.00244712
 74
       0
  0
LTYPE
  5
32
100
AcDbSymbolTableRecord
100
AcDbLinetypeTableRecord
  2
PHANTOMX2
 70
      64
  3
CADPAC LINETYPE
 72
      65
 73
       6
 40
70.02447117
 49
23.34149039
 74
       0
 49
-9.33659616
 74
       0
 49
9.33659616
 74
       0
 49
-9.33659616
 74
       0
 49
9.33659616
 74
       0
 49
-9.33659616
 74
       0
  0
LTYPE
  5
33
100
AcDbSymbolTableRecord
100
AcDbLinetypeTableRecord
  2
PHANTOM
 70
      64
  3
CADPAC LINETYPE
 72
      65
 73
       6
 40
57.88689616
 49
18.67319231
 74
       0
 49
-9.33659616
 74
       0
 49
5.60195769
 74
       0
 49
-9.33659616
 74
       0
 49
5.60195769
 74
       0
 49
-9.33659616
 74
       0
  0
LTYPE
  5
34
100
AcDbSymbolTableRecord
100
AcDbLinetypeTableRecord
  2
PHANTOM2
 70
      64
  3
CADPAC LINETYPE
 72
      65
 73
       6
 40
49.48395962
 49
14.00489423
 74
       0
 49
-9.33659616
 74
       0
 49
3.73463846
 74
       0
 49
-9.33659616
 74
       0
 49
3.73463846
 74
       0
 49
-9.33659616
 74
       0
  0
LTYPE
  5
35
100
AcDbSymbolTableRecord
100
AcDbLinetypeTableRecord
  2
ACAD_ISO06W100
 70
      64
  3
CADPAC LINETYPE
 72
      65
 73
       8
 40
63.02202405
 49
23.34149039
 74
       0
 49
-11.67074519
 74
       0
 49
0.0
 74
       0
 49
-9.33659616
 74
       0
 49
0.0
 74
       0
 49
-9.33659616
 74
       0
 49
0.0
 74
       0
 49
-9.33659616
 74
       0
  0
LTYPE
  5
36
100
AcDbSymbolTableRecord
100
AcDbLinetypeTableRecord
  2
ACAD_ISO13W100
 70
      64
  3
CADPAC LINETYPE
 72
      65
 73
       8
 40
74.69276924
 49
18.67319231
 74
       0
 49
-9.33659616
 74
       0
 49
18.67319231
 74
       0
 49
-9.33659616
 74
       0
 49
0.0
 74
       0
 49
-9.33659616
 74
       0
 49
0.0
 74
       0
 49
-9.33659616
 74
       0
  0
LTYPE
  5
37
100
AcDbSymbolTableRecord
100
AcDbLinetypeTableRecord
  2
ACAD_ISO14W100
 70
      64
  3
CADPAC LINETYPE
 72
      65
 73
       8
 40
56.01957693
 49
18.67319231
 74
       0
 49
-9.33659616
 74
       0
 49
0.0
 74
       0
 49
-9.33659616
 74
       0
 49
0.0
 74
       0
 49
-9.33659616
 74
       0
 49
0.0
 74
       0
 49
-9.33659616
 74
       0
  0
ENDTAB
  0
TABLE
  2
LAYER
  5
2
100
AcDbSymbolTable
 70
       4
  0
LAYER
  5
14
100
AcDbSymbolTableRecord
100
AcDbLayerTableRecord
  2
0
 70
       0
 62
       7
  6
CONTINUOUS
  0
LAYER
  5
38
100
AcDbSymbolTableRecord
100
AcDbLayerTableRecord
  2
LAYER0001
 70
       0
 62
       7
  6
CONTINUOUS
  0
LAYER
  5
39
100
AcDbSymbolTableRecord
100
AcDbLayerTableRecord
  2
LAYER0002
 70
       0
 62
       7
  6
CONTINUOUS
  0
LAYER
  5
3A
100
AcDbSymbolTableRecord
100
AcDbLayerTableRecord
  2
LAYER0006
 70
       0
 62
       7
  6
CONTINUOUS
  0
ENDTAB
  0
TABLE
  2
STYLE
  5
3
100
AcDbSymbolTable
 70
       1
  0
STYLE
  5
17
100
AcDbSymbolTableRecord
100
AcDbTextStyleTableRecord
  2
STANDARD
 70
       0
 40
0.0
 41
1.0
 50
0.0
 71
       0
 42
9.525
  3
txt.shx
  4
bigfont.shx
  0
ENDTAB
  0
TABLE
  2
VIEW
  5
5
100
AcDbSymbolTable
 70
       1
  0
VIEW
  5
3B
100
AcDbSymbolTableRecord
100
AcDbViewTableRecord
  2
QQQQ
 70
       0
 40
706.93053576
 10
0.0
 20
-2.38125
 41
677.3857869
 11
0.0
 21
0.0
 31
1.0
 12
100.0
 22
100.0
 32
0.0
 42
50.0
 43
0.0
 44
0.0
 50
0.0
 71
       0
  0
ENDTAB
  0
TABLE
  2
UCS
  5
6
100
AcDbSymbolTable
 70
       0
  0
ENDTAB
  0
TABLE
  2
APPID
  5
8
100
AcDbSymbolTable
 70
       1
  0
APPID
  5
16
100
AcDbSymbolTableRecord
100
AcDbRegAppTableRecord
  2
ACAD
 70
       0
  0
ENDTAB
  0
TABLE
  2
DIMSTYLE
  5
9
100
AcDbSymbolTable
 70
       1
  0
DIMSTYLE
105
18
100
AcDbSymbolTableRecord
100
AcDbDimStyleTableRecord
  2
STANDARD
 70
       0
  3

  4

  5

  6

  7

 40
1.0
 41
0.18
 42
0.0625
 43
0.38
 44
0.18
 45
0.0
 46
0.0
 47
0.0
 48
0.0
 71
       0
 72
       0
 73
       1
 74
       1
 75
       0
 76
       0
 77
       0
 78
       0
140
0.18
141
0.09
142
0.0
143
25.4
144
1.0
145
0.0
146
1.0
147
0.09
170
       0
171
       2
172
       0
173
       0
174
       0
175
       0
176
       0
177
       0
178
       0
270
       2
271
       4
272
       4
273
       2
274
       2
275
       0
280
       0
281
       0
282
       0
283
       1
284
       0
285
       0
286
       0
287
       0
288
       0
340
17
  0
ENDTAB
  0
TABLE
  2
BLOCK_RECORD
  5
1
100
AcDbSymbolTable
 70
       0
  0
BLOCK_RECORD
  5
A
100
AcDbSymbolTableRecord
100
AcDbBlockTableRecord
  2
*MODEL_SPACE
  0
BLOCK_RECORD
  5
B
100
AcDbSymbolTableRecord
100
AcDbBlockTableRecord
  2
*PAPER_SPACE
  0
ENDTAB
  0
ENDSEC
  0
SECTION
  2
BLOCKS
  0
BLOCK
  5
D
100
AcDbEntity
  8
0
100
AcDbBlockBegin
  2
*MODEL_SPACE
 70
       0
 10
0.0
 20
0.0
 30
0.0
  3
*MODEL_SPACE
  1

  0
ENDBLK
  5
E
100
AcDbEntity
  8
0
100
AcDbBlockEnd
  0
BLOCK
  5
F
100
AcDbEntity
 67
       1
  8
0
100
AcDbBlockBegin
  2
*PAPER_SPACE
 70
       0
 10
0.0
 20
0.0
 30
0.0
  3
*PAPER_SPACE
  1

  0
ENDBLK
  5
10
100
AcDbEntity
 67
       1
  8
0
100
AcDbBlockEnd
  0
ENDSEC
  0
SECTION
  2
ENTITIES
  0
LINE
  5
3C
100
AcDbEntity
  8
LAYER0006
  6
CONTINUOUS
 62
       7
100
AcDbLine
 10
226.51365651
 20
-217.40490868
 30
0.0
 11
221.15339197
 21
-279.97471047
 31
0.0
  0
LINE
  5
3D
100
AcDbEntity
  8
LAYER0006
  6
CONTINUOUS
 62
       7
100
AcDbLine
 10
149.49059416
 20
126.96257391
 30
0.0
 11
149.49059416
 21
111.49682048
 31
0.0
  0
LINE
  5
3E
100
AcDbEntity
  8
LAYER0006
  6
CONTINUOUS
 62
       7
100
AcDbLine
 10
179.49059416
 20
126.96257391
 30
0.0
 11
179.49059416
 21
111.49682048
 31
0.0
  0
LINE
  5
3F
100
AcDbEntity
  8
LAYER0006
  6
CONTINUOUS
 62
       7
100
AcDbLine
 10
165.79076195
 20
240.65152102
 30
0.0
 11
163.19042638
 21
240.65152102
 31
0.0
  0
LINE
  5
40
100
AcDbEntity
  8
LAYER0006
  6
CONTINUOUS
 62
       7
100
AcDbLine
 10
181.99059416
 20
244.34211993
 30
0.0
 11
180.69042638
 21
244.34211993
 31
0.0
  0
LINE
  5
41
100
AcDbEntity
  8
LAYER0006
  6
CONTINUOUS
 62
       7
100
AcDbLine
 10
148.29076195
 20
244.34211994
 30
0.0
 11
148.29076195
 21
240.65152102
 31
0.0
  0
LINE
  5
42
100
AcDbEntity
  8
LAYER0006
  6
CONTINUOUS
 62
       7
100
AcDbLine
 10
165.79076195
 20
244.34211994
 30
0.0
 11
165.79076195
 21
240.65152102
 31
0.0
  0
LINE
  5
43
100
AcDbEntity
  8
LAYER0006
  6
CONTINUOUS
 62
       7
100
AcDbLine
 10
146.99059416
 20
278.39753887
 30
0.0
 11
148.29076195
 21
278.39753887
 31
0.0
  0
LINE
  5
44
100
AcDbEntity
  8
LAYER0006
  6
CONTINUOUS
 62
       7
100
AcDbLine
 10
228.49059416
 20
-217.40490868
 30
0.0
 11
201.49059416
 21
-217.40490868
 31
0.0
  0
LINE
  5
45
100
AcDbEntity
  8
LAYER0006
  6
CONTINUOUS
 62
       7
100
AcDbLine
 10
163.19042637
 20
252.59610209
 30
0.0
 11
165.79076195
 21
252.59610209
 31
0.0
  0
LINE
  5
46
100
AcDbEntity
  8
LAYER0006
  6
CONTINUOUS
 62
       7
100
AcDbLine
 10
150.99059416
 20
305.99682048
 30
0.0
 11
152.99059416
 21
305.99682048
 31
0.0
  0
LINE
  5
47
100
AcDbEntity
  8
LAYER0006
  6
CONTINUOUS
 62
       7
100
AcDbLine
 10
150.99059416
 20
301.49682048
 30
0.0
 11
150.99059416
 21
305.99682048
 31
0.0
  0
LINE
  5
48
100
AcDbEntity
  8
LAYER0006
  6
CONTINUOUS
 62
       7
100
AcDbLine
 10
146.99059416
 20
252.59610209
 30
0.0
 11
148.29076195
 21
252.59610209
 31
0.0
  0
LINE
  5
49
100
AcDbEntity
  8
LAYER0006
  6
CONTINUOUS
 62
       7
100
AcDbLine
 10
148.49059416
 20
245.49682048
 30
0.0
 11
148.49059416
 21
251.49682048
 31
0.0
  0
LINE
  5
4A
100
AcDbEntity
  8
LAYER0006
  6
CONTINUOUS
 62
       7
100
AcDbLine
 10
181.99059416
 20
240.65152101
 30
0.0
 11
180.69042638
 21
240.65152101
 31
0.0
  0
LINE
  5
4B
100
AcDbEntity
  8
LAYER0006
  6
CONTINUOUS
 62
       7
100
AcDbLine
 10
165.79076195
 20
244.34211994
 30
0.0
 11
163.19042638
 21
244.34211994
 31
0.0
  0
LINE
  5
4C
100
AcDbEntity
  8
LAYER0006
  6
CONTINUOUS
 62
       7
100
AcDbLine
 10
148.29076195
 20
244.34211994
 30
0.0
 11
146.99059416
 21
244.34211994
 31
0.0
  0
LINE
  5
4D
100
AcDbEntity
  8
LAYER0006
  6
CONTINUOUS
 62
       7
100
AcDbLine
 10
148.29076195
 20
278.39753887
 30
0.0
 11
148.29076195
 21
252.59610209
 31
0.0
  0
LINE
  5
4E
100
AcDbEntity
  8
LAYER0006
  6
CONTINUOUS
 62
       7
100
AcDbLine
 10
146.99059416
 20
251.49682048
 30
0.0
 11
146.99059416
 21
300.49682048
 31
0.0
  0
LINE
  5
4F
100
AcDbEntity
  8
LAYER0006
  6
CONTINUOUS
 62
       7
100
AcDbLine
 10
175.99059416
 20
305.99682048
 30
0.0
 11
175.99059416
 21
317.49682048
 31
0.0
  0
LINE
  5
50
100
AcDbEntity
  8
LAYER0006
  6
CONTINUOUS
 62
       7
100
AcDbLine
 10
177.99059416
 20
305.99682048
 30
0.0
 11
177.99059416
 21
301.49682048
 31
0.0
  0
LINE
  5
51
100
AcDbEntity
  8
LAYER0006
  6
CONTINUOUS
 62
       7
100
AcDbLine
 10
180.49059416
 20
245.49682048
 30
0.0
 11
180.49059416
 21
251.49682048
 31
0.0
  0
LINE
  5
52
100
AcDbEntity
  8
LAYER0006
  6
CONTINUOUS
 62
       7
100
AcDbLine
 10
146.99059416
 20
245.49682048
 30
0.0
 11
181.99059416
 21
245.49682048
 31
0.0
  0
LINE
  5
53
100
AcDbEntity
  8
LAYER0006
  6
CONTINUOUS
 62
       7
100
AcDbLine
 10
148.29076195
 20
240.65152102
 30
0.0
 11
146.99059416
 21
240.65152102
 31
0.0
  0
LINE
  5
54
100
AcDbEntity
  8
LAYER0006
  6
CONTINUOUS
 62
       7
100
AcDbLine
 10
180.69042638
 20
244.34211993
 30
0.0
 11
180.69042638
 21
240.65152101
 31
0.0
  0
LINE
  5
55
100
AcDbEntity
  8
LAYER0006
  6
CONTINUOUS
 62
       7
100
AcDbLine
 10
181.99059416
 20
251.49682048
 30
0.0
 11
181.99059416
 21
300.49682048
 31
0.0
  0
LINE
  5
56
100
AcDbEntity
  8
LAYER0006
  6
CONTINUOUS
 62
       7
100
AcDbLine
 10
163.19042637
 20
278.39753887
 30
0.0
 11
163.19042637
 21
252.59610209
 31
0.0
  0
LINE
  5
57
100
AcDbEntity
  8
LAYER0006
  6
CONTINUOUS
 62
       7
100
AcDbLine
 10
163.19042637
 20
278.39753887
 30
0.0
 11
165.79076195
 21
278.39753887
 31
0.0
  0
LINE
  5
58
100
AcDbEntity
  8
LAYER0006
  6
CONTINUOUS
 62
       7
100
AcDbLine
 10
146.99059416
 20
239.49682048
 30
0.0
 11
146.99059416
 21
245.49682048
 31
0.0
  0
LINE
  5
59
100
AcDbEntity
  8
LAYER0006
  6
CONTINUOUS
 62
       7
100
AcDbLine
 10
152.99059416
 20
305.99682048
 30
0.0
 11
152.99059416
 21
317.49682048
 31
0.0
  0
LINE
  5
5A
100
AcDbEntity
  8
LAYER0006
  6
CONTINUOUS
 62
       7
100
AcDbLine
 10
147.99059416
 20
301.49682048
 30
0.0
 11
180.99059416
 21
301.49682048
 31
0.0
  0
LINE
  5
5B
100
AcDbEntity
  8
LAYER0006
  6
CONTINUOUS
 62
       7
100
AcDbLine
 10
146.99059416
 20
239.49682048
 30
0.0
 11
181.99059416
 21
239.49682048
 31
0.0
  0
LINE
  5
5C
100
AcDbEntity
  8
LAYER0006
  6
CONTINUOUS
 62
       7
100
AcDbLine
 10
180.69042637
 20
278.39753887
 30
0.0
 11
180.69042637
 21
252.59610209
 31
0.0
  0
LINE
  5
5D
100
AcDbEntity
  8
LAYER0006
  6
CONTINUOUS
 62
       7
100
AcDbLine
 10
165.79076195
 20
278.39753887
 30
0.0
 11
165.79076195
 21
252.59610209
 31
0.0
  0
LINE
  5
5E
100
AcDbEntity
  8
LAYER0006
  6
CONTINUOUS
 62
       7
100
AcDbLine
 10
163.19042638
 20
244.34211994
 30
0.0
 11
163.19042638
 21
240.65152102
 31
0.0
  0
LINE
  5
5F
100
AcDbEntity
  8
LAYER0006
  6
CONTINUOUS
 62
       7
100
AcDbLine
 10
180.69042637
 20
278.39753887
 30
0.0
 11
181.99059416
 21
278.39753887
 31
0.0
  0
LINE
  5
60
100
AcDbEntity
  8
LAYER0006
  6
CONTINUOUS
 62
       7
100
AcDbLine
 10
180.69042637
 20
252.59610209
 30
0.0
 11
181.99059416
 21
252.59610209
 31
0.0
  0
LINE
  5
61
100
AcDbEntity
  8
LAYER0006
  6
CONTINUOUS
 62
       7
100
AcDbLine
 10
181.99059416
 20
239.49682048
 30
0.0
 11
181.99059416
 21
245.49682048
 31
0.0
  0
LINE
  5
62
100
AcDbEntity
  8
LAYER0006
  6
CONTINUOUS
 62
       7
100
AcDbLine
 10
175.99059416
 20
305.99682048
 30
0.0
 11
177.99059416
 21
305.99682048
 31
0.0
  0
LINE
  5
63
100
AcDbEntity
  8
LAYER0006
  6
CONTINUOUS
 62
       7
100
AcDbLine
 10
146.99059416
 20
279.49682048
 30
0.0
 11
181.99059416
 21
279.49682048
 31
0.0
  0
LINE
  5
64
100
AcDbEntity
  8
LAYER0006
  6
CONTINUOUS
 62
       7
100
AcDbLine
 10
146.99059416
 20
251.49682048
 30
0.0
 11
181.99059416
 21
251.49682048
 31
0.0
  0
LINE
  5
65
100
AcDbEntity
  8
LAYER0006
  6
CONTINUOUS
 62
       7
100
AcDbLine
 10
175.99059416
 20
317.49682048
 30
0.0
 11
152.99059416
 21
317.49682048
 31
0.0
  0
LINE
  5
66
100
AcDbEntity
  8
LAYER0006
  6
CONTINUOUS
 62
       7
100
AcDbLine
 10
255.86555813
 20
147.0183761
 30
0.0
 11
241.92098226
 21
166.87676229
 31
0.0
  0
LINE
  5
67
100
AcDbEntity
  8
LAYER0006
  6
CONTINUOUS
 62
       7
100
AcDbLine
 10
251.86555813
 20
145.75424206
 30
0.0
 11
238.64744286
 21
164.5780801
 31
0.0
  0
LINE
  5
68
100
AcDbEntity
  8
LAYER0006
  6
CONTINUOUS
 62
       7
100
AcDbLine
 10
237.86403987
 20
143.20053186
 30
0.0
 11
237.86403987
 21
130.1763377
 31
0.0
  0
LINE
  5
69
100
AcDbEntity
  8
LAYER0006
  6
CONTINUOUS
 62
       7
100
AcDbLine
 10
242.87352634
 20
143.20053186
 30
0.0
 11
237.86403987
 21
143.20053186
 31
0.0
  0
LINE
  5
6A
100
AcDbEntity
  8
LAYER0006
  6
CONTINUOUS
 62
       7
100
AcDbLine
 10
242.87352634
 20
128.17285689
 30
0.0
 11
242.87352634
 21
145.20558157
 31
0.0
  0
LINE
  5
6B
100
AcDbEntity
  8
LAYER0006
  6
CONTINUOUS
 62
       7
100
AcDbLine
 10
237.86403987
 20
130.1763377
 30
0.0
 11
242.87352634
 21
130.1763377
 31
0.0
  0
LINE
  5
6C
100
AcDbEntity
  8
LAYER0006
  6
CONTINUOUS
 62
       7
100
AcDbLine
 10
237.86403987
 20
133.18155891
 30
0.0
 11
242.87352634
 21
133.18155891
 31
0.0
  0
LINE
  5
6D
100
AcDbEntity
  8
LAYER0006
  6
CONTINUOUS
 62
       7
100
AcDbLine
 10
242.87352634
 20
140.19609509
 30
0.0
 11
237.86403987
 21
140.19609509
 31
0.0
  0
LINE
  5
6E
100
AcDbEntity
  8
LAYER0006
  6
CONTINUOUS
 62
       7
100
AcDbLine
 10
224.85475022
 20
139.69483267
 30
0.0
 11
224.85475022
 21
133.88207119
 31
0.0
  0
LINE
  5
6F
100
AcDbEntity
  8
LAYER0006
  6
CONTINUOUS
 62
       7
100
AcDbLine
 10
237.87894439
 20
139.69483267
 30
0.0
 11
224.85475022
 21
139.69483267
 31
0.0
  0
LINE
  5
70
100
AcDbEntity
  8
LAYER0006
  6
CONTINUOUS
 62
       7
100
AcDbLine
 10
224.85475022
 20
133.88207119
 30
0.0
 11
237.87894439
 21
133.88207119
 31
0.0
  0
LINE
  5
71
100
AcDbEntity
  8
LAYER0006
  6
CONTINUOUS
 62
       7
100
AcDbLine
 10
223.33605843
 20
125.70027603
 30
0.0
 11
230.09957117
 21
125.70027603
 31
0.0
  0
LINE
  5
72
100
AcDbEntity
  8
LAYER0006
  6
CONTINUOUS
 62
       7
100
AcDbLine
 10
219.95430206
 20
131.55618215
 30
0.0
 11
223.33605843
 21
125.70027603
 31
0.0
  0
LINE
  5
73
100
AcDbEntity
  8
LAYER0006
  6
CONTINUOUS
 62
       7
100
AcDbLine
 10
223.33605843
 20
137.41365718
 30
0.0
 11
219.95430206
 21
131.55618215
 31
0.0
  0
LINE
  5
74
100
AcDbEntity
  8
LAYER0006
  6
CONTINUOUS
 62
       7
100
AcDbLine
 10
224.85475022
 20
137.41365718
 30
0.0
 11
223.33605843
 21
137.41365718
 31
0.0
  0
LINE
  5
75
100
AcDbEntity
  8
LAYER0006
  6
CONTINUOUS
 62
       7
100
AcDbLine
 10
233.47818975
 20
131.55618215
 30
0.0
 11
232.13660624
 21
133.88207119
 31
0.0
  0
LINE
  5
76
100
AcDbEntity
  8
LAYER0006
  6
CONTINUOUS
 62
       7
100
AcDbLine
 10
230.09957117
 20
125.70027603
 30
0.0
 11
233.47818975
 21
131.55618215
 31
0.0
  0
LINE
  5
77
100
AcDbEntity
  8
LAYER0006
  6
CONTINUOUS
 62
       7
100
AcDbLine
 10
255.86555813
 20
122.05696653
 30
0.0
 11
255.86555813
 21
147.0183761
 31
0.0
  0
LINE
  5
78
100
AcDbEntity
  8
LAYER0006
  6
CONTINUOUS
 62
       7
100
AcDbLine
 10
242.87352634
 20
128.17285689
 30
0.0
 11
251.85938095
 21
128.17285689
 31
0.0
  0
LINE
  5
79
100
AcDbEntity
  8
LAYER0006
  6
CONTINUOUS
 62
       7
100
AcDbLine
 10
251.85938095
 20
145.20558157
 30
0.0
 11
242.87352634
 21
145.20558157
 31
0.0
  0
LINE
  5
7A
100
AcDbEntity
  8
LAYER0006
  6
CONTINUOUS
 62
       7
100
AcDbLine
 10
226.71894658
 20
141.05696653
 30
0.0
 11
237.86403987
 21
141.05696653
 31
0.0
  0
LINE
  5
7B
100
AcDbEntity
  8
LAYER0006
  6
CONTINUOUS
 62
       7
100
AcDbLine
 10
226.71894658
 20
122.05696653
 30
0.0
 11
255.86555813
 21
122.05696653
 31
0.0
  0
LINE
  5
7C
100
AcDbEntity
  8
LAYER0006
  6
CONTINUOUS
 62
       7
100
AcDbLine
 10
251.86555813
 20
122.05696653
 30
0.0
 11
251.86555813
 21
145.75424206
 31
0.0
  0
LINE
  5
7D
100
AcDbEntity
  8
LAYER0006
  6
CONTINUOUS
 62
       7
100
AcDbLine
 10
251.85938095
 20
205.78805939
 30
0.0
 11
242.87352634
 21
205.78805939
 31
0.0
  0
LINE
  5
7E
100
AcDbEntity
  8
LAYER0006
  6
CONTINUOUS
 62
       7
100
AcDbLine
 10
242.87352634
 20
222.82078407
 30
0.0
 11
251.85938095
 21
222.82078407
 31
0.0
  0
LINE
  5
7F
100
AcDbEntity
  8
LAYER0006
  6
CONTINUOUS
 62
       7
100
AcDbLine
 10
255.86555813
 20
228.93667443
 30
0.0
 11
255.86555813
 21
203.97526486
 31
0.0
  0
LINE
  5
80
100
AcDbEntity
  8
LAYER0006
  6
CONTINUOUS
 62
       7
100
AcDbLine
 10
255.86555813
 20
203.97526486
 30
0.0
 11
241.92098226
 21
184.11687867
 31
0.0
  0
LINE
  5
81
100
AcDbEntity
  8
LAYER0006
  6
CONTINUOUS
 62
       7
100
AcDbLine
 10
210.54354642
 20
-149.19085846
 30
0.0
 11
210.54354642
 21
-67.10336286
 31
0.0
  0
LINE
  5
82
100
AcDbEntity
  8
LAYER0006
  6
CONTINUOUS
 62
       7
100
AcDbLine
 10
118.42578936
 20
-67.10336286
 30
0.0
 11
118.42578936
 21
-149.19085846
 31
0.0
  0
LINE
  5
83
100
AcDbEntity
  8
LAYER0006
  6
CONTINUOUS
 62
       7
100
AcDbLine
 10
215.67383792
 20
-40.33249771
 30
0.0
 11
192.63067081
 21
-40.33249771
 31
0.0
  0
LINE
  5
84
100
AcDbEntity
  8
LAYER0006
  6
CONTINUOUS
 62
       7
100
AcDbLine
 10
192.63067081
 20
-40.33249771
 30
0.0
 11
184.61596313
 21
-49.34973025
 31
0.0
  0
LINE
  5
85
100
AcDbEntity
  8
LAYER0006
  6
CONTINUOUS
 62
       7
100
AcDbLine
 10
184.61596313
 20
-49.34973025
 30
0.0
 11
145.55122512
 21
-49.34973025
 31
0.0
  0
LINE
  5
86
100
AcDbEntity
  8
LAYER0006
  6
CONTINUOUS
 62
       7
100
AcDbLine
 10
145.55122512
 20
-49.34973025
 30
0.0
 11
137.53573299
 21
-40.33249771
 31
0.0
  0
LINE
  5
87
100
AcDbEntity
  8
LAYER0006
  6
CONTINUOUS
 62
       7
100
AcDbLine
 10
137.53573299
 20
-40.33249771
 30
0.0
 11
113.49239437
 21
-40.33249771
 31
0.0
  0
LINE
  5
88
100
AcDbEntity
  8
LAYER0006
  6
CONTINUOUS
 62
       7
100
AcDbLine
 10
113.49239437
 20
-40.33249771
 30
0.0
 11
113.49239437
 21
-67.10336286
 31
0.0
  0
LINE
  5
89
100
AcDbEntity
  8
LAYER0006
  6
CONTINUOUS
 62
       7
100
AcDbLine
 10
113.49239437
 20
-67.10336286
 30
0.0
 11
137.53573299
 21
-67.10336286
 31
0.0
  0
LINE
  5
8A
100
AcDbEntity
  8
LAYER0006
  6
CONTINUOUS
 62
       7
100
AcDbLine
 10
137.53573299
 20
-67.10336286
 30
0.0
 11
145.55122512
 21
-59.08708628
 31
0.0
  0
LINE
  5
8B
100
AcDbEntity
  8
LAYER0006
  6
CONTINUOUS
 62
       7
100
AcDbLine
 10
145.55122512
 20
-59.08708628
 30
0.0
 11
184.61596313
 21
-59.08708628
 31
0.0
  0
LINE
  5
8C
100
AcDbEntity
  8
LAYER0006
  6
CONTINUOUS
 62
       7
100
AcDbLine
 10
184.61596313
 20
-59.08708628
 30
0.0
 11
192.63067081
 21
-67.10336286
 31
0.0
  0
LINE
  5
8D
100
AcDbEntity
  8
LAYER0006
  6
CONTINUOUS
 62
       7
100
AcDbLine
 10
192.63067081
 20
-67.10336286
 30
0.0
 11
215.67383792
 21
-67.10336286
 31
0.0
  0
LINE
  5
8E
100
AcDbEntity
  8
LAYER0006
  6
CONTINUOUS
 62
       7
100
AcDbLine
 10
215.67383792
 20
-67.10336286
 30
0.0
 11
215.67383792
 21
-40.33249771
 31
0.0
  0
LINE
  5
8F
100
AcDbEntity
  8
LAYER0006
  6
CONTINUOUS
 62
       7
100
AcDbLine
 10
234.36226292
 20
-153.19782008
 30
0.0
 11
248.70424882
 21
-153.19782008
 31
0.0
  0
LINE
  5
90
100
AcDbEntity
  8
LAYER0006
  6
CONTINUOUS
 62
       7
100
AcDbLine
 10
251.85702761
 20
-121.02602878
 30
0.0
 11
234.36226292
 21
-121.02602878
 31
0.0
  0
LINE
  5
91
100
AcDbEntity
  8
LAYER0006
  6
CONTINUOUS
 62
       7
100
AcDbLine
 10
234.36226292
 20
-121.02602878
 30
0.0
 11
234.36226292
 21
-153.19782008
 31
0.0
  0
LINE
  5
92
100
AcDbEntity
  8
LAYER0006
  6
CONTINUOUS
 62
       7
100
AcDbLine
 10
230.09957117
 20
225.29336493
 30
0.0
 11
233.47818975
 21
219.43745881
 31
0.0
  0
LINE
  5
93
100
AcDbEntity
  8
LAYER0006
  6
CONTINUOUS
 62
       7
100
AcDbLine
 10
233.47818975
 20
219.43745881
 30
0.0
 11
232.13660624
 21
217.11156977
 31
0.0
  0
LINE
  5
94
100
AcDbEntity
  8
LAYER0006
  6
CONTINUOUS
 62
       7
100
AcDbLine
 10
224.85475022
 20
213.57998378
 30
0.0
 11
223.33605843
 21
213.57998378
 31
0.0
  0
LINE
  5
95
100
AcDbEntity
  8
LAYER0006
  6
CONTINUOUS
 62
       7
100
AcDbLine
 10
223.33605843
 20
213.57998378
 30
0.0
 11
219.95430206
 21
219.43745881
 31
0.0
  0
LINE
  5
96
100
AcDbEntity
  8
LAYER0006
  6
CONTINUOUS
 62
       7
100
AcDbLine
 10
219.95430206
 20
219.43745881
 30
0.0
 11
223.33605843
 21
225.29336493
 31
0.0
  0
LINE
  5
97
100
AcDbEntity
  8
LAYER0006
  6
CONTINUOUS
 62
       7
100
AcDbLine
 10
223.33605843
 20
225.29336493
 30
0.0
 11
230.09957117
 21
225.29336493
 31
0.0
  0
LINE
  5
98
100
AcDbEntity
  8
LAYER0006
  6
CONTINUOUS
 62
       7
100
AcDbLine
 10
224.85475022
 20
217.11156977
 30
0.0
 11
237.87894439
 21
217.11156977
 31
0.0
  0
LINE
  5
99
100
AcDbEntity
  8
LAYER0006
  6
CONTINUOUS
 62
       7
100
AcDbLine
 10
237.87894439
 20
211.29880829
 30
0.0
 11
224.85475022
 21
211.29880829
 31
0.0
  0
LINE
  5
9A
100
AcDbEntity
  8
LAYER0006
  6
CONTINUOUS
 62
       7
100
AcDbLine
 10
224.85475022
 20
211.29880829
 30
0.0
 11
224.85475022
 21
217.11156977
 31
0.0
  0
LINE
  5
9B
100
AcDbEntity
  8
LAYER0006
  6
CONTINUOUS
 62
       7
100
AcDbLine
 10
242.87352634
 20
210.79754587
 30
0.0
 11
237.86403987
 21
210.79754587
 31
0.0
  0
LINE
  5
9C
100
AcDbEntity
  8
LAYER0006
  6
CONTINUOUS
 62
       7
100
AcDbLine
 10
237.86403987
 20
217.81208205
 30
0.0
 11
242.87352634
 21
217.81208205
 31
0.0
  0
LINE
  5
9D
100
AcDbEntity
  8
LAYER0006
  6
CONTINUOUS
 62
       7
100
AcDbLine
 10
237.86403987
 20
220.81730326
 30
0.0
 11
242.87352634
 21
220.81730326
 31
0.0
  0
LINE
  5
9E
100
AcDbEntity
  8
LAYER0006
  6
CONTINUOUS
 62
       7
100
AcDbLine
 10
242.87352634
 20
222.82078407
 30
0.0
 11
242.87352634
 21
205.78805939
 31
0.0
  0
LINE
  5
9F
100
AcDbEntity
  8
LAYER0006
  6
CONTINUOUS
 62
       7
100
AcDbLine
 10
242.87352634
 20
207.7931091
 30
0.0
 11
237.86403987
 21
207.7931091
 31
0.0
  0
LINE
  5
A0
100
AcDbEntity
  8
LAYER0006
  6
CONTINUOUS
 62
       7
100
AcDbLine
 10
237.86403987
 20
207.7931091
 30
0.0
 11
237.86403987
 21
220.81730326
 31
0.0
  0
LINE
  5
A1
100
AcDbEntity
  8
LAYER0006
  6
CONTINUOUS
 62
       7
100
AcDbLine
 10
224.8641636
 20
-134.11219435
 30
0.0
 11
237.88835777
 21
-134.11219435
 31
0.0
  0
LINE
  5
A2
100
AcDbEntity
  8
LAYER0006
  6
CONTINUOUS
 62
       7
100
AcDbLine
 10
237.88835777
 20
-128.30100177
 30
0.0
 11
224.8641636
 21
-128.30100177
 31
0.0
  0
LINE
  5
A3
100
AcDbEntity
  8
LAYER0006
  6
CONTINUOUS
 62
       7
100
AcDbLine
 10
224.8641636
 20
-128.30100177
 30
0.0
 11
224.8641636
 21
-134.11219435
 31
0.0
  0
LINE
  5
A4
100
AcDbEntity
  8
LAYER0006
  6
CONTINUOUS
 62
       7
100
AcDbLine
 10
242.88293972
 20
-127.7989549
 30
0.0
 11
237.87345325
 21
-127.7989549
 31
0.0
  0
LINE
  5
A5
100
AcDbEntity
  8
LAYER0006
  6
CONTINUOUS
 62
       7
100
AcDbLine
 10
237.87345325
 20
-134.81349108
 30
0.0
 11
242.88293972
 21
-134.81349108
 31
0.0
  0
LINE
  5
A6
100
AcDbEntity
  8
LAYER0006
  6
CONTINUOUS
 62
       7
100
AcDbLine
 10
237.87345325
 20
-137.81792784
 30
0.0
 11
242.88293972
 21
-137.81792784
 31
0.0
  0
LINE
  5
A7
100
AcDbEntity
  8
LAYER0006
  6
CONTINUOUS
 62
       7
100
AcDbLine
 10
242.88293972
 20
-139.70659806
 30
0.0
 11
242.88293972
 21
-122.70659806
 31
0.0
  0
LINE
  5
A8
100
AcDbEntity
  8
LAYER0006
  6
CONTINUOUS
 62
       7
100
AcDbLine
 10
242.88293972
 20
-124.79294923
 30
0.0
 11
237.87345325
 21
-124.79294923
 31
0.0
  0
LINE
  5
A9
100
AcDbEntity
  8
LAYER0006
  6
CONTINUOUS
 62
       7
100
AcDbLine
 10
237.87345325
 20
-124.79294923
 30
0.0
 11
237.87345325
 21
-137.81792784
 31
0.0
  0
LINE
  5
AA
100
AcDbEntity
  8
LAYER0006
  6
CONTINUOUS
 62
       7
100
AcDbLine
 10
93.49059416
 20
-179.33249771
 30
0.0
 11
231.49059416
 21
-179.33249771
 31
0.0
  0
LINE
  5
AB
100
AcDbEntity
  8
LAYER0006
  6
CONTINUOUS
 62
       7
100
AcDbLine
 10
231.49059416
 20
-192.35590742
 30
0.0
 11
93.49059416
 21
-192.35590742
 31
0.0
  0
LINE
  5
AC
100
AcDbEntity
  8
LAYER0006
  6
CONTINUOUS
 62
       7
100
AcDbLine
 10
104.47437738
 20
-156.28854615
 30
0.0
 11
219.97077547
 21
-156.28854615
 31
0.0
  0
LINE
  5
AD
100
AcDbEntity
  8
LAYER0006
  6
CONTINUOUS
 62
       7
100
AcDbLine
 10
104.47437738
 20
-166.3059502
 30
0.0
 11
104.47437738
 21
-156.28854615
 31
0.0
  0
LINE
  5
AE
100
AcDbEntity
  8
LAYER0006
  6
CONTINUOUS
 62
       7
100
AcDbLine
 10
108.4829079
 20
-149.27557887
 30
0.0
 11
220.68253995
 21
-149.27557887
 31
0.0
  0
LINE
  5
AF
100
AcDbEntity
  8
LAYER0006
  6
CONTINUOUS
 62
       7
100
AcDbLine
 10
220.68253995
 20
-149.27557887
 30
0.0
 11
220.68253995
 21
-155.24366109
 31
0.0
  0
LINE
  5
B0
100
AcDbEntity
  8
LAYER0006
  6
CONTINUOUS
 62
       7
100
AcDbLine
 10
108.4829079
 20
-156.28540836
 30
0.0
 11
108.4829079
 21
-149.27557887
 31
0.0
  0
LINE
  5
B1
100
AcDbEntity
  8
LAYER0006
  6
CONTINUOUS
 62
       7
100
AcDbLine
 10
93.49059416
 20
-166.3075191
 30
0.0
 11
231.49059416
 21
-166.3075191
 31
0.0
  0
LINE
  5
B2
100
AcDbEntity
  8
LAYER0006
  6
CONTINUOUS
 62
       7
100
AcDbLine
 10
219.97077547
 20
-160.25314756
 30
0.0
 11
233.50093875
 21
-160.25314756
 31
0.0
  0
LINE
  5
B3
100
AcDbEntity
  8
LAYER0006
  6
CONTINUOUS
 62
       7
100
AcDbLine
 10
233.50093875
 20
-160.25314756
 30
0.0
 11
233.50093875
 21
-155.24366109
 31
0.0
  0
LINE
  5
B4
100
AcDbEntity
  8
LAYER0006
  6
CONTINUOUS
 62
       7
100
AcDbLine
 10
233.50093875
 20
-155.24366109
 30
0.0
 11
219.97077547
 21
-155.24366109
 31
0.0
  0
LINE
  5
B5
100
AcDbEntity
  8
LAYER0006
  6
CONTINUOUS
 62
       7
100
AcDbLine
 10
219.97077547
 20
-155.24366109
 30
0.0
 11
219.97077547
 21
-160.25314756
 31
0.0
  0
LINE
  5
B6
100
AcDbEntity
  8
LAYER0006
  6
CONTINUOUS
 62
       7
100
AcDbLine
 10
223.09366392
 20
-155.24366109
 30
0.0
 11
223.09366392
 21
-160.25314756
 31
0.0
  0
LINE
  5
B7
100
AcDbEntity
  8
LAYER0006
  6
CONTINUOUS
 62
       7
100
AcDbLine
 10
230.37883475
 20
-160.25314756
 30
0.0
 11
230.37883475
 21
-155.24366109
 31
0.0
  0
LINE
  5
B8
100
AcDbEntity
  8
LAYER0006
  6
CONTINUOUS
 62
       7
100
AcDbLine
 10
219.97077547
 20
-162.27702403
 30
0.0
 11
233.50093875
 21
-162.27702403
 31
0.0
  0
LINE
  5
B9
100
AcDbEntity
  8
LAYER0006
  6
CONTINUOUS
 62
       7
100
AcDbLine
 10
233.50093875
 20
-162.27702403
 30
0.0
 11
233.50093875
 21
-160.20608067
 31
0.0
  0
LINE
  5
BA
100
AcDbEntity
  8
LAYER0006
  6
CONTINUOUS
 62
       7
100
AcDbLine
 10
233.50093875
 20
-160.20608067
 30
0.0
 11
219.97077547
 21
-160.20608067
 31
0.0
  0
LINE
  5
BB
100
AcDbEntity
  8
LAYER0006
  6
CONTINUOUS
 62
       7
100
AcDbLine
 10
219.97077547
 20
-160.20608067
 30
0.0
 11
219.97077547
 21
-162.27702403
 31
0.0
  0
LINE
  5
BC
100
AcDbEntity
  8
LAYER0006
  6
CONTINUOUS
 62
       7
100
AcDbLine
 10
251.85702761
 20
-150.01609801
 30
0.0
 11
239.7231822
 21
-162.26133506
 31
0.0
  0
LINE
  5
BD
100
AcDbEntity
  8
LAYER0006
  6
CONTINUOUS
 62
       7
100
AcDbLine
 10
216.99144105
 20
-162.28643741
 30
0.0
 11
216.99144105
 21
-166.29496792
 31
0.0
  0
LINE
  5
BE
100
AcDbEntity
  8
LAYER0006
  6
CONTINUOUS
 62
       7
100
AcDbLine
 10
216.99144105
 20
-166.29496792
 30
0.0
 11
255.86555813
 21
-166.29496792
 31
0.0
  0
LINE
  5
BF
100
AcDbEntity
  8
LAYER0006
  6
CONTINUOUS
 62
       7
100
AcDbLine
 10
255.86555813
 20
-166.29496792
 30
0.0
 11
255.86555813
 21
-120.90836154
 31
0.0
  0
LINE
  5
C0
100
AcDbEntity
  8
LAYER0006
  6
CONTINUOUS
 62
       7
100
AcDbLine
 10
255.86555813
 20
-120.90836154
 30
0.0
 11
251.8617343
 21
-120.90836154
 31
0.0
  0
LINE
  5
C1
100
AcDbEntity
  8
LAYER0006
  6
CONTINUOUS
 62
       7
100
AcDbLine
 10
154.94420837
 20
-149.19085846
 30
0.0
 11
154.94420837
 21
-143.20081168
 31
0.0
  0
LINE
  5
C2
100
AcDbEntity
  8
LAYER0006
  6
CONTINUOUS
 62
       7
100
AcDbLine
 10
154.94420837
 20
-143.20081168
 30
0.0
 11
173.98041386
 21
-143.20081168
 31
0.0
  0
LINE
  5
C3
100
AcDbEntity
  8
LAYER0006
  6
CONTINUOUS
 62
       7
100
AcDbLine
 10
173.98041386
 20
-143.20081168
 30
0.0
 11
173.98041386
 21
-149.19085846
 31
0.0
  0
LINE
  5
C4
100
AcDbEntity
  8
LAYER0006
  6
CONTINUOUS
 62
       7
100
AcDbLine
 10
100.6925524
 20
-70.30371916
 30
0.0
 11
118.42422047
 21
-70.30371916
 31
0.0
  0
LINE
  5
C5
100
AcDbEntity
  8
LAYER0006
  6
CONTINUOUS
 62
       7
100
AcDbLine
 10
118.42422047
 20
-90.36127626
 30
0.0
 11
100.6925524
 21
-90.36127626
 31
0.0
  0
LINE
  5
C6
100
AcDbEntity
  8
LAYER0006
  6
CONTINUOUS
 62
       7
100
AcDbLine
 10
100.6925524
 20
-90.36127626
 30
0.0
 11
100.6925524
 21
-70.30371916
 31
0.0
  0
LINE
  5
C7
100
AcDbEntity
  8
LAYER0006
  6
CONTINUOUS
 62
       7
100
AcDbLine
 10
215.55303289
 20
-53.8320675
 30
0.0
 11
113.41708734
 21
-53.8320675
 31
0.0
  0
ARC
  5
C8
100
AcDbEntity
  8
LAYER0006
  6
CONTINUOUS
 62
       7
100
AcDbCircle
 10
226.71894658
 20
131.55696653
 30
0.0
 40
9.5
100
AcDbArc
 50
90.0
 51
270.0
  0
ARC
  5
C9
100
AcDbEntity
  8
LAYER0006
  6
CONTINUOUS
 62
       7
100
AcDbCircle
 10
155.74059417
 20
264.1063757
 30
0.0
 40
24.60955522
100
AcDbArc
 50
252.37888632
 51
287.62111366
  0
ARC
  5
CA
100
AcDbEntity
  8
LAYER0006
  6
CONTINUOUS
 62
       7
100
AcDbCircle
 10
173.24059416
 20
277.29022029
 30
0.0
 40
25.79339981
100
AcDbArc
 50
253.21225228
 51
286.78774772
  0
ARC
  5
CB
100
AcDbEntity
  8
LAYER0006
  6
CONTINUOUS
 62
       7
100
AcDbCircle
 10
180.99059416
 20
300.49682048
 30
0.0
 40
1.0
100
AcDbArc
 50
0.0
 51
90.0
  0
ARC
  5
CC
100
AcDbEntity
  8
LAYER0006
  6
CONTINUOUS
 62
       7
100
AcDbCircle
 10
155.74059417
 20
220.88726526
 30
0.0
 40
24.60955522
100
AcDbArc
 50
72.37888632
 51
107.62111366
  0
ARC
  5
CD
100
AcDbEntity
  8
LAYER0006
  6
CONTINUOUS
 62
       7
100
AcDbCircle
 10
155.74059416
 20
253.70342067
 30
0.0
 40
25.79339981
100
AcDbArc
 50
73.21225228
 51
106.78774772
  0
ARC
  5
CE
100
AcDbEntity
  8
LAYER0006
  6
CONTINUOUS
 62
       7
100
AcDbCircle
 10
173.24059416
 20
220.88726526
 30
0.0
 40
24.60955521
100
AcDbArc
 50
72.37888631
 51
107.62111366
  0
ARC
  5
CF
100
AcDbEntity
  8
LAYER0006
  6
CONTINUOUS
 62
       7
100
AcDbCircle
 10
173.24059416
 20
253.70342067
 30
0.0
 40
25.79339981
100
AcDbArc
 50
73.21225228
 51
106.78774772
  0
ARC
  5
D0
100
AcDbEntity
  8
LAYER0006
  6
CONTINUOUS
 62
       7
100
AcDbCircle
 10
173.24059418
 20
264.1063757
 30
0.0
 40
24.60955522
100
AcDbArc
 50
252.37888632
 51
287.62111365
  0
ARC
  5
D1
100
AcDbEntity
  8
LAYER0006
  6
CONTINUOUS
 62
       7
100
AcDbCircle
 10
155.74059416
 20
277.29022029
 30
0.0
 40
25.79339981
100
AcDbArc
 50
253.21225228
 51
286.78774772
  0
ARC
  5
D2
100
AcDbEntity
  8
LAYER0006
  6
CONTINUOUS
 62
       7
100
AcDbCircle
 10
147.99059416
 20
300.49682048
 30
0.0
 40
1.0
100
AcDbArc
 50
90.0
 51
180.0
  0
LINE
  5
D3
100
AcDbEntity
  8
LAYER0006
  6
CONTINUOUS
 62
       7
100
AcDbLine
 10
231.49059416
 20
228.93667443
 30
0.0
 11
231.49059416
 21
234.49682048
 31
0.0
  0
LINE
  5
D4
100
AcDbEntity
  8
LAYER0006
  6
CONTINUOUS
 62
       7
100
AcDbLine
 10
231.49059416
 20
116.49682048
 30
0.0
 11
231.49059416
 21
122.05696653
 31
0.0
  0
LINE
  5
D5
100
AcDbEntity
  8
LAYER0006
  6
CONTINUOUS
 62
       7
100
AcDbLine
 10
231.49059416
 20
141.05696653
 30
0.0
 11
231.49059416
 21
209.93667443
 31
0.0
  0
LINE
  5
D6
100
AcDbEntity
  8
LAYER0006
  6
CONTINUOUS
 62
       7
100
AcDbLine
 10
102.46753182
 20
-217.40490868
 30
0.0
 11
107.81909741
 21
-279.87316855
 31
0.0
  0
LINE
  5
D7
100
AcDbEntity
  8
LAYER0006
  6
CONTINUOUS
 62
       7
100
AcDbLine
 10
216.99144105
 20
-162.29496792
 30
0.0
 11
251.86555813
 21
-162.29496792
 31
0.0
  0
LINE
  5
D8
100
AcDbEntity
  8
LAYER0006
  6
CONTINUOUS
 62
       7
100
AcDbLine
 10
251.86555813
 20
-162.29496792
 30
0.0
 11
251.86555813
 21
-120.90836154
 31
0.0
  0
LINE
  5
D9
100
AcDbEntity
  8
LAYER0006
  6
CONTINUOUS
 62
       7
100
AcDbLine
 10
242.88293972
 20
-139.70659806
 30
0.0
 11
251.86555813
 21
-139.70659806
 31
0.0
  0
LINE
  5
DA
100
AcDbEntity
  8
LAYER0006
  6
CONTINUOUS
 62
       7
100
AcDbLine
 10
242.88293972
 20
-122.70659806
 30
0.0
 11
251.86555813
 21
-122.70659806
 31
0.0
  0
LINE
  5
DB
100
AcDbEntity
  8
LAYER0006
  6
CONTINUOUS
 62
       7
100
AcDbLine
 10
255.86555813
 20
-134.70659806
 30
0.0
 11
303.00940584
 21
-134.70659806
 31
0.0
  0
LINE
  5
DC
100
AcDbEntity
  8
LAYER0006
  6
CONTINUOUS
 62
       7
100
AcDbLine
 10
255.86555813
 20
-127.70659806
 30
0.0
 11
303.00940584
 21
-127.70659806
 31
0.0
  0
LINE
  5
DD
100
AcDbEntity
  8
LAYER0006
  6
CONTINUOUS
 62
       7
100
AcDbLine
 10
123.49059416
 20
-204.3878286
 30
0.0
 11
201.49059416
 21
-204.3878286
 31
0.0
  0
LINE
  5
DE
100
AcDbEntity
  8
LAYER0006
  6
CONTINUOUS
 62
       7
100
AcDbLine
 10
123.49059416
 20
-217.40490868
 30
0.0
 11
96.49059416
 21
-217.40490868
 31
0.0
  0
LINE
  5
DF
100
AcDbEntity
  8
LAYER0006
  6
CONTINUOUS
 62
       7
100
AcDbLine
 10
123.49059416
 20
-204.3878286
 30
0.0
 11
123.49059416
 21
-217.40490868
 31
0.0
  0
LINE
  5
E0
100
AcDbEntity
  8
LAYER0006
  6
CONTINUOUS
 62
       7
100
AcDbLine
 10
201.49059416
 20
-204.3878286
 30
0.0
 11
201.49059416
 21
-217.40490868
 31
0.0
  0
LINE
  5
E1
100
AcDbEntity
  8
LAYER0006
  6
CONTINUOUS
 62
       7
100
AcDbLine
 10
103.49059416
 20
106.49682048
 30
0.0
 11
146.99059416
 21
106.49682048
 31
0.0
  0
LINE
  5
E2
100
AcDbEntity
  8
LAYER0006
  6
CONTINUOUS
 62
       7
100
AcDbLine
 10
103.49059416
 20
244.49682048
 30
0.0
 11
146.99059416
 21
244.49682048
 31
0.0
  0
LINE
  5
E3
100
AcDbEntity
  8
LAYER0006
  6
CONTINUOUS
 62
       7
100
AcDbLine
 10
93.49059416
 20
116.49682048
 30
0.0
 11
93.49059416
 21
234.49682048
 31
0.0
  0
LINE
  5
E4
100
AcDbEntity
  8
LAYER0006
  6
CONTINUOUS
 62
       7
100
AcDbLine
 10
115.95634759
 20
160.49682048
 30
0.0
 11
100.49059416
 21
160.49682048
 31
0.0
  0
LINE
  5
E5
100
AcDbEntity
  8
LAYER0006
  6
CONTINUOUS
 62
       7
100
AcDbLine
 10
100.49059416
 20
160.49682048
 30
0.0
 11
100.49059416
 21
190.49682048
 31
0.0
  0
LINE
  5
E6
100
AcDbEntity
  8
LAYER0006
  6
CONTINUOUS
 62
       7
100
AcDbLine
 10
115.95634759
 20
190.49682048
 30
0.0
 11
100.49059416
 21
190.49682048
 31
0.0
  0
LINE
  5
E7
100
AcDbEntity
  8
LAYER0006
  6
CONTINUOUS
 62
       7
100
AcDbLine
 10
181.99059416
 20
244.49682048
 30
0.0
 11
221.49059416
 21
244.49682048
 31
0.0
  0
LINE
  5
E8
100
AcDbEntity
  8
LAYER0006
  6
CONTINUOUS
 62
       7
100
AcDbLine
 10
181.99059416
 20
106.49682048
 30
0.0
 11
221.49059416
 21
106.49682048
 31
0.0
  0
LINE
  5
E9
100
AcDbEntity
  8
LAYER0006
  6
CONTINUOUS
 62
       7
100
AcDbLine
 10
255.86555813
 20
210.99682048
 30
0.0
 11
264.00940584
 21
210.99682048
 31
0.0
  0
LINE
  5
EA
100
AcDbEntity
  8
LAYER0006
  6
CONTINUOUS
 62
       7
100
AcDbLine
 10
255.86555813
 20
139.99682048
 30
0.0
 11
264.00940584
 21
139.99682048
 31
0.0
  0
LINE
  5
EB
100
AcDbEntity
  8
LAYER0006
  6
CONTINUOUS
 62
       7
100
AcDbLine
 10
255.86555813
 20
217.99682048
 30
0.0
 11
264.00940584
 21
217.99682048
 31
0.0
  0
LINE
  5
EC
100
AcDbEntity
  8
LAYER0006
  6
CONTINUOUS
 62
       7
100
AcDbLine
 10
255.86555813
 20
132.99682048
 30
0.0
 11
264.00940584
 21
132.99682048
 31
0.0
  0
LINE
  5
ED
100
AcDbEntity
  8
LAYER0006
  6
CONTINUOUS
 62
       7
100
AcDbLine
 10
93.49059416
 20
-166.3075191
 30
0.0
 11
93.49059416
 21
-214.40490868
 31
0.0
  0
LINE
  5
EE
100
AcDbEntity
  8
LAYER0006
  6
CONTINUOUS
 62
       7
100
AcDbLine
 10
231.49059416
 20
-166.3075191
 30
0.0
 11
231.49059416
 21
-214.40490868
 31
0.0
  0
LINE
  5
EF
100
AcDbEntity
  8
LAYER0006
  6
CONTINUOUS
 62
       7
100
AcDbLine
 10
251.86555813
 20
228.93667443
 30
0.0
 11
251.86555813
 21
205.2393989
 31
0.0
  0
LINE
  5
F0
100
AcDbEntity
  8
LAYER0006
  6
CONTINUOUS
 62
       7
100
AcDbLine
 10
251.86555813
 20
205.2393989
 30
0.0
 11
238.64744286
 21
186.41556086
 31
0.0
  0
LINE
  5
F1
100
AcDbEntity
  8
LAYER0006
  6
CONTINUOUS
 62
       7
100
AcDbLine
 10
226.71894658
 20
228.93667443
 30
0.0
 11
255.86555813
 21
228.93667443
 31
0.0
  0
LINE
  5
F2
100
AcDbEntity
  8
LAYER0006
  6
CONTINUOUS
 62
       7
100
AcDbLine
 10
226.71894658
 20
209.93667443
 30
0.0
 11
237.86403987
 21
209.93667443
 31
0.0
  0
LINE
  5
F3
100
AcDbEntity
  8
LAYER0006
  6
CONTINUOUS
 62
       7
100
AcDbLine
 10
164.49059416
 20
226.49682048
 30
0.0
 11
127.99059416
 21
220.49682048
 31
0.0
  0
LINE
  5
F4
100
AcDbEntity
  8
LAYER0006
  6
CONTINUOUS
 62
       7
100
AcDbLine
 10
113.49059416
 20
175.49682048
 30
0.0
 11
119.49059416
 21
211.99682048
 31
0.0
  0
LINE
  5
F5
100
AcDbEntity
  8
LAYER0006
  6
CONTINUOUS
 62
       7
100
AcDbLine
 10
215.49059416
 20
175.49682048
 30
0.0
 11
209.49059416
 21
211.99682048
 31
0.0
  0
LINE
  5
F6
100
AcDbEntity
  8
LAYER0006
  6
CONTINUOUS
 62
       7
100
AcDbLine
 10
164.49059416
 20
226.49682048
 30
0.0
 11
200.99059416
 21
220.49682048
 31
0.0
  0
LINE
  5
F7
100
AcDbEntity
  8
LAYER0006
  6
CONTINUOUS
 62
       7
100
AcDbLine
 10
164.49059416
 20
124.49682048
 30
0.0
 11
200.99059416
 21
130.49682048
 31
0.0
  0
LINE
  5
F8
100
AcDbEntity
  8
LAYER0006
  6
CONTINUOUS
 62
       7
100
AcDbLine
 10
215.49059416
 20
175.49682048
 30
0.0
 11
209.49059416
 21
138.99682048
 31
0.0
  0
LINE
  5
F9
100
AcDbEntity
  8
LAYER0006
  6
CONTINUOUS
 62
       7
100
AcDbLine
 10
113.49059416
 20
175.49682048
 30
0.0
 11
119.49059416
 21
138.99682048
 31
0.0
  0
LINE
  5
FA
100
AcDbEntity
  8
LAYER0006
  6
CONTINUOUS
 62
       7
100
AcDbLine
 10
164.49059416
 20
124.49682048
 30
0.0
 11
127.99059416
 21
130.49682048
 31
0.0
  0
LINE
  5
FB
100
AcDbEntity
  8
LAYER0006
  6
CONTINUOUS
 62
       7
100
AcDbLine
 10
179.49059416
 20
224.03106706
 30
0.0
 11
179.49059416
 21
239.49682048
 31
0.0
  0
LINE
  5
FC
100
AcDbEntity
  8
LAYER0006
  6
CONTINUOUS
 62
       7
100
AcDbLine
 10
149.49059416
 20
224.03106706
 30
0.0
 11
149.49059416
 21
239.49682048
 31
0.0
  0
ARC
  5
FD
100
AcDbEntity
  8
LAYER0006
  6
CONTINUOUS
 62
       7
100
AcDbCircle
 10
221.49059416
 20
234.49682048
 30
0.0
 40
10.0
100
AcDbArc
 50
0.0
 51
90.0
  0
ARC
  5
FE
100
AcDbEntity
  8
LAYER0006
  6
CONTINUOUS
 62
       7
100
AcDbCircle
 10
221.49059416
 20
116.49682048
 30
0.0
 40
10.0
100
AcDbArc
 50
270.0
 51
360.0
  0
ARC
  5
FF
100
AcDbEntity
  8
LAYER0006
  6
CONTINUOUS
 62
       7
100
AcDbCircle
 10
103.49059416
 20
116.49682048
 30
0.0
 40
10.0
100
AcDbArc
 50
180.0
 51
270.0
  0
ARC
  5
100
100
AcDbEntity
  8
LAYER0006
  6
CONTINUOUS
 62
       7
100
AcDbCircle
 10
103.49059416
 20
234.49682048
 30
0.0
 40
10.0
100
AcDbArc
 50
90.0
 51
180.0
  0
ARC
  5
101
100
AcDbEntity
  8
LAYER0006
  6
CONTINUOUS
 62
       7
100
AcDbCircle
 10
164.49059416
 20
175.49682048
 30
0.0
 40
61.0
100
AcDbArc
 50
194.23512406
 51
255.76487594
  0
ARC
  5
102
100
AcDbEntity
  8
LAYER0006
  6
CONTINUOUS
 62
       7
100
AcDbCircle
 10
164.49059416
 20
175.49682048
 30
0.0
 40
61.0
100
AcDbArc
 50
284.23512406
 51
435.76487594
  0
ARC
  5
103
100
AcDbEntity
  8
LAYER0006
  6
CONTINUOUS
 62
       7
100
AcDbCircle
 10
164.49059416
 20
175.49682048
 30
0.0
 40
61.0
100
AcDbArc
 50
104.23512406
 51
165.76487594
  0
CIRCLE
  5
104
100
AcDbEntity
  8
LAYER0006
  6
CONTINUOUS
 62
       7
100
AcDbCircle
 10
127.99059416
 20
211.99682048
 30
0.0
 40
8.5
  0
CIRCLE
  5
105
100
AcDbEntity
  8
LAYER0006
  6
CONTINUOUS
 62
       7
100
AcDbCircle
 10
127.99059416
 20
211.99682048
 30
0.0
 40
6.0
  0
CIRCLE
  5
106
100
AcDbEntity
  8
LAYER0006
  6
CONTINUOUS
 62
       7
100
AcDbCircle
 10
200.99059416
 20
211.99682048
 30
0.0
 40
8.5
  0
CIRCLE
  5
107
100
AcDbEntity
  8
LAYER0006
  6
CONTINUOUS
 62
       7
100
AcDbCircle
 10
200.99059416
 20
211.99682048
 30
0.0
 40
6.0
  0
CIRCLE
  5
108
100
AcDbEntity
  8
LAYER0006
  6
CONTINUOUS
 62
       7
100
AcDbCircle
 10
200.99059416
 20
138.99682048
 30
0.0
 40
8.5
  0
CIRCLE
  5
109
100
AcDbEntity
  8
LAYER0006
  6
CONTINUOUS
 62
       7
100
AcDbCircle
 10
200.99059416
 20
138.99682048
 30
0.0
 40
6.0
  0
CIRCLE
  5
10A
100
AcDbEntity
  8
LAYER0006
  6
CONTINUOUS
 62
       7
100
AcDbCircle
 10
127.99059416
 20
138.99682048
 30
0.0
 40
8.5
  0
CIRCLE
  5
10B
100
AcDbEntity
  8
LAYER0006
  6
CONTINUOUS
 62
       7
100
AcDbCircle
 10
127.99059416
 20
138.99682048
 30
0.0
 40
6.0
  0
ARC
  5
10C
100
AcDbEntity
  8
LAYER0006
  6
CONTINUOUS
 62
       7
100
AcDbCircle
 10
120.50766844
 20
243.30204734
 30
0.0
 40
4.15067828
100
AcDbArc
 50
16.72928804
 51
163.27071196
  0
ARC
  5
10D
100
AcDbEntity
  8
LAYER0006
  6
CONTINUOUS
 62
       7
100
AcDbCircle
 10
226.71894658
 20
219.43667443
 30
0.0
 40
9.5
100
AcDbArc
 50
90.0
 51
270.0
  0
ARC
  5
10E
100
AcDbEntity
  8
LAYER0006
  6
CONTINUOUS
 62
       7
100
AcDbCircle
 10
254.19675502
 20
175.49682048
 30
0.0
 40
15.0
100
AcDbArc
 50
144.9234364
 51
215.0765636
  0
ARC
  5
10F
100
AcDbEntity
  8
LAYER0006
  6
CONTINUOUS
 62
       7
100
AcDbCircle
 10
254.19675502
 20
175.49682048
 30
0.0
 40
19.0
100
AcDbArc
 50
144.9234364
 51
215.0765636
  0
ARC
  5
110
100
AcDbEntity
  8
LAYER0006
  6
CONTINUOUS
 62
       7
100
AcDbCircle
 10
264.00940584
 20
175.49682048
 30
0.0
 40
35.5
100
AcDbArc
 50
270.0
 51
450.0
  0
ARC
  5
111
100
AcDbEntity
  8
LAYER0006
  6
CONTINUOUS
 62
       7
100
AcDbCircle
 10
264.00940584
 20
175.49682048
 30
0.0
 40
42.5
100
AcDbArc
 50
270.0
 51
450.0
  0
ARC
  5
112
100
AcDbEntity
  8
LAYER0006
  6
CONTINUOUS
 62
       7
100
AcDbCircle
 10
96.49059416
 20
-214.40490868
 30
0.0
 40
3.0
100
AcDbArc
 50
180.0
 51
270.0
  0
ARC
  5
113
100
AcDbEntity
  8
LAYER0006
  6
CONTINUOUS
 62
       7
100
AcDbCircle
 10
228.49059416
 20
-214.40490868
 30
0.0
 40
3.0
100
AcDbArc
 50
270.0
 51
360.0
  0
ARC
  5
114
100
AcDbEntity
  8
LAYER0006
  6
CONTINUOUS
 62
       7
100
AcDbCircle
 10
164.84791633
 20
53.62736869
 30
0.0
 40
345.96005092
100
AcDbArc
 50
261.94683038
 51
277.92859859
  0
ARC
  5
115
100
AcDbEntity
  8
LAYER0006
  6
CONTINUOUS
 62
       7
100
AcDbCircle
 10
211.18988672
 20
-279.12115136
 30
0.0
 40
10.0
100
AcDbArc
 50
277.92859859
 51
355.10350859
  0
ARC
  5
116
100
AcDbEntity
  8
LAYER0006
  6
CONTINUOUS
 62
       7
100
AcDbCircle
 10
117.78260266
 20
-279.01960945
 30
0.0
 40
10.0
100
AcDbArc
 50
184.89649141
 51
261.94683038
  0
CIRCLE
  5
117
100
AcDbEntity
  8
LAYER0006
  6
CONTINUOUS
 62
       7
100
AcDbCircle
 10
164.49059416
 20
-80.33249771
 30
0.0
 40
11.0
  0
ARC
  5
118
100
AcDbEntity
  8
LAYER0006
  6
CONTINUOUS
 62
       7
100
AcDbCircle
 10
303.00940584
 20
-131.20659806
 30
0.0
 40
3.5
100
AcDbArc
 50
270.0
 51
450.0
  0
CIRCLE
  5
119
100
AcDbEntity
  8
LAYER0006
  6
PHANTOM2
 62
       7
100
AcDbCircle
 10
164.49059416
 20
175.49682048
 30
0.0
 40
2.0
  0
LINE
  5
11A
100
AcDbEntity
  8
LAYER0001
  6
CONTINUOUS
 62
       7
100
AcDbLine
 10
175.99059416
 20
33.49682048
 30
0.0
 11
152.99059416
 21
33.49682048
 31
0.0
  0
LINE
  5
11B
100
AcDbEntity
  8
LAYER0001
  6
CONTINUOUS
 62
       7
100
AcDbLine
 10
146.99059416
 20
99.49682048
 30
0.0
 11
181.99059416
 21
99.49682048
 31
0.0
  0
LINE
  5
11C
100
AcDbEntity
  8
LAYER0001
  6
CONTINUOUS
 62
       7
100
AcDbLine
 10
146.99059416
 20
71.49682048
 30
0.0
 11
181.99059416
 21
71.49682048
 31
0.0
  0
LINE
  5
11D
100
AcDbEntity
  8
LAYER0001
  6
CONTINUOUS
 62
       7
100
AcDbLine
 10
175.99059416
 20
44.99682048
 30
0.0
 11
177.99059416
 21
44.99682048
 31
0.0
  0
LINE
  5
11E
100
AcDbEntity
  8
LAYER0001
  6
CONTINUOUS
 62
       7
100
AcDbLine
 10
-173.48634349
 20
-217.40490868
 30
0.0
 11
-178.84660803
 21
-279.97471047
 31
0.0
  0
LINE
  5
11F
100
AcDbEntity
  8
LAYER0001
  6
CONTINUOUS
 62
       7
100
AcDbLine
 10
-168.50940584
 20
116.49682048
 30
0.0
 11
-168.50940584
 21
122.05696653
 31
0.0
  0
LINE
  5
120
100
AcDbEntity
  8
LAYER0001
  6
CONTINUOUS
 62
       7
100
AcDbLine
 10
-168.50940584
 20
141.05696653
 30
0.0
 11
-168.50940584
 21
209.93667443
 31
0.0
  0
LINE
  5
121
100
AcDbEntity
  8
LAYER0001
  6
CONTINUOUS
 62
       7
100
AcDbLine
 10
-183.00855895
 20
-162.29496792
 30
0.0
 11
-148.13444187
 21
-162.29496792
 31
0.0
  0
LINE
  5
122
100
AcDbEntity
  8
LAYER0001
  6
CONTINUOUS
 62
       7
100
AcDbLine
 10
-157.11706028
 20
-139.70659806
 30
0.0
 11
-148.13444187
 21
-139.70659806
 31
0.0
  0
LINE
  5
123
100
AcDbEntity
  8
LAYER0001
  6
CONTINUOUS
 62
       7
100
AcDbLine
 10
-144.13444187
 20
-134.70659806
 30
0.0
 11
-96.99059416
 21
-134.70659806
 31
0.0
  0
LINE
  5
124
100
AcDbEntity
  8
LAYER0001
  6
CONTINUOUS
 62
       7
100
AcDbLine
 10
-276.50940584
 20
-204.3878286
 30
0.0
 11
-198.50940584
 21
-204.3878286
 31
0.0
  0
LINE
  5
125
100
AcDbEntity
  8
LAYER0001
  6
CONTINUOUS
 62
       7
100
AcDbLine
 10
-276.50940584
 20
-204.3878286
 30
0.0
 11
-276.50940584
 21
-217.40490868
 31
0.0
  0
LINE
  5
126
100
AcDbEntity
  8
LAYER0001
  6
CONTINUOUS
 62
       7
100
AcDbLine
 10
-296.50940584
 20
106.49682048
 30
0.0
 11
-178.50940584
 21
106.49682048
 31
0.0
  0
LINE
  5
127
100
AcDbEntity
  8
LAYER0001
  6
CONTINUOUS
 62
       7
100
AcDbLine
 10
-306.50940584
 20
116.49682048
 30
0.0
 11
-306.50940584
 21
234.49682048
 31
0.0
  0
LINE
  5
128
100
AcDbEntity
  8
LAYER0001
  6
CONTINUOUS
 62
       7
100
AcDbLine
 10
-220.50940584
 20
126.96257391
 30
0.0
 11
-220.50940584
 21
111.49682048
 31
0.0
  0
LINE
  5
129
100
AcDbEntity
  8
LAYER0001
  6
CONTINUOUS
 62
       7
100
AcDbLine
 10
181.99059416
 20
111.49682048
 30
0.0
 11
181.99059416
 21
105.49682048
 31
0.0
  0
LINE
  5
12A
100
AcDbEntity
  8
LAYER0001
  6
CONTINUOUS
 62
       7
100
AcDbLine
 10
180.69042637
 20
98.39753887
 30
0.0
 11
181.99059416
 21
98.39753887
 31
0.0
  0
LINE
  5
12B
100
AcDbEntity
  8
LAYER0001
  6
CONTINUOUS
 62
       7
100
AcDbLine
 10
-284.04365241
 20
160.49682048
 30
0.0
 11
-299.50940584
 21
160.49682048
 31
0.0
  0
LINE
  5
12C
100
AcDbEntity
  8
LAYER0001
  6
CONTINUOUS
 62
       7
100
AcDbLine
 10
-284.04365241
 20
190.49682048
 30
0.0
 11
-299.50940584
 21
190.49682048
 31
0.0
  0
LINE
  5
12D
100
AcDbEntity
  8
LAYER0001
  6
CONTINUOUS
 62
       7
100
AcDbLine
 10
-171.50940584
 20
-217.40490868
 30
0.0
 11
-198.50940584
 21
-217.40490868
 31
0.0
  0
LINE
  5
12E
100
AcDbEntity
  8
LAYER0001
  6
CONTINUOUS
 62
       7
100
AcDbLine
 10
-144.13444187
 20
217.99682048
 30
0.0
 11
-135.99059416
 21
217.99682048
 31
0.0
  0
LINE
  5
12F
100
AcDbEntity
  8
LAYER0001
  6
CONTINUOUS
 62
       7
100
AcDbLine
 10
-144.13444187
 20
132.99682048
 30
0.0
 11
-135.99059416
 21
132.99682048
 31
0.0
  0
LINE
  5
130
100
AcDbEntity
  8
LAYER0001
  6
CONTINUOUS
 62
       7
100
AcDbLine
 10
-168.50940584
 20
-166.3075191
 30
0.0
 11
-168.50940584
 21
-214.40490868
 31
0.0
  0
LINE
  5
131
100
AcDbEntity
  8
LAYER0001
  6
CONTINUOUS
 62
       7
100
AcDbLine
 10
-144.13444187
 20
147.0183761
 30
0.0
 11
-158.07901774
 21
166.87676229
 31
0.0
  0
LINE
  5
132
100
AcDbEntity
  8
LAYER0001
  6
CONTINUOUS
 62
       7
100
AcDbLine
 10
-148.13444187
 20
145.75424206
 30
0.0
 11
-161.35255714
 21
164.5780801
 31
0.0
  0
LINE
  5
133
100
AcDbEntity
  8
LAYER0001
  6
CONTINUOUS
 62
       7
100
AcDbLine
 10
-157.12647366
 20
143.20053186
 30
0.0
 11
-162.13596013
 21
143.20053186
 31
0.0
  0
LINE
  5
134
100
AcDbEntity
  8
LAYER0001
  6
CONTINUOUS
 62
       7
100
AcDbLine
 10
-162.13596013
 20
130.1763377
 30
0.0
 11
-157.12647366
 21
130.1763377
 31
0.0
  0
LINE
  5
135
100
AcDbEntity
  8
LAYER0001
  6
CONTINUOUS
 62
       7
100
AcDbLine
 10
-157.12647366
 20
140.19609509
 30
0.0
 11
-162.13596013
 21
140.19609509
 31
0.0
  0
LINE
  5
136
100
AcDbEntity
  8
LAYER0001
  6
CONTINUOUS
 62
       7
100
AcDbLine
 10
-162.12105561
 20
139.69483267
 30
0.0
 11
-175.14524978
 21
139.69483267
 31
0.0
  0
LINE
  5
137
100
AcDbEntity
  8
LAYER0001
  6
CONTINUOUS
 62
       7
100
AcDbLine
 10
-176.66394157
 20
125.70027603
 30
0.0
 11
-169.90042883
 21
125.70027603
 31
0.0
  0
LINE
  5
138
100
AcDbEntity
  8
LAYER0001
  6
CONTINUOUS
 62
       7
100
AcDbLine
 10
-176.66394157
 20
137.41365718
 30
0.0
 11
-180.04569794
 21
131.55618215
 31
0.0
  0
LINE
  5
139
100
AcDbEntity
  8
LAYER0001
  6
CONTINUOUS
 62
       7
100
AcDbLine
 10
-166.52181025
 20
131.55618215
 30
0.0
 11
-167.86339376
 21
133.88207119
 31
0.0
  0
LINE
  5
13A
100
AcDbEntity
  8
LAYER0001
  6
CONTINUOUS
 62
       7
100
AcDbLine
 10
-144.13444187
 20
122.05696653
 30
0.0
 11
-144.13444187
 21
147.0183761
 31
0.0
  0
LINE
  5
13B
100
AcDbEntity
  8
LAYER0001
  6
CONTINUOUS
 62
       7
100
AcDbLine
 10
-148.14061905
 20
145.20558157
 30
0.0
 11
-157.12647366
 21
145.20558157
 31
0.0
  0
LINE
  5
13C
100
AcDbEntity
  8
LAYER0001
  6
CONTINUOUS
 62
       7
100
AcDbLine
 10
-173.28105342
 20
122.05696653
 30
0.0
 11
-144.13444187
 21
122.05696653
 31
0.0
  0
LINE
  5
13D
100
AcDbEntity
  8
LAYER0001
  6
CONTINUOUS
 62
       7
100
AcDbLine
 10
-148.14061905
 20
205.78805939
 30
0.0
 11
-157.12647366
 21
205.78805939
 31
0.0
  0
LINE
  5
13E
100
AcDbEntity
  8
LAYER0001
  6
CONTINUOUS
 62
       7
100
AcDbLine
 10
-157.12647366
 20
222.82078407
 30
0.0
 11
-148.14061905
 21
222.82078407
 31
0.0
  0
LINE
  5
13F
100
AcDbEntity
  8
LAYER0001
  6
CONTINUOUS
 62
       7
100
AcDbLine
 10
-144.13444187
 20
228.93667443
 30
0.0
 11
-144.13444187
 21
203.97526486
 31
0.0
  0
LINE
  5
140
100
AcDbEntity
  8
LAYER0001
  6
CONTINUOUS
 62
       7
100
AcDbLine
 10
-286.50940584
 20
175.49682048
 30
0.0
 11
-280.50940584
 21
211.99682048
 31
0.0
  0
LINE
  5
141
100
AcDbEntity
  8
LAYER0001
  6
CONTINUOUS
 62
       7
100
AcDbLine
 10
-235.50940584
 20
226.49682048
 30
0.0
 11
-199.00940584
 21
220.49682048
 31
0.0
  0
LINE
  5
142
100
AcDbEntity
  8
LAYER0001
  6
CONTINUOUS
 62
       7
100
AcDbLine
 10
-184.50940584
 20
175.49682048
 30
0.0
 11
-190.50940584
 21
138.99682048
 31
0.0
  0
LINE
  5
143
100
AcDbEntity
  8
LAYER0001
  6
CONTINUOUS
 62
       7
100
AcDbLine
 10
-235.50940584
 20
124.49682048
 30
0.0
 11
-272.00940584
 21
130.49682048
 31
0.0
  0
LINE
  5
144
100
AcDbEntity
  8
LAYER0001
  6
CONTINUOUS
 62
       7
100
AcDbLine
 10
-281.57421064
 20
-67.10336286
 30
0.0
 11
-281.57421064
 21
-149.19085846
 31
0.0
  0
LINE
  5
145
100
AcDbEntity
  8
LAYER0001
  6
CONTINUOUS
 62
       7
100
AcDbLine
 10
-207.36932919
 20
-40.33249771
 30
0.0
 11
-215.38403687
 21
-49.34973025
 31
0.0
  0
LINE
  5
146
100
AcDbEntity
  8
LAYER0001
  6
CONTINUOUS
 62
       7
100
AcDbLine
 10
-254.44877488
 20
-49.34973025
 30
0.0
 11
-262.46426701
 21
-40.33249771
 31
0.0
  0
LINE
  5
147
100
AcDbEntity
  8
LAYER0001
  6
CONTINUOUS
 62
       7
100
AcDbLine
 10
-286.50760563
 20
-40.33249771
 30
0.0
 11
-286.50760563
 21
-67.10336286
 31
0.0
  0
LINE
  5
148
100
AcDbEntity
  8
LAYER0001
  6
CONTINUOUS
 62
       7
100
AcDbLine
 10
-262.46426701
 20
-67.10336286
 30
0.0
 11
-254.44877488
 21
-59.08708628
 31
0.0
  0
LINE
  5
149
100
AcDbEntity
  8
LAYER0001
  6
CONTINUOUS
 62
       7
100
AcDbLine
 10
-215.38403687
 20
-59.08708628
 30
0.0
 11
-207.36932919
 21
-67.10336286
 31
0.0
  0
LINE
  5
14A
100
AcDbEntity
  8
LAYER0001
  6
CONTINUOUS
 62
       7
100
AcDbLine
 10
-184.32616208
 20
-67.10336286
 30
0.0
 11
-184.32616208
 21
-40.33249771
 31
0.0
  0
LINE
  5
14B
100
AcDbEntity
  8
LAYER0001
  6
CONTINUOUS
 62
       7
100
AcDbLine
 10
-148.14297239
 20
-121.02602878
 30
0.0
 11
-165.63773708
 21
-121.02602878
 31
0.0
  0
LINE
  5
14C
100
AcDbEntity
  8
LAYER0001
  6
CONTINUOUS
 62
       7
100
AcDbLine
 10
-169.90042883
 20
225.29336493
 30
0.0
 11
-166.52181025
 21
219.43745881
 31
0.0
  0
LINE
  5
14D
100
AcDbEntity
  8
LAYER0001
  6
CONTINUOUS
 62
       7
100
AcDbLine
 10
-175.14524978
 20
213.57998378
 30
0.0
 11
-176.66394157
 21
213.57998378
 31
0.0
  0
LINE
  5
14E
100
AcDbEntity
  8
LAYER0001
  6
CONTINUOUS
 62
       7
100
AcDbLine
 10
-180.04569794
 20
219.43745881
 30
0.0
 11
-176.66394157
 21
225.29336493
 31
0.0
  0
LINE
  5
14F
100
AcDbEntity
  8
LAYER0001
  6
CONTINUOUS
 62
       7
100
AcDbLine
 10
-175.14524978
 20
217.11156977
 30
0.0
 11
-162.12105561
 21
217.11156977
 31
0.0
  0
LINE
  5
150
100
AcDbEntity
  8
LAYER0001
  6
CONTINUOUS
 62
       7
100
AcDbLine
 10
-175.14524978
 20
211.29880829
 30
0.0
 11
-175.14524978
 21
217.11156977
 31
0.0
  0
LINE
  5
151
100
AcDbEntity
  8
LAYER0001
  6
CONTINUOUS
 62
       7
100
AcDbLine
 10
-162.13596013
 20
217.81208205
 30
0.0
 11
-157.12647366
 21
217.81208205
 31
0.0
  0
LINE
  5
152
100
AcDbEntity
  8
LAYER0001
  6
CONTINUOUS
 62
       7
100
AcDbLine
 10
-157.12647366
 20
222.82078407
 30
0.0
 11
-157.12647366
 21
205.78805939
 31
0.0
  0
LINE
  5
153
100
AcDbEntity
  8
LAYER0001
  6
CONTINUOUS
 62
       7
100
AcDbLine
 10
-162.13596013
 20
207.7931091
 30
0.0
 11
-162.13596013
 21
220.81730326
 31
0.0
  0
LINE
  5
154
100
AcDbEntity
  8
LAYER0001
  6
CONTINUOUS
 62
       7
100
AcDbLine
 10
-162.11164223
 20
-128.30100177
 30
0.0
 11
-175.1358364
 21
-128.30100177
 31
0.0
  0
LINE
  5
155
100
AcDbEntity
  8
LAYER0001
  6
CONTINUOUS
 62
       7
100
AcDbLine
 10
-157.11706028
 20
-127.7989549
 30
0.0
 11
-162.12654675
 21
-127.7989549
 31
0.0
  0
LINE
  5
156
100
AcDbEntity
  8
LAYER0001
  6
CONTINUOUS
 62
       7
100
AcDbLine
 10
-162.12654675
 20
-137.81792784
 30
0.0
 11
-157.11706028
 21
-137.81792784
 31
0.0
  0
LINE
  5
157
100
AcDbEntity
  8
LAYER0001
  6
CONTINUOUS
 62
       7
100
AcDbLine
 10
-157.11706028
 20
-124.79294923
 30
0.0
 11
-162.12654675
 21
-124.79294923
 31
0.0
  0
LINE
  5
158
100
AcDbEntity
  8
LAYER0001
  6
CONTINUOUS
 62
       7
100
AcDbLine
 10
-306.50940584
 20
-179.33249771
 30
0.0
 11
-168.50940584
 21
-179.33249771
 31
0.0
  0
LINE
  5
159
100
AcDbEntity
  8
LAYER0001
  6
CONTINUOUS
 62
       7
100
AcDbLine
 10
-295.52562262
 20
-156.28854615
 30
0.0
 11
-180.02922453
 21
-156.28854615
 31
0.0
  0
LINE
  5
15A
100
AcDbEntity
  8
LAYER0001
  6
CONTINUOUS
 62
       7
100
AcDbLine
 10
-291.5170921
 20
-149.27557887
 30
0.0
 11
-179.31746005
 21
-149.27557887
 31
0.0
  0
LINE
  5
15B
100
AcDbEntity
  8
LAYER0001
  6
CONTINUOUS
 62
       7
100
AcDbLine
 10
-291.5170921
 20
-156.28540836
 30
0.0
 11
-291.5170921
 21
-149.27557887
 31
0.0
  0
LINE
  5
15C
100
AcDbEntity
  8
LAYER0001
  6
CONTINUOUS
 62
       7
100
AcDbLine
 10
-180.02922453
 20
-160.25314756
 30
0.0
 11
-166.49906125
 21
-160.25314756
 31
0.0
  0
LINE
  5
15D
100
AcDbEntity
  8
LAYER0001
  6
CONTINUOUS
 62
       7
100
AcDbLine
 10
-166.49906125
 20
-155.24366109
 30
0.0
 11
-180.02922453
 21
-155.24366109
 31
0.0
  0
LINE
  5
15E
100
AcDbEntity
  8
LAYER0001
  6
CONTINUOUS
 62
       7
100
AcDbLine
 10
-176.90633608
 20
-155.24366109
 30
0.0
 11
-176.90633608
 21
-160.25314756
 31
0.0
  0
LINE
  5
15F
100
AcDbEntity
  8
LAYER0001
  6
CONTINUOUS
 62
       7
100
AcDbLine
 10
-180.02922453
 20
-162.27702403
 30
0.0
 11
-166.49906125
 21
-162.27702403
 31
0.0
  0
LINE
  5
160
100
AcDbEntity
  8
LAYER0001
  6
CONTINUOUS
 62
       7
100
AcDbLine
 10
-166.49906125
 20
-160.20608067
 30
0.0
 11
-180.02922453
 21
-160.20608067
 31
0.0
  0
LINE
  5
161
100
AcDbEntity
  8
LAYER0001
  6
CONTINUOUS
 62
       7
100
AcDbLine
 10
-148.14297239
 20
-150.01609801
 30
0.0
 11
-160.2768178
 21
-162.26133506
 31
0.0
  0
LINE
  5
162
100
AcDbEntity
  8
LAYER0001
  6
CONTINUOUS
 62
       7
100
AcDbLine
 10
-183.00855895
 20
-166.29496792
 30
0.0
 11
-144.13444187
 21
-166.29496792
 31
0.0
  0
LINE
  5
163
100
AcDbEntity
  8
LAYER0001
  6
CONTINUOUS
 62
       7
100
AcDbLine
 10
-144.13444187
 20
-120.90836154
 30
0.0
 11
-148.1382657
 21
-120.90836154
 31
0.0
  0
LINE
  5
164
100
AcDbEntity
  8
LAYER0001
  6
CONTINUOUS
 62
       7
100
AcDbLine
 10
-245.05579163
 20
-143.20081168
 30
0.0
 11
-226.01958614
 21
-143.20081168
 31
0.0
  0
LINE
  5
165
100
AcDbEntity
  8
LAYER0001
  6
CONTINUOUS
 62
       7
100
AcDbLine
 10
-299.3074476
 20
-70.30371916
 30
0.0
 11
-281.57577953
 21
-70.30371916
 31
0.0
  0
LINE
  5
166
100
AcDbEntity
  8
LAYER0001
  6
CONTINUOUS
 62
       7
100
AcDbLine
 10
-299.3074476
 20
-90.36127626
 30
0.0
 11
-299.3074476
 21
-70.30371916
 31
0.0
  0
LINE
  5
167
100
AcDbEntity
  8
LAYER0001
  6
CONTINUOUS
 62
       7
100
AcDbLine
 10
-250.50940584
 20
239.49682048
 30
0.0
 11
-220.50940584
 21
239.49682048
 31
0.0
  0
LINE
  5
168
100
AcDbEntity
  8
LAYER0001
  6
CONTINUOUS
 62
       7
100
AcDbLine
 10
-220.50940584
 20
224.03106706
 30
0.0
 11
-220.50940584
 21
239.49682048
 31
0.0
  0
LINE
  5
169
100
AcDbEntity
  8
LAYER0001
  6
CONTINUOUS
 62
       7
100
AcDbLine
 10
-168.50940584
 20
228.93667443
 30
0.0
 11
-168.50940584
 21
234.49682048
 31
0.0
  0
LINE
  5
16A
100
AcDbEntity
  8
LAYER0001
  6
CONTINUOUS
 62
       7
100
AcDbLine
 10
-297.53246818
 20
-217.40490868
 30
0.0
 11
-292.18090259
 21
-279.87316855
 31
0.0
  0
LINE
  5
16B
100
AcDbEntity
  8
LAYER0001
  6
CONTINUOUS
 62
       7
100
AcDbLine
 10
-148.13444187
 20
-162.29496792
 30
0.0
 11
-148.13444187
 21
-120.90836154
 31
0.0
  0
LINE
  5
16C
100
AcDbEntity
  8
LAYER0001
  6
CONTINUOUS
 62
       7
100
AcDbLine
 10
-157.11706028
 20
-122.70659806
 30
0.0
 11
-148.13444187
 21
-122.70659806
 31
0.0
  0
LINE
  5
16D
100
AcDbEntity
  8
LAYER0001
  6
CONTINUOUS
 62
       7
100
AcDbLine
 10
-144.13444187
 20
-127.70659806
 30
0.0
 11
-96.99059416
 21
-127.70659806
 31
0.0
  0
LINE
  5
16E
100
AcDbEntity
  8
LAYER0001
  6
CONTINUOUS
 62
       7
100
AcDbLine
 10
-276.50940584
 20
-217.40490868
 30
0.0
 11
-303.50940584
 21
-217.40490868
 31
0.0
  0
LINE
  5
16F
100
AcDbEntity
  8
LAYER0001
  6
CONTINUOUS
 62
       7
100
AcDbLine
 10
-198.50940584
 20
-204.3878286
 30
0.0
 11
-198.50940584
 21
-217.40490868
 31
0.0
  0
LINE
  5
170
100
AcDbEntity
  8
LAYER0001
  6
CONTINUOUS
 62
       7
100
AcDbLine
 10
-296.50940584
 20
244.49682048
 30
0.0
 11
-178.50940584
 21
244.49682048
 31
0.0
  0
LINE
  5
171
100
AcDbEntity
  8
LAYER0001
  6
CONTINUOUS
 62
       7
100
AcDbLine
 10
-250.50940584
 20
126.96257391
 30
0.0
 11
-250.50940584
 21
111.49682048
 31
0.0
  0
LINE
  5
172
100
AcDbEntity
  8
LAYER0001
  6
CONTINUOUS
 62
       7
100
AcDbLine
 10
-250.50940584
 20
111.49682048
 30
0.0
 11
-220.50940584
 21
111.49682048
 31
0.0
  0
LINE
  5
173
100
AcDbEntity
  8
LAYER0001
  6
CONTINUOUS
 62
       7
100
AcDbLine
 10
-299.50940584
 20
160.49682048
 30
0.0
 11
-299.50940584
 21
190.49682048
 31
0.0
  0
LINE
  5
174
100
AcDbEntity
  8
LAYER0001
  6
CONTINUOUS
 62
       7
100
AcDbLine
 10
-144.13444187
 20
210.99682048
 30
0.0
 11
-135.99059416
 21
210.99682048
 31
0.0
  0
LINE
  5
175
100
AcDbEntity
  8
LAYER0001
  6
CONTINUOUS
 62
       7
100
AcDbLine
 10
-144.13444187
 20
139.99682048
 30
0.0
 11
-135.99059416
 21
139.99682048
 31
0.0
  0
LINE
  5
176
100
AcDbEntity
  8
LAYER0001
  6
CONTINUOUS
 62
       7
100
AcDbLine
 10
-306.50940584
 20
-166.3075191
 30
0.0
 11
-306.50940584
 21
-214.40490868
 31
0.0
  0
LINE
  5
177
100
AcDbEntity
  8
LAYER0001
  6
CONTINUOUS
 62
       7
100
AcDbLine
 10
-148.13444187
 20
228.93667443
 30
0.0
 11
-148.13444187
 21
205.2393989
 31
0.0
  0
LINE
  5
178
100
AcDbEntity
  8
LAYER0001
  6
CONTINUOUS
 62
       7
100
AcDbLine
 10
-148.13444187
 20
205.2393989
 30
0.0
 11
-161.35255714
 21
186.41556086
 31
0.0
  0
LINE
  5
179
100
AcDbEntity
  8
LAYER0001
  6
CONTINUOUS
 62
       7
100
AcDbLine
 10
-162.13596013
 20
143.20053186
 30
0.0
 11
-162.13596013
 21
130.1763377
 31
0.0
  0
LINE
  5
17A
100
AcDbEntity
  8
LAYER0001
  6
CONTINUOUS
 62
       7
100
AcDbLine
 10
-157.12647366
 20
128.17285689
 30
0.0
 11
-157.12647366
 21
145.20558157
 31
0.0
  0
LINE
  5
17B
100
AcDbEntity
  8
LAYER0001
  6
CONTINUOUS
 62
       7
100
AcDbLine
 10
-162.13596013
 20
133.18155891
 30
0.0
 11
-157.12647366
 21
133.18155891
 31
0.0
  0
LINE
  5
17C
100
AcDbEntity
  8
LAYER0001
  6
CONTINUOUS
 62
       7
100
AcDbLine
 10
-175.14524978
 20
139.69483267
 30
0.0
 11
-175.14524978
 21
133.88207119
 31
0.0
  0
LINE
  5
17D
100
AcDbEntity
  8
LAYER0001
  6
CONTINUOUS
 62
       7
100
AcDbLine
 10
-175.14524978
 20
133.88207119
 30
0.0
 11
-162.12105561
 21
133.88207119
 31
0.0
  0
LINE
  5
17E
100
AcDbEntity
  8
LAYER0001
  6
CONTINUOUS
 62
       7
100
AcDbLine
 10
-180.04569794
 20
131.55618215
 30
0.0
 11
-176.66394157
 21
125.70027603
 31
0.0
  0
LINE
  5
17F
100
AcDbEntity
  8
LAYER0001
  6
CONTINUOUS
 62
       7
100
AcDbLine
 10
-175.14524978
 20
137.41365718
 30
0.0
 11
-176.66394157
 21
137.41365718
 31
0.0
  0
LINE
  5
180
100
AcDbEntity
  8
LAYER0001
  6
CONTINUOUS
 62
       7
100
AcDbLine
 10
-169.90042883
 20
125.70027603
 30
0.0
 11
-166.52181025
 21
131.55618215
 31
0.0
  0
LINE
  5
181
100
AcDbEntity
  8
LAYER0001
  6
CONTINUOUS
 62
       7
100
AcDbLine
 10
-157.12647366
 20
128.17285689
 30
0.0
 11
-148.14061905
 21
128.17285689
 31
0.0
  0
LINE
  5
182
100
AcDbEntity
  8
LAYER0001
  6
CONTINUOUS
 62
       7
100
AcDbLine
 10
-173.28105342
 20
141.05696653
 30
0.0
 11
-162.13596013
 21
141.05696653
 31
0.0
  0
LINE
  5
183
100
AcDbEntity
  8
LAYER0001
  6
CONTINUOUS
 62
       7
100
AcDbLine
 10
-148.13444187
 20
122.05696653
 30
0.0
 11
-148.13444187
 21
145.75424206
 31
0.0
  0
LINE
  5
184
100
AcDbEntity
  8
LAYER0001
  6
CONTINUOUS
 62
       7
100
AcDbLine
 10
-173.28105342
 20
228.93667443
 30
0.0
 11
-144.13444187
 21
228.93667443
 31
0.0
  0
LINE
  5
185
100
AcDbEntity
  8
LAYER0001
  6
CONTINUOUS
 62
       7
100
AcDbLine
 10
-173.28105342
 20
209.93667443
 30
0.0
 11
-162.13596013
 21
209.93667443
 31
0.0
  0
LINE
  5
186
100
AcDbEntity
  8
LAYER0001
  6
CONTINUOUS
 62
       7
100
AcDbLine
 10
-144.13444187
 20
203.97526486
 30
0.0
 11
-158.07901774
 21
184.11687867
 31
0.0
  0
LINE
  5
187
100
AcDbEntity
  8
LAYER0001
  6
CONTINUOUS
 62
       7
100
AcDbLine
 10
-235.50940584
 20
226.49682048
 30
0.0
 11
-272.00940584
 21
220.49682048
 31
0.0
  0
LINE
  5
188
100
AcDbEntity
  8
LAYER0001
  6
CONTINUOUS
 62
       7
100
AcDbLine
 10
-184.50940584
 20
175.49682048
 30
0.0
 11
-190.50940584
 21
211.99682048
 31
0.0
  0
LINE
  5
189
100
AcDbEntity
  8
LAYER0001
  6
CONTINUOUS
 62
       7
100
AcDbLine
 10
-235.50940584
 20
124.49682048
 30
0.0
 11
-199.00940584
 21
130.49682048
 31
0.0
  0
LINE
  5
18A
100
AcDbEntity
  8
LAYER0001
  6
CONTINUOUS
 62
       7
100
AcDbLine
 10
-286.50940584
 20
175.49682048
 30
0.0
 11
-280.50940584
 21
138.99682048
 31
0.0
  0
LINE
  5
18B
100
AcDbEntity
  8
LAYER0001
  6
CONTINUOUS
 62
       7
100
AcDbLine
 10
-189.45645358
 20
-149.19085846
 30
0.0
 11
-189.45645358
 21
-67.10336286
 31
0.0
  0
LINE
  5
18C
100
AcDbEntity
  8
LAYER0001
  6
CONTINUOUS
 62
       7
100
AcDbLine
 10
-184.32616208
 20
-40.33249771
 30
0.0
 11
-207.36932919
 21
-40.33249771
 31
0.0
  0
LINE
  5
18D
100
AcDbEntity
  8
LAYER0001
  6
CONTINUOUS
 62
       7
100
AcDbLine
 10
-215.38403687
 20
-49.34973025
 30
0.0
 11
-254.44877488
 21
-49.34973025
 31
0.0
  0
LINE
  5
18E
100
AcDbEntity
  8
LAYER0001
  6
CONTINUOUS
 62
       7
100
AcDbLine
 10
-262.46426701
 20
-40.33249771
 30
0.0
 11
-286.50760563
 21
-40.33249771
 31
0.0
  0
LINE
  5
18F
100
AcDbEntity
  8
LAYER0001
  6
CONTINUOUS
 62
       7
100
AcDbLine
 10
-286.50760563
 20
-67.10336286
 30
0.0
 11
-262.46426701
 21
-67.10336286
 31
0.0
  0
LINE
  5
190
100
AcDbEntity
  8
LAYER0001
  6
CONTINUOUS
 62
       7
100
AcDbLine
 10
-254.44877488
 20
-59.08708628
 30
0.0
 11
-215.38403687
 21
-59.08708628
 31
0.0
  0
LINE
  5
191
100
AcDbEntity
  8
LAYER0001
  6
CONTINUOUS
 62
       7
100
AcDbLine
 10
-207.36932919
 20
-67.10336286
 30
0.0
 11
-184.32616208
 21
-67.10336286
 31
0.0
  0
LINE
  5
192
100
AcDbEntity
  8
LAYER0001
  6
CONTINUOUS
 62
       7
100
AcDbLine
 10
-165.63773708
 20
-153.19782008
 30
0.0
 11
-151.29575118
 21
-153.19782008
 31
0.0
  0
LINE
  5
193
100
AcDbEntity
  8
LAYER0001
  6
CONTINUOUS
 62
       7
100
AcDbLine
 10
-165.63773708
 20
-121.02602878
 30
0.0
 11
-165.63773708
 21
-153.19782008
 31
0.0
  0
LINE
  5
194
100
AcDbEntity
  8
LAYER0001
  6
CONTINUOUS
 62
       7
100
AcDbLine
 10
-166.52181025
 20
219.43745881
 30
0.0
 11
-167.86339376
 21
217.11156977
 31
0.0
  0
LINE
  5
195
100
AcDbEntity
  8
LAYER0001
  6
CONTINUOUS
 62
       7
100
AcDbLine
 10
-176.66394157
 20
213.57998378
 30
0.0
 11
-180.04569794
 21
219.43745881
 31
0.0
  0
LINE
  5
196
100
AcDbEntity
  8
LAYER0001
  6
CONTINUOUS
 62
       7
100
AcDbLine
 10
-176.66394157
 20
225.29336493
 30
0.0
 11
-169.90042883
 21
225.29336493
 31
0.0
  0
LINE
  5
197
100
AcDbEntity
  8
LAYER0001
  6
CONTINUOUS
 62
       7
100
AcDbLine
 10
-162.12105561
 20
211.29880829
 30
0.0
 11
-175.14524978
 21
211.29880829
 31
0.0
  0
LINE
  5
198
100
AcDbEntity
  8
LAYER0001
  6
CONTINUOUS
 62
       7
100
AcDbLine
 10
-157.12647366
 20
210.79754587
 30
0.0
 11
-162.13596013
 21
210.79754587
 31
0.0
  0
LINE
  5
199
100
AcDbEntity
  8
LAYER0001
  6
CONTINUOUS
 62
       7
100
AcDbLine
 10
-162.13596013
 20
220.81730326
 30
0.0
 11
-157.12647366
 21
220.81730326
 31
0.0
  0
LINE
  5
19A
100
AcDbEntity
  8
LAYER0001
  6
CONTINUOUS
 62
       7
100
AcDbLine
 10
-157.12647366
 20
207.7931091
 30
0.0
 11
-162.13596013
 21
207.7931091
 31
0.0
  0
LINE
  5
19B
100
AcDbEntity
  8
LAYER0001
  6
CONTINUOUS
 62
       7
100
AcDbLine
 10
-175.1358364
 20
-134.11219435
 30
0.0
 11
-162.11164223
 21
-134.11219435
 31
0.0
  0
LINE
  5
19C
100
AcDbEntity
  8
LAYER0001
  6
CONTINUOUS
 62
       7
100
AcDbLine
 10
-175.1358364
 20
-128.30100177
 30
0.0
 11
-175.1358364
 21
-134.11219435
 31
0.0
  0
LINE
  5
19D
100
AcDbEntity
  8
LAYER0001
  6
CONTINUOUS
 62
       7
100
AcDbLine
 10
-162.12654675
 20
-134.81349108
 30
0.0
 11
-157.11706028
 21
-134.81349108
 31
0.0
  0
LINE
  5
19E
100
AcDbEntity
  8
LAYER0001
  6
CONTINUOUS
 62
       7
100
AcDbLine
 10
-157.11706028
 20
-139.70659806
 30
0.0
 11
-157.11706028
 21
-122.70659806
 31
0.0
  0
LINE
  5
19F
100
AcDbEntity
  8
LAYER0001
  6
CONTINUOUS
 62
       7
100
AcDbLine
 10
-162.12654675
 20
-124.79294923
 30
0.0
 11
-162.12654675
 21
-137.81792784
 31
0.0
  0
LINE
  5
1A0
100
AcDbEntity
  8
LAYER0001
  6
CONTINUOUS
 62
       7
100
AcDbLine
 10
-168.50940584
 20
-192.35590742
 30
0.0
 11
-306.50940584
 21
-192.35590742
 31
0.0
  0
LINE
  5
1A1
100
AcDbEntity
  8
LAYER0001
  6
CONTINUOUS
 62
       7
100
AcDbLine
 10
-295.52562262
 20
-166.3059502
 30
0.0
 11
-295.52562262
 21
-156.28854615
 31
0.0
  0
LINE
  5
1A2
100
AcDbEntity
  8
LAYER0001
  6
CONTINUOUS
 62
       7
100
AcDbLine
 10
-179.31746005
 20
-149.27557887
 30
0.0
 11
-179.31746005
 21
-155.24366109
 31
0.0
  0
LINE
  5
1A3
100
AcDbEntity
  8
LAYER0001
  6
CONTINUOUS
 62
       7
100
AcDbLine
 10
-306.50940584
 20
-166.3075191
 30
0.0
 11
-168.50940584
 21
-166.3075191
 31
0.0
  0
LINE
  5
1A4
100
AcDbEntity
  8
LAYER0001
  6
CONTINUOUS
 62
       7
100
AcDbLine
 10
-166.49906125
 20
-160.25314756
 30
0.0
 11
-166.49906125
 21
-155.24366109
 31
0.0
  0
LINE
  5
1A5
100
AcDbEntity
  8
LAYER0001
  6
CONTINUOUS
 62
       7
100
AcDbLine
 10
-180.02922453
 20
-155.24366109
 30
0.0
 11
-180.02922453
 21
-160.25314756
 31
0.0
  0
LINE
  5
1A6
100
AcDbEntity
  8
LAYER0001
  6
CONTINUOUS
 62
       7
100
AcDbLine
 10
-169.62116525
 20
-160.25314756
 30
0.0
 11
-169.62116525
 21
-155.24366109
 31
0.0
  0
LINE
  5
1A7
100
AcDbEntity
  8
LAYER0001
  6
CONTINUOUS
 62
       7
100
AcDbLine
 10
-166.49906125
 20
-162.27702403
 30
0.0
 11
-166.49906125
 21
-160.20608067
 31
0.0
  0
LINE
  5
1A8
100
AcDbEntity
  8
LAYER0001
  6
CONTINUOUS
 62
       7
100
AcDbLine
 10
-180.02922453
 20
-160.20608067
 30
0.0
 11
-180.02922453
 21
-162.27702403
 31
0.0
  0
LINE
  5
1A9
100
AcDbEntity
  8
LAYER0001
  6
CONTINUOUS
 62
       7
100
AcDbLine
 10
-183.00855895
 20
-162.28643741
 30
0.0
 11
-183.00855895
 21
-166.29496792
 31
0.0
  0
LINE
  5
1AA
100
AcDbEntity
  8
LAYER0001
  6
CONTINUOUS
 62
       7
100
AcDbLine
 10
-144.13444187
 20
-166.29496792
 30
0.0
 11
-144.13444187
 21
-120.90836154
 31
0.0
  0
LINE
  5
1AB
100
AcDbEntity
  8
LAYER0001
  6
CONTINUOUS
 62
       7
100
AcDbLine
 10
-245.05579163
 20
-149.19085846
 30
0.0
 11
-245.05579163
 21
-143.20081168
 31
0.0
  0
LINE
  5
1AC
100
AcDbEntity
  8
LAYER0001
  6
CONTINUOUS
 62
       7
100
AcDbLine
 10
-226.01958614
 20
-143.20081168
 30
0.0
 11
-226.01958614
 21
-149.19085846
 31
0.0
  0
LINE
  5
1AD
100
AcDbEntity
  8
LAYER0001
  6
CONTINUOUS
 62
       7
100
AcDbLine
 10
-281.57577953
 20
-90.36127626
 30
0.0
 11
-299.3074476
 21
-90.36127626
 31
0.0
  0
LINE
  5
1AE
100
AcDbEntity
  8
LAYER0001
  6
CONTINUOUS
 62
       7
100
AcDbLine
 10
-184.44696711
 20
-53.8320675
 30
0.0
 11
-286.58291266
 21
-53.8320675
 31
0.0
  0
LINE
  5
1AF
100
AcDbEntity
  8
LAYER0001
  6
CONTINUOUS
 62
       7
100
AcDbLine
 10
-250.50940584
 20
224.03106706
 30
0.0
 11
-250.50940584
 21
239.49682048
 31
0.0
  0
LINE
  5
1B0
100
AcDbEntity
  8
LAYER0001
  6
CONTINUOUS
 62
       7
100
AcDbLine
 10
180.69042637
 20
72.59610209
 30
0.0
 11
181.99059416
 21
72.59610209
 31
0.0
  0
LINE
  5
1B1
100
AcDbEntity
  8
LAYER0001
  6
CONTINUOUS
 62
       7
100
AcDbLine
 10
163.19042638
 20
106.65152102
 30
0.0
 11
163.19042638
 21
110.34211994
 31
0.0
  0
LINE
  5
1B2
100
AcDbEntity
  8
LAYER0001
  6
CONTINUOUS
 62
       7
100
AcDbLine
 10
165.79076195
 20
72.59610209
 30
0.0
 11
165.79076195
 21
98.39753887
 31
0.0
  0
LINE
  5
1B3
100
AcDbEntity
  8
LAYER0001
  6
CONTINUOUS
 62
       7
100
AcDbLine
 10
180.69042637
 20
72.59610209
 30
0.0
 11
180.69042637
 21
98.39753887
 31
0.0
  0
LINE
  5
1B4
100
AcDbEntity
  8
LAYER0001
  6
CONTINUOUS
 62
       7
100
AcDbLine
 10
146.99059416
 20
111.49682048
 30
0.0
 11
181.99059416
 21
111.49682048
 31
0.0
  0
LINE
  5
1B5
100
AcDbEntity
  8
LAYER0001
  6
CONTINUOUS
 62
       7
100
AcDbLine
 10
147.99059416
 20
49.49682048
 30
0.0
 11
180.99059416
 21
49.49682048
 31
0.0
  0
LINE
  5
1B6
100
AcDbEntity
  8
LAYER0001
  6
CONTINUOUS
 62
       7
100
AcDbLine
 10
152.99059416
 20
44.99682048
 30
0.0
 11
152.99059416
 21
33.49682048
 31
0.0
  0
LINE
  5
1B7
100
AcDbEntity
  8
LAYER0001
  6
CONTINUOUS
 62
       7
100
AcDbLine
 10
146.99059416
 20
111.49682048
 30
0.0
 11
146.99059416
 21
105.49682048
 31
0.0
  0
LINE
  5
1B8
100
AcDbEntity
  8
LAYER0001
  6
CONTINUOUS
 62
       7
100
AcDbLine
 10
163.19042637
 20
72.59610209
 30
0.0
 11
165.79076195
 21
72.59610209
 31
0.0
  0
LINE
  5
1B9
100
AcDbEntity
  8
LAYER0001
  6
CONTINUOUS
 62
       7
100
AcDbLine
 10
163.19042637
 20
72.59610209
 30
0.0
 11
163.19042637
 21
98.39753887
 31
0.0
  0
LINE
  5
1BA
100
AcDbEntity
  8
LAYER0001
  6
CONTINUOUS
 62
       7
100
AcDbLine
 10
181.99059416
 20
99.49682048
 30
0.0
 11
181.99059416
 21
50.49682048
 31
0.0
  0
LINE
  5
1BB
100
AcDbEntity
  8
LAYER0001
  6
CONTINUOUS
 62
       7
100
AcDbLine
 10
180.69042638
 20
106.65152103
 30
0.0
 11
180.69042638
 21
110.34211995
 31
0.0
  0
LINE
  5
1BC
100
AcDbEntity
  8
LAYER0001
  6
CONTINUOUS
 62
       7
100
AcDbLine
 10
148.29076195
 20
110.34211994
 30
0.0
 11
146.99059416
 21
110.34211994
 31
0.0
  0
LINE
  5
1BD
100
AcDbEntity
  8
LAYER0001
  6
CONTINUOUS
 62
       7
100
AcDbLine
 10
146.99059416
 20
105.49682048
 30
0.0
 11
181.99059416
 21
105.49682048
 31
0.0
  0
LINE
  5
1BE
100
AcDbEntity
  8
LAYER0001
  6
CONTINUOUS
 62
       7
100
AcDbLine
 10
180.49059416
 20
105.49682048
 30
0.0
 11
180.49059416
 21
99.49682048
 31
0.0
  0
LINE
  5
1BF
100
AcDbEntity
  8
LAYER0001
  6
CONTINUOUS
 62
       7
100
AcDbLine
 10
177.99059416
 20
44.99682048
 30
0.0
 11
177.99059416
 21
49.49682048
 31
0.0
  0
LINE
  5
1C0
100
AcDbEntity
  8
LAYER0001
  6
CONTINUOUS
 62
       7
100
AcDbLine
 10
175.99059416
 20
44.99682048
 30
0.0
 11
175.99059416
 21
33.49682048
 31
0.0
  0
LINE
  5
1C1
100
AcDbEntity
  8
LAYER0001
  6
CONTINUOUS
 62
       7
100
AcDbLine
 10
146.99059416
 20
99.49682048
 30
0.0
 11
146.99059416
 21
50.49682048
 31
0.0
  0
LINE
  5
1C2
100
AcDbEntity
  8
LAYER0001
  6
CONTINUOUS
 62
       7
100
AcDbLine
 10
148.29076195
 20
72.59610209
 30
0.0
 11
148.29076195
 21
98.39753887
 31
0.0
  0
LINE
  5
1C3
100
AcDbEntity
  8
LAYER0001
  6
CONTINUOUS
 62
       7
100
AcDbLine
 10
148.29076195
 20
106.65152102
 30
0.0
 11
146.99059416
 21
106.65152102
 31
0.0
  0
LINE
  5
1C4
100
AcDbEntity
  8
LAYER0001
  6
CONTINUOUS
 62
       7
100
AcDbLine
 10
165.79076195
 20
106.65152102
 30
0.0
 11
163.19042638
 21
106.65152102
 31
0.0
  0
LINE
  5
1C5
100
AcDbEntity
  8
LAYER0001
  6
CONTINUOUS
 62
       7
100
AcDbLine
 10
181.99059416
 20
110.34211995
 30
0.0
 11
180.69042638
 21
110.34211995
 31
0.0
  0
LINE
  5
1C6
100
AcDbEntity
  8
LAYER0001
  6
CONTINUOUS
 62
       7
100
AcDbLine
 10
148.49059416
 20
105.49682048
 30
0.0
 11
148.49059416
 21
99.49682048
 31
0.0
  0
LINE
  5
1C7
100
AcDbEntity
  8
LAYER0001
  6
CONTINUOUS
 62
       7
100
AcDbLine
 10
146.99059416
 20
98.39753887
 30
0.0
 11
148.29076195
 21
98.39753887
 31
0.0
  0
LINE
  5
1C8
100
AcDbEntity
  8
LAYER0001
  6
CONTINUOUS
 62
       7
100
AcDbLine
 10
150.99059416
 20
49.49682048
 30
0.0
 11
150.99059416
 21
44.99682048
 31
0.0
  0
LINE
  5
1C9
100
AcDbEntity
  8
LAYER0001
  6
CONTINUOUS
 62
       7
100
AcDbLine
 10
150.99059416
 20
44.99682048
 30
0.0
 11
152.99059416
 21
44.99682048
 31
0.0
  0
LINE
  5
1CA
100
AcDbEntity
  8
LAYER0001
  6
CONTINUOUS
 62
       7
100
AcDbLine
 10
163.19042637
 20
98.39753887
 30
0.0
 11
165.79076195
 21
98.39753887
 31
0.0
  0
LINE
  5
1CB
100
AcDbEntity
  8
LAYER0001
  6
CONTINUOUS
 62
       7
100
AcDbLine
 10
146.99059416
 20
72.59610209
 30
0.0
 11
148.29076195
 21
72.59610209
 31
0.0
  0
LINE
  5
1CC
100
AcDbEntity
  8
LAYER0001
  6
CONTINUOUS
 62
       7
100
AcDbLine
 10
165.79076195
 20
106.65152102
 30
0.0
 11
165.79076195
 21
110.34211994
 31
0.0
  0
LINE
  5
1CD
100
AcDbEntity
  8
LAYER0001
  6
CONTINUOUS
 62
       7
100
AcDbLine
 10
148.29076195
 20
106.65152102
 30
0.0
 11
148.29076195
 21
110.34211994
 31
0.0
  0
LINE
  5
1CE
100
AcDbEntity
  8
LAYER0001
  6
CONTINUOUS
 62
       7
100
AcDbLine
 10
181.99059416
 20
106.65152103
 30
0.0
 11
180.69042638
 21
106.65152103
 31
0.0
  0
LINE
  5
1CF
100
AcDbEntity
  8
LAYER0001
  6
CONTINUOUS
 62
       7
100
AcDbLine
 10
165.79076195
 20
110.34211994
 30
0.0
 11
163.19042638
 21
110.34211994
 31
0.0
  0
LINE
  5
1D0
100
AcDbEntity
  8
LAYER0001
  6
CONTINUOUS
 62
       7
100
AcDbLine
 10
146.99059416
 20
-71.64338685
 30
0.0
 11
146.99059416
 21
-89.02160857
 31
0.0
  0
LINE
  5
1D1
100
AcDbEntity
  8
LAYER0001
  6
CONTINUOUS
 62
       7
100
AcDbLine
 10
148.21560342
 20
-91.14338684
 30
0.0
 11
163.26558491
 21
-99.8324977
 31
0.0
  0
LINE
  5
1D2
100
AcDbEntity
  8
LAYER0001
  6
CONTINUOUS
 62
       7
100
AcDbLine
 10
180.76558491
 20
-69.52160857
 30
0.0
 11
165.71560343
 21
-60.83249771
 31
0.0
  0
LINE
  5
1D3
100
AcDbEntity
  8
LAYER0001
  6
CONTINUOUS
 62
       7
100
AcDbLine
 10
163.26558491
 20
-60.83249771
 30
0.0
 11
165.71560343
 21
-60.83249771
 31
0.0
  0
LINE
  5
1D4
100
AcDbEntity
  8
LAYER0001
  6
CONTINUOUS
 62
       7
100
AcDbLine
 10
165.71560343
 20
-99.8324977
 30
0.0
 11
163.26558491
 21
-99.8324977
 31
0.0
  0
LINE
  5
1D5
100
AcDbEntity
  8
LAYER0001
  6
CONTINUOUS
 62
       7
100
AcDbLine
 10
148.21560342
 20
-91.14338684
 30
0.0
 11
146.99059416
 21
-89.02160857
 31
0.0
  0
LINE
  5
1D6
100
AcDbEntity
  8
LAYER0001
  6
CONTINUOUS
 62
       7
100
AcDbLine
 10
152.99059416
 20
-87.40356552
 30
0.0
 11
152.99059416
 21
-73.2614299
 31
0.0
  0
LINE
  5
1D7
100
AcDbEntity
  8
LAYER0001
  6
CONTINUOUS
 62
       7
100
AcDbLine
 10
163.26558491
 20
-60.83249771
 30
0.0
 11
148.21560343
 21
-69.52160857
 31
0.0
  0
LINE
  5
1D8
100
AcDbEntity
  8
LAYER0001
  6
CONTINUOUS
 62
       7
100
AcDbLine
 10
165.71560343
 20
-99.8324977
 30
0.0
 11
180.76558491
 21
-91.14338684
 31
0.0
  0
LINE
  5
1D9
100
AcDbEntity
  8
LAYER0001
  6
CONTINUOUS
 62
       7
100
AcDbLine
 10
181.99059417
 20
-89.02160857
 30
0.0
 11
181.99059417
 21
-71.64338685
 31
0.0
  0
LINE
  5
1DA
100
AcDbEntity
  8
LAYER0001
  6
CONTINUOUS
 62
       7
100
AcDbLine
 10
180.76558491
 20
-69.52160857
 30
0.0
 11
181.99059417
 21
-71.64338685
 31
0.0
  0
LINE
  5
1DB
100
AcDbEntity
  8
LAYER0001
  6
CONTINUOUS
 62
       7
100
AcDbLine
 10
181.99059417
 20
-89.02160857
 30
0.0
 11
180.76558491
 21
-91.14338684
 31
0.0
  0
LINE
  5
1DC
100
AcDbEntity
  8
LAYER0001
  6
CONTINUOUS
 62
       7
100
AcDbLine
 10
146.99059416
 20
-71.64338685
 30
0.0
 11
148.21560343
 21
-69.52160857
 31
0.0
  0
LINE
  5
1DD
100
AcDbEntity
  8
LAYER0001
  6
CONTINUOUS
 62
       7
100
AcDbLine
 10
175.99059416
 20
-87.40356552
 30
0.0
 11
175.99059416
 21
-73.2614299
 31
0.0
  0
ARC
  5
1DE
100
AcDbEntity
  8
LAYER0001
  6
CONTINUOUS
 62
       7
100
AcDbCircle
 10
-178.50940584
 20
116.49682048
 30
0.0
 40
10.0
100
AcDbArc
 50
270.0
 51
360.0
  0
ARC
  5
1DF
100
AcDbEntity
  8
LAYER0001
  6
CONTINUOUS
 62
       7
100
AcDbCircle
 10
-296.50940584
 20
234.49682048
 30
0.0
 40
10.0
100
AcDbArc
 50
90.0
 51
180.0
  0
ARC
  5
1E0
100
AcDbEntity
  8
LAYER0001
  6
CONTINUOUS
 62
       7
100
AcDbCircle
 10
-235.50940584
 20
175.49682048
 30
0.0
 40
61.0
100
AcDbArc
 50
284.23512406
 51
435.76487594
  0
CIRCLE
  5
1E1
100
AcDbEntity
  8
LAYER0001
  6
CONTINUOUS
 62
       7
100
AcDbCircle
 10
-272.00940584
 20
211.99682048
 30
0.0
 40
8.5
  0
CIRCLE
  5
1E2
100
AcDbEntity
  8
LAYER0001
  6
CONTINUOUS
 62
       7
100
AcDbCircle
 10
-199.00940584
 20
211.99682048
 30
0.0
 40
8.5
  0
CIRCLE
  5
1E3
100
AcDbEntity
  8
LAYER0001
  6
CONTINUOUS
 62
       7
100
AcDbCircle
 10
-199.00940584
 20
138.99682048
 30
0.0
 40
8.5
  0
CIRCLE
  5
1E4
100
AcDbEntity
  8
LAYER0001
  6
CONTINUOUS
 62
       7
100
AcDbCircle
 10
-272.00940584
 20
138.99682048
 30
0.0
 40
8.5
  0
CIRCLE
  5
1E5
100
AcDbEntity
  8
LAYER0001
  6
CONTINUOUS
 62
       7
100
AcDbCircle
 10
-258.50940584
 20
138.99682048
 30
0.0
 40
2.0
  0
ARC
  5
1E6
100
AcDbEntity
  8
LAYER0001
  6
CONTINUOUS
 62
       7
100
AcDbCircle
 10
-173.28105342
 20
131.55696653
 30
0.0
 40
9.5
100
AcDbArc
 50
90.0
 51
270.0
  0
ARC
  5
1E7
100
AcDbEntity
  8
LAYER0001
  6
CONTINUOUS
 62
       7
100
AcDbCircle
 10
-145.80324498
 20
175.49682048
 30
0.0
 40
19.0
100
AcDbArc
 50
144.9234364
 51
215.0765636
  0
ARC
  5
1E8
100
AcDbEntity
  8
LAYER0001
  6
CONTINUOUS
 62
       7
100
AcDbCircle
 10
-135.99059416
 20
175.49682048
 30
0.0
 40
35.5
100
AcDbArc
 50
270.0
 51
450.0
  0
ARC
  5
1E9
100
AcDbEntity
  8
LAYER0001
  6
CONTINUOUS
 62
       7
100
AcDbCircle
 10
-303.50940584
 20
-214.40490868
 30
0.0
 40
3.0
100
AcDbArc
 50
180.0
 51
270.0
  0
ARC
  5
1EA
100
AcDbEntity
  8
LAYER0001
  6
CONTINUOUS
 62
       7
100
AcDbCircle
 10
-235.15208367
 20
53.62736869
 30
0.0
 40
345.96005092
100
AcDbArc
 50
261.94683038
 51
277.92859859
  0
ARC
  5
1EB
100
AcDbEntity
  8
LAYER0001
  6
CONTINUOUS
 62
       7
100
AcDbCircle
 10
-282.21739734
 20
-279.01960945
 30
0.0
 40
10.0
100
AcDbArc
 50
184.89649141
 51
261.94683038
  0
CIRCLE
  5
1EC
100
AcDbEntity
  8
LAYER0001
  6
CONTINUOUS
 62
       7
100
AcDbCircle
 10
-235.50940584
 20
-80.33249771
 30
0.0
 40
11.0
  0
ARC
  5
1ED
100
AcDbEntity
  8
LAYER0001
  6
CONTINUOUS
 62
       7
100
AcDbCircle
 10
-178.50940584
 20
234.49682048
 30
0.0
 40
10.0
100
AcDbArc
 50
0.0
 51
90.0
  0
ARC
  5
1EE
100
AcDbEntity
  8
LAYER0001
  6
CONTINUOUS
 62
       7
100
AcDbCircle
 10
-296.50940584
 20
116.49682048
 30
0.0
 40
10.0
100
AcDbArc
 50
180.0
 51
270.0
  0
ARC
  5
1EF
100
AcDbEntity
  8
LAYER0001
  6
CONTINUOUS
 62
       7
100
AcDbCircle
 10
-235.50940584
 20
175.49682048
 30
0.0
 40
61.0
100
AcDbArc
 50
194.23512406
 51
255.76487594
  0
ARC
  5
1F0
100
AcDbEntity
  8
LAYER0001
  6
CONTINUOUS
 62
       7
100
AcDbCircle
 10
-235.50940584
 20
175.49682048
 30
0.0
 40
61.0
100
AcDbArc
 50
104.23512406
 51
165.76487594
  0
CIRCLE
  5
1F1
100
AcDbEntity
  8
LAYER0001
  6
CONTINUOUS
 62
       7
100
AcDbCircle
 10
-272.00940584
 20
211.99682048
 30
0.0
 40
6.0
  0
CIRCLE
  5
1F2
100
AcDbEntity
  8
LAYER0001
  6
CONTINUOUS
 62
       7
100
AcDbCircle
 10
-199.00940584
 20
211.99682048
 30
0.0
 40
6.0
  0
CIRCLE
  5
1F3
100
AcDbEntity
  8
LAYER0001
  6
CONTINUOUS
 62
       7
100
AcDbCircle
 10
-199.00940584
 20
138.99682048
 30
0.0
 40
6.0
  0
CIRCLE
  5
1F4
100
AcDbEntity
  8
LAYER0001
  6
CONTINUOUS
 62
       7
100
AcDbCircle
 10
-272.00940584
 20
138.99682048
 30
0.0
 40
6.0
  0
ARC
  5
1F5
100
AcDbEntity
  8
LAYER0001
  6
CONTINUOUS
 62
       7
100
AcDbCircle
 10
-279.49233156
 20
243.30204734
 30
0.0
 40
4.15067828
100
AcDbArc
 50
16.72928804
 51
163.27071196
  0
ARC
  5
1F6
100
AcDbEntity
  8
LAYER0001
  6
CONTINUOUS
 62
       7
100
AcDbCircle
 10
-173.28105342
 20
219.43667443
 30
0.0
 40
9.5
100
AcDbArc
 50
90.0
 51
270.0
  0
ARC
  5
1F7
100
AcDbEntity
  8
LAYER0001
  6
CONTINUOUS
 62
       7
100
AcDbCircle
 10
-145.80324498
 20
175.49682048
 30
0.0
 40
15.0
100
AcDbArc
 50
144.9234364
 51
215.0765636
  0
ARC
  5
1F8
100
AcDbEntity
  8
LAYER0001
  6
CONTINUOUS
 62
       7
100
AcDbCircle
 10
-135.99059416
 20
175.49682048
 30
0.0
 40
42.5
100
AcDbArc
 50
270.0
 51
450.0
  0
ARC
  5
1F9
100
AcDbEntity
  8
LAYER0001
  6
CONTINUOUS
 62
       7
100
AcDbCircle
 10
-171.50940584
 20
-214.40490868
 30
0.0
 40
3.0
100
AcDbArc
 50
270.0
 51
360.0
  0
ARC
  5
1FA
100
AcDbEntity
  8
LAYER0001
  6
CONTINUOUS
 62
       7
100
AcDbCircle
 10
-188.81011328
 20
-279.12115136
 30
0.0
 40
10.0
100
AcDbArc
 50
277.92859859
 51
355.10350859
  0
CIRCLE
  5
1FB
100
AcDbEntity
  8
LAYER0001
  6
CONTINUOUS
 62
       7
100
AcDbCircle
 10
-235.50940584
 20
-80.33249771
 30
0.0
 40
15.0
  0
ARC
  5
1FC
100
AcDbEntity
  8
LAYER0001
  6
CONTINUOUS
 62
       7
100
AcDbCircle
 10
-96.99059416
 20
-131.20659806
 30
0.0
 40
3.5
100
AcDbArc
 50
270.0
 51
450.0
  0
ARC
  5
1FD
100
AcDbEntity
  8
LAYER0001
  6
CONTINUOUS
 62
       7
100
AcDbCircle
 10
147.99059416
 20
50.49682048
 30
0.0
 40
1.0
100
AcDbArc
 50
180.0
 51
270.0
  0
ARC
  5
1FE
100
AcDbEntity
  8
LAYER0001
  6
CONTINUOUS
 62
       7
100
AcDbCircle
 10
155.74059416
 20
73.70342067
 30
0.0
 40
25.79339981
100
AcDbArc
 50
73.21225228
 51
106.78774772
  0
ARC
  5
1FF
100
AcDbEntity
  8
LAYER0001
  6
CONTINUOUS
 62
       7
100
AcDbCircle
 10
173.24059418
 20
86.88726526
 30
0.0
 40
24.60955522
100
AcDbArc
 50
72.37888635
 51
107.62111368
  0
ARC
  5
200
100
AcDbEntity
  8
LAYER0001
  6
CONTINUOUS
 62
       7
100
AcDbCircle
 10
173.24059416
 20
97.29022029
 30
0.0
 40
25.79339981
100
AcDbArc
 50
253.21225228
 51
286.78774772
  0
ARC
  5
201
100
AcDbEntity
  8
LAYER0001
  6
CONTINUOUS
 62
       7
100
AcDbCircle
 10
173.24059416
 20
130.1063757
 30
0.0
 40
24.60955521
100
AcDbArc
 50
252.37888634
 51
287.62111369
  0
ARC
  5
202
100
AcDbEntity
  8
LAYER0001
  6
CONTINUOUS
 62
       7
100
AcDbCircle
 10
155.74059416
 20
97.29022029
 30
0.0
 40
25.79339981
100
AcDbArc
 50
253.21225228
 51
286.78774772
  0
ARC
  5
203
100
AcDbEntity
  8
LAYER0001
  6
CONTINUOUS
 62
       7
100
AcDbCircle
 10
155.74059417
 20
130.1063757
 30
0.0
 40
24.60955522
100
AcDbArc
 50
252.37888634
 51
287.62111368
  0
ARC
  5
204
100
AcDbEntity
  8
LAYER0001
  6
CONTINUOUS
 62
       7
100
AcDbCircle
 10
180.99059416
 20
50.49682048
 30
0.0
 40
1.0
100
AcDbArc
 50
270.0
 51
360.0
  0
ARC
  5
205
100
AcDbEntity
  8
LAYER0001
  6
CONTINUOUS
 62
       7
100
AcDbCircle
 10
173.24059416
 20
73.70342067
 30
0.0
 40
25.79339981
100
AcDbArc
 50
73.21225228
 51
106.78774772
  0
ARC
  5
206
100
AcDbEntity
  8
LAYER0001
  6
CONTINUOUS
 62
       7
100
AcDbCircle
 10
155.74059417
 20
86.88726526
 30
0.0
 40
24.60955522
100
AcDbArc
 50
72.37888634
 51
107.62111368
  0
CIRCLE
  5
207
100
AcDbEntity
  8
LAYER0001
  6
CONTINUOUS
 62
       7
100
AcDbCircle
 10
164.49059416
 20
-80.33249771
 30
0.0
 40
6.0
  0
CIRCLE
  5
208
100
AcDbEntity
  8
LAYER0001
  6
CONTINUOUS
 62
       7
100
AcDbCircle
 10
164.49059416
 20
-80.33249771
 30
0.0
 40
9.3
  0
CIRCLE
  5
209
100
AcDbEntity
  8
LAYER0001
  6
CONTINUOUS
 62
       7
100
AcDbCircle
 10
164.49059416
 20
-80.33249771
 30
0.0
 40
13.5
  0
CIRCLE
  5
20A
100
AcDbEntity
  8
LAYER0001
  6
PHANTOM2
 62
       7
100
AcDbCircle
 10
-235.50940584
 20
175.49682048
 30
0.0
 40
2.0
  0
CIRCLE
  5
20B
100
AcDbEntity
  8
LAYER0001
  6
PHANTOM2
 62
       7
100
AcDbCircle
 10
-258.50940584
 20
175.49682048
 30
0.0
 40
2.0
  0
CIRCLE
  5
20C
100
AcDbEntity
  8
LAYER0001
  6
PHANTOM2
 62
       7
100
AcDbCircle
 10
-235.50940584
 20
198.49682048
 30
0.0
 40
2.0
  0
CIRCLE
  5
20D
100
AcDbEntity
  8
LAYER0001
  6
PHANTOM2
 62
       7
100
AcDbCircle
 10
-212.50940584
 20
152.49682048
 30
0.0
 40
2.0
  0
CIRCLE
  5
20E
100
AcDbEntity
  8
LAYER0001
  6
PHANTOM2
 62
       7
100
AcDbCircle
 10
-258.50940584
 20
152.49682048
 30
0.0
 40
2.0
  0
CIRCLE
  5
20F
100
AcDbEntity
  8
LAYER0001
  6
PHANTOM2
 62
       7
100
AcDbCircle
 10
-212.50940584
 20
175.49682048
 30
0.0
 40
2.0
  0
CIRCLE
  5
210
100
AcDbEntity
  8
LAYER0001
  6
PHANTOM2
 62
       7
100
AcDbCircle
 10
-212.50940584
 20
198.49682048
 30
0.0
 40
2.0
  0
CIRCLE
  5
211
100
AcDbEntity
  8
LAYER0001
  6
PHANTOM2
 62
       7
100
AcDbCircle
 10
-258.50940584
 20
198.49682048
 30
0.0
 40
2.0
  0
CIRCLE
  5
212
100
AcDbEntity
  8
LAYER0001
  6
PHANTOM2
 62
       7
100
AcDbCircle
 10
-235.50940584
 20
152.49682048
 30
0.0
 40
2.0
  0
CIRCLE
  5
213
100
AcDbEntity
  8
LAYER0002
  6
PHANTOM2
 62
       7
100
AcDbCircle
 10
187.49059416
 20
175.49682048
 30
0.0
 40
2.0
  0
CIRCLE
  5
214
100
AcDbEntity
  8
LAYER0002
  6
PHANTOM2
 62
       7
100
AcDbCircle
 10
141.49059416
 20
175.49682048
 30
0.0
 40
2.0
  0
CIRCLE
  5
215
100
AcDbEntity
  8
LAYER0002
  6
PHANTOM2
 62
       7
100
AcDbCircle
 10
187.49059416
 20
198.49682048
 30
0.0
 40
2.0
  0
CIRCLE
  5
216
100
AcDbEntity
  8
LAYER0002
  6
PHANTOM2
 62
       7
100
AcDbCircle
 10
164.49059416
 20
198.49682048
 30
0.0
 40
2.0
  0
CIRCLE
  5
217
100
AcDbEntity
  8
LAYER0002
  6
PHANTOM2
 62
       7
100
AcDbCircle
 10
141.49059416
 20
198.49682048
 30
0.0
 40
2.0
  0
CIRCLE
  5
218
100
AcDbEntity
  8
LAYER0002
  6
PHANTOM2
 62
       7
100
AcDbCircle
 10
187.49059416
 20
152.49682048
 30
0.0
 40
2.0
  0
CIRCLE
  5
219
100
AcDbEntity
  8
LAYER0002
  6
PHANTOM2
 62
       7
100
AcDbCircle
 10
164.49059416
 20
152.49682048
 30
0.0
 40
2.0
  0
CIRCLE
  5
21A
100
AcDbEntity
  8
LAYER0002
  6
PHANTOM2
 62
       7
100
AcDbCircle
 10
141.49059416
 20
152.49682048
 30
0.0
 40
2.0
  0
CIRCLE
  5
21B
100
AcDbEntity
  8
LAYER0002
  6
CONTINUOUS
 62
       7
100
AcDbCircle
 10
141.49059416
 20
138.99682048
 30
0.0
 40
2.0
  0
TEXT
  5
21C
100
AcDbEntity
  8
LAYER0006
 62
       7
100
AcDbText
 10
253.45686221
 20
-322.25932048
 30
0.0
 40
9.525
  1
000
 72
       5
 11
282.03186221
 21
-322.25932048
 31
0.0
100
AcDbText
  0
ENDSEC
  0
SECTION
  2
OBJECTS
  0
DICTIONARY
  5
19
100
AcDbDictionary
  3
ACAD_GROUP
350
1A
  3
ACAD_MLINESTYLE
350
1B
  0
DICTIONARY
  5
1A
102
{ACAD_REACTORS
330
19
102
}
100
AcDbDictionary
  0
DICTIONARY
  5
1B
102
{ACAD_REACTORS
330
19
102
}
100
AcDbDictionary
  3
STANDARD
350
1C
  0
MLINESTYLE
  5
1C
102
{ACAD_REACTORS
330
1B
102
}
100
AcDbMlineStyle
  2
STANDARD
 70
       0
  3

 62
       0
 51
90.0
 52
90.0
 71
       2
 49
0.5
 62
     256
  6
BYLAYER
 49
-0.5
 62
     256
  6
BYLAYER
  0
ENDSEC
  0
EOF
