  0
SECTION
  2
HEADER
  9
$ACADVER
  1
AC1014
  9
$ACADMAINTVER
 70
       0
  9
$DWGCODEPAGE
  3
ANSI_932
  9
$INSBASE
 10
0.0
 20
0.0
 30
0.0
  9
$EXTMIN
 10
-231.862808
 20
-245.62122354
 30
0.0
  9
$EXTMAX
 10
222.95655805
 20
240.85872354
 30
0.0
  9
$LIMMIN
 10
-246.07591319
 20
-260.82372189
  9
$LIMMAX
 10
237.16966324
 20
256.06122189
  9
$ORTHOMODE
 70
       0
  9
$REGENMODE
 70
       1
  9
$FILLMODE
 70
       1
  9
$QTEXTMODE
 70
       0
  9
$MIRRTEXT
 70
       1
  9
$DRAGMODE
 70
       2
  9
$LTSCALE
 40
1.0
  9
$OSMODE
 70
       0
  9
$ATTMODE
 70
       1
  9
$TEXTSIZE
 40
0.2
  9
$TRACEWID
 40
0.05
  9
$TEXTSTYLE
  7
STANDARD
  9
$CLAYER
  8
0
  9
$CELTYPE
  6
CONTINUOUS
  9
$CECOLOR
 62
     256
  9
$CELTSCALE
 40
1.0
  9
$DELOBJ
 70
       1
  9
$DISPSILH
 70
       0
  9
$DIMSCALE
 40
1.0
  9
$DIMASZ
 40
0.18
  9
$DIMEXO
 40
0.0625
  9
$DIMDLI
 40
0.38
  9
$DIMRND
 40
0.0
  9
$DIMDLE
 40
0.0
  9
$DIMEXE
 40
0.18
  9
$DIMTP
 40
0.0
  9
$DIMTM
 40
0.0
  9
$DIMTXT
 40
0.18
  9
$DIMCEN
 40
0.09
  9
$DIMTSZ
 40
0.0
  9
$DIMTOL
 70
       0
  9
$DIMLIM
 70
       0
  9
$DIMTIH
 70
       1
  9
$DIMTOH
 70
       1
  9
$DIMSE1
 70
       0
  9
$DIMSE2
 70
       0
  9
$DIMTAD
 70
       0
  9
$DIMZIN
 70
       0
  9
$DIMBLK
  1

  9
$DIMASO
 70
       1
  9
$DIMSHO
 70
       1
  9
$DIMPOST
  1

  9
$DIMAPOST
  1

  9
$DIMALT
 70
       0
  9
$DIMALTD
 70
       2
  9
$DIMALTF
 40
25.4
  9
$DIMLFAC
 40
1.0
  9
$DIMTOFL
 70
       0
  9
$DIMTVP
 40
0.0
  9
$DIMTIX
 70
       0
  9
$DIMSOXD
 70
       0
  9
$DIMSAH
 70
       0
  9
$DIMBLK1
  1

  9
$DIMBLK2
  1

  9
$DIMSTYLE
  2
STANDARD
  9
$DIMCLRD
 70
       0
  9
$DIMCLRE
 70
       0
  9
$DIMCLRT
 70
       0
  9
$DIMTFAC
 40
1.0
  9
$DIMGAP
 40
0.09
  9
$DIMJUST
 70
       0
  9
$DIMSD1
 70
       0
  9
$DIMSD2
 70
       0
  9
$DIMTOLJ
 70
       1
  9
$DIMTZIN
 70
       0
  9
$DIMALTZ
 70
       0
  9
$DIMALTTZ
 70
       0
  9
$DIMFIT
 70
       3
  9
$DIMUPT
 70
       0
  9
$DIMUNIT
 70
       2
  9
$DIMDEC
 70
       4
  9
$DIMTDEC
 70
       4
  9
$DIMALTU
 70
       2
  9
$DIMALTTD
 70
       2
  9
$DIMTXSTY
  7
STANDARD
  9
$DIMAUNIT
 70
       0
  9
$LUNITS
 70
       2
  9
$LUPREC
 70
       4
  9
$SKETCHINC
 40
0.1
  9
$FILLETRAD
 40
0.0
  9
$AUNITS
 70
       0
  9
$AUPREC
 70
       0
  9
$MENU
  1
acad
  9
$ELEVATION
 40
0.0
  9
$PELEVATION
 40
0.0
  9
$THICKNESS
 40
0.0
  9
$LIMCHECK
 70
       0
  9
$BLIPMODE
 70
       1
  9
$CHAMFERA
 40
0.0
  9
$CHAMFERB
 40
0.0
  9
$CHAMFERC
 40
0.0
  9
$CHAMFERD
 40
0.0
  9
$SKPOLY
 70
       0
  9
$TDCREATE
 40
0.000000000
  9
$TDUPDATE
 40
0.000000000
  9
$TDINDWG
 40
0.0000000000
  9
$TDUSRTIMER
 40
0.0000000000
  9
$USRTIMER
 70
       1
  9
$ANGBASE
 50
0.0
  9
$ANGDIR
 70
       0
  9
$PDMODE
 70
       0
  9
$PDSIZE
 40
1.0
  9
$PLINEWID
 40
0.0
  9
$COORDS
 70
       1
  9
$SPLFRAME
 70
       0
  9
$SPLINETYPE
 70
       6
  9
$SPLINESEGS
 70
       8
  9
$ATTDIA
 70
       0
  9
$ATTREQ
 70
       1
  9
$HANDLING
 70
       1
  9
$HANDSEED
  5
22D
  9
$SURFTAB1
 70
       6
  9
$SURFTAB2
 70
       6
  9
$SURFTYPE
 70
       6
  9
$SURFU
 70
       6
  9
$SURFV
 70
       6
  9
$UCSNAME
  2

  9
$UCSORG
 10
0.0
 20
0.0
 30
0.0
  9
$UCSXDIR
 10
1.0
 20
0.0
 30
0.0
  9
$UCSYDIR
 10
0.0
 20
1.0
 30
0.0
  9
$PUCSNAME
  2

  9
$PUCSORG
 10
0.0
 20
0.0
 30
0.0
  9
$PUCSXDIR
 10
1.0
 20
0.0
 30
0.0
  9
$PUCSYDIR
 10
0.0
 20
1.0
 30
0.0
  9
$USERI1
 70
       0
  9
$USERI2
 70
       0
  9
$USERI3
 70
       0
  9
$USERI4
 70
       0
  9
$USERI5
 70
       0
  9
$USERR1
 40
0.0
  9
$USERR2
 40
0.0
  9
$USERR3
 40
0.0
  9
$USERR4
 40
0.0
  9
$USERR5
 40
0.0
  9
$WORLDVIEW
 70
       1
  9
$SHADEDGE
 70
       3
  9
$SHADEDIF
 70
      70
  9
$TILEMODE
 70
       1
  9
$MAXACTVP
 70
      16
  9
$PINSBASE
 10
0.0
 20
0.0
 30
0.0
  9
$PLIMCHECK
 70
       0
  9
$PEXTMIN
 10
1.00000000E+20
 20
1.00000000E+20
 30
1.00000000E+20
  9
$PEXTMAX
 10
-1.00000000E+20
 20
-1.00000000E+20
 30
-1.00000000E+20
  9
$PLIMMIN
 10
0.0
 20
0.0
  9
$PLIMMAX
 10
12.0
 20
9.0
  9
$UNITMODE
 70
       0
  9
$VISRETAIN
 70
       0
  9
$PLINEGEN
 70
       1
  9
$PSLTSCALE
 70
       0
  9
$TREEDEPTH
 70
    3020
  9
$PICKSTYLE
 70
       1
  9
$CMLSTYLE
  2
STANDARD
  9
$CMLJUST
 70
       0
  9
$CMLSCALE
 40
1.0
  9
$PROXYGRAPHICS
 70
       0
  9
$MEASUREMENT
 70
       0
  0
ENDSEC
  0
SECTION
  2
CLASSES
  0
CLASS
  1
LWPOLYLINE
  2
AcDbPolyline
  3
"AutoCAD"
 90
        0
280
       0
281
       1
  0
CLASS
  1
IMAGE
  2
AcDbRasterImage
  3
ISM
 90
      127
280
       0
281
       1
  0
CLASS
  1
OLE2FRAME
  2
AcDbOle2Frame
  3
""
 90
        0
280
       0
281
       1
  0
CLASS
  1
HATCH
  2
AcDbHatch
  3
"ACAD_SEDONA"
 90
        0
280
       0
281
       1
  0
CLASS
  1
DICTIONARYVAR
  2
AcDbDictionaryVar
  3
"AutoCAD"
 90
        0
280
       0
281
       0
  0
CLASS
  1
RASTERVARIABLES
  2
AcDbRasterVariables
  3
ISM
 90
        0
280
       0
281
       0
  0
CLASS
  1
IMAGEDEF
  2
AcDbRasterImageDef
  3
ISM
 90
        0
280
       0
281
       0
  0
CLASS
  1
IMAGEDEF_REACTOR
  2
AcDbRasterImageDefReactor
  3
ISM
 90
        1
280
       0
281
       0
  0
CLASS
  1
IDBUFFER
  2
AcDbIdBuffer
  3
"Acad"
 90
        0
280
       0
281
       0
  0
CLASS
  1
SPATIAL_FILTER
  2
AcDbSpatialFilter
  3
"Acad"
 90
        0
280
       0
281
       0
  0
CLASS
  1
XRECORD
  2
AcDbXrecord
  3
"<Built In>"
 90
        0
280
       0
281
       0
  0
CLASS
  1
SORTENTSTABLE
  2
AcDbSortentsTable
  3
"AutoCAD"
 90
        0
280
       0
281
       0
  0
CLASS
  1
LAYER_INDEX
  2
AcDbLayerIndex
  3
"Acad"
 90
        0
280
       0
281
       0
  0
CLASS
  1
SPATIAL_INDEX
  2
AcDbSpatialIndex
  3
"Acad"
 90
        0
280
       0
281
       0
  0
CLASS
  1
OBJECT_PTR
  2
CAseDLPNTableRecord
  3
"ASE-LPNTableRecord"
 90
        1
280
       0
281
       0
  0
CLASS
  1
LAYOUT
  2
AcDbLayout
  3
"AutoCAD 2000"
 90
        1
280
       0
281
       0
  0
CLASS
  1
PLOTSETTINGS
  2
AcDbPlotSettings
  3
"AutoCAD 2000"
 90
        1
280
       0
281
       0
  0
CLASS
  1
ACDBDICTIONARYWDFLT
  2
AcDbDictionaryWithDefault
  3
"AutoCAD 2000"
 90
        1
280
       0
281
       0
  0
CLASS
  1
ACDBPLACEHOLDER
  2
AcDbPlaceHolder
  3
"AutoCAD 2000"
 90
        1
280
       0
281
       0
  0
CLASS
  1
VBA_PROJECT
  2
AcDbVbaProject
  3
"acadvba"
 90
        1
280
       0
281
       0
  0
CLASS
  1
WIPEOUT
  2
AcDbWipeout
  3
WipeOut|AutoCAD Express Tool|expresstools@autodesk.com
 90
      127
280
       0
281
       1
  0
CLASS
  1
WIPEOUTVARIABLES
  2
AcDbWipeoutVariables
  3
WipeOut|AutoCAD Express Tool|expresstools@autodesk.com
 90
        0
280
       0
281
       0
  0
CLASS
  1
RTEXT
  2
RText
  3
RText|AutoCAD Express Tool|expresstools@autodesk.com
 90
        0
280
       0
281
       1
  0
CLASS
  1
ARCALIGNEDTEXT
  2
AcDbArcAlignedText
  3
ATEXT|AutoCAD Express Tool|expresstools@autodesk.com
 90
        0
280
       0
281
       1
  0
ENDSEC
  0
SECTION
  2
TABLES
  0
TABLE
  2
VPORT
  5
7
100
AcDbSymbolTable
 70
       1
  0
VPORT
  5
15
100
AcDbSymbolTableRecord
100
AcDbViewportTableRecord
  2
*ACTIVE
 70
       0
 10
0.0
 20
0.0
 11
1.0
 21
1.0
 12
-4.45312498
 22
-2.38125
 13
0.0
 23
0.0
 14
1.0
 24
1.0
 15
0.0
 25
0.0
 16
0.0
 26
0.0
 36
1.0
 17
0.0
 27
0.0
 37
0.0
 40
516.88494378
 41
0.93491904
 42
50.0
 43
0.0
 44
0.0
 50
0.0
 51
0.0
 71
       0
 72
     100
 73
       1
 74
       1
 75
       0
 76
       0
 77
       0
 78
       0
  0
ENDTAB
  0
TABLE
  2
LTYPE
  5
4
100
AcDbSymbolTable
 70
      30
  0
LTYPE
  5
11
100
AcDbSymbolTableRecord
100
AcDbLinetypeTableRecord
  2
BYBLOCK
 70
      64
  3

 72
      65
 73
       0
 40
0.0
  0
LTYPE
  5
12
100
AcDbSymbolTableRecord
100
AcDbLinetypeTableRecord
  2
BYLAYER
 70
      64
  3

 72
      65
 73
       0
 40
0.0
  0
LTYPE
  5
13
100
AcDbSymbolTableRecord
100
AcDbLinetypeTableRecord
  2
CONTINUOUS
 70
      64
  3
Solid line
 72
      65
 73
       0
 40
0.0
  0
LTYPE
  5
1D
100
AcDbSymbolTableRecord
100
AcDbLinetypeTableRecord
  2
HIDDENX2
 70
      64
  3
CADPAC LINETYPE
 72
      65
 73
       2
 40
27.23117908
 49
20.42338431
 74
       0
 49
-6.80779477
 74
       0
  0
LTYPE
  5
1E
100
AcDbSymbolTableRecord
100
AcDbLinetypeTableRecord
  2
HIDDEN
 70
      64
  3
CADPAC LINETYPE
 72
      65
 73
       2
 40
20.42338431
 49
13.61558954
 74
       0
 49
-6.80779477
 74
       0
  0
LTYPE
  5
1F
100
AcDbSymbolTableRecord
100
AcDbLinetypeTableRecord
  2
HIDDEN2
 70
      64
  3
CADPAC LINETYPE
 72
      65
 73
       2
 40
17.01948692
 49
10.21169215
 74
       0
 49
-6.80779477
 74
       0
  0
LTYPE
  5
20
100
AcDbSymbolTableRecord
100
AcDbLinetypeTableRecord
  2
DASHED
 70
      64
  3
CADPAC LINETYPE
 72
      65
 73
       2
 40
20.42338431
 49
13.61558954
 74
       0
 49
-6.80779477
 74
       0
  0
LTYPE
  5
21
100
AcDbSymbolTableRecord
100
AcDbLinetypeTableRecord
  2
DASHED2
 70
      64
  3
CADPAC LINETYPE
 72
      65
 73
       2
 40
15.31753823
 49
10.21169215
 74
       0
 49
-5.10584608
 74
       0
  0
LTYPE
  5
22
100
AcDbSymbolTableRecord
100
AcDbLinetypeTableRecord
  2
DASHEDX2
 70
      64
  3
CADPAC LINETYPE
 72
      65
 73
       2
 40
30.63507646
 49
20.42338431
 74
       0
 49
-10.21169215
 74
       0
  0
LTYPE
  5
23
100
AcDbSymbolTableRecord
100
AcDbLinetypeTableRecord
  2
DOTX2
 70
      64
  3
CADPAC LINETYPE
 72
      65
 73
       2
 40
8.50974346
 49
0.0
 74
       0
 49
-8.50974346
 74
       0
  0
LTYPE
  5
24
100
AcDbSymbolTableRecord
100
AcDbLinetypeTableRecord
  2
DOT
 70
      64
  3
CADPAC LINETYPE
 72
      65
 73
       2
 40
6.80779477
 49
0.0
 74
       0
 49
-6.80779477
 74
       0
  0
LTYPE
  5
25
100
AcDbSymbolTableRecord
100
AcDbLinetypeTableRecord
  2
DOT2
 70
      64
  3
CADPAC LINETYPE
 72
      65
 73
       2
 40
5.10584608
 49
0.0
 74
       0
 49
-5.10584608
 74
       0
  0
LTYPE
  5
26
100
AcDbSymbolTableRecord
100
AcDbLinetypeTableRecord
  2
CENTERX2
 70
      64
  3
CADPAC LINETYPE
 72
      65
 73
       4
 40
40.84676861
 49
17.01948692
 74
       0
 49
-8.50974346
 74
       0
 49
6.80779477
 74
       0
 49
-8.50974346
 74
       0
  0
LTYPE
  5
27
100
AcDbSymbolTableRecord
100
AcDbLinetypeTableRecord
  2
CENTER
 70
      64
  3
CADPAC LINETYPE
 72
      65
 73
       4
 40
31.31585594
 49
13.61558954
 74
       0
 49
-6.80779477
 74
       0
 49
4.08467686
 74
       0
 49
-6.80779477
 74
       0
  0
LTYPE
  5
28
100
AcDbSymbolTableRecord
100
AcDbLinetypeTableRecord
  2
CENTER2
 70
      64
  3
CADPAC LINETYPE
 72
      65
 73
       4
 40
21.78494326
 49
10.21169215
 74
       0
 49
-5.10584608
 74
       0
 49
1.36155895
 74
       0
 49
-5.10584608
 74
       0
  0
LTYPE
  5
29
100
AcDbSymbolTableRecord
100
AcDbLinetypeTableRecord
  2
DASHDOTX2
 70
      64
  3
CADPAC LINETYPE
 72
      65
 73
       4
 40
34.03897385
 49
17.01948692
 74
       0
 49
-8.50974346
 74
       0
 49
0.0
 74
       0
 49
-8.50974346
 74
       0
  0
LTYPE
  5
2A
100
AcDbSymbolTableRecord
100
AcDbLinetypeTableRecord
  2
DASHDOT
 70
      64
  3
CADPAC LINETYPE
 72
      65
 73
       4
 40
27.23117908
 49
13.61558954
 74
       0
 49
-6.80779477
 74
       0
 49
0.0
 74
       0
 49
-6.80779477
 74
       0
  0
LTYPE
  5
2B
100
AcDbSymbolTableRecord
100
AcDbLinetypeTableRecord
  2
DASHDOT2
 70
      64
  3
CADPAC LINETYPE
 72
      65
 73
       4
 40
20.42338431
 49
10.21169215
 74
       0
 49
-5.10584608
 74
       0
 49
0.0
 74
       0
 49
-5.10584608
 74
       0
  0
LTYPE
  5
2C
100
AcDbSymbolTableRecord
100
AcDbLinetypeTableRecord
  2
DIVIDEX2
 70
      64
  3
CADPAC LINETYPE
 72
      65
 73
       6
 40
42.54871731
 49
17.01948692
 74
       0
 49
-8.50974346
 74
       0
 49
0.0
 74
       0
 49
-8.50974346
 74
       0
 49
0.0
 74
       0
 49
-8.50974346
 74
       0
  0
LTYPE
  5
2D
100
AcDbSymbolTableRecord
100
AcDbLinetypeTableRecord
  2
DIVIDE
 70
      64
  3
CADPAC LINETYPE
 72
      65
 73
       6
 40
34.03897385
 49
13.61558954
 74
       0
 49
-6.80779477
 74
       0
 49
0.0
 74
       0
 49
-6.80779477
 74
       0
 49
0.0
 74
       0
 49
-6.80779477
 74
       0
  0
LTYPE
  5
2E
100
AcDbSymbolTableRecord
100
AcDbLinetypeTableRecord
  2
DIVIDE2
 70
      64
  3
CADPAC LINETYPE
 72
      65
 73
       6
 40
25.52923038
 49
10.21169215
 74
       0
 49
-5.10584608
 74
       0
 49
0.0
 74
       0
 49
-5.10584608
 74
       0
 49
0.0
 74
       0
 49
-5.10584608
 74
       0
  0
LTYPE
  5
2F
100
AcDbSymbolTableRecord
100
AcDbLinetypeTableRecord
  2
BORDERX2
 70
      64
  3
CADPAC LINETYPE
 72
      65
 73
       6
 40
59.56820423
 49
17.01948692
 74
       0
 49
-8.50974346
 74
       0
 49
17.01948692
 74
       0
 49
-8.50974346
 74
       0
 49
0.0
 74
       0
 49
-8.50974346
 74
       0
  0
LTYPE
  5
30
100
AcDbSymbolTableRecord
100
AcDbLinetypeTableRecord
  2
BORDER
 70
      64
  3
CADPAC LINETYPE
 72
      65
 73
       6
 40
47.65456338
 49
13.61558954
 74
       0
 49
-6.80779477
 74
       0
 49
13.61558954
 74
       0
 49
-6.80779477
 74
       0
 49
0.0
 74
       0
 49
-6.80779477
 74
       0
  0
LTYPE
  5
31
100
AcDbSymbolTableRecord
100
AcDbLinetypeTableRecord
  2
BORDER2
 70
      64
  3
CADPAC LINETYPE
 72
      65
 73
       6
 40
35.74092254
 49
10.21169215
 74
       0
 49
-5.10584608
 74
       0
 49
10.21169215
 74
       0
 49
-5.10584608
 74
       0
 49
0.0
 74
       0
 49
-5.10584608
 74
       0
  0
LTYPE
  5
32
100
AcDbSymbolTableRecord
100
AcDbLinetypeTableRecord
  2
PHANTOMX2
 70
      64
  3
CADPAC LINETYPE
 72
      65
 73
       6
 40
51.05846077
 49
17.01948692
 74
       0
 49
-6.80779477
 74
       0
 49
6.80779477
 74
       0
 49
-6.80779477
 74
       0
 49
6.80779477
 74
       0
 49
-6.80779477
 74
       0
  0
LTYPE
  5
33
100
AcDbSymbolTableRecord
100
AcDbLinetypeTableRecord
  2
PHANTOM
 70
      64
  3
CADPAC LINETYPE
 72
      65
 73
       6
 40
42.20832757
 49
13.61558954
 74
       0
 49
-6.80779477
 74
       0
 49
4.08467686
 74
       0
 49
-6.80779477
 74
       0
 49
4.08467686
 74
       0
 49
-6.80779477
 74
       0
  0
LTYPE
  5
34
100
AcDbSymbolTableRecord
100
AcDbLinetypeTableRecord
  2
PHANTOM2
 70
      64
  3
CADPAC LINETYPE
 72
      65
 73
       6
 40
36.08131228
 49
10.21169215
 74
       0
 49
-6.80779477
 74
       0
 49
2.72311791
 74
       0
 49
-6.80779477
 74
       0
 49
2.72311791
 74
       0
 49
-6.80779477
 74
       0
  0
LTYPE
  5
35
100
AcDbSymbolTableRecord
100
AcDbLinetypeTableRecord
  2
ACAD_ISO06W100
 70
      64
  3
CADPAC LINETYPE
 72
      65
 73
       8
 40
45.95261469
 49
17.01948692
 74
       0
 49
-8.50974346
 74
       0
 49
0.0
 74
       0
 49
-6.80779477
 74
       0
 49
0.0
 74
       0
 49
-6.80779477
 74
       0
 49
0.0
 74
       0
 49
-6.80779477
 74
       0
  0
LTYPE
  5
36
100
AcDbSymbolTableRecord
100
AcDbLinetypeTableRecord
  2
ACAD_ISO13W100
 70
      64
  3
CADPAC LINETYPE
 72
      65
 73
       8
 40
54.46235815
 49
13.61558954
 74
       0
 49
-6.80779477
 74
       0
 49
13.61558954
 74
       0
 49
-6.80779477
 74
       0
 49
0.0
 74
       0
 49
-6.80779477
 74
       0
 49
0.0
 74
       0
 49
-6.80779477
 74
       0
  0
LTYPE
  5
37
100
AcDbSymbolTableRecord
100
AcDbLinetypeTableRecord
  2
ACAD_ISO14W100
 70
      64
  3
CADPAC LINETYPE
 72
      65
 73
       8
 40
40.84676861
 49
13.61558954
 74
       0
 49
-6.80779477
 74
       0
 49
0.0
 74
       0
 49
-6.80779477
 74
       0
 49
0.0
 74
       0
 49
-6.80779477
 74
       0
 49
0.0
 74
       0
 49
-6.80779477
 74
       0
  0
ENDTAB
  0
TABLE
  2
LAYER
  5
2
100
AcDbSymbolTable
 70
       2
  0
LAYER
  5
14
100
AcDbSymbolTableRecord
100
AcDbLayerTableRecord
  2
0
 70
       0
 62
       7
  6
CONTINUOUS
  0
LAYER
  5
38
100
AcDbSymbolTableRecord
100
AcDbLayerTableRecord
  2
LAYER0002
 70
       0
 62
       7
  6
CONTINUOUS
  0
ENDTAB
  0
TABLE
  2
STYLE
  5
3
100
AcDbSymbolTable
 70
       1
  0
STYLE
  5
17
100
AcDbSymbolTableRecord
100
AcDbTextStyleTableRecord
  2
STANDARD
 70
       0
 40
0.0
 41
1.0
 50
0.0
 71
       0
 42
9.525
  3
txt.shx
  4
bigfont.shx
  0
ENDTAB
  0
TABLE
  2
VIEW
  5
5
100
AcDbSymbolTable
 70
       1
  0
VIEW
  5
39
100
AcDbSymbolTableRecord
100
AcDbViewTableRecord
  2
QQQQ
 70
       0
 40
516.88494378
 10
-4.45312498
 20
-2.38125
 41
483.24557643
 11
0.0
 21
0.0
 31
1.0
 12
100.0
 22
100.0
 32
0.0
 42
50.0
 43
0.0
 44
0.0
 50
0.0
 71
       0
  0
ENDTAB
  0
TABLE
  2
UCS
  5
6
100
AcDbSymbolTable
 70
       0
  0
ENDTAB
  0
TABLE
  2
APPID
  5
8
100
AcDbSymbolTable
 70
       1
  0
APPID
  5
16
100
AcDbSymbolTableRecord
100
AcDbRegAppTableRecord
  2
ACAD
 70
       0
  0
ENDTAB
  0
TABLE
  2
DIMSTYLE
  5
9
100
AcDbSymbolTable
 70
       1
  0
DIMSTYLE
105
18
100
AcDbSymbolTableRecord
100
AcDbDimStyleTableRecord
  2
STANDARD
 70
       0
  3

  4

  5

  6

  7

 40
1.0
 41
0.18
 42
0.0625
 43
0.38
 44
0.18
 45
0.0
 46
0.0
 47
0.0
 48
0.0
 71
       0
 72
       0
 73
       1
 74
       1
 75
       0
 76
       0
 77
       0
 78
       0
140
0.18
141
0.09
142
0.0
143
25.4
144
1.0
145
0.0
146
1.0
147
0.09
170
       0
171
       2
172
       0
173
       0
174
       0
175
       0
176
       0
177
       0
178
       0
270
       2
271
       4
272
       4
273
       2
274
       2
275
       0
280
       0
281
       0
282
       0
283
       1
284
       0
285
       0
286
       0
287
       0
288
       0
340
17
  0
ENDTAB
  0
TABLE
  2
BLOCK_RECORD
  5
1
100
AcDbSymbolTable
 70
       0
  0
BLOCK_RECORD
  5
A
100
AcDbSymbolTableRecord
100
AcDbBlockTableRecord
  2
*MODEL_SPACE
  0
BLOCK_RECORD
  5
B
100
AcDbSymbolTableRecord
100
AcDbBlockTableRecord
  2
*PAPER_SPACE
  0
ENDTAB
  0
ENDSEC
  0
SECTION
  2
BLOCKS
  0
BLOCK
  5
D
100
AcDbEntity
  8
0
100
AcDbBlockBegin
  2
*MODEL_SPACE
 70
       0
 10
0.0
 20
0.0
 30
0.0
  3
*MODEL_SPACE
  1

  0
ENDBLK
  5
E
100
AcDbEntity
  8
0
100
AcDbBlockEnd
  0
BLOCK
  5
F
100
AcDbEntity
 67
       1
  8
0
100
AcDbBlockBegin
  2
*PAPER_SPACE
 70
       0
 10
0.0
 20
0.0
 30
0.0
  3
*PAPER_SPACE
  1

  0
ENDBLK
  5
10
100
AcDbEntity
 67
       1
  8
0
100
AcDbBlockEnd
  0
ENDSEC
  0
SECTION
  2
ENTITIES
  0
LINE
  5
3A
100
AcDbEntity
  8
LAYER0002
  6
CONTINUOUS
 62
       7
100
AcDbLine
 10
-203.61628173
 20
-57.4230581
 30
0.0
 11
-223.11628173
 21
-57.4230581
 31
0.0
  0
LINE
  5
3B
100
AcDbEntity
  8
LAYER0002
  6
CONTINUOUS
 62
       7
100
AcDbLine
 10
-223.11628173
 20
-93.4230581
 30
0.0
 11
-218.08742757
 21
-93.4230581
 31
0.0
  0
LINE
  5
3C
100
AcDbEntity
  8
LAYER0002
  6
CONTINUOUS
 62
       7
100
AcDbLine
 10
-114.14513589
 20
-93.4230581
 30
0.0
 11
-109.11628173
 21
-93.4230581
 31
0.0
  0
LINE
  5
3D
100
AcDbEntity
  8
LAYER0002
  6
CONTINUOUS
 62
       7
100
AcDbLine
 10
-109.11628173
 20
-57.4230581
 30
0.0
 11
-128.61628173
 21
-57.4230581
 31
0.0
  0
LINE
  5
3E
100
AcDbEntity
  8
LAYER0002
  6
CONTINUOUS
 62
       7
100
AcDbLine
 10
-136.11628173
 20
-174.4230581
 30
0.0
 11
-136.11628246
 21
-158.59296426
 31
0.0
  0
LINE
  5
3F
100
AcDbEntity
  8
LAYER0002
  6
CONTINUOUS
 62
       7
100
AcDbLine
 10
-196.11628173
 20
-174.4230581
 30
0.0
 11
-136.11628173
 21
-174.4230581
 31
0.0
  0
LINE
  5
40
100
AcDbEntity
  8
LAYER0002
  6
CONTINUOUS
 62
       7
100
AcDbLine
 10
-128.61628173
 20
-56.4230581
 30
0.0
 11
-203.61628173
 21
-56.4230581
 31
0.0
  0
LINE
  5
41
100
AcDbEntity
  8
LAYER0002
  6
CONTINUOUS
 62
       7
100
AcDbLine
 10
-196.11628331
 20
-158.59296249
 30
0.0
 11
-196.11628173
 21
-174.4230581
 31
0.0
  0
LINE
  5
42
100
AcDbEntity
  8
LAYER0002
  6
CONTINUOUS
 62
       7
100
AcDbLine
 10
-223.11628173
 20
-75.4230581
 30
0.0
 11
-223.11628173
 21
-57.4230581
 31
0.0
  0
LINE
  5
43
100
AcDbEntity
  8
LAYER0002
  6
CONTINUOUS
 62
       7
100
AcDbLine
 10
-223.11628173
 20
-93.4230581
 30
0.0
 11
-223.11628173
 21
-75.4230581
 31
0.0
  0
LINE
  5
44
100
AcDbEntity
  8
LAYER0002
  6
CONTINUOUS
 62
       7
100
AcDbLine
 10
-109.11628173
 20
-57.4230581
 30
0.0
 11
-109.11628173
 21
-93.4230581
 31
0.0
  0
LINE
  5
45
100
AcDbEntity
  8
LAYER0002
  6
CONTINUOUS
 62
       7
100
AcDbLine
 10
-134.11628173
 20
-174.4230581
 30
0.0
 11
-136.11628173
 21
-174.4230581
 31
0.0
  0
LINE
  5
46
100
AcDbEntity
  8
LAYER0002
  6
CONTINUOUS
 62
       7
100
AcDbLine
 10
-196.11628173
 20
-174.4230581
 30
0.0
 11
-198.11628173
 21
-174.4230581
 31
0.0
  0
LINE
  5
47
100
AcDbEntity
  8
LAYER0002
  6
CONTINUOUS
 62
       7
100
AcDbLine
 10
-221.11628173
 20
-126.38968765
 30
0.0
 11
-221.11628173
 21
-169.4230581
 31
0.0
  0
LINE
  5
48
100
AcDbEntity
  8
LAYER0002
  6
CONTINUOUS
 62
       7
100
AcDbLine
 10
-216.11628173
 20
-174.4230581
 30
0.0
 11
-198.11628173
 21
-174.4230581
 31
0.0
  0
LINE
  5
49
100
AcDbEntity
  8
LAYER0002
  6
CONTINUOUS
 62
       7
100
AcDbLine
 10
-134.11628173
 20
-174.4230581
 30
0.0
 11
-116.11628173
 21
-174.4230581
 31
0.0
  0
LINE
  5
4A
100
AcDbEntity
  8
LAYER0002
  6
CONTINUOUS
 62
       7
100
AcDbLine
 10
-221.11628173
 20
-28.4230581
 30
0.0
 11
-111.11628173
 21
-28.4230581
 31
0.0
  0
LINE
  5
4B
100
AcDbEntity
  8
LAYER0002
  6
CONTINUOUS
 62
       7
100
AcDbLine
 10
-111.11628173
 20
-202.4230581
 30
0.0
 11
-221.11628173
 21
-202.4230581
 31
0.0
  0
LINE
  5
4C
100
AcDbEntity
  8
LAYER0002
  6
CONTINUOUS
 62
       7
100
AcDbLine
 10
-216.99078118
 20
-117.7730581
 30
0.0
 11
-209.65566046
 21
-117.7730581
 31
0.0
  0
LINE
  5
4D
100
AcDbEntity
  8
LAYER0002
  6
CONTINUOUS
 62
       7
100
AcDbLine
 10
-172.46628173
 20
-154.96243682
 30
0.0
 11
-172.46628173
 21
-162.29755755
 31
0.0
  0
LINE
  5
4E
100
AcDbEntity
  8
LAYER0002
  6
CONTINUOUS
 62
       7
100
AcDbLine
 10
-115.24178228
 20
-105.0730581
 30
0.0
 11
-122.57690301
 21
-105.0730581
 31
0.0
  0
LINE
  5
4F
100
AcDbEntity
  8
LAYER0002
  6
CONTINUOUS
 62
       7
100
AcDbLine
 10
-159.76628173
 20
-67.88367937
 30
0.0
 11
-159.76628173
 21
-60.54855865
 31
0.0
  0
LINE
  5
50
100
AcDbEntity
  8
LAYER0002
  6
CONTINUOUS
 62
       7
100
AcDbLine
 10
-172.46628173
 20
-60.54855865
 30
0.0
 11
-172.46628173
 21
-67.88367937
 31
0.0
  0
LINE
  5
51
100
AcDbEntity
  8
LAYER0002
  6
CONTINUOUS
 62
       7
100
AcDbLine
 10
-209.65566046
 20
-105.0730581
 30
0.0
 11
-216.99078118
 21
-105.0730581
 31
0.0
  0
LINE
  5
52
100
AcDbEntity
  8
LAYER0002
  6
CONTINUOUS
 62
       7
100
AcDbLine
 10
-122.576903
 20
-117.7730581
 30
0.0
 11
-115.24178228
 21
-117.7730581
 31
0.0
  0
LINE
  5
53
100
AcDbEntity
  8
LAYER0002
  6
CONTINUOUS
 62
       7
100
AcDbLine
 10
-159.76628173
 20
-162.29755755
 30
0.0
 11
-159.76628173
 21
-154.96243683
 31
0.0
  0
LINE
  5
54
100
AcDbEntity
  8
LAYER0002
  6
CONTINUOUS
 62
       7
100
AcDbLine
 10
-123.34449654
 20
-140.75981429
 30
0.0
 11
-119.82351414
 21
-139.74027231
 31
0.0
  0
LINE
  5
55
100
AcDbEntity
  8
LAYER0002
  6
CONTINUOUS
 62
       7
100
AcDbLine
 10
-113.35905762
 20
-124.13369369
 30
0.0
 11
-115.12784312
 21
-120.9230581
 31
0.0
  0
LINE
  5
56
100
AcDbEntity
  8
LAYER0002
  6
CONTINUOUS
 62
       7
100
AcDbLine
 10
-208.88806692
 20
-82.08630191
 30
0.0
 11
-212.40904932
 21
-83.10584389
 31
0.0
  0
LINE
  5
57
100
AcDbEntity
  8
LAYER0002
  6
CONTINUOUS
 62
       7
100
AcDbLine
 10
-218.87350583
 20
-98.71242251
 30
0.0
 11
-217.10472034
 21
-101.9230581
 31
0.0
  0
LINE
  5
58
100
AcDbEntity
  8
LAYER0002
  6
CONTINUOUS
 62
       7
100
AcDbLine
 10
-217.10472034
 20
-120.9230581
 30
0.0
 11
-218.87350583
 21
-124.13369369
 31
0.0
  0
LINE
  5
59
100
AcDbEntity
  8
LAYER0002
  6
CONTINUOUS
 62
       7
100
AcDbLine
 10
-212.40904932
 20
-139.74027231
 30
0.0
 11
-208.88806692
 21
-140.75981429
 31
0.0
  0
LINE
  5
5A
100
AcDbEntity
  8
LAYER0002
  6
CONTINUOUS
 62
       7
100
AcDbLine
 10
-119.52066107
 20
-82.79821819
 30
0.0
 11
-119.82351414
 21
-83.10584389
 31
0.0
  0
LINE
  5
5B
100
AcDbEntity
  8
LAYER0002
  6
CONTINUOUS
 62
       7
100
AcDbLine
 10
-119.82351414
 20
-83.10584389
 30
0.0
 11
-123.34449654
 21
-82.08630191
 31
0.0
  0
LINE
  5
5C
100
AcDbEntity
  8
LAYER0002
  6
CONTINUOUS
 62
       7
100
AcDbLine
 10
-123.03982926
 20
-81.78163463
 30
0.0
 11
-119.52066107
 21
-82.79821819
 31
0.0
  0
LINE
  5
5D
100
AcDbEntity
  8
LAYER0002
  6
CONTINUOUS
 62
       7
100
AcDbLine
 10
-115.12784311
 20
-101.92305809
 30
0.0
 11
-113.35905761
 21
-98.7124225
 31
0.0
  0
LINE
  5
5E
100
AcDbEntity
  8
LAYER0002
  6
CONTINUOUS
 62
       7
100
AcDbLine
 10
-175.61628173
 20
-60.43461949
 30
0.0
 11
-178.82691732
 21
-58.66583399
 31
0.0
  0
LINE
  5
5F
100
AcDbEntity
  8
LAYER0002
  6
CONTINUOUS
 62
       7
100
AcDbLine
 10
-175.61628173
 20
-60.00375489
 30
0.0
 11
-175.61628173
 21
-60.53542717
 31
0.0
  0
LINE
  5
60
100
AcDbEntity
  8
LAYER0002
  6
CONTINUOUS
 62
       7
100
AcDbLine
 10
-194.43349594
 20
-65.13029051
 30
0.0
 11
-195.45303792
 21
-68.65127291
 31
0.0
  0
LINE
  5
61
100
AcDbEntity
  8
LAYER0002
  6
CONTINUOUS
 62
       7
100
AcDbLine
 10
-137.79906752
 20
-65.13029051
 30
0.0
 11
-137.49144182
 21
-64.82743744
 31
0.0
  0
LINE
  5
62
100
AcDbEntity
  8
LAYER0002
  6
CONTINUOUS
 62
       7
100
AcDbLine
 10
-153.4090209
 20
-58.23416032
 30
0.0
 11
-153.40564614
 21
-58.66583399
 31
0.0
  0
LINE
  5
63
100
AcDbEntity
  8
LAYER0002
  6
CONTINUOUS
 62
       7
100
AcDbLine
 10
-178.82691732
 20
-58.66583399
 30
0.0
 11
-178.82354256
 21
-58.23416032
 31
0.0
  0
LINE
  5
64
100
AcDbEntity
  8
LAYER0002
  6
CONTINUOUS
 62
       7
100
AcDbLine
 10
-194.74112164
 20
-64.82743744
 30
0.0
 11
-194.43349594
 21
-65.13029051
 31
0.0
  0
LINE
  5
65
100
AcDbEntity
  8
LAYER0002
  6
CONTINUOUS
 62
       7
100
AcDbLine
 10
-212.40904932
 20
-83.10584389
 30
0.0
 11
-212.71190239
 21
-82.79821818
 31
0.0
  0
LINE
  5
66
100
AcDbEntity
  8
LAYER0002
  6
CONTINUOUS
 62
       7
100
AcDbLine
 10
-219.30517951
 20
-98.71579727
 30
0.0
 11
-218.87350583
 21
-98.71242251
 31
0.0
  0
LINE
  5
67
100
AcDbEntity
  8
LAYER0002
  6
CONTINUOUS
 62
       7
100
AcDbLine
 10
-218.87350583
 20
-124.13369369
 30
0.0
 11
-219.30517951
 21
-124.13031892
 31
0.0
  0
LINE
  5
68
100
AcDbEntity
  8
LAYER0002
  6
CONTINUOUS
 62
       7
100
AcDbLine
 10
-212.71190239
 20
-140.04789801
 30
0.0
 11
-212.40904932
 21
-139.74027231
 31
0.0
  0
LINE
  5
69
100
AcDbEntity
  8
LAYER0002
  6
CONTINUOUS
 62
       7
100
AcDbLine
 10
-194.43349594
 20
-157.71582569
 30
0.0
 11
-194.74112164
 21
-158.01867875
 31
0.0
  0
LINE
  5
6A
100
AcDbEntity
  8
LAYER0002
  6
CONTINUOUS
 62
       7
100
AcDbLine
 10
-178.82354256
 20
-164.61195588
 30
0.0
 11
-178.82691732
 21
-164.1802822
 31
0.0
  0
LINE
  5
6B
100
AcDbEntity
  8
LAYER0002
  6
CONTINUOUS
 62
       7
100
AcDbLine
 10
-153.40564614
 20
-164.1802822
 30
0.0
 11
-153.4090209
 21
-164.61195588
 31
0.0
  0
LINE
  5
6C
100
AcDbEntity
  8
LAYER0002
  6
CONTINUOUS
 62
       7
100
AcDbLine
 10
-137.49144182
 20
-158.01867876
 30
0.0
 11
-137.79906752
 21
-157.71582569
 31
0.0
  0
LINE
  5
6D
100
AcDbEntity
  8
LAYER0002
  6
CONTINUOUS
 62
       7
100
AcDbLine
 10
-119.82351414
 20
-139.74027231
 30
0.0
 11
-119.52066107
 21
-140.04789801
 31
0.0
  0
LINE
  5
6E
100
AcDbEntity
  8
LAYER0002
  6
CONTINUOUS
 62
       7
100
AcDbLine
 10
-112.92738395
 20
-124.13031893
 30
0.0
 11
-113.35905762
 21
-124.13369369
 31
0.0
  0
LINE
  5
6F
100
AcDbEntity
  8
LAYER0002
  6
CONTINUOUS
 62
       7
100
AcDbLine
 10
-113.35905761
 20
-98.7124225
 30
0.0
 11
-112.92738395
 21
-98.71579727
 31
0.0
  0
LINE
  5
70
100
AcDbEntity
  8
LAYER0002
  6
CONTINUOUS
 62
       7
100
AcDbLine
 10
-195.45303792
 20
-154.19484329
 30
0.0
 11
-194.43349594
 21
-157.71582569
 31
0.0
  0
LINE
  5
71
100
AcDbEntity
  8
LAYER0002
  6
CONTINUOUS
 62
       7
100
AcDbLine
 10
-178.82691732
 20
-164.1802822
 30
0.0
 11
-175.61628173
 21
-162.41149671
 31
0.0
  0
LINE
  5
72
100
AcDbEntity
  8
LAYER0002
  6
CONTINUOUS
 62
       7
100
AcDbLine
 10
-194.74112164
 20
-158.01867875
 30
0.0
 11
-195.7577052
 21
-154.49951057
 31
0.0
  0
LINE
  5
73
100
AcDbEntity
  8
LAYER0002
  6
CONTINUOUS
 62
       7
100
AcDbLine
 10
-175.61628173
 20
-162.84236131
 30
0.0
 11
-178.82354256
 21
-164.61195588
 31
0.0
  0
LINE
  5
74
100
AcDbEntity
  8
LAYER0002
  6
CONTINUOUS
 62
       7
100
AcDbLine
 10
-137.49144182
 20
-64.82743744
 30
0.0
 11
-136.47485826
 21
-68.34660563
 31
0.0
  0
LINE
  5
75
100
AcDbEntity
  8
LAYER0002
  6
CONTINUOUS
 62
       7
100
AcDbLine
 10
-136.77952554
 20
-68.65127291
 30
0.0
 11
-137.79906752
 21
-65.13029051
 31
0.0
  0
LINE
  5
76
100
AcDbEntity
  8
LAYER0002
  6
CONTINUOUS
 62
       7
100
AcDbLine
 10
-153.40564614
 20
-58.66583399
 30
0.0
 11
-156.61628173
 21
-60.43461949
 31
0.0
  0
LINE
  5
77
100
AcDbEntity
  8
LAYER0002
  6
CONTINUOUS
 62
       7
100
AcDbLine
 10
-156.61628173
 20
-60.00375489
 30
0.0
 11
-153.4090209
 21
-58.23416032
 31
0.0
  0
LINE
  5
78
100
AcDbEntity
  8
LAYER0002
  6
CONTINUOUS
 62
       7
100
AcDbLine
 10
-178.82354256
 20
-58.23416032
 30
0.0
 11
-175.61628173
 21
-60.00375489
 31
0.0
  0
LINE
  5
79
100
AcDbEntity
  8
LAYER0002
  6
CONTINUOUS
 62
       7
100
AcDbLine
 10
-156.61628173
 20
-60.53542717
 30
0.0
 11
-156.61628173
 21
-60.00375489
 31
0.0
  0
LINE
  5
7A
100
AcDbEntity
  8
LAYER0002
  6
CONTINUOUS
 62
       7
100
AcDbLine
 10
-219.30517951
 20
-124.13031892
 30
0.0
 11
-217.53558494
 21
-120.9230581
 31
0.0
  0
LINE
  5
7B
100
AcDbEntity
  8
LAYER0002
  6
CONTINUOUS
 62
       7
100
AcDbLine
 10
-156.61628173
 20
-162.41149671
 30
0.0
 11
-153.40564614
 21
-164.1802822
 31
0.0
  0
LINE
  5
7C
100
AcDbEntity
  8
LAYER0002
  6
CONTINUOUS
 62
       7
100
AcDbLine
 10
-137.79906752
 20
-157.71582569
 30
0.0
 11
-136.77952554
 21
-154.19484329
 31
0.0
  0
LINE
  5
7D
100
AcDbEntity
  8
LAYER0002
  6
CONTINUOUS
 62
       7
100
AcDbLine
 10
-114.69697852
 20
-120.9230581
 30
0.0
 11
-112.92738395
 21
-124.13031893
 31
0.0
  0
LINE
  5
7E
100
AcDbEntity
  8
LAYER0002
  6
CONTINUOUS
 62
       7
100
AcDbLine
 10
-112.92738395
 20
-98.71579727
 30
0.0
 11
-114.69697852
 21
-101.9230581
 31
0.0
  0
LINE
  5
7F
100
AcDbEntity
  8
LAYER0002
  6
CONTINUOUS
 62
       7
100
AcDbLine
 10
-153.4090209
 20
-164.61195588
 30
0.0
 11
-156.61628173
 21
-162.84236131
 31
0.0
  0
LINE
  5
80
100
AcDbEntity
  8
LAYER0002
  6
CONTINUOUS
 62
       7
100
AcDbLine
 10
-136.47485826
 20
-154.49951057
 30
0.0
 11
-137.49144182
 21
-158.01867876
 31
0.0
  0
LINE
  5
81
100
AcDbEntity
  8
LAYER0002
  6
CONTINUOUS
 62
       7
100
AcDbLine
 10
-119.52066107
 20
-140.04789801
 30
0.0
 11
-123.03982926
 21
-141.06448157
 31
0.0
  0
LINE
  5
82
100
AcDbEntity
  8
LAYER0002
  6
CONTINUOUS
 62
       7
100
AcDbLine
 10
-195.7577052
 20
-68.34660563
 30
0.0
 11
-194.74112164
 21
-64.82743744
 31
0.0
  0
LINE
  5
83
100
AcDbEntity
  8
LAYER0002
  6
CONTINUOUS
 62
       7
100
AcDbLine
 10
-212.71190239
 20
-82.79821818
 30
0.0
 11
-209.1927342
 21
-81.78163463
 31
0.0
  0
LINE
  5
84
100
AcDbEntity
  8
LAYER0002
  6
CONTINUOUS
 62
       7
100
AcDbLine
 10
-217.53558494
 20
-101.9230581
 30
0.0
 11
-219.30517951
 21
-98.71579727
 31
0.0
  0
LINE
  5
85
100
AcDbEntity
  8
LAYER0002
  6
CONTINUOUS
 62
       7
100
AcDbLine
 10
-209.1927342
 20
-141.06448157
 30
0.0
 11
-212.71190239
 21
-140.04789801
 31
0.0
  0
LINE
  5
86
100
AcDbEntity
  8
LAYER0002
  6
CONTINUOUS
 62
       7
100
AcDbLine
 10
-128.61628173
 20
112.47733994
 30
0.0
 11
-109.11628173
 21
112.47733994
 31
0.0
  0
LINE
  5
87
100
AcDbEntity
  8
LAYER0002
  6
CONTINUOUS
 62
       7
100
AcDbLine
 10
-109.11628173
 20
148.47733994
 30
0.0
 11
-119.91628173
 21
148.47733994
 31
0.0
  0
LINE
  5
88
100
AcDbEntity
  8
LAYER0002
  6
CONTINUOUS
 62
       7
100
AcDbLine
 10
-212.31628173
 20
148.47733994
 30
0.0
 11
-223.11628173
 21
148.47733994
 31
0.0
  0
LINE
  5
89
100
AcDbEntity
  8
LAYER0002
  6
CONTINUOUS
 62
       7
100
AcDbLine
 10
-223.11628173
 20
112.47733994
 30
0.0
 11
-203.61628173
 21
112.47733994
 31
0.0
  0
LINE
  5
8A
100
AcDbEntity
  8
LAYER0002
  6
CONTINUOUS
 62
       7
100
AcDbLine
 10
-221.11628173
 20
112.47733994
 30
0.0
 11
-221.11628173
 21
110.47733994
 31
0.0
  0
LINE
  5
8B
100
AcDbEntity
  8
LAYER0002
  6
CONTINUOUS
 62
       7
100
AcDbLine
 10
-111.11628173
 20
110.47733994
 30
0.0
 11
-111.11628173
 21
112.47733994
 31
0.0
  0
LINE
  5
8C
100
AcDbEntity
  8
LAYER0002
  6
CONTINUOUS
 62
       7
100
AcDbLine
 10
-134.11628173
 20
139.97733994
 30
0.0
 11
-134.11628173
 21
136.47803994
 31
0.0
  0
LINE
  5
8D
100
AcDbEntity
  8
LAYER0002
  6
CONTINUOUS
 62
       7
100
AcDbLine
 10
-124.11628173
 20
136.47803994
 30
0.0
 11
-124.11628173
 21
139.97733994
 31
0.0
  0
LINE
  5
8E
100
AcDbEntity
  8
LAYER0002
  6
CONTINUOUS
 62
       7
100
AcDbLine
 10
-208.11628173
 20
139.97733994
 30
0.0
 11
-208.11628173
 21
136.47803994
 31
0.0
  0
LINE
  5
8F
100
AcDbEntity
  8
LAYER0002
  6
CONTINUOUS
 62
       7
100
AcDbLine
 10
-198.11628173
 20
136.47803994
 30
0.0
 11
-198.11628173
 21
139.97733994
 31
0.0
  0
LINE
  5
90
100
AcDbEntity
  8
LAYER0002
  6
CONTINUOUS
 62
       7
100
AcDbLine
 10
-133.62928173
 20
189.99033994
 30
0.0
 11
-133.62928173
 21
171.43965944
 31
0.0
  0
LINE
  5
91
100
AcDbEntity
  8
LAYER0002
  6
CONTINUOUS
 62
       7
100
AcDbLine
 10
-124.60328173
 20
175.97733994
 30
0.0
 11
-124.60328173
 21
189.99033994
 31
0.0
  0
LINE
  5
92
100
AcDbEntity
  8
LAYER0002
  6
CONTINUOUS
 62
       7
100
AcDbLine
 10
-207.62928173
 20
189.99033994
 30
0.0
 11
-207.62928173
 21
175.97733994
 31
0.0
  0
LINE
  5
93
100
AcDbEntity
  8
LAYER0002
  6
CONTINUOUS
 62
       7
100
AcDbLine
 10
-198.60328173
 20
171.43965944
 30
0.0
 11
-198.60328173
 21
189.99033994
 31
0.0
  0
LINE
  5
94
100
AcDbEntity
  8
LAYER0002
  6
CONTINUOUS
 62
       7
100
AcDbLine
 10
-221.11628173
 20
110.47733994
 30
0.0
 11
-220.80205067
 21
98.47733994
 31
0.0
  0
LINE
  5
95
100
AcDbEntity
  8
LAYER0002
  6
CONTINUOUS
 62
       7
100
AcDbLine
 10
-111.43051279
 20
98.47733994
 30
0.0
 11
-111.11628173
 21
110.47733994
 31
0.0
  0
LINE
  5
96
100
AcDbEntity
  8
LAYER0002
  6
CONTINUOUS
 62
       7
100
AcDbLine
 10
-217.89616889
 20
82.47733994
 30
0.0
 11
-217.38554342
 21
62.97733994
 31
0.0
  0
LINE
  5
97
100
AcDbEntity
  8
LAYER0002
  6
CONTINUOUS
 62
       7
100
AcDbLine
 10
-114.84702004
 20
62.97733994
 30
0.0
 11
-114.33639457
 21
82.47733994
 31
0.0
  0
LINE
  5
98
100
AcDbEntity
  8
LAYER0002
  6
CONTINUOUS
 62
       7
100
AcDbLine
 10
-113.11628173
 20
110.47733994
 30
0.0
 11
-219.11628173
 21
110.47733994
 31
0.0
  0
LINE
  5
99
100
AcDbEntity
  8
LAYER0002
  6
CONTINUOUS
 62
       7
100
AcDbLine
 10
-109.11628173
 20
148.47733994
 30
0.0
 11
-109.11628173
 21
112.47733994
 31
0.0
  0
LINE
  5
9A
100
AcDbEntity
  8
LAYER0002
  6
CONTINUOUS
 62
       7
100
AcDbLine
 10
-223.11628173
 20
112.47733994
 30
0.0
 11
-223.11628173
 21
148.47733994
 31
0.0
  0
LINE
  5
9B
100
AcDbEntity
  8
LAYER0002
  6
CONTINUOUS
 62
       7
100
AcDbLine
 10
-221.11628173
 20
148.47733994
 30
0.0
 11
-221.11628173
 21
150.47733994
 31
0.0
  0
LINE
  5
9C
100
AcDbEntity
  8
LAYER0002
  6
CONTINUOUS
 62
       7
100
AcDbLine
 10
-219.11628173
 20
110.47733994
 30
0.0
 11
-221.11628173
 21
110.47733994
 31
0.0
  0
LINE
  5
9D
100
AcDbEntity
  8
LAYER0002
  6
CONTINUOUS
 62
       7
100
AcDbLine
 10
-111.11628173
 20
148.47733994
 30
0.0
 11
-111.11628173
 21
150.47733994
 31
0.0
  0
LINE
  5
9E
100
AcDbEntity
  8
LAYER0002
  6
CONTINUOUS
 62
       7
100
AcDbLine
 10
-111.11628173
 20
110.47733994
 30
0.0
 11
-113.11628173
 21
110.47733994
 31
0.0
  0
LINE
  5
9F
100
AcDbEntity
  8
LAYER0002
  6
CONTINUOUS
 62
       7
100
AcDbLine
 10
-111.11628173
 20
175.97733994
 30
0.0
 11
-127.41227677
 21
175.97733994
 31
0.0
  0
LINE
  5
A0
100
AcDbEntity
  8
LAYER0002
  6
CONTINUOUS
 62
       7
100
AcDbLine
 10
-221.11628173
 20
175.97733994
 30
0.0
 11
-221.11628173
 21
150.47733994
 31
0.0
  0
LINE
  5
A1
100
AcDbEntity
  8
LAYER0002
  6
CONTINUOUS
 62
       7
100
AcDbLine
 10
-204.82028669
 20
175.97733994
 30
0.0
 11
-221.11628173
 21
175.97733994
 31
0.0
  0
LINE
  5
A2
100
AcDbEntity
  8
LAYER0002
  6
CONTINUOUS
 62
       7
100
AcDbLine
 10
-111.11628173
 20
150.47733994
 30
0.0
 11
-221.11628173
 21
150.47733994
 31
0.0
  0
LINE
  5
A3
100
AcDbEntity
  8
LAYER0002
  6
CONTINUOUS
 62
       7
100
AcDbLine
 10
-124.11628173
 20
136.47803994
 30
0.0
 11
-134.11628173
 21
136.47803994
 31
0.0
  0
LINE
  5
A4
100
AcDbEntity
  8
LAYER0002
  6
CONTINUOUS
 62
       7
100
AcDbLine
 10
-198.11628173
 20
136.47803994
 30
0.0
 11
-208.11628173
 21
136.47803994
 31
0.0
  0
LINE
  5
A5
100
AcDbEntity
  8
LAYER0002
  6
CONTINUOUS
 62
       7
100
AcDbLine
 10
-137.79906752
 20
82.47733994
 30
0.0
 11
-137.49144182
 21
98.47733994
 31
0.0
  0
LINE
  5
A6
100
AcDbEntity
  8
LAYER0002
  6
CONTINUOUS
 62
       7
100
AcDbLine
 10
-153.4090209
 20
98.47733994
 30
0.0
 11
-153.40564614
 21
82.47733994
 31
0.0
  0
LINE
  5
A7
100
AcDbEntity
  8
LAYER0002
  6
CONTINUOUS
 62
       7
100
AcDbLine
 10
-153.4090209
 20
98.47733994
 30
0.0
 11
-178.82354256
 21
98.47733994
 31
0.0
  0
LINE
  5
A8
100
AcDbEntity
  8
LAYER0002
  6
CONTINUOUS
 62
       7
100
AcDbLine
 10
-178.82691732
 20
82.47733994
 30
0.0
 11
-178.82354256
 21
98.47733994
 31
0.0
  0
LINE
  5
A9
100
AcDbEntity
  8
LAYER0002
  6
CONTINUOUS
 62
       7
100
AcDbLine
 10
-194.74112164
 20
98.47733994
 30
0.0
 11
-194.43349594
 21
82.47733994
 31
0.0
  0
LINE
  5
AA
100
AcDbEntity
  8
LAYER0002
  6
CONTINUOUS
 62
       7
100
AcDbLine
 10
-212.71190239
 20
98.47733994
 30
0.0
 11
-194.74112164
 21
98.47733994
 31
0.0
  0
LINE
  5
AB
100
AcDbEntity
  8
LAYER0002
  6
CONTINUOUS
 62
       7
100
AcDbLine
 10
-212.40904932
 20
82.47733994
 30
0.0
 11
-212.71190239
 21
98.47733994
 31
0.0
  0
LINE
  5
AC
100
AcDbEntity
  8
LAYER0002
  6
CONTINUOUS
 62
       7
100
AcDbLine
 10
-219.30517951
 20
98.47733994
 30
0.0
 11
-218.87350583
 21
82.47733994
 31
0.0
  0
LINE
  5
AD
100
AcDbEntity
  8
LAYER0002
  6
CONTINUOUS
 62
       7
100
AcDbLine
 10
-219.30517951
 20
98.47733994
 30
0.0
 11
-220.80205067
 21
98.47733994
 31
0.0
  0
LINE
  5
AE
100
AcDbEntity
  8
LAYER0002
  6
CONTINUOUS
 62
       7
100
AcDbLine
 10
-111.43051279
 20
98.47733994
 30
0.0
 11
-112.92738395
 21
98.47733994
 31
0.0
  0
LINE
  5
AF
100
AcDbEntity
  8
LAYER0002
  6
CONTINUOUS
 62
       7
100
AcDbLine
 10
-113.35905762
 20
82.47733994
 30
0.0
 11
-112.92738395
 21
98.47733994
 31
0.0
  0
LINE
  5
B0
100
AcDbEntity
  8
LAYER0002
  6
CONTINUOUS
 62
       7
100
AcDbLine
 10
-119.52066107
 20
98.47733994
 30
0.0
 11
-119.82351414
 21
82.47733994
 31
0.0
  0
LINE
  5
B1
100
AcDbEntity
  8
LAYER0002
  6
CONTINUOUS
 62
       7
100
AcDbLine
 10
-137.49144182
 20
98.47733994
 30
0.0
 11
-119.52066107
 21
98.47733994
 31
0.0
  0
LINE
  5
B2
100
AcDbEntity
  8
LAYER0002
  6
CONTINUOUS
 62
       7
100
AcDbLine
 10
-175.61628173
 20
98.47733994
 30
0.0
 11
-175.61628173
 21
82.47733994
 31
0.0
  0
LINE
  5
B3
100
AcDbEntity
  8
LAYER0002
  6
CONTINUOUS
 62
       7
100
AcDbLine
 10
-156.61628173
 20
82.47733994
 30
0.0
 11
-156.61628173
 21
98.47733994
 31
0.0
  0
LINE
  5
B4
100
AcDbEntity
  8
LAYER0002
  6
CONTINUOUS
 62
       7
100
AcDbLine
 10
-208.81678512
 20
82.47733994
 30
0.0
 11
-209.11812121
 21
98.47733994
 31
0.0
  0
LINE
  5
B5
100
AcDbEntity
  8
LAYER0002
  6
CONTINUOUS
 62
       7
100
AcDbLine
 10
-115.24178228
 20
62.97733994
 30
0.0
 11
-114.84702004
 21
62.97733994
 31
0.0
  0
LINE
  5
B6
100
AcDbEntity
  8
LAYER0002
  6
CONTINUOUS
 62
       7
100
AcDbLine
 10
-115.24178228
 20
62.97733994
 30
0.0
 11
-115.36053542
 21
58.47733994
 31
0.0
  0
LINE
  5
B7
100
AcDbEntity
  8
LAYER0002
  6
CONTINUOUS
 62
       7
100
AcDbLine
 10
-159.76628173
 20
58.47733994
 30
0.0
 11
-115.36053542
 21
58.47733994
 31
0.0
  0
LINE
  5
B8
100
AcDbEntity
  8
LAYER0002
  6
CONTINUOUS
 62
       7
100
AcDbLine
 10
-159.76628173
 20
58.47733994
 30
0.0
 11
-159.76628173
 21
62.97733994
 31
0.0
  0
LINE
  5
B9
100
AcDbEntity
  8
LAYER0002
  6
CONTINUOUS
 62
       7
100
AcDbLine
 10
-172.46628173
 20
62.97733994
 30
0.0
 11
-159.76628173
 21
62.97733994
 31
0.0
  0
LINE
  5
BA
100
AcDbEntity
  8
LAYER0002
  6
CONTINUOUS
 62
       7
100
AcDbLine
 10
-172.46628173
 20
62.97733994
 30
0.0
 11
-172.46628173
 21
58.47733994
 31
0.0
  0
LINE
  5
BB
100
AcDbEntity
  8
LAYER0002
  6
CONTINUOUS
 62
       7
100
AcDbLine
 10
-216.87202804
 20
58.47733994
 30
0.0
 11
-172.46628173
 21
58.47733994
 31
0.0
  0
LINE
  5
BC
100
AcDbEntity
  8
LAYER0002
  6
CONTINUOUS
 62
       7
100
AcDbLine
 10
-216.87202804
 20
58.47733994
 30
0.0
 11
-216.99078118
 21
62.97733994
 31
0.0
  0
LINE
  5
BD
100
AcDbEntity
  8
LAYER0002
  6
CONTINUOUS
 62
       7
100
AcDbLine
 10
-217.38554342
 20
62.97733994
 30
0.0
 11
-216.99078118
 21
62.97733994
 31
0.0
  0
LINE
  5
BE
100
AcDbEntity
  8
LAYER0002
  6
CONTINUOUS
 62
       7
100
AcDbLine
 10
-195.45303792
 20
82.47733994
 30
0.0
 11
-195.7577052
 21
98.47733994
 31
0.0
  0
LINE
  5
BF
100
AcDbEntity
  8
LAYER0002
  6
CONTINUOUS
 62
       7
100
AcDbLine
 10
-136.47485826
 20
98.47733994
 30
0.0
 11
-136.77952554
 21
82.47733994
 31
0.0
  0
LINE
  5
C0
100
AcDbEntity
  8
LAYER0002
  6
CONTINUOUS
 62
       7
100
AcDbLine
 10
-209.1927342
 20
98.47733994
 30
0.0
 11
-208.88806692
 21
82.47733994
 31
0.0
  0
LINE
  5
C1
100
AcDbEntity
  8
LAYER0002
  6
CONTINUOUS
 62
       7
100
AcDbLine
 10
-123.34449654
 20
82.47733994
 30
0.0
 11
-123.03982926
 21
98.47733994
 31
0.0
  0
LINE
  5
C2
100
AcDbEntity
  8
LAYER0002
  6
CONTINUOUS
 62
       7
100
AcDbLine
 10
138.08216607
 20
-36.4230581
 30
0.0
 11
125.13117579
 21
-36.4230581
 31
0.0
  0
LINE
  5
C3
100
AcDbEntity
  8
LAYER0002
  6
CONTINUOUS
 62
       7
100
AcDbLine
 10
111.63117579
 20
-36.4230581
 30
0.0
 11
108.08216607
 21
-36.4230581
 31
0.0
  0
LINE
  5
C4
100
AcDbEntity
  8
LAYER0002
  6
CONTINUOUS
 62
       7
100
AcDbLine
 10
108.08216607
 20
-46.4230581
 30
0.0
 11
111.63117579
 21
-46.4230581
 31
0.0
  0
LINE
  5
C5
100
AcDbEntity
  8
LAYER0002
  6
CONTINUOUS
 62
       7
100
AcDbLine
 10
125.13117579
 20
-46.4230581
 30
0.0
 11
138.08216607
 21
-46.4230581
 31
0.0
  0
LINE
  5
C6
100
AcDbEntity
  8
LAYER0002
  6
CONTINUOUS
 62
       7
100
AcDbLine
 10
198.59446607
 20
-36.9100581
 30
0.0
 11
161.59446607
 21
-36.9100581
 31
0.0
  0
LINE
  5
C7
100
AcDbEntity
  8
LAYER0002
  6
CONTINUOUS
 62
       7
100
AcDbLine
 10
161.59446607
 20
-45.9360581
 30
0.0
 11
198.59446607
 21
-45.9360581
 31
0.0
  0
LINE
  5
C8
100
AcDbEntity
  8
LAYER0002
  6
CONTINUOUS
 62
       7
100
AcDbLine
 10
161.59446607
 20
-36.9100581
 30
0.0
 11
138.08216607
 21
-36.9100581
 31
0.0
  0
LINE
  5
C9
100
AcDbEntity
  8
LAYER0002
  6
CONTINUOUS
 62
       7
100
AcDbLine
 10
138.08216607
 20
-45.9360581
 30
0.0
 11
161.59446607
 21
-45.9360581
 31
0.0
  0
LINE
  5
CA
100
AcDbEntity
  8
LAYER0002
  6
CONTINUOUS
 62
       7
100
AcDbLine
 10
138.16392455
 20
-184.4230581
 30
0.0
 11
125.13117579
 21
-184.4230581
 31
0.0
  0
LINE
  5
CB
100
AcDbEntity
  8
LAYER0002
  6
CONTINUOUS
 62
       7
100
AcDbLine
 10
111.63117579
 20
-184.4230581
 30
0.0
 11
108.16392455
 21
-184.4230581
 31
0.0
  0
LINE
  5
CC
100
AcDbEntity
  8
LAYER0002
  6
CONTINUOUS
 62
       7
100
AcDbLine
 10
108.16392455
 20
-194.4230581
 30
0.0
 11
111.63117579
 21
-194.4230581
 31
0.0
  0
LINE
  5
CD
100
AcDbEntity
  8
LAYER0002
  6
CONTINUOUS
 62
       7
100
AcDbLine
 10
125.13117579
 20
-194.4230581
 30
0.0
 11
138.16392455
 21
-194.4230581
 31
0.0
  0
LINE
  5
CE
100
AcDbEntity
  8
LAYER0002
  6
CONTINUOUS
 62
       7
100
AcDbLine
 10
161.67622455
 20
-193.9360581
 30
0.0
 11
198.67622455
 21
-193.9360581
 31
0.0
  0
LINE
  5
CF
100
AcDbEntity
  8
LAYER0002
  6
CONTINUOUS
 62
       7
100
AcDbLine
 10
198.67622455
 20
-184.9100581
 30
0.0
 11
161.67622455
 21
-184.9100581
 31
0.0
  0
LINE
  5
D0
100
AcDbEntity
  8
LAYER0002
  6
CONTINUOUS
 62
       7
100
AcDbLine
 10
161.67622455
 20
-184.9100581
 30
0.0
 11
138.16392455
 21
-184.9100581
 31
0.0
  0
LINE
  5
D1
100
AcDbEntity
  8
LAYER0002
  6
CONTINUOUS
 62
       7
100
AcDbLine
 10
138.16392455
 20
-193.9360581
 30
0.0
 11
161.67622455
 21
-193.9360581
 31
0.0
  0
LINE
  5
D2
100
AcDbEntity
  8
LAYER0002
  6
CONTINUOUS
 62
       7
100
AcDbLine
 10
147.63117579
 20
-28.4230581
 30
0.0
 11
147.63117579
 21
-31.4230581
 31
0.0
  0
LINE
  5
D3
100
AcDbEntity
  8
LAYER0002
  6
CONTINUOUS
 62
       7
100
AcDbLine
 10
147.63117579
 20
-199.4230581
 30
0.0
 11
147.63117579
 21
-202.4230581
 31
0.0
  0
LINE
  5
D4
100
AcDbEntity
  8
LAYER0002
  6
CONTINUOUS
 62
       7
100
AcDbLine
 10
128.13117579
 20
-202.4230581
 30
0.0
 11
147.63117579
 21
-202.4230581
 31
0.0
  0
LINE
  5
D5
100
AcDbEntity
  8
LAYER0002
  6
CONTINUOUS
 62
       7
100
AcDbLine
 10
122.13117579
 20
-34.4230581
 30
0.0
 11
122.13117579
 21
-196.4230581
 31
0.0
  0
LINE
  5
D6
100
AcDbEntity
  8
LAYER0002
  6
CONTINUOUS
 62
       7
100
AcDbLine
 10
128.13117579
 20
-28.4230581
 30
0.0
 11
147.63117579
 21
-28.4230581
 31
0.0
  0
LINE
  5
D7
100
AcDbEntity
  8
LAYER0002
  6
CONTINUOUS
 62
       7
100
AcDbLine
 10
138.08216607
 20
-46.4230581
 30
0.0
 11
138.08216607
 21
-36.4230581
 31
0.0
  0
LINE
  5
D8
100
AcDbEntity
  8
LAYER0002
  6
CONTINUOUS
 62
       7
100
AcDbLine
 10
108.08216607
 20
-46.4230581
 30
0.0
 11
108.08216607
 21
-36.4230581
 31
0.0
  0
LINE
  5
D9
100
AcDbEntity
  8
LAYER0002
  6
CONTINUOUS
 62
       7
100
AcDbLine
 10
138.16392455
 20
-189.4230581
 30
0.0
 11
138.16392455
 21
-184.4230581
 31
0.0
  0
LINE
  5
DA
100
AcDbEntity
  8
LAYER0002
  6
CONTINUOUS
 62
       7
100
AcDbLine
 10
138.16392455
 20
-194.4230581
 30
0.0
 11
138.16392455
 21
-189.4230581
 31
0.0
  0
LINE
  5
DB
100
AcDbEntity
  8
LAYER0002
  6
CONTINUOUS
 62
       7
100
AcDbLine
 10
108.16392455
 20
-189.4230581
 30
0.0
 11
108.16392455
 21
-184.4230581
 31
0.0
  0
LINE
  5
DC
100
AcDbEntity
  8
LAYER0002
  6
CONTINUOUS
 62
       7
100
AcDbLine
 10
108.16392455
 20
-194.4230581
 30
0.0
 11
108.16392455
 21
-189.4230581
 31
0.0
  0
LINE
  5
DD
100
AcDbEntity
  8
LAYER0002
  6
CONTINUOUS
 62
       7
100
AcDbLine
 10
-128.61628173
 20
110.47733994
 30
0.0
 11
-128.61628173
 21
136.47803994
 31
0.0
  0
LINE
  5
DE
100
AcDbEntity
  8
LAYER0002
  6
CONTINUOUS
 62
       7
100
AcDbLine
 10
-203.61628173
 20
110.47733994
 30
0.0
 11
-203.61628173
 21
136.47803994
 31
0.0
  0
LINE
  5
DF
100
AcDbEntity
  8
LAYER0002
  6
CONTINUOUS
 62
       7
100
AcDbLine
 10
-203.61628173
 20
-56.4230581
 30
0.0
 11
-203.61628173
 21
-71.18936575
 31
0.0
  0
LINE
  5
E0
100
AcDbEntity
  8
LAYER0002
  6
CONTINUOUS
 62
       7
100
AcDbLine
 10
-128.61628173
 20
-56.4230581
 30
0.0
 11
-128.61628173
 21
-71.18936575
 31
0.0
  0
LINE
  5
E1
100
AcDbEntity
  8
LAYER0002
  6
CONTINUOUS
 62
       7
100
AcDbLine
 10
160.88371827
 20
207.23961591
 30
0.0
 11
160.88371827
 21
171.23961591
 31
0.0
  0
LINE
  5
E2
100
AcDbEntity
  8
LAYER0002
  6
CONTINUOUS
 62
       7
100
AcDbLine
 10
46.88371827
 20
207.23961591
 30
0.0
 11
46.88371827
 21
171.23961591
 31
0.0
  0
LINE
  5
E3
100
AcDbEntity
  8
LAYER0002
  6
CONTINUOUS
 62
       7
100
AcDbLine
 10
66.38371827
 20
208.23961591
 30
0.0
 11
141.38371827
 21
208.23961591
 31
0.0
  0
LINE
  5
E4
100
AcDbEntity
  8
LAYER0002
  6
CONTINUOUS
 62
       7
100
AcDbLine
 10
53.88371827
 20
90.23961591
 30
0.0
 11
153.88371827
 21
90.23961591
 31
0.0
  0
LINE
  5
E5
100
AcDbEntity
  8
LAYER0002
  6
CONTINUOUS
 62
       7
100
AcDbLine
 10
158.88371827
 20
95.23961591
 30
0.0
 11
158.88371827
 21
153.23961591
 31
0.0
  0
LINE
  5
E6
100
AcDbEntity
  8
LAYER0002
  6
CONTINUOUS
 62
       7
100
AcDbLine
 10
48.88371827
 20
95.23961591
 30
0.0
 11
48.88371827
 21
153.23961591
 31
0.0
  0
LINE
  5
E7
100
AcDbEntity
  8
LAYER0002
  6
CONTINUOUS
 62
       7
100
AcDbLine
 10
66.38371827
 20
207.23961591
 30
0.0
 11
46.88371827
 21
207.23961591
 31
0.0
  0
LINE
  5
E8
100
AcDbEntity
  8
LAYER0002
  6
CONTINUOUS
 62
       7
100
AcDbLine
 10
141.38371827
 20
207.23961591
 30
0.0
 11
160.88371827
 21
207.23961591
 31
0.0
  0
LINE
  5
E9
100
AcDbEntity
  8
LAYER0002
  6
CONTINUOUS
 62
       7
100
AcDbLine
 10
160.88371827
 20
171.23961591
 30
0.0
 11
155.68963736
 21
171.23961591
 31
0.0
  0
LINE
  5
EA
100
AcDbEntity
  8
LAYER0002
  6
CONTINUOUS
 62
       7
100
AcDbLine
 10
51.91257243
 20
171.23961591
 30
0.0
 11
46.88371827
 21
171.23961591
 31
0.0
  0
LINE
  5
EB
100
AcDbEntity
  8
LAYER0002
  6
CONTINUOUS
 62
       7
100
AcDbLine
 10
141.38371827
 20
208.23961591
 30
0.0
 11
141.38371715
 21
193.47330931
 31
0.0
  0
LINE
  5
EC
100
AcDbEntity
  8
LAYER0002
  6
CONTINUOUS
 62
       7
100
AcDbLine
 10
66.38371827
 20
208.23961591
 30
0.0
 11
66.38371508
 21
193.47330529
 31
0.0
  0
LINE
  5
ED
100
AcDbEntity
  8
LAYER0002
  6
CONTINUOUS
 62
       7
100
AcDbLine
 10
-221.11628173
 20
-28.4230581
 30
0.0
 11
-221.11628173
 21
-57.4230581
 31
0.0
  0
LINE
  5
EE
100
AcDbEntity
  8
LAYER0002
  6
CONTINUOUS
 62
       7
100
AcDbLine
 10
-111.11628173
 20
-28.4230581
 30
0.0
 11
-111.11628173
 21
-57.4230581
 31
0.0
  0
LINE
  5
EF
100
AcDbEntity
  8
LAYER0002
  6
CONTINUOUS
 62
       7
100
AcDbLine
 10
-202.61628173
 20
111.47733994
 30
0.0
 11
-202.61628173
 21
136.47803994
 31
0.0
  0
LINE
  5
F0
100
AcDbEntity
  8
LAYER0002
  6
CONTINUOUS
 62
       7
100
AcDbLine
 10
-193.91628173
 20
149.47733994
 30
0.0
 11
-138.31628173
 21
149.47733994
 31
0.0
  0
LINE
  5
F1
100
AcDbEntity
  8
LAYER0002
  6
CONTINUOUS
 62
       7
100
AcDbLine
 10
-129.61628173
 20
111.47733994
 30
0.0
 11
-129.61628173
 21
136.47803994
 31
0.0
  0
LINE
  5
F2
100
AcDbEntity
  8
LAYER0002
  6
CONTINUOUS
 62
       7
100
AcDbLine
 10
-129.61628173
 20
111.47733994
 30
0.0
 11
-202.61628173
 21
111.47733994
 31
0.0
  0
LINE
  5
F3
100
AcDbEntity
  8
LAYER0002
  6
CONTINUOUS
 62
       7
100
AcDbLine
 10
-202.61628173
 20
-55.9230581
 30
0.0
 11
-129.61628173
 21
-55.9230581
 31
0.0
  0
LINE
  5
F4
100
AcDbEntity
  8
LAYER0002
  6
CONTINUOUS
 62
       7
100
AcDbLine
 10
-202.61628173
 20
-55.9230581
 30
0.0
 11
-202.61628173
 21
-56.4230581
 31
0.0
  0
LINE
  5
F5
100
AcDbEntity
  8
LAYER0002
  6
CONTINUOUS
 62
       7
100
AcDbLine
 10
-129.61628173
 20
-55.9230581
 30
0.0
 11
-129.61628173
 21
-56.4230581
 31
0.0
  0
LINE
  5
F6
100
AcDbEntity
  8
LAYER0002
  6
CONTINUOUS
 62
       7
100
AcDbLine
 10
-111.11628173
 20
175.97733994
 30
0.0
 11
-111.11628173
 21
150.47733994
 31
0.0
  0
LINE
  5
F7
100
AcDbEntity
  8
LAYER0002
  6
CONTINUOUS
 62
       7
100
AcDbLine
 10
147.63117579
 20
-31.4230581
 30
0.0
 11
128.13117579
 21
-31.4230581
 31
0.0
  0
LINE
  5
F8
100
AcDbEntity
  8
LAYER0002
  6
CONTINUOUS
 62
       7
100
AcDbLine
 10
125.13117579
 20
-34.4230581
 30
0.0
 11
125.13117579
 21
-196.4230581
 31
0.0
  0
LINE
  5
F9
100
AcDbEntity
  8
LAYER0002
  6
CONTINUOUS
 62
       7
100
AcDbLine
 10
128.13117579
 20
-199.4230581
 30
0.0
 11
147.63117579
 21
-199.4230581
 31
0.0
  0
LINE
  5
FA
100
AcDbEntity
  8
LAYER0002
  6
CONTINUOUS
 62
       7
100
AcDbLine
 10
140.25407852
 20
-54.4230581
 30
0.0
 11
126.13117579
 21
-54.4230581
 31
0.0
  0
LINE
  5
FB
100
AcDbEntity
  8
LAYER0002
  6
CONTINUOUS
 62
       7
100
AcDbLine
 10
140.25407852
 20
-57.4230581
 30
0.0
 11
126.13117579
 21
-57.4230581
 31
0.0
  0
LINE
  5
FC
100
AcDbEntity
  8
LAYER0002
  6
CONTINUOUS
 62
       7
100
AcDbLine
 10
133.63117579
 20
-57.4230581
 30
0.0
 11
133.63117579
 21
-54.4230581
 31
0.0
  0
LINE
  5
FD
100
AcDbEntity
  8
LAYER0002
  6
CONTINUOUS
 62
       7
100
AcDbLine
 10
140.25407852
 20
-57.4230581
 30
0.0
 11
140.25407852
 21
-54.4230581
 31
0.0
  0
LINE
  5
FE
100
AcDbEntity
  8
LAYER0002
  6
CONTINUOUS
 62
       7
100
AcDbLine
 10
140.25407852
 20
-173.4230581
 30
0.0
 11
126.13117579
 21
-173.4230581
 31
0.0
  0
LINE
  5
FF
100
AcDbEntity
  8
LAYER0002
  6
CONTINUOUS
 62
       7
100
AcDbLine
 10
140.25407852
 20
-176.4230581
 30
0.0
 11
126.13117579
 21
-176.4230581
 31
0.0
  0
LINE
  5
100
100
AcDbEntity
  8
LAYER0002
  6
CONTINUOUS
 62
       7
100
AcDbLine
 10
133.63117579
 20
-176.4230581
 30
0.0
 11
133.63117579
 21
-173.4230581
 31
0.0
  0
LINE
  5
101
100
AcDbEntity
  8
LAYER0002
  6
CONTINUOUS
 62
       7
100
AcDbLine
 10
140.25407852
 20
-176.4230581
 30
0.0
 11
140.25407852
 21
-173.4230581
 31
0.0
  0
LINE
  5
102
100
AcDbEntity
  8
LAYER0002
  6
CONTINUOUS
 62
       7
100
AcDbLine
 10
-221.11628173
 20
-169.4230581
 30
0.0
 11
-221.11628173
 21
-202.4230581
 31
0.0
  0
LINE
  5
103
100
AcDbEntity
  8
LAYER0002
  6
CONTINUOUS
 62
       7
100
AcDbLine
 10
-221.11628173
 20
-93.4230581
 30
0.0
 11
-221.11628173
 21
-126.38968765
 31
0.0
  0
LINE
  5
104
100
AcDbEntity
  8
LAYER0002
  6
CONTINUOUS
 62
       7
100
AcDbLine
 10
-111.11628173
 20
-202.4230581
 30
0.0
 11
-111.11628173
 21
-169.4230581
 31
0.0
  0
LINE
  5
105
100
AcDbEntity
  8
LAYER0002
  6
CONTINUOUS
 62
       7
100
AcDbLine
 10
-111.11628173
 20
-93.4230581
 30
0.0
 11
-111.11628173
 21
-169.4230581
 31
0.0
  0
LINE
  5
106
100
AcDbEntity
  8
LAYER0002
  6
CONTINUOUS
 62
       7
100
AcDbLine
 10
82.13117579
 20
-174.4230581
 30
0.0
 11
122.13117579
 21
-174.4230581
 31
0.0
  0
LINE
  5
107
100
AcDbEntity
  8
LAYER0002
  6
CONTINUOUS
 62
       7
100
AcDbLine
 10
82.13117579
 20
-157.4605581
 30
0.0
 11
82.13117579
 21
-174.4230581
 31
0.0
  0
LINE
  5
108
100
AcDbEntity
  8
LAYER0002
  6
CONTINUOUS
 62
       7
100
AcDbLine
 10
112.13117579
 20
-174.4230581
 30
0.0
 11
112.13117579
 21
-111.4230581
 31
0.0
  0
LINE
  5
109
100
AcDbEntity
  8
LAYER0002
  6
CONTINUOUS
 62
       7
100
AcDbLine
 10
82.13117579
 20
-56.4230581
 30
0.0
 11
70.13117579
 21
-56.73728916
 31
0.0
  0
LINE
  5
10A
100
AcDbEntity
  8
LAYER0002
  6
CONTINUOUS
 62
       7
100
AcDbLine
 10
70.13117579
 20
-166.10882704
 30
0.0
 11
82.13117579
 21
-166.4230581
 31
0.0
  0
LINE
  5
10B
100
AcDbEntity
  8
LAYER0002
  6
CONTINUOUS
 62
       7
100
AcDbLine
 10
54.13117579
 20
-59.64317094
 30
0.0
 11
34.63117579
 21
-60.15379641
 31
0.0
  0
LINE
  5
10C
100
AcDbEntity
  8
LAYER0002
  6
CONTINUOUS
 62
       7
100
AcDbLine
 10
34.63117579
 20
-162.69231979
 30
0.0
 11
54.13117579
 21
-163.20294526
 31
0.0
  0
LINE
  5
10D
100
AcDbEntity
  8
LAYER0002
  6
CONTINUOUS
 62
       7
100
AcDbLine
 10
82.13117579
 20
-58.4230581
 30
0.0
 11
82.13117579
 21
-157.4605581
 31
0.0
  0
LINE
  5
10E
100
AcDbEntity
  8
LAYER0002
  6
CONTINUOUS
 62
       7
100
AcDbLine
 10
82.13117579
 20
-58.4230581
 30
0.0
 11
82.13117579
 21
-56.4230581
 31
0.0
  0
LINE
  5
10F
100
AcDbEntity
  8
LAYER0002
  6
CONTINUOUS
 62
       7
100
AcDbLine
 10
54.13117579
 20
-139.74027231
 30
0.0
 11
70.13117579
 21
-140.04789801
 31
0.0
  0
LINE
  5
110
100
AcDbEntity
  8
LAYER0002
  6
CONTINUOUS
 62
       7
100
AcDbLine
 10
70.13117579
 20
-124.13031893
 30
0.0
 11
54.13117579
 21
-124.13369369
 31
0.0
  0
LINE
  5
111
100
AcDbEntity
  8
LAYER0002
  6
CONTINUOUS
 62
       7
100
AcDbLine
 10
70.13117579
 20
-124.13031893
 30
0.0
 11
70.13117579
 21
-98.71579727
 31
0.0
  0
LINE
  5
112
100
AcDbEntity
  8
LAYER0002
  6
CONTINUOUS
 62
       7
100
AcDbLine
 10
54.13117579
 20
-98.71242251
 30
0.0
 11
70.13117579
 21
-98.71579727
 31
0.0
  0
LINE
  5
113
100
AcDbEntity
  8
LAYER0002
  6
CONTINUOUS
 62
       7
100
AcDbLine
 10
70.13117579
 20
-82.79821819
 30
0.0
 11
54.13117579
 21
-83.10584389
 31
0.0
  0
LINE
  5
114
100
AcDbEntity
  8
LAYER0002
  6
CONTINUOUS
 62
       7
100
AcDbLine
 10
70.13117579
 20
-64.82743744
 30
0.0
 11
70.13117579
 21
-82.79821819
 31
0.0
  0
LINE
  5
115
100
AcDbEntity
  8
LAYER0002
  6
CONTINUOUS
 62
       7
100
AcDbLine
 10
54.13117579
 20
-65.13029051
 30
0.0
 11
70.13117579
 21
-64.82743744
 31
0.0
  0
LINE
  5
116
100
AcDbEntity
  8
LAYER0002
  6
CONTINUOUS
 62
       7
100
AcDbLine
 10
70.13117579
 20
-58.23416032
 30
0.0
 11
54.13117579
 21
-58.665834
 31
0.0
  0
LINE
  5
117
100
AcDbEntity
  8
LAYER0002
  6
CONTINUOUS
 62
       7
100
AcDbLine
 10
70.13117579
 20
-58.23416032
 30
0.0
 11
70.13117579
 21
-56.73728916
 31
0.0
  0
LINE
  5
118
100
AcDbEntity
  8
LAYER0002
  6
CONTINUOUS
 62
       7
100
AcDbLine
 10
70.13117579
 20
-166.10882704
 30
0.0
 11
70.13117579
 21
-164.61195588
 31
0.0
  0
LINE
  5
119
100
AcDbEntity
  8
LAYER0002
  6
CONTINUOUS
 62
       7
100
AcDbLine
 10
54.13117579
 20
-164.18028221
 30
0.0
 11
70.13117579
 21
-164.61195588
 31
0.0
  0
LINE
  5
11A
100
AcDbEntity
  8
LAYER0002
  6
CONTINUOUS
 62
       7
100
AcDbLine
 10
70.13117579
 20
-158.01867876
 30
0.0
 11
54.13117579
 21
-157.71582569
 31
0.0
  0
LINE
  5
11B
100
AcDbEntity
  8
LAYER0002
  6
CONTINUOUS
 62
       7
100
AcDbLine
 10
70.13117579
 20
-140.04789801
 30
0.0
 11
70.13117579
 21
-158.01867876
 31
0.0
  0
LINE
  5
11C
100
AcDbEntity
  8
LAYER0002
  6
CONTINUOUS
 62
       7
100
AcDbLine
 10
70.13117579
 20
-101.9230581
 30
0.0
 11
54.13117579
 21
-101.9230581
 31
0.0
  0
LINE
  5
11D
100
AcDbEntity
  8
LAYER0002
  6
CONTINUOUS
 62
       7
100
AcDbLine
 10
54.13117579
 20
-120.9230581
 30
0.0
 11
70.13117579
 21
-120.9230581
 31
0.0
  0
LINE
  5
11E
100
AcDbEntity
  8
LAYER0002
  6
CONTINUOUS
 62
       7
100
AcDbLine
 10
54.13117579
 20
-68.72255471
 30
0.0
 11
70.13117579
 21
-68.42121862
 31
0.0
  0
LINE
  5
11F
100
AcDbEntity
  8
LAYER0002
  6
CONTINUOUS
 62
       7
100
AcDbLine
 10
34.63117579
 20
-162.29755755
 30
0.0
 11
34.63117579
 21
-162.69231979
 31
0.0
  0
LINE
  5
120
100
AcDbEntity
  8
LAYER0002
  6
CONTINUOUS
 62
       7
100
AcDbLine
 10
34.63117579
 20
-162.29755755
 30
0.0
 11
30.13117579
 21
-162.17880441
 31
0.0
  0
LINE
  5
121
100
AcDbEntity
  8
LAYER0002
  6
CONTINUOUS
 62
       7
100
AcDbLine
 10
30.13117579
 20
-117.7730581
 30
0.0
 11
30.13117579
 21
-162.17880441
 31
0.0
  0
LINE
  5
122
100
AcDbEntity
  8
LAYER0002
  6
CONTINUOUS
 62
       7
100
AcDbLine
 10
30.13117579
 20
-117.7730581
 30
0.0
 11
34.63117579
 21
-117.7730581
 31
0.0
  0
LINE
  5
123
100
AcDbEntity
  8
LAYER0002
  6
CONTINUOUS
 62
       7
100
AcDbLine
 10
34.63117579
 20
-105.0730581
 30
0.0
 11
34.63117579
 21
-117.7730581
 31
0.0
  0
LINE
  5
124
100
AcDbEntity
  8
LAYER0002
  6
CONTINUOUS
 62
       7
100
AcDbLine
 10
34.63117579
 20
-105.0730581
 30
0.0
 11
30.13117579
 21
-105.0730581
 31
0.0
  0
LINE
  5
125
100
AcDbEntity
  8
LAYER0002
  6
CONTINUOUS
 62
       7
100
AcDbLine
 10
30.13117579
 20
-60.66731179
 30
0.0
 11
30.13117579
 21
-105.0730581
 31
0.0
  0
LINE
  5
126
100
AcDbEntity
  8
LAYER0002
  6
CONTINUOUS
 62
       7
100
AcDbLine
 10
30.13117579
 20
-60.66731179
 30
0.0
 11
34.63117579
 21
-60.54855865
 31
0.0
  0
LINE
  5
127
100
AcDbEntity
  8
LAYER0002
  6
CONTINUOUS
 62
       7
100
AcDbLine
 10
34.63117579
 20
-60.15379641
 30
0.0
 11
34.63117579
 21
-60.54855865
 31
0.0
  0
LINE
  5
128
100
AcDbEntity
  8
LAYER0002
  6
CONTINUOUS
 62
       7
100
AcDbLine
 10
54.13117579
 20
-82.08630191
 30
0.0
 11
70.13117579
 21
-81.78163463
 31
0.0
  0
LINE
  5
129
100
AcDbEntity
  8
LAYER0002
  6
CONTINUOUS
 62
       7
100
AcDbLine
 10
70.13117579
 20
-141.06448157
 30
0.0
 11
54.13117579
 21
-140.75981429
 31
0.0
  0
LINE
  5
12A
100
AcDbEntity
  8
LAYER0002
  6
CONTINUOUS
 62
       7
100
AcDbLine
 10
70.13117579
 20
-68.34660563
 30
0.0
 11
54.13117579
 21
-68.65127291
 31
0.0
  0
LINE
  5
12B
100
AcDbEntity
  8
LAYER0002
  6
CONTINUOUS
 62
       7
100
AcDbLine
 10
54.13117579
 20
-154.19484329
 30
0.0
 11
70.13117579
 21
-154.49951057
 31
0.0
  0
LINE
  5
12C
100
AcDbEntity
  8
LAYER0002
  6
CONTINUOUS
 62
       7
100
AcDbLine
 10
82.13117579
 20
-158.59296435
 30
0.0
 11
112.13117579
 21
-158.59296435
 31
0.0
  0
LINE
  5
12D
100
AcDbEntity
  8
LAYER0002
  6
CONTINUOUS
 62
       7
100
AcDbLine
 10
82.13117579
 20
-156.93787983
 30
0.0
 11
112.13117579
 21
-156.93787983
 31
0.0
  0
LINE
  5
12E
100
AcDbEntity
  8
LAYER0002
  6
CONTINUOUS
 62
       7
100
AcDbLine
 10
82.13117579
 20
-56.4230581
 30
0.0
 11
122.13117579
 21
-56.4230581
 31
0.0
  0
LINE
  5
12F
100
AcDbEntity
  8
LAYER0002
  6
CONTINUOUS
 62
       7
100
AcDbLine
 10
-208.81678512
 20
82.47733994
 30
0.0
 11
-218.87351905
 21
82.47733994
 31
0.0
  0
LINE
  5
130
100
AcDbEntity
  8
LAYER0002
  6
CONTINUOUS
 62
       7
100
AcDbLine
 10
-175.61628173
 20
82.47733994
 30
0.0
 11
-195.45303792
 21
82.47733994
 31
0.0
  0
LINE
  5
131
100
AcDbEntity
  8
LAYER0002
  6
CONTINUOUS
 62
       7
100
AcDbLine
 10
-113.35905762
 20
82.47733994
 30
0.0
 11
-123.41577834
 21
82.47733994
 31
0.0
  0
LINE
  5
132
100
AcDbEntity
  8
LAYER0002
  6
CONTINUOUS
 62
       7
100
AcDbLine
 10
-136.77952554
 20
82.47733994
 30
0.0
 11
-156.61628173
 21
82.47733994
 31
0.0
  0
LINE
  5
133
100
AcDbEntity
  8
LAYER0002
  6
CONTINUOUS
 62
       7
100
AcDbLine
 10
54.13117579
 20
-68.72255471
 30
0.0
 11
54.13117579
 21
-58.66582079
 31
0.0
  0
LINE
  5
134
100
AcDbEntity
  8
LAYER0002
  6
CONTINUOUS
 62
       7
100
AcDbLine
 10
54.13117579
 20
-164.18028221
 30
0.0
 11
54.13117579
 21
-120.9230581
 31
0.0
  0
LINE
  5
135
100
AcDbEntity
  8
LAYER0002
  6
CONTINUOUS
 62
       7
100
AcDbLine
 10
54.13117579
 20
-101.9230581
 30
0.0
 11
54.13117579
 21
-82.08630191
 31
0.0
  0
LINE
  5
136
100
AcDbEntity
  8
LAYER0002
  6
CONTINUOUS
 62
       7
100
AcDbLine
 10
-209.1927342
 20
-81.78163463
 30
0.0
 11
-208.81678513
 21
-82.15758371
 31
0.0
  0
LINE
  5
137
100
AcDbEntity
  8
LAYER0002
  6
CONTINUOUS
 62
       7
100
AcDbLine
 10
-195.38175612
 20
-68.7225547
 30
0.0
 11
-195.7577052
 21
-68.34660563
 31
0.0
  0
LINE
  5
138
100
AcDbEntity
  8
LAYER0002
  6
CONTINUOUS
 62
       7
100
AcDbLine
 10
-217.00391266
 20
-101.9230581
 30
0.0
 11
-217.53558494
 21
-101.9230581
 31
0.0
  0
LINE
  5
139
100
AcDbEntity
  8
LAYER0002
  6
CONTINUOUS
 62
       7
100
AcDbLine
 10
-217.53558494
 20
-120.9230581
 30
0.0
 11
-217.00391266
 21
-120.9230581
 31
0.0
  0
LINE
  5
13A
100
AcDbEntity
  8
LAYER0002
  6
CONTINUOUS
 62
       7
100
AcDbLine
 10
-208.81678513
 20
-140.68853249
 30
0.0
 11
-209.1927342
 21
-141.06448157
 31
0.0
  0
LINE
  5
13B
100
AcDbEntity
  8
LAYER0002
  6
CONTINUOUS
 62
       7
100
AcDbLine
 10
-195.7577052
 20
-154.49951057
 30
0.0
 11
-195.38175612
 21
-154.12356149
 31
0.0
  0
LINE
  5
13C
100
AcDbEntity
  8
LAYER0002
  6
CONTINUOUS
 62
       7
100
AcDbLine
 10
-136.85080734
 20
-68.7225547
 30
0.0
 11
-136.47485826
 21
-68.34660563
 31
0.0
  0
LINE
  5
13D
100
AcDbEntity
  8
LAYER0002
  6
CONTINUOUS
 62
       7
100
AcDbLine
 10
-123.41577834
 20
-82.15758371
 30
0.0
 11
-123.03982926
 21
-81.78163463
 31
0.0
  0
LINE
  5
13E
100
AcDbEntity
  8
LAYER0002
  6
CONTINUOUS
 62
       7
100
AcDbLine
 10
-115.2286508
 20
-101.9230581
 30
0.0
 11
-114.69697852
 21
-101.9230581
 31
0.0
  0
LINE
  5
13F
100
AcDbEntity
  8
LAYER0002
  6
CONTINUOUS
 62
       7
100
AcDbLine
 10
-115.2286508
 20
-120.9230581
 30
0.0
 11
-114.69697852
 21
-120.9230581
 31
0.0
  0
LINE
  5
140
100
AcDbEntity
  8
LAYER0002
  6
CONTINUOUS
 62
       7
100
AcDbLine
 10
-123.41577833
 20
-140.68853249
 30
0.0
 11
-123.03982926
 21
-141.06448157
 31
0.0
  0
LINE
  5
141
100
AcDbEntity
  8
LAYER0002
  6
CONTINUOUS
 62
       7
100
AcDbLine
 10
-136.85080734
 20
-154.1235615
 30
0.0
 11
-136.47485826
 21
-154.49951057
 31
0.0
  0
LINE
  5
142
100
AcDbEntity
  8
LAYER0002
  6
CONTINUOUS
 62
       7
100
AcDbLine
 10
-156.61628173
 20
-162.31068903
 30
0.0
 11
-156.61628173
 21
-162.84236131
 31
0.0
  0
LINE
  5
143
100
AcDbEntity
  8
LAYER0002
  6
CONTINUOUS
 62
       7
100
AcDbLine
 10
-175.61628173
 20
-162.31068903
 30
0.0
 11
-175.61628173
 21
-162.84236131
 31
0.0
  0
ARC
  5
144
100
AcDbEntity
  8
LAYER0002
  6
CONTINUOUS
 62
       7
100
AcDbCircle
 10
-134.11628246
 20
-158.59296426
 30
0.0
 40
2.0
100
AcDbArc
 50
124.15291451
 51
180.0
  0
ARC
  5
145
100
AcDbEntity
  8
LAYER0002
  6
CONTINUOUS
 62
       7
100
AcDbCircle
 10
-198.11628331
 20
-158.59296269
 30
0.0
 40
2.0
100
AcDbArc
 50
0.00000573
 51
55.84708268
  0
ARC
  5
146
100
AcDbEntity
  8
LAYER0002
  6
CONTINUOUS
 62
       7
100
AcDbCircle
 10
-216.11628173
 20
-169.4230581
 30
0.0
 40
5.0
100
AcDbArc
 50
180.0
 51
270.0
  0
ARC
  5
147
100
AcDbEntity
  8
LAYER0002
  6
CONTINUOUS
 62
       7
100
AcDbCircle
 10
-116.11628173
 20
-169.4230581
 30
0.0
 40
5.0
100
AcDbArc
 50
270.0
 51
360.0
  0
ARC
  5
148
100
AcDbEntity
  8
LAYER0002
  6
CONTINUOUS
 62
       7
100
AcDbCircle
 10
-166.11628173
 20
-111.4230581
 30
0.0
 40
44.0
100
AcDbArc
 50
188.29779861
 51
261.70220139
  0
ARC
  5
149
100
AcDbEntity
  8
LAYER0002
  6
CONTINUOUS
 62
       7
100
AcDbCircle
 10
-166.11628173
 20
-111.4230581
 30
0.0
 40
51.15142504
100
AcDbArc
 50
187.13116469
 51
262.86883531
  0
ARC
  5
14A
100
AcDbEntity
  8
LAYER0002
  6
CONTINUOUS
 62
       7
100
AcDbCircle
 10
-166.11628173
 20
-111.4230581
 30
0.0
 40
44.0
100
AcDbArc
 50
8.29779861
 51
81.70220139
  0
ARC
  5
14B
100
AcDbEntity
  8
LAYER0002
  6
CONTINUOUS
 62
       7
100
AcDbCircle
 10
-166.11628173
 20
-111.4230581
 30
0.0
 40
51.15142504
100
AcDbArc
 50
7.13116469
 51
82.86883531
  0
ARC
  5
14C
100
AcDbEntity
  8
LAYER0002
  6
CONTINUOUS
 62
       7
100
AcDbCircle
 10
-166.11628173
 20
-111.4230581
 30
0.0
 40
51.15142504
100
AcDbArc
 50
97.13116469
 51
172.86883531
  0
ARC
  5
14D
100
AcDbEntity
  8
LAYER0002
  6
CONTINUOUS
 62
       7
100
AcDbCircle
 10
-166.11628173
 20
-111.4230581
 30
0.0
 40
44.0
100
AcDbArc
 50
98.29779861
 51
171.70220139
  0
ARC
  5
14E
100
AcDbEntity
  8
LAYER0002
  6
CONTINUOUS
 62
       7
100
AcDbCircle
 10
-166.11628173
 20
-111.4230581
 30
0.0
 40
51.76679419
100
AcDbArc
 50
10.57458484
 51
34.42541503
  0
ARC
  5
14F
100
AcDbEntity
  8
LAYER0002
  6
CONTINUOUS
 62
       7
100
AcDbCircle
 10
-166.11628173
 20
-111.4230581
 30
0.0
 40
52.18576894
100
AcDbArc
 50
349.51127878
 51
370.48872122
  0
ARC
  5
150
100
AcDbEntity
  8
LAYER0002
  6
CONTINUOUS
 62
       7
100
AcDbCircle
 10
-166.11628173
 20
-111.4230581
 30
0.0
 40
51.7667942
100
AcDbArc
 50
325.57458497
 51
349.42541516
  0
ARC
  5
151
100
AcDbEntity
  8
LAYER0002
  6
CONTINUOUS
 62
       7
100
AcDbCircle
 10
-166.11628173
 20
-111.4230581
 30
0.0
 40
52.18576894
100
AcDbArc
 50
304.51127865
 51
325.48872135
  0
ARC
  5
152
100
AcDbEntity
  8
LAYER0002
  6
CONTINUOUS
 62
       7
100
AcDbCircle
 10
-166.11628173
 20
-111.4230581
 30
0.0
 40
51.7667942
100
AcDbArc
 50
280.57458484
 51
304.42541503
  0
ARC
  5
153
100
AcDbEntity
  8
LAYER0002
  6
CONTINUOUS
 62
       7
100
AcDbCircle
 10
-166.11628173
 20
-111.4230581
 30
0.0
 40
52.18576894
100
AcDbArc
 50
259.51127878
 51
280.48872122
  0
ARC
  5
154
100
AcDbEntity
  8
LAYER0002
  6
CONTINUOUS
 62
       7
100
AcDbCircle
 10
-166.11628173
 20
-111.4230581
 30
0.0
 40
51.7667942
100
AcDbArc
 50
235.57458497
 51
259.42541516
  0
ARC
  5
155
100
AcDbEntity
  8
LAYER0002
  6
CONTINUOUS
 62
       7
100
AcDbCircle
 10
-166.11628173
 20
-111.4230581
 30
0.0
 40
52.18576894
100
AcDbArc
 50
214.51127865
 51
235.48872135
  0
ARC
  5
156
100
AcDbEntity
  8
LAYER0002
  6
CONTINUOUS
 62
       7
100
AcDbCircle
 10
-166.11628173
 20
-111.4230581
 30
0.0
 40
51.7667942
100
AcDbArc
 50
190.57458484
 51
214.42541503
  0
ARC
  5
157
100
AcDbEntity
  8
LAYER0002
  6
CONTINUOUS
 62
       7
100
AcDbCircle
 10
-166.11628173
 20
-111.4230581
 30
0.0
 40
52.18576894
100
AcDbArc
 50
169.51127878
 51
190.48872122
  0
ARC
  5
158
100
AcDbEntity
  8
LAYER0002
  6
CONTINUOUS
 62
       7
100
AcDbCircle
 10
-166.11628173
 20
-111.4230581
 30
0.0
 40
51.7667942
100
AcDbArc
 50
145.57458497
 51
169.42541516
  0
ARC
  5
159
100
AcDbEntity
  8
LAYER0002
  6
CONTINUOUS
 62
       7
100
AcDbCircle
 10
-166.11628173
 20
-111.4230581
 30
0.0
 40
52.18576894
100
AcDbArc
 50
124.51127865
 51
145.48872135
  0
ARC
  5
15A
100
AcDbEntity
  8
LAYER0002
  6
CONTINUOUS
 62
       7
100
AcDbCircle
 10
-166.11628173
 20
-111.4230581
 30
0.0
 40
51.7667942
100
AcDbArc
 50
100.57458484
 51
124.42541503
  0
ARC
  5
15B
100
AcDbEntity
  8
LAYER0002
  6
CONTINUOUS
 62
       7
100
AcDbCircle
 10
-166.11628173
 20
-111.4230581
 30
0.0
 40
52.18576894
100
AcDbArc
 50
79.51127878
 51
100.48872122
  0
ARC
  5
15C
100
AcDbEntity
  8
LAYER0002
  6
CONTINUOUS
 62
       7
100
AcDbCircle
 10
-166.11628173
 20
-111.4230581
 30
0.0
 40
51.76679419
100
AcDbArc
 50
55.57458497
 51
79.42541516
  0
ARC
  5
15D
100
AcDbEntity
  8
LAYER0002
  6
CONTINUOUS
 62
       7
100
AcDbCircle
 10
-166.11628173
 20
-111.4230581
 30
0.0
 40
52.18576894
100
AcDbArc
 50
34.51127865
 51
55.48872135
  0
ARC
  5
15E
100
AcDbEntity
  8
LAYER0002
  6
CONTINUOUS
 62
       7
100
AcDbCircle
 10
-166.11628173
 20
-111.4230581
 30
0.0
 40
51.26926169
100
AcDbArc
 50
262.88531036
 51
277.11468964
  0
ARC
  5
15F
100
AcDbEntity
  8
LAYER0002
  6
CONTINUOUS
 62
       7
100
AcDbCircle
 10
-166.11628173
 20
-111.4230581
 30
0.0
 40
51.15142504
100
AcDbArc
 50
277.13116469
 51
352.86883531
  0
ARC
  5
160
100
AcDbEntity
  8
LAYER0002
  6
CONTINUOUS
 62
       7
100
AcDbCircle
 10
-166.11628173
 20
-111.4230581
 30
0.0
 40
51.26926169
100
AcDbArc
 50
352.88531036
 51
367.11468964
  0
ARC
  5
161
100
AcDbEntity
  8
LAYER0002
  6
CONTINUOUS
 62
       7
100
AcDbCircle
 10
-166.11628173
 20
-111.4230581
 30
0.0
 40
51.26926169
100
AcDbArc
 50
82.88531036
 51
97.11468964
  0
ARC
  5
162
100
AcDbEntity
  8
LAYER0002
  6
CONTINUOUS
 62
       7
100
AcDbCircle
 10
-166.11628173
 20
-111.4230581
 30
0.0
 40
51.26926169
100
AcDbArc
 50
172.88531036
 51
187.11468964
  0
ARC
  5
163
100
AcDbEntity
  8
LAYER0002
  6
CONTINUOUS
 62
       7
100
AcDbCircle
 10
-166.11628173
 20
-111.4230581
 30
0.0
 40
44.0
100
AcDbArc
 50
278.29779861
 51
351.70220139
  0
CIRCLE
  5
164
100
AcDbEntity
  8
LAYER0002
  6
CONTINUOUS
 62
       7
100
AcDbCircle
 10
-166.11628173
 20
-111.4230581
 30
0.0
 40
33.0
  0
ARC
  5
165
100
AcDbEntity
  8
LAYER0002
  6
CONTINUOUS
 62
       7
100
AcDbCircle
 10
-166.11628173
 20
-111.4230581
 30
0.0
 40
54.26679419
100
AcDbArc
 50
328.54593905
 51
346.45412061
  0
ARC
  5
166
100
AcDbEntity
  8
LAYER0002
  6
CONTINUOUS
 62
       7
100
AcDbCircle
 10
-166.11628173
 20
-111.4230581
 30
0.0
 40
54.26679419
100
AcDbArc
 50
148.54593905
 51
166.45412061
  0
ARC
  5
167
100
AcDbEntity
  8
LAYER0002
  6
CONTINUOUS
 62
       7
100
AcDbCircle
 10
-166.11628173
 20
-111.4230581
 30
0.0
 40
54.26679419
100
AcDbArc
 50
193.54593894
 51
211.4541205
  0
ARC
  5
168
100
AcDbEntity
  8
LAYER0002
  6
CONTINUOUS
 62
       7
100
AcDbCircle
 10
-166.11628173
 20
-111.4230581
 30
0.0
 40
54.26679421
100
AcDbArc
 50
13.54593894
 51
31.4541205
  0
ARC
  5
169
100
AcDbEntity
  8
LAYER0002
  6
CONTINUOUS
 62
       7
100
AcDbCircle
 10
-166.11628173
 20
-111.4230581
 30
0.0
 40
54.2667942
100
AcDbArc
 50
103.54593894
 51
121.4541205
  0
CIRCLE
  5
16A
100
AcDbEntity
  8
LAYER0002
  6
CONTINUOUS
 62
       7
100
AcDbCircle
 10
-166.11628173
 20
-111.4230581
 30
0.0
 40
55.0
  0
ARC
  5
16B
100
AcDbEntity
  8
LAYER0002
  6
CONTINUOUS
 62
       7
100
AcDbCircle
 10
-166.11628173
 20
-111.4230581
 30
0.0
 40
54.26679419
100
AcDbArc
 50
58.54593905
 51
76.45412061
  0
ARC
  5
16C
100
AcDbEntity
  8
LAYER0002
  6
CONTINUOUS
 62
       7
100
AcDbCircle
 10
-166.11628173
 20
-111.4230581
 30
0.0
 40
54.68576894
100
AcDbArc
 50
76.56343299
 51
103.43656701
  0
ARC
  5
16D
100
AcDbEntity
  8
LAYER0002
  6
CONTINUOUS
 62
       7
100
AcDbCircle
 10
-166.11628173
 20
-111.4230581
 30
0.0
 40
54.68576894
100
AcDbArc
 50
121.56343288
 51
148.43656712
  0
ARC
  5
16E
100
AcDbEntity
  8
LAYER0002
  6
CONTINUOUS
 62
       7
100
AcDbCircle
 10
-166.11628173
 20
-111.4230581
 30
0.0
 40
54.68576894
100
AcDbArc
 50
166.56343299
 51
193.43656701
  0
ARC
  5
16F
100
AcDbEntity
  8
LAYER0002
  6
CONTINUOUS
 62
       7
100
AcDbCircle
 10
-166.11628173
 20
-111.4230581
 30
0.0
 40
54.68576894
100
AcDbArc
 50
211.56343288
 51
238.43656712
  0
ARC
  5
170
100
AcDbEntity
  8
LAYER0002
  6
CONTINUOUS
 62
       7
100
AcDbCircle
 10
-166.11628173
 20
-111.4230581
 30
0.0
 40
54.26679419
100
AcDbArc
 50
238.54593905
 51
256.45412061
  0
ARC
  5
171
100
AcDbEntity
  8
LAYER0002
  6
CONTINUOUS
 62
       7
100
AcDbCircle
 10
-166.11628173
 20
-111.4230581
 30
0.0
 40
54.68576894
100
AcDbArc
 50
256.56343299
 51
283.43656701
  0
ARC
  5
172
100
AcDbEntity
  8
LAYER0002
  6
CONTINUOUS
 62
       7
100
AcDbCircle
 10
-166.11628173
 20
-111.4230581
 30
0.0
 40
54.26679419
100
AcDbArc
 50
283.54593894
 51
301.4541205
  0
ARC
  5
173
100
AcDbEntity
  8
LAYER0002
  6
CONTINUOUS
 62
       7
100
AcDbCircle
 10
-166.11628173
 20
-111.4230581
 30
0.0
 40
54.68576894
100
AcDbArc
 50
301.56343288
 51
328.43656712
  0
ARC
  5
174
100
AcDbEntity
  8
LAYER0002
  6
CONTINUOUS
 62
       7
100
AcDbCircle
 10
-166.11628173
 20
-111.4230581
 30
0.0
 40
54.68576895
100
AcDbArc
 50
346.56343299
 51
373.43656701
  0
ARC
  5
175
100
AcDbEntity
  8
LAYER0002
  6
CONTINUOUS
 62
       7
100
AcDbCircle
 10
-166.11628173
 20
-111.4230581
 30
0.0
 40
54.68576893
100
AcDbArc
 50
31.56343288
 51
58.43656712
  0
ARC
  5
176
100
AcDbEntity
  8
LAYER0002
  6
CONTINUOUS
 62
       7
100
AcDbCircle
 10
-166.11628173
 20
189.99033994
 30
0.0
 40
32.487
100
AcDbArc
 50
0.0
 51
180.0
  0
ARC
  5
177
100
AcDbEntity
  8
LAYER0002
  6
CONTINUOUS
 62
       7
100
AcDbCircle
 10
-166.11628173
 20
189.99033994
 30
0.0
 40
41.513
100
AcDbArc
 50
0.0
 51
180.0
  0
ARC
  5
178
100
AcDbEntity
  8
LAYER0002
  6
CONTINUOUS
 62
       7
100
AcDbCircle
 10
-166.11628173
 20
222.47733994
 30
0.0
 40
60.5
100
AcDbArc
 50
230.22789189
 51
309.77210811
  0
ARC
  5
179
100
AcDbEntity
  8
LAYER0002
  6
CONTINUOUS
 62
       7
100
AcDbCircle
 10
198.59446607
 20
-41.4230581
 30
0.0
 40
4.513
100
AcDbArc
 50
270.0
 51
450.0
  0
ARC
  5
17A
100
AcDbEntity
  8
LAYER0002
  6
CONTINUOUS
 62
       7
100
AcDbCircle
 10
198.67622455
 20
-189.4230581
 30
0.0
 40
4.513
100
AcDbArc
 50
270.0
 51
450.0
  0
ARC
  5
17B
100
AcDbEntity
  8
LAYER0002
  6
CONTINUOUS
 62
       7
100
AcDbCircle
 10
128.13117579
 20
-196.4230581
 30
0.0
 40
6.0
100
AcDbArc
 50
180.0
 51
270.0
  0
ARC
  5
17C
100
AcDbEntity
  8
LAYER0002
  6
CONTINUOUS
 62
       7
100
AcDbCircle
 10
128.13117579
 20
-34.4230581
 30
0.0
 40
6.0
100
AcDbArc
 50
90.0
 51
180.0
  0
ARC
  5
17D
100
AcDbEntity
  8
LAYER0002
  6
CONTINUOUS
 62
       7
100
AcDbCircle
 10
53.88371827
 20
95.23961591
 30
0.0
 40
5.0
100
AcDbArc
 50
180.0
 51
270.0
  0
ARC
  5
17E
100
AcDbEntity
  8
LAYER0002
  6
CONTINUOUS
 62
       7
100
AcDbCircle
 10
153.88371827
 20
95.23961591
 30
0.0
 40
5.0
100
AcDbArc
 50
270.0
 51
360.0
  0
ARC
  5
17F
100
AcDbEntity
  8
LAYER0002
  6
CONTINUOUS
 62
       7
100
AcDbCircle
 10
103.88371827
 20
153.23961591
 30
0.0
 40
55.0
100
AcDbArc
 50
132.98589062
 51
180.0
  0
ARC
  5
180
100
AcDbEntity
  8
LAYER0002
  6
CONTINUOUS
 62
       7
100
AcDbCircle
 10
103.88371827
 20
153.23961591
 30
0.0
 40
55.0
100
AcDbArc
 50
0.0
 51
47.01411552
  0
ARC
  5
181
100
AcDbEntity
  8
LAYER0002
  6
CONTINUOUS
 62
       7
100
AcDbCircle
 10
128.13117579
 20
-34.4230581
 30
0.0
 40
3.0
100
AcDbArc
 50
90.0
 51
180.0
  0
ARC
  5
182
100
AcDbEntity
  8
LAYER0002
  6
CONTINUOUS
 62
       7
100
AcDbCircle
 10
128.13117579
 20
-196.4230581
 30
0.0
 40
3.0
100
AcDbArc
 50
180.0
 51
270.0
  0
ARC
  5
183
100
AcDbEntity
  8
LAYER0002
  6
CONTINUOUS
 62
       7
100
AcDbCircle
 10
126.13117579
 20
-53.4230581
 30
0.0
 40
1.0
100
AcDbArc
 50
180.0
 51
270.0
  0
ARC
  5
184
100
AcDbEntity
  8
LAYER0002
  6
CONTINUOUS
 62
       7
100
AcDbCircle
 10
126.13117579
 20
-53.4230581
 30
0.0
 40
4.0
100
AcDbArc
 50
255.52248781
 51
270.0
  0
ARC
  5
185
100
AcDbEntity
  8
LAYER0002
  6
CONTINUOUS
 62
       7
100
AcDbCircle
 10
126.13117579
 20
-177.4230581
 30
0.0
 40
1.0
100
AcDbArc
 50
90.0
 51
180.0
  0
ARC
  5
186
100
AcDbEntity
  8
LAYER0002
  6
CONTINUOUS
 62
       7
100
AcDbCircle
 10
126.13117579
 20
-177.4230581
 30
0.0
 40
4.0
100
AcDbArc
 50
90.0
 51
104.47751219
  0
CIRCLE
  5
187
100
AcDbEntity
  8
LAYER0002
  6
CONTINUOUS
 62
       7
100
AcDbCircle
 10
102.13117579
 20
-75.4230581
 30
0.0
 40
9.32
  0
CIRCLE
  5
188
100
AcDbEntity
  8
LAYER0002
  6
CONTINUOUS
 62
       7
100
AcDbCircle
 10
102.13117579
 20
-75.4230581
 30
0.0
 40
18.0
  0
CIRCLE
  5
189
100
AcDbEntity
  8
LAYER0002
  6
CONTINUOUS
 62
       7
100
AcDbCircle
 10
102.13117579
 20
-75.4230581
 30
0.0
 40
10.5
  0
CIRCLE
  5
18A
100
AcDbEntity
  8
LAYER0002
  6
CONTINUOUS
 62
       7
100
AcDbCircle
 10
-129.11628173
 20
-189.4230581
 30
0.0
 40
8.5
  0
CIRCLE
  5
18B
100
AcDbEntity
  8
LAYER0002
  6
CONTINUOUS
 62
       7
100
AcDbCircle
 10
-129.11628173
 20
-189.4230581
 30
0.0
 40
5.0
  0
CIRCLE
  5
18C
100
AcDbEntity
  8
LAYER0002
  6
CONTINUOUS
 62
       7
100
AcDbCircle
 10
-129.11628173
 20
-189.4230581
 30
0.0
 40
9.2
  0
LINE
  5
18D
100
AcDbEntity
  8
LAYER0002
  6
CONTINUOUS
 62
       7
100
AcDbLine
 10
-129.11628173
 20
-199.23801268
 30
0.0
 11
-120.61628173
 21
-194.33053539
 31
0.0
  0
LINE
  5
18E
100
AcDbEntity
  8
LAYER0002
  6
CONTINUOUS
 62
       7
100
AcDbLine
 10
-120.61628173
 20
-194.33053539
 30
0.0
 11
-120.61628173
 21
-184.51558081
 31
0.0
  0
LINE
  5
18F
100
AcDbEntity
  8
LAYER0002
  6
CONTINUOUS
 62
       7
100
AcDbLine
 10
-120.61628173
 20
-184.51558081
 30
0.0
 11
-129.11628173
 21
-179.60810352
 31
0.0
  0
LINE
  5
190
100
AcDbEntity
  8
LAYER0002
  6
CONTINUOUS
 62
       7
100
AcDbLine
 10
-129.11628173
 20
-179.60810352
 30
0.0
 11
-137.61628173
 21
-184.51558081
 31
0.0
  0
LINE
  5
191
100
AcDbEntity
  8
LAYER0002
  6
CONTINUOUS
 62
       7
100
AcDbLine
 10
-137.61628173
 20
-184.51558081
 30
0.0
 11
-137.61628173
 21
-194.33053539
 31
0.0
  0
LINE
  5
192
100
AcDbEntity
  8
LAYER0002
  6
CONTINUOUS
 62
       7
100
AcDbLine
 10
-137.61628173
 20
-194.33053539
 30
0.0
 11
-129.11628173
 21
-199.23801268
 31
0.0
  0
CIRCLE
  5
193
100
AcDbEntity
  8
LAYER0002
  6
CONTINUOUS
 62
       7
100
AcDbCircle
 10
-129.11628173
 20
-189.4230581
 30
0.0
 40
4.25
  0
LINE
  5
194
100
AcDbEntity
  8
LAYER0002
  6
CONTINUOUS
 62
       7
100
AcDbLine
 10
-123.11444225
 20
98.47733994
 30
0.0
 11
-123.26483283
 21
90.49151547
 31
0.0
  0
LINE
  5
195
100
AcDbEntity
  8
LAYER0002
  6
CONTINUOUS
 62
       7
100
AcDbLine
 10
-123.26483283
 20
90.49151547
 30
0.0
 11
-123.41577834
 21
82.47733994
 31
0.0
  0
LINE
  5
196
100
AcDbEntity
  8
LAYER0002
  6
CONTINUOUS
 62
       7
100
AcDbLine
 10
70.13117579
 20
-154.42489758
 30
0.0
 11
62.14535132
 21
-154.274507
 31
0.0
  0
LINE
  5
197
100
AcDbEntity
  8
LAYER0002
  6
CONTINUOUS
 62
       7
100
AcDbLine
 10
62.14535132
 20
-154.274507
 30
0.0
 11
54.13117579
 21
-154.12356149
 31
0.0
  0
CIRCLE
  5
198
100
AcDbEntity
  8
LAYER0002
  6
CONTINUOUS
 62
       7
100
AcDbCircle
 10
-203.11628173
 20
-189.4230581
 30
0.0
 40
8.5
  0
CIRCLE
  5
199
100
AcDbEntity
  8
LAYER0002
  6
CONTINUOUS
 62
       7
100
AcDbCircle
 10
-203.11628173
 20
-189.4230581
 30
0.0
 40
5.0
  0
CIRCLE
  5
19A
100
AcDbEntity
  8
LAYER0002
  6
CONTINUOUS
 62
       7
100
AcDbCircle
 10
-203.11628173
 20
-189.4230581
 30
0.0
 40
9.2
  0
LINE
  5
19B
100
AcDbEntity
  8
LAYER0002
  6
CONTINUOUS
 62
       7
100
AcDbLine
 10
-203.11628173
 20
-199.23801268
 30
0.0
 11
-194.61628173
 21
-194.33053539
 31
0.0
  0
LINE
  5
19C
100
AcDbEntity
  8
LAYER0002
  6
CONTINUOUS
 62
       7
100
AcDbLine
 10
-194.61628173
 20
-194.33053539
 30
0.0
 11
-194.61628173
 21
-184.51558081
 31
0.0
  0
LINE
  5
19D
100
AcDbEntity
  8
LAYER0002
  6
CONTINUOUS
 62
       7
100
AcDbLine
 10
-194.61628173
 20
-184.51558081
 30
0.0
 11
-203.11628173
 21
-179.60810352
 31
0.0
  0
LINE
  5
19E
100
AcDbEntity
  8
LAYER0002
  6
CONTINUOUS
 62
       7
100
AcDbLine
 10
-203.11628173
 20
-179.60810352
 30
0.0
 11
-211.61628173
 21
-184.51558081
 31
0.0
  0
LINE
  5
19F
100
AcDbEntity
  8
LAYER0002
  6
CONTINUOUS
 62
       7
100
AcDbLine
 10
-211.61628173
 20
-184.51558081
 30
0.0
 11
-211.61628173
 21
-194.33053539
 31
0.0
  0
LINE
  5
1A0
100
AcDbEntity
  8
LAYER0002
  6
CONTINUOUS
 62
       7
100
AcDbLine
 10
-211.61628173
 20
-194.33053539
 30
0.0
 11
-203.11628173
 21
-199.23801268
 31
0.0
  0
CIRCLE
  5
1A1
100
AcDbEntity
  8
LAYER0002
  6
CONTINUOUS
 62
       7
100
AcDbCircle
 10
-203.11628173
 20
-189.4230581
 30
0.0
 40
4.25
  0
ARC
  5
1A2
100
AcDbEntity
  8
LAYER0002
  6
CONTINUOUS
 62
       7
100
AcDbCircle
 10
129.74382304
 20
-171.04666973
 30
0.0
 40
2.88735276
100
AcDbArc
 50
319.46860514
 51
400.53139501
  0
ARC
  5
1A3
100
AcDbEntity
  8
LAYER0002
  6
CONTINUOUS
 62
       7
100
AcDbCircle
 10
129.74382304
 20
-159.79944647
 30
0.0
 40
2.88735276
100
AcDbArc
 50
319.46860499
 51
400.53139486
  0
ARC
  5
1A4
100
AcDbEntity
  8
LAYER0002
  6
CONTINUOUS
 62
       7
100
AcDbCircle
 10
122.15105447
 20
-165.4230581
 30
0.0
 40
10.48012132
100
AcDbArc
 50
339.04986377
 51
380.95013623
  0
LINE
  5
1A5
100
AcDbEntity
  8
LAYER0002
  6
CONTINUOUS
 62
       7
100
AcDbLine
 10
127.13117579
 20
-172.9230581
 30
0.0
 11
131.93835548
 21
-172.9230581
 31
0.0
  0
LINE
  5
1A6
100
AcDbEntity
  8
LAYER0002
  6
CONTINUOUS
 62
       7
100
AcDbLine
 10
127.13117579
 20
-169.17028135
 30
0.0
 11
131.93835547
 21
-169.17028135
 31
0.0
  0
LINE
  5
1A7
100
AcDbEntity
  8
LAYER0002
  6
CONTINUOUS
 62
       7
100
AcDbLine
 10
132.63117579
 20
-171.04666973
 30
0.0
 11
132.63117579
 21
-159.79944647
 31
0.0
  0
LINE
  5
1A8
100
AcDbEntity
  8
LAYER0002
  6
CONTINUOUS
 62
       7
100
AcDbLine
 10
127.13117579
 20
-157.9230581
 30
0.0
 11
131.93835548
 21
-157.92305809
 31
0.0
  0
LINE
  5
1A9
100
AcDbEntity
  8
LAYER0002
  6
CONTINUOUS
 62
       7
100
AcDbLine
 10
127.13117579
 20
-161.67583485
 30
0.0
 11
131.93835547
 21
-161.67583485
 31
0.0
  0
LINE
  5
1AA
100
AcDbEntity
  8
LAYER0002
  6
CONTINUOUS
 62
       7
100
AcDbLine
 10
127.13117579
 20
-157.7230581
 30
0.0
 11
125.13117579
 21
-157.7230581
 31
0.0
  0
LINE
  5
1AB
100
AcDbEntity
  8
LAYER0002
  6
CONTINUOUS
 62
       7
100
AcDbLine
 10
125.13117579
 20
-173.1230581
 30
0.0
 11
127.13117579
 21
-173.1230581
 31
0.0
  0
LINE
  5
1AC
100
AcDbEntity
  8
LAYER0002
  6
CONTINUOUS
 62
       7
100
AcDbLine
 10
127.13117579
 20
-173.1230581
 30
0.0
 11
127.13117579
 21
-157.7230581
 31
0.0
  0
LINE
  5
1AD
100
AcDbEntity
  8
LAYER0002
  6
CONTINUOUS
 62
       7
100
AcDbLine
 10
127.13117579
 20
-162.85639143
 30
0.0
 11
125.13117579
 21
-167.98972477
 31
0.0
  0
ARC
  5
1AE
100
AcDbEntity
  8
LAYER0002
  6
CONTINUOUS
 62
       7
100
AcDbCircle
 10
129.74382304
 20
-101.04666973
 30
0.0
 40
2.88735276
100
AcDbArc
 50
319.46860514
 51
400.53139501
  0
ARC
  5
1AF
100
AcDbEntity
  8
LAYER0002
  6
CONTINUOUS
 62
       7
100
AcDbCircle
 10
129.74382304
 20
-89.79944647
 30
0.0
 40
2.88735276
100
AcDbArc
 50
319.46860499
 51
400.53139486
  0
ARC
  5
1B0
100
AcDbEntity
  8
LAYER0002
  6
CONTINUOUS
 62
       7
100
AcDbCircle
 10
122.15105447
 20
-95.4230581
 30
0.0
 40
10.48012132
100
AcDbArc
 50
339.04986377
 51
380.95013623
  0
LINE
  5
1B1
100
AcDbEntity
  8
LAYER0002
  6
CONTINUOUS
 62
       7
100
AcDbLine
 10
127.13117579
 20
-102.9230581
 30
0.0
 11
131.93835548
 21
-102.9230581
 31
0.0
  0
LINE
  5
1B2
100
AcDbEntity
  8
LAYER0002
  6
CONTINUOUS
 62
       7
100
AcDbLine
 10
127.13117579
 20
-99.17028135
 30
0.0
 11
131.93835547
 21
-99.17028135
 31
0.0
  0
LINE
  5
1B3
100
AcDbEntity
  8
LAYER0002
  6
CONTINUOUS
 62
       7
100
AcDbLine
 10
132.63117579
 20
-101.04666973
 30
0.0
 11
132.63117579
 21
-89.79944647
 31
0.0
  0
LINE
  5
1B4
100
AcDbEntity
  8
LAYER0002
  6
CONTINUOUS
 62
       7
100
AcDbLine
 10
127.13117579
 20
-87.9230581
 30
0.0
 11
131.93835548
 21
-87.92305809
 31
0.0
  0
LINE
  5
1B5
100
AcDbEntity
  8
LAYER0002
  6
CONTINUOUS
 62
       7
100
AcDbLine
 10
127.13117579
 20
-91.67583485
 30
0.0
 11
131.93835547
 21
-91.67583485
 31
0.0
  0
LINE
  5
1B6
100
AcDbEntity
  8
LAYER0002
  6
CONTINUOUS
 62
       7
100
AcDbLine
 10
127.13117579
 20
-87.7230581
 30
0.0
 11
125.13117579
 21
-87.7230581
 31
0.0
  0
LINE
  5
1B7
100
AcDbEntity
  8
LAYER0002
  6
CONTINUOUS
 62
       7
100
AcDbLine
 10
125.13117579
 20
-103.1230581
 30
0.0
 11
127.13117579
 21
-103.1230581
 31
0.0
  0
LINE
  5
1B8
100
AcDbEntity
  8
LAYER0002
  6
CONTINUOUS
 62
       7
100
AcDbLine
 10
127.13117579
 20
-103.1230581
 30
0.0
 11
127.13117579
 21
-87.7230581
 31
0.0
  0
LINE
  5
1B9
100
AcDbEntity
  8
LAYER0002
  6
CONTINUOUS
 62
       7
100
AcDbLine
 10
127.13117579
 20
-92.85639143
 30
0.0
 11
125.13117579
 21
-97.98972477
 31
0.0
  0
CIRCLE
  5
1BA
100
AcDbEntity
  8
LAYER0002
  6
CONTINUOUS
 62
       7
100
AcDbCircle
 10
-129.11628173
 20
-41.4230581
 30
0.0
 40
8.5
  0
CIRCLE
  5
1BB
100
AcDbEntity
  8
LAYER0002
  6
CONTINUOUS
 62
       7
100
AcDbCircle
 10
-129.11628173
 20
-41.4230581
 30
0.0
 40
5.0
  0
CIRCLE
  5
1BC
100
AcDbEntity
  8
LAYER0002
  6
CONTINUOUS
 62
       7
100
AcDbCircle
 10
-129.11628173
 20
-41.4230581
 30
0.0
 40
9.2
  0
LINE
  5
1BD
100
AcDbEntity
  8
LAYER0002
  6
CONTINUOUS
 62
       7
100
AcDbLine
 10
-129.11628173
 20
-51.23801268
 30
0.0
 11
-120.61628173
 21
-46.33053539
 31
0.0
  0
LINE
  5
1BE
100
AcDbEntity
  8
LAYER0002
  6
CONTINUOUS
 62
       7
100
AcDbLine
 10
-120.61628173
 20
-46.33053539
 30
0.0
 11
-120.61628173
 21
-36.51558081
 31
0.0
  0
LINE
  5
1BF
100
AcDbEntity
  8
LAYER0002
  6
CONTINUOUS
 62
       7
100
AcDbLine
 10
-120.61628173
 20
-36.51558081
 30
0.0
 11
-129.11628173
 21
-31.60810352
 31
0.0
  0
LINE
  5
1C0
100
AcDbEntity
  8
LAYER0002
  6
CONTINUOUS
 62
       7
100
AcDbLine
 10
-129.11628173
 20
-31.60810352
 30
0.0
 11
-137.61628173
 21
-36.51558081
 31
0.0
  0
LINE
  5
1C1
100
AcDbEntity
  8
LAYER0002
  6
CONTINUOUS
 62
       7
100
AcDbLine
 10
-137.61628173
 20
-36.51558081
 30
0.0
 11
-137.61628173
 21
-46.33053539
 31
0.0
  0
LINE
  5
1C2
100
AcDbEntity
  8
LAYER0002
  6
CONTINUOUS
 62
       7
100
AcDbLine
 10
-137.61628173
 20
-46.33053539
 30
0.0
 11
-129.11628173
 21
-51.23801268
 31
0.0
  0
CIRCLE
  5
1C3
100
AcDbEntity
  8
LAYER0002
  6
CONTINUOUS
 62
       7
100
AcDbCircle
 10
-129.11628173
 20
-41.4230581
 30
0.0
 40
4.25
  0
CIRCLE
  5
1C4
100
AcDbEntity
  8
LAYER0002
  6
CONTINUOUS
 62
       7
100
AcDbCircle
 10
-120.11628173
 20
-165.4230581
 30
0.0
 40
3.3
  0
CIRCLE
  5
1C5
100
AcDbEntity
  8
LAYER0002
  6
CONTINUOUS
 62
       7
100
AcDbCircle
 10
-120.11628173
 20
-165.4230581
 30
0.0
 40
4.0
  0
CIRCLE
  5
1C6
100
AcDbEntity
  8
LAYER0002
  6
CONTINUOUS
 62
       7
100
AcDbCircle
 10
-212.11628173
 20
-165.4230581
 30
0.0
 40
3.3
  0
CIRCLE
  5
1C7
100
AcDbEntity
  8
LAYER0002
  6
CONTINUOUS
 62
       7
100
AcDbCircle
 10
-212.11628173
 20
-165.4230581
 30
0.0
 40
4.0
  0
CIRCLE
  5
1C8
100
AcDbEntity
  8
LAYER0002
  6
CONTINUOUS
 62
       7
100
AcDbCircle
 10
149.88371827
 20
99.23961591
 30
0.0
 40
3.3
  0
CIRCLE
  5
1C9
100
AcDbEntity
  8
LAYER0002
  6
CONTINUOUS
 62
       7
100
AcDbCircle
 10
149.88371827
 20
99.23961591
 30
0.0
 40
4.0
  0
CIRCLE
  5
1CA
100
AcDbEntity
  8
LAYER0002
  6
CONTINUOUS
 62
       7
100
AcDbCircle
 10
57.88371827
 20
99.23961591
 30
0.0
 40
3.3
  0
CIRCLE
  5
1CB
100
AcDbEntity
  8
LAYER0002
  6
CONTINUOUS
 62
       7
100
AcDbCircle
 10
57.88371827
 20
99.23961591
 30
0.0
 40
4.0
  0
CIRCLE
  5
1CC
100
AcDbEntity
  8
LAYER0002
  6
CONTINUOUS
 62
       7
100
AcDbCircle
 10
57.88371827
 20
169.23961591
 30
0.0
 40
3.3
  0
CIRCLE
  5
1CD
100
AcDbEntity
  8
LAYER0002
  6
CONTINUOUS
 62
       7
100
AcDbCircle
 10
57.88371827
 20
169.23961591
 30
0.0
 40
4.0
  0
CIRCLE
  5
1CE
100
AcDbEntity
  8
LAYER0002
  6
CONTINUOUS
 62
       7
100
AcDbCircle
 10
149.88371827
 20
169.23961591
 30
0.0
 40
3.3
  0
CIRCLE
  5
1CF
100
AcDbEntity
  8
LAYER0002
  6
CONTINUOUS
 62
       7
100
AcDbCircle
 10
149.88371827
 20
169.23961591
 30
0.0
 40
4.0
  0
ARC
  5
1D0
100
AcDbEntity
  8
LAYER0002
  6
CONTINUOUS
 62
       7
100
AcDbCircle
 10
-146.58619378
 20
-177.47085753
 30
0.0
 40
0.96337148
100
AcDbArc
 50
183.00000015
 51
251.15103117
  0
ARC
  5
1D1
100
AcDbEntity
  8
LAYER0002
  6
CONTINUOUS
 62
       7
100
AcDbCircle
 10
-141.64636968
 20
-177.47085753
 30
0.0
 40
0.96337148
100
AcDbArc
 50
288.84896883
 51
356.99999985
  0
ARC
  5
1D2
100
AcDbEntity
  8
LAYER0002
  6
CONTINUOUS
 62
       7
100
AcDbCircle
 10
-144.11628173
 20
-169.8230581
 30
0.0
 40
9.00000001
100
AcDbArc
 50
252.0
 51
288.0
  0
LINE
  5
1D3
100
AcDbEntity
  8
LAYER0002
  6
CONTINUOUS
 62
       7
100
AcDbLine
 10
-143.61628173
 20
-176.2230581
 30
0.0
 11
-144.61628173
 21
-175.2230581
 31
0.0
  0
LINE
  5
1D4
100
AcDbEntity
  8
LAYER0002
  6
CONTINUOUS
 62
       7
100
AcDbLine
 10
-147.91628173
 20
-176.2230581
 30
0.0
 11
-140.31628173
 21
-176.2230581
 31
0.0
  0
LINE
  5
1D5
100
AcDbEntity
  8
LAYER0002
  6
CONTINUOUS
 62
       7
100
AcDbLine
 10
-147.91628173
 20
-176.2230581
 30
0.0
 11
-147.91628173
 21
-175.2230581
 31
0.0
  0
LINE
  5
1D6
100
AcDbEntity
  8
LAYER0002
  6
CONTINUOUS
 62
       7
100
AcDbLine
 10
-140.31628173
 20
-176.2230581
 30
0.0
 11
-140.31628173
 21
-175.2230581
 31
0.0
  0
LINE
  5
1D7
100
AcDbEntity
  8
LAYER0002
  6
CONTINUOUS
 62
       7
100
AcDbLine
 10
-148.61628173
 20
-175.2230581
 30
0.0
 11
-139.61628173
 21
-175.2230581
 31
0.0
  0
LINE
  5
1D8
100
AcDbEntity
  8
LAYER0002
  6
CONTINUOUS
 62
       7
100
AcDbLine
 10
-148.61628173
 20
-175.2230581
 30
0.0
 11
-148.61628173
 21
-174.4230581
 31
0.0
  0
LINE
  5
1D9
100
AcDbEntity
  8
LAYER0002
  6
CONTINUOUS
 62
       7
100
AcDbLine
 10
-139.61628173
 20
-175.2230581
 30
0.0
 11
-139.61628173
 21
-174.4230581
 31
0.0
  0
LINE
  5
1DA
100
AcDbEntity
  8
LAYER0002
  6
CONTINUOUS
 62
       7
100
AcDbLine
 10
-147.61628173
 20
-176.2230581
 30
0.0
 11
-147.54824499
 21
-177.5212765
 31
0.0
  0
LINE
  5
1DB
100
AcDbEntity
  8
LAYER0002
  6
CONTINUOUS
 62
       7
100
AcDbLine
 10
-140.61628173
 20
-176.2230581
 30
0.0
 11
-140.68431847
 21
-177.5212765
 31
0.0
  0
ARC
  5
1DC
100
AcDbEntity
  8
LAYER0002
  6
CONTINUOUS
 62
       7
100
AcDbCircle
 10
79.41380622
 20
87.19181648
 30
0.0
 40
0.96337148
100
AcDbArc
 50
182.99999956
 51
251.15103117
  0
ARC
  5
1DD
100
AcDbEntity
  8
LAYER0002
  6
CONTINUOUS
 62
       7
100
AcDbCircle
 10
84.35363032
 20
87.19181648
 30
0.0
 40
0.96337148
100
AcDbArc
 50
288.84896883
 51
357.00000044
  0
ARC
  5
1DE
100
AcDbEntity
  8
LAYER0002
  6
CONTINUOUS
 62
       7
100
AcDbCircle
 10
81.88371827
 20
94.83961591
 30
0.0
 40
9.0
100
AcDbArc
 50
252.0
 51
288.0
  0
LINE
  5
1DF
100
AcDbEntity
  8
LAYER0002
  6
CONTINUOUS
 62
       7
100
AcDbLine
 10
82.38371827
 20
88.43961591
 30
0.0
 11
81.38371827
 21
89.43961591
 31
0.0
  0
LINE
  5
1E0
100
AcDbEntity
  8
LAYER0002
  6
CONTINUOUS
 62
       7
100
AcDbLine
 10
78.08371827
 20
88.43961591
 30
0.0
 11
85.68371827
 21
88.43961591
 31
0.0
  0
LINE
  5
1E1
100
AcDbEntity
  8
LAYER0002
  6
CONTINUOUS
 62
       7
100
AcDbLine
 10
78.08371827
 20
88.43961591
 30
0.0
 11
78.08371827
 21
89.43961591
 31
0.0
  0
LINE
  5
1E2
100
AcDbEntity
  8
LAYER0002
  6
CONTINUOUS
 62
       7
100
AcDbLine
 10
85.68371827
 20
88.43961591
 30
0.0
 11
85.68371827
 21
89.43961591
 31
0.0
  0
LINE
  5
1E3
100
AcDbEntity
  8
LAYER0002
  6
CONTINUOUS
 62
       7
100
AcDbLine
 10
77.38371827
 20
89.43961591
 30
0.0
 11
86.38371827
 21
89.43961591
 31
0.0
  0
LINE
  5
1E4
100
AcDbEntity
  8
LAYER0002
  6
CONTINUOUS
 62
       7
100
AcDbLine
 10
77.38371827
 20
89.43961591
 30
0.0
 11
77.38371827
 21
90.23961591
 31
0.0
  0
LINE
  5
1E5
100
AcDbEntity
  8
LAYER0002
  6
CONTINUOUS
 62
       7
100
AcDbLine
 10
86.38371827
 20
89.43961591
 30
0.0
 11
86.38371827
 21
90.23961591
 31
0.0
  0
LINE
  5
1E6
100
AcDbEntity
  8
LAYER0002
  6
CONTINUOUS
 62
       7
100
AcDbLine
 10
78.38371827
 20
88.43961591
 30
0.0
 11
78.45175501
 21
87.14139752
 31
0.0
  0
LINE
  5
1E7
100
AcDbEntity
  8
LAYER0002
  6
CONTINUOUS
 62
       7
100
AcDbLine
 10
85.38371827
 20
88.43961591
 30
0.0
 11
85.31568153
 21
87.14139752
 31
0.0
  0
ARC
  5
1E8
100
AcDbEntity
  8
LAYER0002
  6
CONTINUOUS
 62
       7
100
AcDbCircle
 10
87.66126374
 20
-177.47085753
 30
0.0
 40
0.96337147
100
AcDbArc
 50
183.00000018
 51
251.15103117
  0
ARC
  5
1E9
100
AcDbEntity
  8
LAYER0002
  6
CONTINUOUS
 62
       7
100
AcDbCircle
 10
92.60108784
 20
-177.47085753
 30
0.0
 40
0.96337148
100
AcDbArc
 50
288.84896883
 51
356.99999985
  0
ARC
  5
1EA
100
AcDbEntity
  8
LAYER0002
  6
CONTINUOUS
 62
       7
100
AcDbCircle
 10
90.13117579
 20
-169.8230581
 30
0.0
 40
9.00000001
100
AcDbArc
 50
252.0
 51
288.0
  0
LINE
  5
1EB
100
AcDbEntity
  8
LAYER0002
  6
CONTINUOUS
 62
       7
100
AcDbLine
 10
90.63117579
 20
-176.2230581
 30
0.0
 11
89.63117579
 21
-175.2230581
 31
0.0
  0
LINE
  5
1EC
100
AcDbEntity
  8
LAYER0002
  6
CONTINUOUS
 62
       7
100
AcDbLine
 10
86.33117579
 20
-176.2230581
 30
0.0
 11
93.93117579
 21
-176.2230581
 31
0.0
  0
LINE
  5
1ED
100
AcDbEntity
  8
LAYER0002
  6
CONTINUOUS
 62
       7
100
AcDbLine
 10
86.33117579
 20
-176.2230581
 30
0.0
 11
86.33117579
 21
-175.2230581
 31
0.0
  0
LINE
  5
1EE
100
AcDbEntity
  8
LAYER0002
  6
CONTINUOUS
 62
       7
100
AcDbLine
 10
93.93117579
 20
-176.2230581
 30
0.0
 11
93.93117579
 21
-175.2230581
 31
0.0
  0
LINE
  5
1EF
100
AcDbEntity
  8
LAYER0002
  6
CONTINUOUS
 62
       7
100
AcDbLine
 10
85.63117579
 20
-175.2230581
 30
0.0
 11
94.63117579
 21
-175.2230581
 31
0.0
  0
LINE
  5
1F0
100
AcDbEntity
  8
LAYER0002
  6
CONTINUOUS
 62
       7
100
AcDbLine
 10
85.63117579
 20
-175.2230581
 30
0.0
 11
85.63117579
 21
-174.4230581
 31
0.0
  0
LINE
  5
1F1
100
AcDbEntity
  8
LAYER0002
  6
CONTINUOUS
 62
       7
100
AcDbLine
 10
94.63117579
 20
-175.2230581
 30
0.0
 11
94.63117579
 21
-174.4230581
 31
0.0
  0
LINE
  5
1F2
100
AcDbEntity
  8
LAYER0002
  6
CONTINUOUS
 62
       7
100
AcDbLine
 10
86.63117579
 20
-176.2230581
 30
0.0
 11
86.69921254
 21
-177.5212765
 31
0.0
  0
LINE
  5
1F3
100
AcDbEntity
  8
LAYER0002
  6
CONTINUOUS
 62
       7
100
AcDbLine
 10
93.63117579
 20
-176.2230581
 30
0.0
 11
93.56313905
 21
-177.5212765
 31
0.0
  0
CIRCLE
  5
1F4
100
AcDbEntity
  8
LAYER0002
  6
CONTINUOUS
 62
       7
100
AcDbCircle
 10
-203.11628173
 20
-41.4230581
 30
0.0
 40
8.5
  0
CIRCLE
  5
1F5
100
AcDbEntity
  8
LAYER0002
  6
CONTINUOUS
 62
       7
100
AcDbCircle
 10
-203.11628173
 20
-41.4230581
 30
0.0
 40
5.0
  0
CIRCLE
  5
1F6
100
AcDbEntity
  8
LAYER0002
  6
CONTINUOUS
 62
       7
100
AcDbCircle
 10
-203.11628173
 20
-41.4230581
 30
0.0
 40
9.2
  0
LINE
  5
1F7
100
AcDbEntity
  8
LAYER0002
  6
CONTINUOUS
 62
       7
100
AcDbLine
 10
-203.11628173
 20
-51.23801268
 30
0.0
 11
-194.61628173
 21
-46.33053539
 31
0.0
  0
LINE
  5
1F8
100
AcDbEntity
  8
LAYER0002
  6
CONTINUOUS
 62
       7
100
AcDbLine
 10
-194.61628173
 20
-46.33053539
 30
0.0
 11
-194.61628173
 21
-36.51558081
 31
0.0
  0
LINE
  5
1F9
100
AcDbEntity
  8
LAYER0002
  6
CONTINUOUS
 62
       7
100
AcDbLine
 10
-194.61628173
 20
-36.51558081
 30
0.0
 11
-203.11628173
 21
-31.60810352
 31
0.0
  0
LINE
  5
1FA
100
AcDbEntity
  8
LAYER0002
  6
CONTINUOUS
 62
       7
100
AcDbLine
 10
-203.11628173
 20
-31.60810352
 30
0.0
 11
-211.61628173
 21
-36.51558081
 31
0.0
  0
LINE
  5
1FB
100
AcDbEntity
  8
LAYER0002
  6
CONTINUOUS
 62
       7
100
AcDbLine
 10
-211.61628173
 20
-36.51558081
 30
0.0
 11
-211.61628173
 21
-46.33053539
 31
0.0
  0
LINE
  5
1FC
100
AcDbEntity
  8
LAYER0002
  6
CONTINUOUS
 62
       7
100
AcDbLine
 10
-211.61628173
 20
-46.33053539
 30
0.0
 11
-203.11628173
 21
-51.23801268
 31
0.0
  0
CIRCLE
  5
1FD
100
AcDbEntity
  8
LAYER0002
  6
CONTINUOUS
 62
       7
100
AcDbCircle
 10
-203.11628173
 20
-41.4230581
 30
0.0
 40
4.25
  0
ARC
  5
1FE
100
AcDbEntity
  8
LAYER0002
  6
CONTINUOUS
 62
       7
100
AcDbCircle
 10
115.44261878
 20
-196.76931946
 30
0.0
 40
3.81144299
100
AcDbArc
 50
139.9255796
 51
220.07442029
  0
ARC
  5
1FF
100
AcDbEntity
  8
LAYER0002
  6
CONTINUOUS
 62
       7
100
AcDbCircle
 10
115.44261878
 20
-182.07679674
 30
0.0
 40
3.81144299
100
AcDbArc
 50
139.92557971
 51
220.0744204
  0
ARC
  5
200
100
AcDbEntity
  8
LAYER0002
  6
CONTINUOUS
 62
       7
100
AcDbCircle
 10
125.45272435
 20
-189.4230581
 30
0.0
 40
13.82154856
100
AcDbArc
 50
159.26918486
 51
200.73081514
  0
LINE
  5
201
100
AcDbEntity
  8
LAYER0002
  6
CONTINUOUS
 62
       7
100
AcDbLine
 10
119.63117579
 20
-199.2230581
 30
0.0
 11
112.52606871
 21
-199.2230581
 31
0.0
  0
LINE
  5
202
100
AcDbEntity
  8
LAYER0002
  6
CONTINUOUS
 62
       7
100
AcDbLine
 10
119.63117579
 20
-194.31558081
 30
0.0
 11
112.52606871
 21
-194.31558081
 31
0.0
  0
LINE
  5
203
100
AcDbEntity
  8
LAYER0002
  6
CONTINUOUS
 62
       7
100
AcDbLine
 10
119.63117579
 20
-199.2230581
 30
0.0
 11
119.63117579
 21
-179.6230581
 31
0.0
  0
LINE
  5
204
100
AcDbEntity
  8
LAYER0002
  6
CONTINUOUS
 62
       7
100
AcDbLine
 10
111.63117579
 20
-196.76931946
 30
0.0
 11
111.63117579
 21
-182.07679674
 31
0.0
  0
LINE
  5
205
100
AcDbEntity
  8
LAYER0002
  6
CONTINUOUS
 62
       7
100
AcDbLine
 10
119.63117579
 20
-179.6230581
 30
0.0
 11
112.52606871
 21
-179.62305809
 31
0.0
  0
LINE
  5
206
100
AcDbEntity
  8
LAYER0002
  6
CONTINUOUS
 62
       7
100
AcDbLine
 10
119.63117579
 20
-184.53053539
 30
0.0
 11
112.52606871
 21
-184.53053539
 31
0.0
  0
LINE
  5
207
100
AcDbEntity
  8
LAYER0002
  6
CONTINUOUS
 62
       7
100
AcDbLine
 10
119.63117579
 20
-180.2230581
 30
0.0
 11
122.13117579
 21
-180.2230581
 31
0.0
  0
LINE
  5
208
100
AcDbEntity
  8
LAYER0002
  6
CONTINUOUS
 62
       7
100
AcDbLine
 10
122.13117579
 20
-180.2230581
 30
0.0
 11
122.13117579
 21
-198.6230581
 31
0.0
  0
LINE
  5
209
100
AcDbEntity
  8
LAYER0002
  6
CONTINUOUS
 62
       7
100
AcDbLine
 10
122.13117579
 20
-198.6230581
 30
0.0
 11
119.63117579
 21
-198.6230581
 31
0.0
  0
LINE
  5
20A
100
AcDbEntity
  8
LAYER0002
  6
CONTINUOUS
 62
       7
100
AcDbLine
 10
119.63117579
 20
-192.48972477
 30
0.0
 11
122.13117579
 21
-186.35639143
 31
0.0
  0
ARC
  5
20B
100
AcDbEntity
  8
LAYER0002
  6
CONTINUOUS
 62
       7
100
AcDbCircle
 10
115.44261878
 20
-48.76931946
 30
0.0
 40
3.81144299
100
AcDbArc
 50
139.9255796
 51
220.07442029
  0
ARC
  5
20C
100
AcDbEntity
  8
LAYER0002
  6
CONTINUOUS
 62
       7
100
AcDbCircle
 10
115.44261878
 20
-34.07679674
 30
0.0
 40
3.81144299
100
AcDbArc
 50
139.92557971
 51
220.0744204
  0
ARC
  5
20D
100
AcDbEntity
  8
LAYER0002
  6
CONTINUOUS
 62
       7
100
AcDbCircle
 10
125.45272435
 20
-41.4230581
 30
0.0
 40
13.82154856
100
AcDbArc
 50
159.26918486
 51
200.73081514
  0
LINE
  5
20E
100
AcDbEntity
  8
LAYER0002
  6
CONTINUOUS
 62
       7
100
AcDbLine
 10
119.63117579
 20
-51.2230581
 30
0.0
 11
112.52606871
 21
-51.2230581
 31
0.0
  0
LINE
  5
20F
100
AcDbEntity
  8
LAYER0002
  6
CONTINUOUS
 62
       7
100
AcDbLine
 10
119.63117579
 20
-46.31558081
 30
0.0
 11
112.52606871
 21
-46.31558081
 31
0.0
  0
LINE
  5
210
100
AcDbEntity
  8
LAYER0002
  6
CONTINUOUS
 62
       7
100
AcDbLine
 10
119.63117579
 20
-51.2230581
 30
0.0
 11
119.63117579
 21
-31.6230581
 31
0.0
  0
LINE
  5
211
100
AcDbEntity
  8
LAYER0002
  6
CONTINUOUS
 62
       7
100
AcDbLine
 10
111.63117579
 20
-48.76931946
 30
0.0
 11
111.63117579
 21
-34.07679674
 31
0.0
  0
LINE
  5
212
100
AcDbEntity
  8
LAYER0002
  6
CONTINUOUS
 62
       7
100
AcDbLine
 10
119.63117579
 20
-31.6230581
 30
0.0
 11
112.52606871
 21
-31.62305809
 31
0.0
  0
LINE
  5
213
100
AcDbEntity
  8
LAYER0002
  6
CONTINUOUS
 62
       7
100
AcDbLine
 10
119.63117579
 20
-36.53053539
 30
0.0
 11
112.52606871
 21
-36.53053539
 31
0.0
  0
LINE
  5
214
100
AcDbEntity
  8
LAYER0002
  6
CONTINUOUS
 62
       7
100
AcDbLine
 10
119.63117579
 20
-32.2230581
 30
0.0
 11
122.13117579
 21
-32.2230581
 31
0.0
  0
LINE
  5
215
100
AcDbEntity
  8
LAYER0002
  6
CONTINUOUS
 62
       7
100
AcDbLine
 10
122.13117579
 20
-32.2230581
 30
0.0
 11
122.13117579
 21
-50.6230581
 31
0.0
  0
LINE
  5
216
100
AcDbEntity
  8
LAYER0002
  6
CONTINUOUS
 62
       7
100
AcDbLine
 10
122.13117579
 20
-50.6230581
 30
0.0
 11
119.63117579
 21
-50.6230581
 31
0.0
  0
LINE
  5
217
100
AcDbEntity
  8
LAYER0002
  6
CONTINUOUS
 62
       7
100
AcDbLine
 10
119.63117579
 20
-44.48972477
 30
0.0
 11
122.13117579
 21
-38.35639143
 31
0.0
  0
ARC
  5
218
100
AcDbEntity
  8
LAYER0002
  6
CONTINUOUS
 62
       7
100
AcDbCircle
 10
-124.86628173
 20
144.85028061
 30
0.0
 40
4.89030045
100
AcDbArc
 50
209.64957078
 51
330.35042916
  0
ARC
  5
219
100
AcDbEntity
  8
LAYER0002
  6
CONTINUOUS
 62
       7
100
AcDbCircle
 10
-133.36628173
 20
144.85028061
 30
0.0
 40
4.89030045
100
AcDbArc
 50
209.64957084
 51
330.35042914
  0
LINE
  5
21A
100
AcDbEntity
  8
LAYER0002
  6
CONTINUOUS
 62
       7
100
AcDbLine
 10
-137.61628173
 20
139.97733994
 30
0.0
 11
-120.61628173
 21
139.97733994
 31
0.0
  0
LINE
  5
21B
100
AcDbEntity
  8
LAYER0002
  6
CONTINUOUS
 62
       7
100
AcDbLine
 10
-120.61628173
 20
139.97733994
 30
0.0
 11
-120.61628173
 21
147.97733994
 31
0.0
  0
LINE
  5
21C
100
AcDbEntity
  8
LAYER0002
  6
CONTINUOUS
 62
       7
100
AcDbLine
 10
-137.61628173
 20
147.97733994
 30
0.0
 11
-137.61628173
 21
139.97733994
 31
0.0
  0
LINE
  5
21D
100
AcDbEntity
  8
LAYER0002
  6
CONTINUOUS
 62
       7
100
AcDbLine
 10
-129.11628173
 20
147.97733994
 30
0.0
 11
-129.11628174
 21
142.43107859
 31
0.0
  0
LINE
  5
21E
100
AcDbEntity
  8
LAYER0002
  6
CONTINUOUS
 62
       7
100
AcDbLine
 10
-138.31628173
 20
147.97733994
 30
0.0
 11
-138.31628173
 21
150.47733994
 31
0.0
  0
LINE
  5
21F
100
AcDbEntity
  8
LAYER0002
  6
CONTINUOUS
 62
       7
100
AcDbLine
 10
-119.91628173
 20
150.47733994
 30
0.0
 11
-119.91628173
 21
147.97733994
 31
0.0
  0
LINE
  5
220
100
AcDbEntity
  8
LAYER0002
  6
CONTINUOUS
 62
       7
100
AcDbLine
 10
-138.31628173
 20
147.97733994
 30
0.0
 11
-119.91628173
 21
147.97733994
 31
0.0
  0
LINE
  5
221
100
AcDbEntity
  8
LAYER0002
  6
CONTINUOUS
 62
       7
100
AcDbLine
 10
-126.04961506
 20
147.97733994
 30
0.0
 11
-132.1829484
 21
150.47733994
 31
0.0
  0
ARC
  5
222
100
AcDbEntity
  8
LAYER0002
  6
CONTINUOUS
 62
       7
100
AcDbCircle
 10
-198.86628173
 20
144.85028061
 30
0.0
 40
4.89030045
100
AcDbArc
 50
209.64957078
 51
330.35042916
  0
ARC
  5
223
100
AcDbEntity
  8
LAYER0002
  6
CONTINUOUS
 62
       7
100
AcDbCircle
 10
-207.36628173
 20
144.85028061
 30
0.0
 40
4.89030045
100
AcDbArc
 50
209.64957084
 51
330.35042914
  0
LINE
  5
224
100
AcDbEntity
  8
LAYER0002
  6
CONTINUOUS
 62
       7
100
AcDbLine
 10
-211.61628173
 20
139.97733994
 30
0.0
 11
-194.61628173
 21
139.97733994
 31
0.0
  0
LINE
  5
225
100
AcDbEntity
  8
LAYER0002
  6
CONTINUOUS
 62
       7
100
AcDbLine
 10
-194.61628173
 20
139.97733994
 30
0.0
 11
-194.61628173
 21
147.97733994
 31
0.0
  0
LINE
  5
226
100
AcDbEntity
  8
LAYER0002
  6
CONTINUOUS
 62
       7
100
AcDbLine
 10
-211.61628173
 20
147.97733994
 30
0.0
 11
-211.61628173
 21
139.97733994
 31
0.0
  0
LINE
  5
227
100
AcDbEntity
  8
LAYER0002
  6
CONTINUOUS
 62
       7
100
AcDbLine
 10
-203.11628173
 20
147.97733994
 30
0.0
 11
-203.11628174
 21
142.43107859
 31
0.0
  0
LINE
  5
228
100
AcDbEntity
  8
LAYER0002
  6
CONTINUOUS
 62
       7
100
AcDbLine
 10
-212.31628173
 20
147.97733994
 30
0.0
 11
-212.31628173
 21
150.47733994
 31
0.0
  0
LINE
  5
229
100
AcDbEntity
  8
LAYER0002
  6
CONTINUOUS
 62
       7
100
AcDbLine
 10
-193.91628173
 20
150.47733994
 30
0.0
 11
-193.91628173
 21
147.97733994
 31
0.0
  0
LINE
  5
22A
100
AcDbEntity
  8
LAYER0002
  6
CONTINUOUS
 62
       7
100
AcDbLine
 10
-212.31628173
 20
147.97733994
 30
0.0
 11
-193.91628173
 21
147.97733994
 31
0.0
  0
LINE
  5
22B
100
AcDbEntity
  8
LAYER0002
  6
CONTINUOUS
 62
       7
100
AcDbLine
 10
-200.04961506
 20
147.97733994
 30
0.0
 11
-206.1829484
 21
150.47733994
 31
0.0
  0
TEXT
  5
22C
100
AcDbEntity
  8
LAYER0002
 62
       7
100
AcDbText
 10
211.21003178
 20
-236.26583994
 30
0.0
 40
9.525
  1
000
 72
       5
 11
239.78503178
 21
-236.26583994
 31
0.0
100
AcDbText
  0
ENDSEC
  0
SECTION
  2
OBJECTS
  0
DICTIONARY
  5
19
100
AcDbDictionary
  3
ACAD_GROUP
350
1A
  3
ACAD_MLINESTYLE
350
1B
  0
DICTIONARY
  5
1A
102
{ACAD_REACTORS
330
19
102
}
100
AcDbDictionary
  0
DICTIONARY
  5
1B
102
{ACAD_REACTORS
330
19
102
}
100
AcDbDictionary
  3
STANDARD
350
1C
  0
MLINESTYLE
  5
1C
102
{ACAD_REACTORS
330
1B
102
}
100
AcDbMlineStyle
  2
STANDARD
 70
       0
  3

 62
       0
 51
90.0
 52
90.0
 71
       2
 49
0.5
 62
     256
  6
BYLAYER
 49
-0.5
 62
     256
  6
BYLAYER
  0
ENDSEC
  0
EOF
